  0
SECTION
  2
HEADER
  9
$ACADVER
  1
AC1009
  9
$INSBASE
 10
0.0
 20
0.0
 30
0.0
  9
$EXTMIN
 10
-45.763365517122473
 20
24.511646499518911
 30
0.0
  9
$EXTMAX
 10
690.02199610374305
 20
335.301649311446
 30
0.0
  9
$LIMMIN
 10
0.0
 20
0.0
  9
$LIMMAX
 10
420.0
 20
297.0
  9
$ORTHOMODE
 70
     1
  9
$REGENMODE
 70
     1
  9
$FILLMODE
 70
     1
  9
$QTEXTMODE
 70
     0
  9
$MIRRTEXT
 70
     0
  9
$DRAGMODE
 70
     2
  9
$LTSCALE
 40
1.0
  9
$OSMODE
 70
   229
  9
$ATTMODE
 70
     1
  9
$TEXTSIZE
 40
2.5
  9
$TRACEWID
 40
1.0
  9
$TEXTSTYLE
  7
STANDARD
  9
$CLAYER
  8
0
  9
$CELTYPE
  6
BYLAYER
  9
$CECOLOR
 62
     1
  9
$DIMSCALE
 40
1.0
  9
$DIMASZ
 40
2.5
  9
$DIMEXO
 40
0.625
  9
$DIMDLI
 40
3.75
  9
$DIMRND
 40
0.0
  9
$DIMDLE
 40
0.0
  9
$DIMEXE
 40
1.25
  9
$DIMTP
 40
0.0
  9
$DIMTM
 40
0.0
  9
$DIMTXT
 40
2.5
  9
$DIMCEN
 40
2.5
  9
$DIMTSZ
 40
0.0
  9
$DIMTOL
 70
     0
  9
$DIMLIM
 70
     0
  9
$DIMTIH
 70
     0
  9
$DIMTOH
 70
     0
  9
$DIMSE1
 70
     0
  9
$DIMSE2
 70
     0
  9
$DIMTAD
 70
     1
  9
$DIMZIN
 70
     8
  9
$DIMBLK
  1

  9
$DIMASO
 70
     1
  9
$DIMSHO
 70
     1
  9
$DIMPOST
  1

  9
$DIMAPOST
  1

  9
$DIMALT
 70
     0
  9
$DIMALTD
 70
     3
  9
$DIMALTF
 40
0.03937007874016
  9
$DIMLFAC
 40
1.0
  9
$DIMTOFL
 70
     1
  9
$DIMTVP
 40
0.0
  9
$DIMTIX
 70
     0
  9
$DIMSOXD
 70
     0
  9
$DIMSAH
 70
     0
  9
$DIMBLK1
  1

  9
$DIMBLK2
  1

  9
$DIMSTYLE
  2
ISO-25
  9
$DIMCLRD
 70
     0
  9
$DIMCLRE
 70
     0
  9
$DIMCLRT
 70
     0
  9
$DIMTFAC
 40
1.0
  9
$DIMGAP
 40
0.625
  9
$LUNITS
 70
     2
  9
$LUPREC
 70
     4
  9
$SKETCHINC
 40
1.0
  9
$FILLETRAD
 40
2.5
  9
$AUNITS
 70
     0
  9
$AUPREC
 70
     0
  9
$MENU
  1
.
  9
$ELEVATION
 40
0.0
  9
$PELEVATION
 40
0.0
  9
$THICKNESS
 40
0.0
  9
$LIMCHECK
 70
     0
  9
$BLIPMODE
 70
     0
  9
$CHAMFERA
 40
0.0
  9
$CHAMFERB
 40
0.0
  9
$SKPOLY
 70
     0
  9
$TDCREATE
 40
2455151.8030284718
  9
$TDUPDATE
 40
2455156.8802556251
  9
$TDINDWG
 40
0.3031585301
  9
$TDUSRTIMER
 40
0.3031576273
  9
$USRTIMER
 70
     1
  9
$ANGBASE
 50
0.0
  9
$ANGDIR
 70
     0
  9
$PDMODE
 70
     0
  9
$PDSIZE
 40
0.0
  9
$PLINEWID
 40
0.0
  9
$COORDS
 70
     1
  9
$SPLFRAME
 70
     0
  9
$SPLINETYPE
 70
     6
  9
$SPLINESEGS
 70
     8
  9
$ATTDIA
 70
     0
  9
$ATTREQ
 70
     1
  9
$HANDLING
 70
     1
  9
$HANDSEED
  5
808F
  9
$SURFTAB1
 70
     6
  9
$SURFTAB2
 70
     6
  9
$SURFTYPE
 70
     6
  9
$SURFU
 70
     6
  9
$SURFV
 70
     6
  9
$UCSNAME
  2

  9
$UCSORG
 10
0.0
 20
0.0
 30
0.0
  9
$UCSXDIR
 10
1.0
 20
0.0
 30
0.0
  9
$UCSYDIR
 10
0.0
 20
1.0
 30
0.0
  9
$PUCSNAME
  2

  9
$PUCSORG
 10
0.0
 20
0.0
 30
0.0
  9
$PUCSXDIR
 10
1.0
 20
0.0
 30
0.0
  9
$PUCSYDIR
 10
0.0
 20
1.0
 30
0.0
  9
$USERI1
 70
     0
  9
$USERI2
 70
     0
  9
$USERI3
 70
     0
  9
$USERI4
 70
     0
  9
$USERI5
 70
     0
  9
$USERR1
 40
0.0
  9
$USERR2
 40
0.0
  9
$USERR3
 40
0.0
  9
$USERR4
 40
0.0
  9
$USERR5
 40
0.0
  9
$WORLDVIEW
 70
     1
  9
$SHADEDGE
 70
     3
  9
$SHADEDIF
 70
    70
  9
$TILEMODE
 70
     1
  9
$MAXACTVP
 70
    64
  9
$PLIMCHECK
 70
     0
  9
$PEXTMIN
 10
0.0
 20
0.0
 30
0.0
  9
$PEXTMAX
 10
0.0
 20
0.0
 30
0.0
  9
$PLIMMIN
 10
0.0
 20
0.0
  9
$PLIMMAX
 10
12.0
 20
9.0
  9
$UNITMODE
 70
     0
  9
$VISRETAIN
 70
     1
  9
$PLINEGEN
 70
     0
  9
$PSLTSCALE
 70
     1
  0
ENDSEC
  0
SECTION
  2
TABLES
  0
TABLE
  2
VPORT
 70
     1
  0
VPORT
  2
*ACTIVE
 70
     0
 10
0.0
 20
0.0
 11
1.0
 21
1.0
 12
164.42014141658359
 22
239.74595597329309
 13
0.0
 23
0.0
 14
10.0
 24
10.0
 15
10.0
 25
10.0
 16
0.0
 26
0.0
 36
1.0
 17
0.0
 27
0.0
 37
0.0
 40
188.86552558943271
 41
2.1195079086115989
 42
50.0
 43
0.0
 44
0.0
 50
0.0
 51
0.0
 71
     0
 72
  1000
 73
     1
 74
     3
 75
     0
 76
     0
 77
     0
 78
     0
  0
ENDTAB
  0
TABLE
  2
LTYPE
 70
     2
  0
LTYPE
  2
CONTINUOUS
 70
     0
  3
Solid line
 72
    65
 73
     0
 40
0.0
  0
LTYPE
  2
DASHED
 70
     0
  3
__ __ __ __ __ __ __ __ __ __ __ __ __ __ __
 72
    65
 73
     2
 40
0.75
 49
0.5
 49
-0.25
  0
ENDTAB
  0
TABLE
  2
LAYER
 70
     3
  0
LAYER
  2
0
 70
     0
 62
     7
  6
CONTINUOUS
  0
LAYER
  2
DEFPOINTS
 70
     0
 62
     7
  6
CONTINUOUS
  0
LAYER
  2
7
 70
     0
 62
     7
  6
CONTINUOUS
  0
ENDTAB
  0
TABLE
  2
STYLE
 70
     3
  0
STYLE
  2
STANDARD
 70
     0
 40
0.0
 41
1.0
 50
0.0
 71
     0
 42
2.5
  3
txt.shx
  4

  0
STYLE
  2
ANNOTATIVE
 70
     0
 40
0.0
 41
1.0
 50
0.0
 71
     0
 42
0.2
  3
txt
  4

  0
STYLE
  2
ANNOTATIVA
 70
     0
 40
0.0
 41
1.0
 50
0.0
 71
     0
 42
2.5
  3
txt.shx
  4

  0
ENDTAB
  0
TABLE
  2
VIEW
 70
     0
  0
ENDTAB
  0
TABLE
  2
UCS
 70
     0
  0
ENDTAB
  0
TABLE
  2
APPID
 70
     8
  0
APPID
  2
ACAD
 70
     0
  0
APPID
  2
ACADANNOTATIVE
 70
     0
  0
APPID
  2
ACAD_MLEADERVER
 70
     0
  0
APPID
  2
ACAD_PSEXT
 70
     0
  0
APPID
  2
ACADANNOPO
 70
     0
  0
APPID
  2
ACAD_DSTYLE_DIMJAG
 70
     0
  0
APPID
  2
ACAD_DSTYLE_DIMTALN
 70
     0
  0
APPID
  2
ACAD_EXEMPT_FROM_CAD_STANDARDS
 70
     0
  0
ENDTAB
  0
TABLE
  2
DIMSTYLE
 70
     4
  0
DIMSTYLE
  2
STANDARD
 70
     0
  3

  4

  5

  6

  7

 40
1.0
 41
0.18
 42
0.0625
 43
0.38
 44
0.18
 45
0.0
 46
0.0
 47
0.0
 48
0.0
140
0.18
141
0.09
142
0.0
143
25.399999999999999
144
1.0
145
0.0
146
1.0
147
0.09
 71
     0
 72
     0
 73
     1
 74
     1
 75
     0
 76
     0
 77
     0
 78
     0
170
     0
171
     2
172
     0
173
     0
174
     0
175
     0
176
     0
177
     0
178
     0
  0
DIMSTYLE
  2
ANNOTATIVE
 70
     0
  3

  4

  5

  6

  7

 40
1.0
 41
0.18
 42
0.0625
 43
0.38
 44
0.18
 45
0.0
 46
0.0
 47
0.0
 48
0.0
140
0.18
141
0.09
142
0.0
143
25.399999999999999
144
1.0
145
0.0
146
1.0
147
0.09
 71
     0
 72
     0
 73
     1
 74
     1
 75
     0
 76
     0
 77
     0
 78
     0
170
     0
171
     2
172
     0
173
     0
174
     0
175
     0
176
     0
177
     0
178
     0
  0
DIMSTYLE
  2
ISO-25
 70
     0
  3

  4

  5

  6

  7

 40
1.0
 41
2.5
 42
0.625
 43
3.75
 44
1.25
 45
0.0
 46
0.0
 47
0.0
 48
0.0
140
2.5
141
2.5
142
0.0
143
0.03937007874016
144
1.0
145
0.0
146
1.0
147
0.625
 71
     0
 72
     0
 73
     0
 74
     0
 75
     0
 76
     0
 77
     1
 78
     8
170
     0
171
     3
172
     1
173
     0
174
     0
175
     0
176
     0
177
     0
178
     0
  0
DIMSTYLE
  2
ANNOTATIVA
 70
     0
  3

  4

  5

  6

  7

 40
0.0
 41
2.5
 42
0.625
 43
3.75
 44
1.25
 45
0.0
 46
0.0
 47
0.0
 48
0.0
140
2.5
141
2.5
142
0.0
143
0.03937007874016
144
1.0
145
0.0
146
1.0
147
0.625
 71
     0
 72
     0
 73
     0
 74
     0
 75
     0
 76
     0
 77
     1
 78
     8
170
     0
171
     3
172
     1
173
     0
174
     0
175
     0
176
     0
177
     0
178
     0
  0
ENDTAB
  0
ENDSEC
  0
SECTION
  2
BLOCKS
  0
BLOCK
  8
0
  2
$MODEL_SPACE
 70
     0
 10
0.0
 20
0.0
 30
0.0
  3
$MODEL_SPACE
  1

  0
ENDBLK
  5
7ADE
  8
0
  0
BLOCK
 67
     1
  8
0
  2
$PAPER_SPACE
 70
     0
 10
0.0
 20
0.0
 30
0.0
  3
$PAPER_SPACE
  1

  0
ENDBLK
  5
7ADA
 67
     1
  8
0
  0
BLOCK
  8
0
  2
*D2
 70
     1
 10
0.0
 20
0.0
 30
0.0
  3
*D2
  1

  0
LINE
  5
2CB
  8
0
 62
     0
 10
156.18748254435761
 20
33.458982739047741
 30
0.0
 11
156.19454753620781
 21
65.352533877502694
 31
0.0
  0
LINE
  5
2CC
  8
0
 62
     0
 10
-36.072051092168117
 20
33.501571663447614
 30
0.0
 11
-36.064986100317853
 21
65.395122801902602
 31
0.0
  0
LINE
  5
2CD
  8
0
 62
     0
 10
153.6942707002018
 20
64.103087702859213
 30
0.0
 11
-33.565263058999413
 21
64.144569037883741
 31
0.0
  0
SOLID
  5
2CE
  8
0
 62
     0
 10
153.69436299931641
 20
64.519754359302951
 30
0.0
 11
153.69417840108721
 21
63.686421046415511
 31
0.0
 12
156.19427063886411
 22
64.102533908171523
 32
0.0
 13
156.19427063886411
 23
64.102533908171523
 33
0.0
  0
SOLID
  5
2CF
  8
0
 62
     0
 10
-33.565170759884801
 20
64.561235694327465
 30
0.0
 11
-33.565355358114012
 21
63.727902381440032
 31
0.0
 12
-36.065262997661677
 22
64.145122832571445
 32
0.0
 13
-36.065262997661677
 23
64.145122832571445
 33
0.0
  0
INSERT
  5
2D0
  8
0
  2
*U3
 10
0.0
 20
0.0
 30
0.0
  0
POINT
  5
2D1
  8
DEFPOINTS
 62
     0
 10
156.18734409568569
 20
32.83398275438217
 30
0.0
  0
POINT
  5
2D2
  8
DEFPOINTS
 62
     0
 10
-36.072189540840043
 20
32.876571678782042
 30
0.0
  0
POINT
  5
2D3
  8
DEFPOINTS
 62
     0
 10
-36.065262997661677
 20
64.145122832571445
 30
0.0
  0
ENDBLK
  5
2AD
  8
0
  0
BLOCK
  8
0
  2
*U3
 70
     1
 10
0.0
 20
0.0
 30
0.0
  3
*U3
  1

  0
TEXT
  5
896
  8
0
 62
     0
 10
54.023068049953871
 20
65.166833348642712
 30
0.0
 40
2.5
  1
192,26
 50
359.98730796056748
  0
ENDBLK
  5
898
  8
0
  0
BLOCK
  8
0
  2
*U4
 70
     1
 10
0.0
 20
0.0
 30
0.0
  3
*U4
  1

  0
TEXT
  5
2D6
  8
0
 10
63.530747419797493
 20
11.2550920419927
 30
0.0
 40
2.5
  1
sx
  0
ENDBLK
  5
2D7
  8
0
  0
BLOCK
  8
0
  2
*U5
 70
     1
 10
0.0
 20
0.0
 30
0.0
  3
*U5
  1

  0
LINE
  5
8E3
  8
0
 10
115.80271305786979
 20
32.969971375087923
 30
0.0
 11
115.14550148277959
 21
53.71688867963622
 31
0.0
  0
LINE
  5
8E4
  8
0
 10
121.19137024970711
 20
32.838663402228583
 30
0.0
 11
115.80271305786979
 21
32.969971375087923
 31
0.0
  0
LINE
  5
8E5
  8
0
 10
115.14550148277959
 20
53.71688867963622
 30
0.0
 11
120.27134229086199
 21
53.651234693206533
 31
0.0
  0
LINE
  5
8E6
  8
0
 10
120.27134229086199
 20
53.651234693206533
 30
0.0
 11
121.19137024970711
 21
32.838663402228583
 31
0.0
  0
ENDBLK
  5
8E8
  8
0
  0
BLOCK
  8
0
  2
*U6
 70
     1
 10
0.0
 20
0.0
 30
0.0
  3
*U6
  1

  0
LINE
  5
8EA
  8
0
 10
91.744897137213115
 20
24.3215517162023
 30
0.0
 11
91.741826331716723
 21
23.921563503683981
 31
0.0
  0
LINE
  5
8EB
  8
0
 10
91.840329385272923
 20
40.3131446367126
 30
0.0
 11
91.744897137213115
 21
24.3215517162023
 31
0.0
  0
LINE
  5
8EC
  8
0
 10
91.741826331716723
 20
23.921563503683981
 30
0.0
 11
83.620022727798656
 21
23.983916539016882
 31
0.0
  0
ARC
  5
8ED
  8
0
 10
96.608835683678436
 20
40.453111190359351
 30
0.0
 40
4.7705600252038494
 50
355.5769761895906
 51
181.681279294337
  0
LINE
  5
8EE
  8
0
 10
83.620022727798656
 20
23.983916539016882
 30
0.0
 11
76.897709935750683
 21
24.1204862576663
 31
0.0
  0
LINE
  5
8EF
  8
0
 10
101.3651882314511
 20
40.085207133071037
 30
0.0
 11
101.426954818296
 21
23.887630416545669
 31
0.0
  0
LINE
  5
8F0
  8
0
 10
76.897709935750683
 20
24.1204862576663
 30
0.0
 11
69.402764346461254
 21
24.261969229077501
 31
0.0
  0
LINE
  5
8F1
  8
0
 10
108.4003592352277
 20
24.162429009370658
 30
0.0
 11
101.426954818296
 21
23.887630416545669
 31
0.0
  0
LINE
  5
8F2
  8
0
 10
69.402764346461254
 20
24.261969229077501
 30
0.0
 11
63.079380437768819
 21
24.444539510266811
 31
0.0
  0
LINE
  5
8F3
  8
0
 10
116.6816628728087
 20
24.471299962433768
 30
0.0
 11
108.4003592352277
 21
24.162429009370658
 31
0.0
  0
LINE
  5
8F4
  8
0
 10
63.079380437768819
 20
24.444539510266811
 30
0.0
 11
55.459246698401429
 21
24.802919433140151
 31
0.0
  0
LINE
  5
8F5
  8
0
 10
123.6502044180768
 20
24.758795616171149
 30
0.0
 11
116.6816628728087
 21
24.471299962433768
 31
0.0
  0
LINE
  5
8F6
  8
0
 10
55.459246698401429
 20
24.802919433140151
 30
0.0
 11
47.509464280457962
 21
25.22672118919402
 31
0.0
  0
LINE
  5
8F7
  8
0
 10
129.824191673684
 20
25.193191168345042
 30
0.0
 11
123.6502044180768
 21
24.758795616171149
 31
0.0
  0
LINE
  5
8F8
  8
0
 10
47.509464280457962
 20
25.22672118919402
 30
0.0
 11
35.891008410474953
 21
26.122668991956662
 31
0.0
  0
LINE
  5
8F9
  8
0
 10
137.77606716045631
 20
25.851061816243249
 30
0.0
 11
129.824191673684
 21
25.193191168345042
 31
0.0
  0
LINE
  5
8FA
  8
0
 10
35.891008410474953
 20
26.122668991956662
 30
0.0
 11
24.094819322294182
 21
27.104776226631891
 31
0.0
  0
LINE
  5
8FB
  8
0
 10
144.8925033602045
 20
26.7483347295538
 30
0.0
 11
137.77606716045631
 21
25.851061816243249
 31
0.0
  0
LINE
  5
8FC
  8
0
 10
24.094819322294182
 20
27.104776226631891
 30
0.0
 11
17.923900223194511
 21
27.69001844361382
 31
0.0
  0
LINE
  5
8FD
  8
0
 10
151.19855468651741
 20
27.606746517098369
 30
0.0
 11
144.8925033602045
 21
26.7483347295538
 31
0.0
  0
LINE
  5
8FE
  8
0
 10
17.923900223194511
 20
27.69001844361382
 30
0.0
 11
2.6415804759736581
 21
41.411044975392031
 31
0.0
  0
LINE
  5
8FF
  8
0
 10
157.7791641557333
 20
28.643560356960961
 30
0.0
 11
151.19855468651741
 21
27.606746517098369
 31
0.0
  0
LINE
  5
900
  8
0
 10
2.6415804759736581
 20
41.411044975392031
 30
0.0
 11
6.5871160694232227
 21
42.395134022297313
 31
0.0
  0
LINE
  5
901
  8
0
 10
164.06711868911361
 20
29.818740455675378
 30
0.0
 11
157.7791641557333
 21
28.643560356960961
 31
0.0
  0
LINE
  5
902
  8
0
 10
6.5871160694232227
 20
42.395134022297313
 30
0.0
 11
9.3179222963751513
 21
43.016222665863047
 31
0.0
  0
LINE
  5
903
  8
0
 10
169.1110118210274
 20
30.834100378895691
 30
0.0
 11
164.06711868911361
 21
29.818740455675378
 31
0.0
  0
LINE
  5
904
  8
0
 10
9.3179222963751513
 20
43.016222665863047
 30
0.0
 11
12.670452038289771
 21
43.770390233371593
 31
0.0
  0
LINE
  5
905
  8
0
 10
175.9181255453019
 20
32.29077858142314
 30
0.0
 11
169.1110118210274
 21
30.834100378895691
 31
0.0
  0
LINE
  5
906
  8
0
 10
12.670452038289771
 20
43.770390233371593
 30
0.0
 11
16.79225372978161
 21
44.644531686820862
 31
0.0
  0
LINE
  5
907
  8
0
 10
182.47489735777231
 20
33.813326611679891
 30
0.0
 11
175.9181255453019
 21
32.29077858142314
 31
0.0
  0
LINE
  5
908
  8
0
 10
16.79225372978161
 20
44.644531686820862
 30
0.0
 11
20.694733789372549
 21
45.385966127065323
 31
0.0
  0
LINE
  5
909
  8
0
 10
187.5421368514545
 20
35.316705345854253
 30
0.0
 11
182.47489735777231
 21
33.813326611679891
 31
0.0
  0
LINE
  5
90A
  8
0
 10
20.694733789372549
 20
45.385966127065323
 30
0.0
 11
24.40163062340071
 21
46.028089277845993
 31
0.0
  0
LINE
  5
90B
  8
0
 10
191.33728028602621
 20
36.972442737953607
 30
0.0
 11
187.5421368514545
 21
35.316705345854253
 31
0.0
  0
LINE
  5
90C
  8
0
 10
24.40163062340071
 20
46.028089277845993
 30
0.0
 11
27.95584199870698
 21
46.645126824058522
 31
0.0
  0
LINE
  5
90D
  8
0
 10
194.03586862798701
 20
38.757664900691957
 30
0.0
 11
191.33728028602621
 21
36.972442737953607
 31
0.0
  0
LINE
  5
90E
  8
0
 10
27.95584199870698
 20
46.645126824058522
 30
0.0
 11
33.86569595055861
 21
47.74086255637085
 31
0.0
  0
LINE
  5
90F
  8
0
 10
194.62558464256
 20
40.197995514207022
 30
0.0
 11
194.03586862798701
 21
38.757664900691957
 31
0.0
  0
LINE
  5
910
  8
0
 10
33.86569595055861
 20
47.74086255637085
 30
0.0
 11
39.104893812240981
 21
48.628044649597967
 31
0.0
  0
LINE
  5
911
  8
0
 10
194.7566857262301
 20
41.965694484773572
 30
0.0
 11
194.62558464256
 21
40.197995514207022
 31
0.0
  0
LINE
  5
912
  8
0
 10
39.104893812240981
 20
48.628044649597967
 30
0.0
 11
44.965746942602301
 21
49.603935292411478
 31
0.0
  0
LINE
  5
913
  8
0
 10
194.2324178840918
 20
43.340532107411441
 30
0.0
 11
194.7566857262301
 21
41.965694484773572
 31
0.0
  0
LINE
  5
914
  8
0
 10
44.965746942602301
 20
49.603935292411478
 30
0.0
 11
50.82653182669246
 21
50.49111738563861
 31
0.0
  0
LINE
  5
915
  8
0
 10
193.60363858122031
 20
44.352194769058769
 30
0.0
 11
194.2324178840918
 21
43.340532107411441
 31
0.0
  0
LINE
  5
916
  8
0
 10
50.82653182669246
 20
50.49111738563861
 30
0.0
 11
57.042538543439292
 21
51.289590929276152
 31
0.0
  0
LINE
  5
917
  8
0
 10
192.7211204537852
 20
45.154418540333602
 30
0.0
 11
193.60363858122031
 21
44.352194769058769
 31
0.0
  0
LINE
  5
918
  8
0
 10
57.042538543439292
 20
51.289590929276152
 30
0.0
 11
64.730384958593277
 21
52.2698130508129
 31
0.0
  0
LINE
  5
919
  8
0
 10
191.3110136872219
 20
45.963358916906131
 30
0.0
 11
192.7211204537852
 21
45.154418540333602
 31
0.0
  0
LINE
  5
91A
  8
0
 10
64.730384958593277
 20
52.2698130508129
 30
0.0
 11
70.865822358829959
 21
52.953199961471
 31
0.0
  0
LINE
  5
91B
  8
0
 10
189.3095774391262
 20
46.690250700895071
 30
0.0
 11
191.3110136872219
 21
45.963358916906131
 31
0.0
  0
LINE
  5
91C
  8
0
 10
70.865822358829959
 20
52.953199961471
 30
0.0
 11
78.040042945274422
 21
53.83798783166035
 31
0.0
  0
LINE
  5
91D
  8
0
 10
186.16365111918199
 20
47.63115075172658
 30
0.0
 11
189.3095774391262
 21
46.690250700895071
 31
0.0
  0
LINE
  5
91E
  8
0
 10
78.040042945274422
 20
53.83798783166035
 30
0.0
 11
86.446758557893176
 21
54.528133190360222
 31
0.0
  0
LINE
  5
91F
  8
0
 10
182.83499305696009
 20
48.535039746030471
 30
0.0
 11
186.16365111918199
 21
47.63115075172658
 31
0.0
  0
LINE
  5
920
  8
0
 10
86.446758557893176
 20
54.528133190360222
 30
0.0
 11
92.356582395344944
 21
54.903557289873781
 31
0.0
  0
LINE
  5
921
  8
0
 10
178.02606912236121
 20
49.614090322986392
 30
0.0
 11
182.83499305696009
 21
48.535039746030471
 31
0.0
  0
LINE
  5
922
  8
0
 10
92.356582395344944
 20
54.903557289873781
 30
0.0
 11
97.563723869623573
 21
55.199410836661158
 31
0.0
  0
LINE
  5
923
  8
0
 10
173.42478957121469
 20
50.553574758210893
 30
0.0
 11
178.02606912236121
 21
49.614090322986392
 31
0.0
  0
LINE
  5
924
  8
0
 10
97.563723869623573
 20
55.199410836661158
 30
0.0
 11
108.56894745717609
 21
55.575117537466006
 31
0.0
  0
LINE
  5
925
  8
0
 10
169.486946580086
 20
51.28791965342532
 30
0.0
 11
173.42478957121469
 21
50.553574758210893
 31
0.0
  0
LINE
  5
926
  8
0
 10
108.56894745717609
 20
55.575117537466006
 30
0.0
 11
117.3117399471311
 21
55.598902702643713
 31
0.0
  0
LINE
  5
927
  8
0
 10
164.72041613300681
 20
52.061386076858142
 30
0.0
 11
169.486946580086
 21
51.28791965342532
 31
0.0
  0
LINE
  5
928
  8
0
 10
117.3117399471311
 20
55.598902702643713
 30
0.0
 11
128.2221626240844
 21
55.377656407287361
 31
0.0
  0
LINE
  5
929
  8
0
 10
158.50338417413619
 20
52.956579938448229
 30
0.0
 11
164.72041613300681
 21
52.061386076858142
 31
0.0
  0
LINE
  5
92A
  8
0
 10
128.2221626240844
 20
55.377656407287361
 30
0.0
 11
135.07269857425621
 21
54.994640410866481
 31
0.0
  0
LINE
  5
92B
  8
0
 10
153.9467721967811
 20
53.507154800397942
 30
0.0
 11
158.50338417413619
 21
52.956579938448229
 31
0.0
  0
LINE
  5
92C
  8
0
 10
135.07269857425621
 20
54.994640410866481
 30
0.0
 11
142.23799730459601
 21
54.507672248197281
 31
0.0
  0
LINE
  5
92D
  8
0
 10
148.5536016697082
 20
54.004868776827792
 30
0.0
 11
153.9467721967811
 21
53.507154800397942
 31
0.0
  0
LINE
  5
92E
  8
0
 10
142.23799730459601
 20
54.507672248197281
 30
0.0
 11
148.5536016697082
 21
54.004868776827792
 31
0.0
  0
ENDBLK
  5
930
  8
0
  0
BLOCK
  8
0
  2
*U7
 70
     1
 10
0.0
 20
0.0
 30
0.0
  3
*U7
  1

  0
POLYLINE
  5
932
  8
0
 66
     1
 10
0.0
 20
0.0
 30
0.0
 70
     8
  0
VERTEX
  5
A0C
  8
0
 10
45.868299999999991
 20
39.291800000000002
 30
0.0
 70
    32
  0
VERTEX
  5
A0D
  8
0
 10
45.8887
 20
39.061999999999998
 30
0.0
 70
    32
  0
VERTEX
  5
A0E
  8
0
 10
45.946300000000001
 20
38.832999999999998
 30
0.0
 70
    32
  0
VERTEX
  5
A0F
  8
0
 10
46.040999999999983
 20
38.605499999999999
 30
0.0
 70
    32
  0
VERTEX
  5
A10
  8
0
 10
46.1723
 20
38.379899999999999
 30
0.0
 70
    32
  0
VERTEX
  5
A11
  8
0
 10
46.340200000000003
 20
38.156799999999997
 30
0.0
 70
    32
  0
VERTEX
  5
A12
  8
0
 10
46.543999999999983
 20
37.936700000000002
 30
0.0
 70
    32
  0
VERTEX
  5
A13
  8
0
 10
46.783499999999997
 20
37.720199999999998
 30
0.0
 70
    32
  0
VERTEX
  5
A14
  8
0
 10
47.057899999999989
 20
37.50780000000001
 30
0.0
 70
    32
  0
VERTEX
  5
A15
  8
0
 10
47.366599999999991
 20
37.299999999999997
 30
0.0
 70
    32
  0
VERTEX
  5
A16
  8
0
 10
47.7089
 20
37.097299999999997
 30
0.0
 70
    32
  0
VERTEX
  5
A17
  8
0
 10
48.0839
 20
36.900199999999998
 30
0.0
 70
    32
  0
VERTEX
  5
A18
  8
0
 10
48.4908
 20
36.70920000000001
 30
0.0
 70
    32
  0
VERTEX
  5
A19
  8
0
 10
48.928600000000003
 20
36.524700000000003
 30
0.0
 70
    32
  0
VERTEX
  5
A1A
  8
0
 10
49.396099999999997
 20
36.347200000000001
 30
0.0
 70
    32
  0
VERTEX
  5
A1B
  8
0
 10
49.892400000000002
 20
36.177
 30
0.0
 70
    32
  0
VERTEX
  5
A1C
  8
0
 10
50.4161
 20
36.014699999999998
 30
0.0
 70
    32
  0
VERTEX
  5
A1D
  8
0
 10
50.966099999999997
 20
35.860599999999998
 30
0.0
 70
    32
  0
VERTEX
  5
A1E
  8
0
 10
51.54099999999999
 20
35.715000000000011
 30
0.0
 70
    32
  0
VERTEX
  5
A1F
  8
0
 10
52.139400000000002
 20
35.578400000000009
 30
0.0
 70
    32
  0
VERTEX
  5
A20
  8
0
 10
52.759799999999998
 20
35.451000000000001
 30
0.0
 70
    32
  0
VERTEX
  5
A21
  8
0
 10
53.4009
 20
35.333199999999998
 30
0.0
 70
    32
  0
VERTEX
  5
A22
  8
0
 10
54.060899999999982
 20
35.225200000000001
 30
0.0
 70
    32
  0
VERTEX
  5
A23
  8
0
 10
54.738500000000002
 20
35.127299999999998
 30
0.0
 70
    32
  0
VERTEX
  5
A24
  8
0
 10
55.431800000000003
 20
35.0398
 30
0.0
 70
    32
  0
VERTEX
  5
A25
  8
0
 10
56.139299999999992
 20
34.962800000000001
 30
0.0
 70
    32
  0
VERTEX
  5
A26
  8
0
 10
56.859200000000001
 20
34.89650000000001
 30
0.0
 70
    32
  0
VERTEX
  5
A27
  8
0
 10
57.5899
 20
34.841099999999997
 30
0.0
 70
    32
  0
VERTEX
  5
A28
  8
0
 10
58.3294
 20
34.796799999999998
 30
0.0
 70
    32
  0
VERTEX
  5
A29
  8
0
 10
59.0762
 20
34.763599999999997
 30
0.0
 70
    32
  0
VERTEX
  5
A2A
  8
0
 10
59.828299999999992
 20
34.741599999999998
 30
0.0
 70
    32
  0
VERTEX
  5
A2B
  8
0
 10
60.5839
 20
34.730899999999998
 30
0.0
 70
    32
  0
VERTEX
  5
A2C
  8
0
 10
61.341299999999983
 20
34.731499999999997
 30
0.0
 70
    32
  0
VERTEX
  5
A2D
  8
0
 10
62.09859999999999
 20
34.743299999999998
 30
0.0
 70
    32
  0
VERTEX
  5
A2E
  8
0
 10
62.853999999999999
 20
34.766399999999997
 30
0.0
 70
    32
  0
VERTEX
  5
A2F
  8
0
 10
63.605600000000003
 20
34.800800000000002
 30
0.0
 70
    32
  0
VERTEX
  5
A30
  8
0
 10
64.351699999999994
 20
34.846200000000003
 30
0.0
 70
    32
  0
VERTEX
  5
A31
  8
0
 10
65.090400000000002
 20
34.90270000000001
 30
0.0
 70
    32
  0
VERTEX
  5
A32
  8
0
 10
65.820099999999996
 20
34.969999999999999
 30
0.0
 70
    32
  0
VERTEX
  5
A33
  8
0
 10
66.538799999999995
 20
35.048099999999998
 30
0.0
 70
    32
  0
VERTEX
  5
A34
  8
0
 10
67.244900000000001
 20
35.136699999999998
 30
0.0
 70
    32
  0
VERTEX
  5
A35
  8
0
 10
67.936700000000002
 20
35.235599999999998
 30
0.0
 70
    32
  0
VERTEX
  5
A36
  8
0
 10
68.6126
 20
35.3446
 30
0.0
 70
    32
  0
VERTEX
  5
A37
  8
0
 10
69.270799999999994
 20
35.4634
 30
0.0
 70
    32
  0
VERTEX
  5
A38
  8
0
 10
69.909800000000004
 20
35.59170000000001
 30
0.0
 70
    32
  0
VERTEX
  5
A39
  8
0
 10
70.528099999999995
 20
35.729300000000002
 30
0.0
 70
    32
  0
VERTEX
  5
A3A
  8
0
 10
71.124200000000002
 20
35.875700000000002
 30
0.0
 70
    32
  0
VERTEX
  5
A3B
  8
0
 10
71.696600000000004
 20
36.03070000000001
 30
0.0
 70
    32
  0
VERTEX
  5
A3C
  8
0
 10
72.243899999999982
 20
36.193800000000003
 30
0.0
 70
    32
  0
VERTEX
  5
A3D
  8
0
 10
72.764899999999983
 20
36.364699999999999
 30
0.0
 70
    32
  0
VERTEX
  5
A3E
  8
0
 10
73.258300000000006
 20
36.542900000000003
 30
0.0
 70
    32
  0
VERTEX
  5
A3F
  8
0
 10
73.722899999999981
 20
36.728099999999998
 30
0.0
 70
    32
  0
VERTEX
  5
A40
  8
0
 10
74.157600000000002
 20
36.919800000000002
 30
0.0
 70
    32
  0
VERTEX
  5
A41
  8
0
 10
74.561300000000003
 20
37.1175
 30
0.0
 70
    32
  0
VERTEX
  5
A42
  8
0
 10
74.933099999999982
 20
37.320700000000002
 30
0.0
 70
    32
  0
VERTEX
  5
A43
  8
0
 10
75.272000000000006
 20
37.529000000000003
 30
0.0
 70
    32
  0
VERTEX
  5
A44
  8
0
 10
75.57729999999998
 20
37.741799999999998
 30
0.0
 70
    32
  0
VERTEX
  5
A45
  8
0
 10
75.848100000000002
 20
37.9587
 30
0.0
 70
    32
  0
VERTEX
  5
A46
  8
0
 10
76.084000000000003
 20
38.179099999999998
 30
0.0
 70
    32
  0
VERTEX
  5
A47
  8
0
 10
76.284199999999998
 20
38.402500000000011
 30
0.0
 70
    32
  0
VERTEX
  5
A48
  8
0
 10
76.448400000000007
 20
38.62830000000001
 30
0.0
 70
    32
  0
VERTEX
  5
A49
  8
0
 10
76.575999999999979
 20
38.856000000000002
 30
0.0
 70
    32
  0
VERTEX
  5
A4A
  8
0
 10
76.666899999999998
 20
39.085099999999997
 30
0.0
 70
    32
  0
VERTEX
  5
A4B
  8
0
 10
76.720699999999965
 20
39.314999999999998
 30
0.0
 70
    32
  0
VERTEX
  5
A4C
  8
0
 10
76.73739999999998
 20
39.545099999999998
 30
0.0
 70
    32
  0
VERTEX
  5
A4D
  8
0
 10
76.716999999999999
 20
39.774900000000002
 30
0.0
 70
    32
  0
VERTEX
  5
A4E
  8
0
 10
76.659300000000002
 20
40.003900000000002
 30
0.0
 70
    32
  0
VERTEX
  5
A4F
  8
0
 10
76.564700000000002
 20
40.231499999999997
 30
0.0
 70
    32
  0
VERTEX
  5
A50
  8
0
 10
76.433400000000006
 20
40.457099999999983
 30
0.0
 70
    32
  0
VERTEX
  5
A51
  8
0
 10
76.265500000000003
 20
40.680100000000003
 30
0.0
 70
    32
  0
VERTEX
  5
A52
  8
0
 10
76.061700000000002
 20
40.900199999999991
 30
0.0
 70
    32
  0
VERTEX
  5
A53
  8
0
 10
75.822199999999981
 20
41.116700000000002
 30
0.0
 70
    32
  0
VERTEX
  5
A54
  8
0
 10
75.547799999999981
 20
41.329099999999983
 30
0.0
 70
    32
  0
VERTEX
  5
A55
  8
0
 10
75.239099999999979
 20
41.536900000000003
 30
0.0
 70
    32
  0
VERTEX
  5
A56
  8
0
 10
74.896799999999985
 20
41.739600000000003
 30
0.0
 70
    32
  0
VERTEX
  5
A57
  8
0
 10
74.521799999999999
 20
41.936700000000002
 30
0.0
 70
    32
  0
VERTEX
  5
A58
  8
0
 10
74.114900000000006
 20
42.12769999999999
 30
0.0
 70
    32
  0
VERTEX
  5
A59
  8
0
 10
73.677099999999982
 20
42.31219999999999
 30
0.0
 70
    32
  0
VERTEX
  5
A5A
  8
0
 10
73.209500000000006
 20
42.489800000000002
 30
0.0
 70
    32
  0
VERTEX
  5
A5B
  8
0
 10
72.713300000000004
 20
42.6599
 30
0.0
 70
    32
  0
VERTEX
  5
A5C
  8
0
 10
72.189599999999999
 20
42.822200000000002
 30
0.0
 70
    32
  0
VERTEX
  5
A5D
  8
0
 10
71.639600000000002
 20
42.976300000000002
 30
0.0
 70
    32
  0
VERTEX
  5
A5E
  8
0
 10
71.064700000000002
 20
43.121899999999997
 30
0.0
 70
    32
  0
VERTEX
  5
A5F
  8
0
 10
70.466300000000004
 20
43.258499999999991
 30
0.0
 70
    32
  0
VERTEX
  5
A60
  8
0
 10
69.8459
 20
43.385899999999992
 30
0.0
 70
    32
  0
VERTEX
  5
A61
  8
0
 10
69.204800000000006
 20
43.503700000000002
 30
0.0
 70
    32
  0
VERTEX
  5
A62
  8
0
 10
68.544700000000006
 20
43.611699999999999
 30
0.0
 70
    32
  0
VERTEX
  5
A63
  8
0
 10
67.867199999999997
 20
43.709600000000002
 30
0.0
 70
    32
  0
VERTEX
  5
A64
  8
0
 10
67.173900000000003
 20
43.7971
 30
0.0
 70
    32
  0
VERTEX
  5
A65
  8
0
 10
66.466399999999993
 20
43.874099999999999
 30
0.0
 70
    32
  0
VERTEX
  5
A66
  8
0
 10
65.746499999999997
 20
43.94039999999999
 30
0.0
 70
    32
  0
VERTEX
  5
A67
  8
0
 10
65.015799999999999
 20
43.995800000000003
 30
0.0
 70
    32
  0
VERTEX
  5
A68
  8
0
 10
64.276300000000006
 20
44.040100000000002
 30
0.0
 70
    32
  0
VERTEX
  5
A69
  8
0
 10
63.529499999999992
 20
44.073300000000003
 30
0.0
 70
    32
  0
VERTEX
  5
A6A
  8
0
 10
62.7774
 20
44.095300000000002
 30
0.0
 70
    32
  0
VERTEX
  5
A6B
  8
0
 10
62.021799999999999
 20
44.106000000000002
 30
0.0
 70
    32
  0
VERTEX
  5
A6C
  8
0
 10
61.264400000000002
 20
44.105499999999992
 30
0.0
 70
    32
  0
VERTEX
  5
A6D
  8
0
 10
60.507100000000001
 20
44.093600000000002
 30
0.0
 70
    32
  0
VERTEX
  5
A6E
  8
0
 10
59.7517
 20
44.070500000000003
 30
0.0
 70
    32
  0
VERTEX
  5
A6F
  8
0
 10
59.000100000000003
 20
44.03609999999999
 30
0.0
 70
    32
  0
VERTEX
  5
A70
  8
0
 10
58.253999999999998
 20
43.990699999999997
 30
0.0
 70
    32
  0
VERTEX
  5
A71
  8
0
 10
57.5152
 20
43.934199999999983
 30
0.0
 70
    32
  0
VERTEX
  5
A72
  8
0
 10
56.785600000000002
 20
43.866900000000001
 30
0.0
 70
    32
  0
VERTEX
  5
A73
  8
0
 10
56.066899999999997
 20
43.788800000000002
 30
0.0
 70
    32
  0
VERTEX
  5
A74
  8
0
 10
55.360799999999998
 20
43.700200000000002
 30
0.0
 70
    32
  0
VERTEX
  5
A75
  8
0
 10
54.668900000000001
 20
43.601300000000002
 30
0.0
 70
    32
  0
VERTEX
  5
A76
  8
0
 10
53.993099999999991
 20
43.4923
 30
0.0
 70
    32
  0
VERTEX
  5
A77
  8
0
 10
53.334899999999998
 20
43.373499999999993
 30
0.0
 70
    32
  0
VERTEX
  5
A78
  8
0
 10
52.695900000000002
 20
43.245199999999983
 30
0.0
 70
    32
  0
VERTEX
  5
A79
  8
0
 10
52.077599999999997
 20
43.107599999999998
 30
0.0
 70
    32
  0
VERTEX
  5
A7A
  8
0
 10
51.481499999999997
 20
42.961199999999998
 30
0.0
 70
    32
  0
VERTEX
  5
A7B
  8
0
 10
50.909100000000002
 20
42.806199999999983
 30
0.0
 70
    32
  0
VERTEX
  5
A7C
  8
0
 10
50.361800000000002
 20
42.643099999999997
 30
0.0
 70
    32
  0
VERTEX
  5
A7D
  8
0
 10
49.840699999999998
 20
42.472200000000001
 30
0.0
 70
    32
  0
VERTEX
  5
A7E
  8
0
 10
49.3474
 20
42.293999999999997
 30
0.0
 70
    32
  0
VERTEX
  5
A7F
  8
0
 10
48.882800000000003
 20
42.108800000000002
 30
0.0
 70
    32
  0
VERTEX
  5
A80
  8
0
 10
48.448099999999982
 20
41.917099999999991
 30
0.0
 70
    32
  0
VERTEX
  5
A81
  8
0
 10
48.044400000000003
 20
41.7194
 30
0.0
 70
    32
  0
VERTEX
  5
A82
  8
0
 10
47.672600000000003
 20
41.516199999999998
 30
0.0
 70
    32
  0
VERTEX
  5
A83
  8
0
 10
47.333699999999993
 20
41.307899999999997
 30
0.0
 70
    32
  0
VERTEX
  5
A84
  8
0
 10
47.028399999999998
 20
41.095100000000002
 30
0.0
 70
    32
  0
VERTEX
  5
A85
  8
0
 10
46.757499999999993
 20
40.878199999999993
 30
0.0
 70
    32
  0
VERTEX
  5
A86
  8
0
 10
46.521700000000003
 20
40.657800000000002
 30
0.0
 70
    32
  0
VERTEX
  5
A87
  8
0
 10
46.3215
 20
40.434499999999993
 30
0.0
 70
    32
  0
VERTEX
  5
A88
  8
0
 10
46.157299999999999
 20
40.208599999999983
 30
0.0
 70
    32
  0
VERTEX
  5
A89
  8
0
 10
46.029699999999998
 20
39.980899999999998
 30
0.0
 70
    32
  0
VERTEX
  5
A8A
  8
0
 10
45.938800000000001
 20
39.751800000000003
 30
0.0
 70
    32
  0
VERTEX
  5
A8B
  8
0
 10
45.884999999999977
 20
39.521900000000002
 30
0.0
 70
    32
  0
VERTEX
  5
A8C
  8
0
 10
45.868299999999991
 20
39.291800000000002
 30
0.0
 70
    32
  0
SEQEND
  5
A8D
  8
0
  0
ENDBLK
  5
934
  8
0
  0
BLOCK
  8
0
  2
*U8
 70
     1
 10
0.0
 20
0.0
 30
0.0
  3
*U8
  1

  0
CIRCLE
  5
936
  8
0
 10
30.591444679743041
 20
37.621583682847451
 30
0.0
 40
0.9835652357394792
  0
ENDBLK
  5
938
  8
0
  0
BLOCK
  8
0
  2
*U9
 70
     1
 10
0.0
 20
0.0
 30
0.0
  3
*U9
  1

  0
LINE
  5
93A
  8
0
 10
96.608608528587837
 20
85.042289204066165
 30
0.0
 11
96.668729302494285
 21
100.8082704141259
 31
0.0
  0
ARC
  5
93B
  8
0
 10
91.852255980815215
 20
84.674385146777936
 30
0.0
 40
4.7705600252038494
 50
178.3187207056653
 51
4.4230238104085631
  0
LINE
  5
93C
  8
0
 10
103.14335917552231
 20
100.8084979047029
 30
0.0
 11
96.668729302494285
 21
100.8082704141259
 31
0.0
  0
LINE
  5
93D
  8
0
 10
87.083749682409632
 20
84.814351700424481
 30
0.0
 11
86.988887367836668
 21
100.71044080018341
 31
0.0
  0
LINE
  5
93E
  8
0
 10
111.3278183848425
 20
100.6201963527872
 30
0.0
 11
103.14335917552231
 21
100.8084979047029
 31
0.0
  0
LINE
  5
93F
  8
0
 10
86.988887367836668
 20
100.71044080018341
 30
0.0
 11
78.31164117552494
 21
100.3413704472032
 31
0.0
  0
LINE
  5
940
  8
0
 10
118.362726909122
 20
100.3589045320021
 30
0.0
 11
111.3278183848425
 21
100.6201963527872
 31
0.0
  0
LINE
  5
941
  8
0
 10
78.31164117552494
 20
100.3413704472032
 30
0.0
 11
71.026426167918075
 21
99.934377837496072
 31
0.0
  0
LINE
  5
942
  8
0
 10
124.65953138108109
 20
100.0033538109641
 30
0.0
 11
118.362726909122
 21
100.3589045320021
 31
0.0
  0
LINE
  5
943
  8
0
 10
71.026426167918075
 20
99.934377837496072
 30
0.0
 11
64.122428808545905
 21
99.544511006849561
 31
0.0
  0
LINE
  5
944
  8
0
 10
132.5179847507988
 20
99.48471409463977
 30
0.0
 11
124.65953138108109
 21
100.0033538109641
 31
0.0
  0
LINE
  5
945
  8
0
 10
64.122428808545905
 20
99.544511006849561
 30
0.0
 11
57.87182123318324
 21
99.146208009237952
 31
0.0
  0
LINE
  5
946
  8
0
 10
139.7907337615913
 20
98.91340903354326
 30
0.0
 11
132.5179847507988
 21
99.48471409463977
 31
0.0
  0
LINE
  5
947
  8
0
 10
57.87182123318324
 20
99.146208009237952
 30
0.0
 11
50.402534010669207
 21
98.519770165562051
 31
0.0
  0
LINE
  5
948
  8
0
 10
145.9699882875592
 20
98.29842906714336
 30
0.0
 11
139.7907337615913
 21
98.91340903354326
 31
0.0
  0
LINE
  5
949
  8
0
 10
50.402534010669207
 20
98.519770165562051
 30
0.0
 11
42.280483246696782
 21
97.861109307728853
 31
0.0
  0
LINE
  5
94A
  8
0
 10
152.5160439142368
 20
97.445621251925871
 30
0.0
 11
145.9699882875592
 21
98.29842906714336
 31
0.0
  0
LINE
  5
94B
  8
0
 10
42.280483246696782
 20
97.861109307728853
 30
0.0
 11
30.53655725184397
 21
96.728457642233593
 31
0.0
  0
LINE
  5
94C
  8
0
 10
159.07979825652311
 20
96.472604327519264
 30
0.0
 11
152.5160439142368
 21
97.445621251925871
 31
0.0
  0
LINE
  5
94D
  8
0
 10
30.53655725184397
 20
96.728457642233593
 30
0.0
 11
18.763143685891681
 21
95.537637762337425
 31
0.0
  0
LINE
  5
94E
  8
0
 10
164.473158920988
 20
95.485941782710569
 30
0.0
 11
159.07979825652311
 21
96.472604327519264
 31
0.0
  0
LINE
  5
94F
  8
0
 10
18.763143685891681
 20
95.537637762337425
 30
0.0
 11
12.06871442729935
 21
94.782723100056032
 31
0.0
  0
LINE
  5
950
  8
0
 10
170.9173313359463
 20
94.075698426999153
 30
0.0
 11
164.473158920988
 21
95.485941782710569
 31
0.0
  0
LINE
  5
951
  8
0
 10
12.06871442729935
 20
94.782723100056032
 30
0.0
 11
-2.4755188242376471
 21
81.250855671702297
 31
0.0
  0
LINE
  5
952
  8
0
 10
177.66829501773319
 20
92.388323667346555
 30
0.0
 11
170.9173313359463
 21
94.075698426999153
 31
0.0
  0
LINE
  5
953
  8
0
 10
-2.4755188242376471
 20
81.250855671702297
 30
0.0
 11
1.486850270798965
 21
80.336900789820561
 31
0.0
  0
LINE
  5
954
  8
0
 10
182.4213868354847
 20
90.817375819605488
 30
0.0
 11
177.66829501773319
 21
92.388323667346555
 31
0.0
  0
LINE
  5
955
  8
0
 10
1.486850270798965
 20
80.336900789820561
 30
0.0
 11
4.3707042448461211
 21
79.777477034825097
 31
0.0
  0
LINE
  5
956
  8
0
 10
186.22646493187301
 20
89.261810467420645
 30
0.0
 11
182.4213868354847
 21
90.817375819605488
 31
0.0
  0
LINE
  5
957
  8
0
 10
4.3707042448461211
 20
79.777477034825097
 30
0.0
 11
7.6102181645036211
 21
79.257332602861183
 31
0.0
  0
LINE
  5
958
  8
0
 10
188.71351423060759
 20
87.735887712249266
 30
0.0
 11
186.22646493187301
 21
89.261810467420645
 31
0.0
  0
LINE
  5
959
  8
0
 10
7.6102181645036211
 20
79.257332602861183
 30
0.0
 11
11.69816970632381
 21
78.525253625194622
 31
0.0
  0
LINE
  5
95A
  8
0
 10
189.65511279910601
 20
86.095380028411896
 30
0.0
 11
188.71351423060759
 21
87.735887712249266
 31
0.0
  0
LINE
  5
95B
  8
0
 10
11.69816970632381
 20
78.525253625194622
 30
0.0
 11
15.42482549752331
 21
77.901267061678269
 31
0.0
  0
LINE
  5
95C
  8
0
 10
189.6192039278821
 20
84.10371251732488
 30
0.0
 11
189.65511279910601
 21
86.095380028411896
 31
0.0
  0
LINE
  5
95D
  8
0
 10
15.42482549752331
 20
77.901267061678269
 30
0.0
 11
19.286540656028681
 21
77.289387363729134
 31
0.0
  0
LINE
  5
95E
  8
0
 10
189.11940314328319
 20
82.719792564930344
 30
0.0
 11
189.6192039278821
 21
84.10371251732488
 31
0.0
  0
LINE
  5
95F
  8
0
 10
19.286540656028681
 20
77.289387363729134
 30
0.0
 11
23.280579317990469
 21
76.749275335459956
 31
0.0
  0
LINE
  5
960
  8
0
 10
187.82874839317839
 20
81.583727911570904
 30
0.0
 11
189.11940314328319
 21
82.719792564930344
 31
0.0
  0
LINE
  5
961
  8
0
 10
23.280579317990469
 20
76.749275335459956
 30
0.0
 11
28.96911663097579
 21
75.837626065967342
 31
0.0
  0
LINE
  5
962
  8
0
 10
184.07070573583241
 20
79.914712500530754
 30
0.0
 11
187.82874839317839
 21
81.583727911570904
 31
0.0
  0
LINE
  5
963
  8
0
 10
28.96911663097579
 20
75.837626065967342
 30
0.0
 11
34.34439154093706
 21
75.032966145346563
 31
0.0
  0
LINE
  5
964
  8
0
 10
180.9446851247728
 20
78.909655061672765
 30
0.0
 11
184.07070573583241
 21
79.914712500530754
 31
0.0
  0
LINE
  5
965
  8
0
 10
34.34439154093706
 20
75.032966145346563
 30
0.0
 11
40.134001579026958
 21
74.27947890691766
 31
0.0
  0
LINE
  5
966
  8
0
 10
177.6352138963683
 20
77.937862904068297
 30
0.0
 11
180.9446851247728
 21
78.909655061672765
 31
0.0
  0
LINE
  5
967
  8
0
 10
40.134001579026958
 20
74.27947890691766
 30
0.0
 11
45.877880603507911
 21
73.459947144977022
 31
0.0
  0
LINE
  5
968
  8
0
 10
172.84936971918941
 20
76.760664930850339
 30
0.0
 11
177.6352138963683
 21
77.937862904068297
 31
0.0
  0
LINE
  5
969
  8
0
 10
45.877880603507911
 20
73.459947144977022
 30
0.0
 11
52.051915864511422
 21
72.688585252430912
 31
0.0
  0
LINE
  5
96A
  8
0
 10
168.2682714566059
 20
75.72725154774389
 30
0.0
 11
172.84936971918941
 21
76.760664930850339
 31
0.0
  0
LINE
  5
96B
  8
0
 10
52.051915864511422
 20
72.688585252430912
 30
0.0
 11
59.678777710196613
 21
71.88170774093885
 31
0.0
  0
LINE
  5
96C
  8
0
 10
164.34627451440869
 20
74.912506291050704
 30
0.0
 11
168.2682714566059
 21
75.72725154774389
 31
0.0
  0
LINE
  5
96D
  8
0
 10
59.678777710196613
 20
71.88170774093885
 30
0.0
 11
65.672096849624936
 21
71.277298236639922
 31
0.0
  0
LINE
  5
96E
  8
0
 10
159.5965638071595
 20
74.041695744173012
 30
0.0
 11
164.34627451440869
 21
74.912506291050704
 31
0.0
  0
LINE
  5
96F
  8
0
 10
65.672096849624936
 20
71.277298236639922
 30
0.0
 11
72.990485557260513
 21
70.581378860132077
 31
0.0
  0
LINE
  5
970
  8
0
 10
153.39914521407391
 20
73.019511216054937
 30
0.0
 11
159.5965638071595
 21
74.041695744173012
 31
0.0
  0
LINE
  5
971
  8
0
 10
72.990485557260513
 20
70.581378860132077
 30
0.0
 11
80.953727211604459
 21
69.896500051323301
 31
0.0
  0
LINE
  5
972
  8
0
 10
148.85474949510061
 20
72.375839762468189
 30
0.0
 11
153.39914521407391
 21
73.019511216054937
 31
0.0
  0
LINE
  5
973
  8
0
 10
80.953727211604459
 20
69.896500051323301
 30
0.0
 11
86.99604945137888
 21
69.569025834505183
 31
0.0
  0
LINE
  5
974
  8
0
 10
143.47288893684481
 20
71.767905170662743
 30
0.0
 11
148.85474949510061
 21
72.375839762468189
 31
0.0
  0
LINE
  5
975
  8
0
 10
86.99604945137888
 20
69.569025834505183
 30
0.0
 11
92.164719590857302
 21
69.443367569668794
 31
0.0
  0
LINE
  5
976
  8
0
 10
137.18869794838349
 20
71.250785273221382
 30
0.0
 11
143.47288893684481
 21
71.767905170662743
 31
0.0
  0
LINE
  5
977
  8
0
 10
92.164719590857302
 20
69.443367569668794
 30
0.0
 11
103.5287232719318
 21
69.380043575001295
 31
0.0
  0
LINE
  5
978
  8
0
 10
130.0951068343596
 20
70.58408198387508
 30
0.0
 11
137.18869794838349
 21
71.250785273221382
 31
0.0
  0
LINE
  5
979
  8
0
 10
103.5287232719318
 20
69.380043575001295
 30
0.0
 11
112.8377701365831
 21
69.664730432991519
 31
0.0
  0
LINE
  5
97A
  8
0
 10
122.840694100474
 20
70.016183724738625
 30
0.0
 11
130.0951068343596
 21
70.58408198387508
 31
0.0
  0
LINE
  5
97B
  8
0
 10
112.8377701365831
 20
69.664730432991519
 30
0.0
 11
122.840694100474
 21
70.016183724738625
 31
0.0
  0
ENDBLK
  5
97D
  8
0
  0
BLOCK
  8
0
  2
*U10
 70
     1
 10
0.0
 20
0.0
 30
0.0
  3
*U10
  1

  0
LINE
  5
97F
  8
0
 10
42.617669789867797
 20
84.797947884026371
 30
0.0
 11
42.630931789867738
 21
85.02828788402627
 31
0.0
  0
LINE
  5
980
  8
0
 10
42.642099789867743
 20
84.569003884026301
 30
0.0
 11
42.617669789867797
 21
84.797947884026371
 31
0.0
  0
LINE
  5
981
  8
0
 10
42.630931789867738
 20
85.02828788402627
 30
0.0
 11
42.680489789867892
 21
85.259325884026225
 31
0.0
  0
LINE
  5
982
  8
0
 10
42.703523789867837
 20
84.340757884026274
 30
0.0
 11
42.642099789867743
 21
84.569003884026301
 31
0.0
  0
LINE
  5
983
  8
0
 10
42.680489789867892
 20
85.259325884026225
 30
0.0
 11
42.767739789867719
 21
85.489665884026294
 31
0.0
  0
LINE
  5
984
  8
0
 10
42.801941789867783
 20
84.114605884026346
 30
0.0
 11
42.703523789867837
 21
84.340757884026274
 31
0.0
  0
LINE
  5
985
  8
0
 10
42.767739789867719
 20
85.489665884026294
 30
0.0
 11
42.891285789867752
 21
85.72000588402625
 31
0.0
  0
LINE
  5
986
  8
0
 10
42.937353789867842
 20
83.891245884026276
 30
0.0
 11
42.801941789867783
 21
84.114605884026346
 31
0.0
  0
LINE
  5
987
  8
0
 10
42.891285789867752
 20
85.72000588402625
 30
0.0
 11
43.051825789867827
 21
85.948251884026263
 31
0.0
  0
LINE
  5
988
  8
0
 10
43.108363789867767
 20
83.671375884026219
 30
0.0
 11
42.937353789867842
 21
83.891245884026276
 31
0.0
  0
LINE
  5
989
  8
0
 10
43.051825789867827
 20
85.948251884026263
 30
0.0
 11
43.248661789867768
 21
86.175101884026262
 31
0.0
  0
LINE
  5
98A
  8
0
 10
43.316367789867719
 20
83.454297884026246
 30
0.0
 11
43.108363789867767
 21
83.671375884026219
 31
0.0
  0
LINE
  5
98B
  8
0
 10
43.248661789867768
 20
86.175101884026262
 30
0.0
 11
43.480397789867872
 21
86.399159884026403
 31
0.0
  0
LINE
  5
98C
  8
0
 10
43.559271789867793
 20
83.242105884026373
 30
0.0
 11
43.316367789867719
 21
83.454297884026246
 31
0.0
  0
LINE
  5
98D
  8
0
 10
43.480397789867872
 20
86.399159884026403
 30
0.0
 11
43.74773178986775
 21
86.620425884026403
 31
0.0
  0
LINE
  5
98E
  8
0
 10
43.837075789867747
 20
83.034101884026285
 30
0.0
 11
43.559271789867793
 21
83.242105884026373
 31
0.0
  0
LINE
  5
98F
  8
0
 10
43.74773178986775
 20
86.620425884026403
 30
0.0
 11
44.049267789867812
 21
86.838201884026248
 31
0.0
  0
LINE
  5
990
  8
0
 10
44.14908178986785
 20
82.831681884026352
 30
0.0
 11
43.837075789867747
 21
83.034101884026285
 31
0.0
  0
LINE
  5
991
  8
0
 10
44.049267789867812
 20
86.838201884026248
 30
0.0
 11
44.385005789867769
 21
87.052487884026249
 31
0.0
  0
LINE
  5
992
  8
0
 10
44.494591789867727
 20
82.634845884026376
 30
0.0
 11
44.14908178986785
 21
82.831681884026352
 31
0.0
  0
LINE
  5
993
  8
0
 10
44.385005789867769
 20
87.052487884026249
 30
0.0
 11
44.75285178986779
 21
87.261887884026208
 31
0.0
  0
LINE
  5
994
  8
0
 10
44.872907789867881
 20
82.443593884026427
 30
0.0
 11
44.494591789867727
 21
82.634845884026376
 31
0.0
  0
LINE
  5
995
  8
0
 10
44.75285178986779
 20
87.261887884026208
 30
0.0
 11
45.153503789867827
 21
87.466401884026254
 31
0.0
  0
LINE
  5
996
  8
0
 10
45.283331789867802
 20
82.259321884026207
 30
0.0
 11
44.872907789867881
 21
82.443593884026427
 31
0.0
  0
LINE
  5
997
  8
0
 10
45.153503789867827
 20
87.466401884026254
 30
0.0
 11
45.58486778986785
 21
87.665331884026386
 31
0.0
  0
LINE
  5
998
  8
0
 10
45.723769789867767
 20
82.082727884026269
 30
0.0
 11
45.283331789867802
 21
82.259321884026207
 31
0.0
  0
LINE
  5
999
  8
0
 10
45.58486778986785
 20
87.665331884026386
 30
0.0
 11
46.046245789867818
 21
87.857979884026449
 31
0.0
  0
LINE
  5
99A
  8
0
 10
46.19422178986779
 20
81.912415884026245
 30
0.0
 11
45.723769789867767
 21
82.082727884026269
 31
0.0
  0
LINE
  5
99B
  8
0
 10
46.046245789867818
 20
87.857979884026449
 30
0.0
 11
46.536939789867652
 21
88.044345884026256
 31
0.0
  0
LINE
  5
99C
  8
0
 10
46.69329178986775
 20
81.751177884026205
 30
0.0
 11
46.19422178986779
 21
81.912415884026245
 31
0.0
  0
LINE
  5
99D
  8
0
 10
46.536939789867652
 20
88.044345884026256
 30
0.0
 11
47.054855789867773
 21
88.223731884026265
 31
0.0
  0
LINE
  5
99E
  8
0
 10
47.219583789867762
 20
81.597617884026221
 30
0.0
 11
46.69329178986775
 21
81.751177884026205
 31
0.0
  0
LINE
  5
99F
  8
0
 10
47.054855789867773
 20
88.223731884026265
 30
0.0
 11
47.599295789867782
 21
88.396137884026189
 31
0.0
  0
LINE
  5
9A0
  8
0
 10
47.772399789867769
 20
81.452433884026263
 30
0.0
 11
47.219583789867762
 21
81.597617884026221
 31
0.0
  0
LINE
  5
9A1
  8
0
 10
47.599295789867782
 20
88.396137884026189
 30
0.0
 11
48.168863789867707
 21
88.560865884026384
 31
0.0
  0
LINE
  5
9A2
  8
0
 10
48.349645789867843
 20
81.316323884026204
 30
0.0
 11
47.772399789867769
 21
81.452433884026263
 31
0.0
  0
LINE
  5
9A3
  8
0
 10
48.168863789867707
 20
88.560865884026384
 30
0.0
 11
48.762861789867749
 21
88.71721788402634
 31
0.0
  0
LINE
  5
9A4
  8
0
 10
48.949925789867699
 20
81.1899858840262
 30
0.0
 11
48.349645789867843
 21
81.316323884026204
 31
0.0
  0
LINE
  5
9A5
  8
0
 10
48.762861789867749
 20
88.71721788402634
 30
0.0
 11
49.378497789867872
 21
88.865193884026297
 31
0.0
  0
LINE
  5
9A6
  8
0
 10
49.572541789867827
 20
81.07272188402635
 30
0.0
 11
48.949925789867699
 21
81.1899858840262
 31
0.0
  0
LINE
  5
9A7
  8
0
 10
49.378497789867872
 20
88.865193884026297
 30
0.0
 11
50.015073789867742
 21
89.004095884026341
 31
0.0
  0
LINE
  5
9A8
  8
0
 10
50.21539978986786
 20
80.965927884026271
 30
0.0
 11
49.572541789867827
 21
81.07272188402635
 31
0.0
  0
LINE
  5
9A9
  8
0
 10
50.015073789867742
 20
89.004095884026341
 30
0.0
 11
50.671193789867701
 21
89.133923884026302
 31
0.0
  0
LINE
  5
9AA
  8
0
 10
50.877103789867739
 20
80.868905884026276
 30
0.0
 11
50.21539978986786
 21
80.965927884026271
 31
0.0
  0
LINE
  5
9AB
  8
0
 10
50.671193789867701
 20
89.133923884026302
 30
0.0
 11
51.345461789867826
 21
89.253979884026293
 31
0.0
  0
LINE
  5
9AC
  8
0
 10
51.556257789867779
 20
80.782353884026165
 30
0.0
 11
50.877103789867739
 21
80.868905884026276
 31
0.0
  0
LINE
  5
9AD
  8
0
 10
51.345461789867826
 20
89.253979884026293
 30
0.0
 11
52.035783789867757
 21
89.364263884026414
 31
0.0
  0
LINE
  5
9AE
  8
0
 10
52.250767789867709
 20
80.706271884026265
 30
0.0
 11
51.556257789867779
 21
80.782353884026165
 31
0.0
  0
LINE
  5
9AF
  8
0
 10
52.035783789867757
 20
89.364263884026414
 30
0.0
 11
52.740065789867671
 21
89.46477588402638
 31
0.0
  0
LINE
  5
9B0
  8
0
 10
52.959935789867792
 20
80.641357884026263
 30
0.0
 11
52.250767789867709
 21
80.706271884026265
 31
0.0
  0
LINE
  5
9B1
  8
0
 10
52.740065789867671
 20
89.46477588402638
 30
0.0
 11
53.457609789867753
 21
89.554817884026406
 31
0.0
  0
LINE
  5
9B2
  8
0
 10
53.680271789867767
 20
80.586913884026188
 30
0.0
 11
52.959935789867792
 21
80.641357884026263
 31
0.0
  0
LINE
  5
9B3
  8
0
 10
53.457609789867753
 20
89.554817884026406
 30
0.0
 11
54.18562378986779
 21
89.634389884026305
 31
0.0
  0
LINE
  5
9B4
  8
0
 10
54.41177578986774
 20
80.543637884026225
 30
0.0
 11
53.680271789867767
 21
80.586913884026188
 31
0.0
  0
LINE
  5
9B5
  8
0
 10
54.18562378986779
 20
89.634389884026305
 30
0.0
 11
54.923409789867812
 21
89.702793884026363
 31
0.0
  0
LINE
  5
9B6
  8
0
 10
55.152353789867888
 20
80.511529884026345
 30
0.0
 11
54.41177578986774
 21
80.543637884026225
 31
0.0
  0
LINE
  5
9B7
  8
0
 10
54.923409789867812
 20
89.702793884026363
 30
0.0
 11
55.668873789867781
 21
89.760727884026323
 31
0.0
  0
LINE
  5
9B8
  8
0
 10
55.899213789867858
 20
80.490589884026221
 30
0.0
 11
55.152353789867888
 21
80.511529884026345
 31
0.0
  0
LINE
  5
9B9
  8
0
 10
55.668873789867781
 20
89.760727884026323
 30
0.0
 11
56.41992178986775
 21
89.807493884026258
 31
0.0
  0
LINE
  5
9BA
  8
0
 10
56.651657789867819
 20
80.481515884026294
 30
0.0
 11
55.899213789867858
 21
80.490589884026221
 31
0.0
  0
LINE
  5
9BB
  8
0
 10
56.41992178986775
 20
89.807493884026258
 30
0.0
 11
57.174459789867662
 21
89.843091884026165
 31
0.0
  0
LINE
  5
9BC
  8
0
 10
57.407591789867737
 20
80.483609884026222
 30
0.0
 11
56.651657789867819
 21
80.481515884026294
 31
0.0
  0
LINE
  5
9BD
  8
0
 10
57.174459789867662
 20
89.843091884026165
 30
0.0
 11
57.931789789867793
 21
89.86821988402626
 31
0.0
  0
LINE
  5
9BE
  8
0
 10
58.164921789867748
 20
80.496173884026206
 30
0.0
 11
57.407591789867737
 21
80.483609884026222
 31
0.0
  0
LINE
  5
9BF
  8
0
 10
57.931789789867793
 20
89.86821988402626
 30
0.0
 11
58.689119789867831
 21
89.8807838840263
 31
0.0
  0
LINE
  5
9C0
  8
0
 10
58.921553789867829
 20
80.521301884026229
 30
0.0
 11
58.164921789867748
 21
80.496173884026206
 31
0.0
  0
LINE
  5
9C1
  8
0
 10
58.689119789867831
 20
89.8807838840263
 30
0.0
 11
59.444355789867792
 21
89.882877884026357
 31
0.0
  0
LINE
  5
9C2
  8
0
 10
59.676789789867811
 20
80.556899884026294
 30
0.0
 11
58.921553789867829
 21
80.521301884026229
 31
0.0
  0
LINE
  5
9C3
  8
0
 10
59.444355789867792
 20
89.882877884026357
 30
0.0
 11
60.196799789867761
 21
89.873803884026302
 31
0.0
  0
LINE
  5
9C4
  8
0
 10
60.42783778986778
 20
80.603665884026199
 30
0.0
 11
59.676789789867811
 21
80.556899884026294
 31
0.0
  0
LINE
  5
9C5
  8
0
 10
60.196799789867761
 20
89.873803884026302
 30
0.0
 11
60.94435778986778
 21
89.852863884026405
 31
0.0
  0
LINE
  5
9C6
  8
0
 10
61.172603789867701
 20
80.661599884026359
 30
0.0
 11
60.42783778986778
 21
80.603665884026199
 31
0.0
  0
LINE
  5
9C7
  8
0
 10
60.94435778986778
 20
89.852863884026405
 30
0.0
 11
61.684237789867879
 21
89.820755884026255
 31
0.0
  0
LINE
  5
9C8
  8
0
 10
61.910389789867828
 20
80.730003884026246
 30
0.0
 11
61.172603789867701
 21
80.661599884026359
 31
0.0
  0
LINE
  5
9C9
  8
0
 10
61.684237789867879
 20
89.820755884026255
 30
0.0
 11
62.415741789867717
 21
89.777479884026206
 31
0.0
  0
LINE
  5
9CA
  8
0
 10
62.639101789867809
 20
80.809575884026344
 30
0.0
 11
61.910389789867828
 21
80.730003884026246
 31
0.0
  0
LINE
  5
9CB
  8
0
 10
62.415741789867717
 20
89.777479884026206
 30
0.0
 11
63.136775789867762
 21
89.723733884026259
 31
0.0
  0
LINE
  5
9CC
  8
0
 10
63.355947789867841
 20
80.899617884026384
 30
0.0
 11
62.639101789867809
 21
80.809575884026344
 31
0.0
  0
LINE
  5
9CD
  8
0
 10
63.136775789867762
 20
89.723733884026259
 30
0.0
 11
63.845245789867811
 21
89.658121884026258
 31
0.0
  0
LINE
  5
9CE
  8
0
 10
64.060927789867804
 20
81.000129884026265
 30
0.0
 11
63.355947789867841
 21
80.899617884026384
 31
0.0
  0
LINE
  5
9CF
  8
0
 10
63.845245789867811
 20
89.658121884026258
 30
0.0
 11
64.53975578986784
 21
89.582039884026344
 31
0.0
  0
LINE
  5
9D0
  8
0
 10
64.750551789867785
 20
81.110413884026343
 30
0.0
 11
64.060927789867804
 21
81.000129884026265
 31
0.0
  0
LINE
  5
9D1
  8
0
 10
64.53975578986784
 20
89.582039884026344
 30
0.0
 11
65.21890978986778
 21
89.495487884026375
 31
0.0
  0
LINE
  5
9D2
  8
0
 10
65.424819789867783
 20
81.231167884026263
 30
0.0
 11
64.750551789867785
 21
81.110413884026343
 31
0.0
  0
LINE
  5
9D3
  8
0
 10
65.21890978986778
 20
89.495487884026375
 30
0.0
 11
65.880613789867752
 21
89.398465884026336
 31
0.0
  0
LINE
  5
9D4
  8
0
 10
66.08093978986777
 20
81.360297884026295
 30
0.0
 11
65.424819789867783
 21
81.231167884026263
 31
0.0
  0
LINE
  5
9D5
  8
0
 10
65.880613789867752
 20
89.398465884026336
 30
0.0
 11
66.523471789867784
 21
89.291671884026414
 31
0.0
  0
LINE
  5
9D6
  8
0
 10
66.717515789867747
 20
81.499897884026254
 30
0.0
 11
66.08093978986777
 21
81.360297884026295
 31
0.0
  0
LINE
  5
9D7
  8
0
 10
66.523471789867784
 20
89.291671884026414
 30
0.0
 11
67.146087789867792
 21
89.174407884026323
 31
0.0
  0
LINE
  5
9D8
  8
0
 10
67.333849789867685
 20
81.647175884026296
 30
0.0
 11
66.717515789867747
 21
81.499897884026254
 31
0.0
  0
LINE
  5
9D9
  8
0
 10
67.146087789867792
 20
89.174407884026323
 30
0.0
 11
67.747065789867719
 21
89.048069884026305
 31
0.0
  0
LINE
  5
9DA
  8
0
 10
67.927149789867812
 20
81.80352788402638
 30
0.0
 11
67.333849789867685
 21
81.647175884026296
 31
0.0
  0
LINE
  5
9DB
  8
0
 10
67.747065789867719
 20
89.048069884026305
 30
0.0
 11
68.324311789867792
 21
88.911959884026274
 31
0.0
  0
LINE
  5
9DC
  8
0
 10
68.496717789867816
 20
81.968255884026348
 30
0.0
 11
67.927149789867812
 21
81.80352788402638
 31
0.0
  0
LINE
  5
9DD
  8
0
 10
68.324311789867792
 20
88.911959884026274
 30
0.0
 11
68.876429789867743
 21
88.766775884026188
 31
0.0
  0
LINE
  5
9DE
  8
0
 10
69.041157789867825
 20
82.140661884026244
 30
0.0
 11
68.496717789867816
 21
81.968255884026348
 31
0.0
  0
LINE
  5
9DF
  8
0
 10
68.876429789867743
 20
88.766775884026188
 30
0.0
 11
69.402721789867755
 21
88.613215884026289
 31
0.0
  0
LINE
  5
9E0
  8
0
 10
69.559771789867781
 20
82.32004788402628
 30
0.0
 11
69.041157789867825
 21
82.140661884026244
 31
0.0
  0
LINE
  5
9E1
  8
0
 10
69.402721789867755
 20
88.613215884026289
 30
0.0
 11
69.901791789867715
 21
88.451977884026292
 31
0.0
  0
LINE
  5
9E2
  8
0
 10
70.049767789867786
 20
82.506413884026301
 30
0.0
 11
69.559771789867781
 21
82.32004788402628
 31
0.0
  0
LINE
  5
9E3
  8
0
 10
69.901791789867715
 20
88.451977884026292
 30
0.0
 11
70.372243789867838
 21
88.28166588402641
 31
0.0
  0
LINE
  5
9E4
  8
0
 10
70.511145789867754
 20
82.699759884026435
 30
0.0
 11
70.049767789867786
 21
82.506413884026301
 31
0.0
  0
LINE
  5
9E5
  8
0
 10
70.372243789867838
 20
88.28166588402641
 30
0.0
 11
70.813379789867767
 21
88.105071884026259
 31
0.0
  0
LINE
  5
9E6
  8
0
 10
70.942509789867799
 20
82.897991884026368
 30
0.0
 11
70.511145789867754
 21
82.699759884026435
 31
0.0
  0
LINE
  5
9E7
  8
0
 10
70.813379789867767
 20
88.105071884026259
 30
0.0
 11
71.223105789867759
 21
87.920799884026309
 31
0.0
  0
LINE
  5
9E8
  8
0
 10
71.343161789867835
 20
83.102505884026272
 30
0.0
 11
70.942509789867799
 21
82.897991884026368
 31
0.0
  0
LINE
  5
9E9
  8
0
 10
71.223105789867759
 20
87.920799884026309
 30
0.0
 11
71.601421789867786
 21
87.729547884026275
 31
0.0
  0
LINE
  5
9EA
  8
0
 10
71.711705789867878
 20
83.311905884026203
 30
0.0
 11
71.343161789867835
 21
83.102505884026272
 31
0.0
  0
LINE
  5
9EB
  8
0
 10
71.601421789867786
 20
87.729547884026275
 30
0.0
 11
71.946931789867662
 21
87.532711884026298
 31
0.0
  0
LINE
  5
9EC
  8
0
 10
72.046745789867813
 20
83.526191884026275
 30
0.0
 11
71.711705789867878
 21
83.311905884026203
 31
0.0
  0
LINE
  5
9ED
  8
0
 10
71.946931789867662
 20
87.532711884026298
 30
0.0
 11
72.258937789867787
 21
87.330291884026337
 31
0.0
  0
LINE
  5
9EE
  8
0
 10
72.348281789867741
 20
83.743967884026347
 30
0.0
 11
72.046745789867813
 21
83.526191884026275
 31
0.0
  0
LINE
  5
9EF
  8
0
 10
72.258937789867787
 20
87.330291884026337
 30
0.0
 11
72.537439789867776
 21
87.122287884026377
 31
0.0
  0
LINE
  5
9F0
  8
0
 10
72.615615789867761
 20
83.965233884026375
 30
0.0
 11
72.348281789867741
 21
83.743967884026347
 31
0.0
  0
LINE
  5
9F1
  8
0
 10
72.537439789867776
 20
87.122287884026377
 30
0.0
 11
72.780343789867842
 21
86.910095884026305
 31
0.0
  0
LINE
  5
9F2
  8
0
 10
72.848049789867787
 20
84.189291884026275
 30
0.0
 11
72.615615789867761
 21
83.965233884026375
 31
0.0
  0
LINE
  5
9F3
  8
0
 10
72.780343789867842
 20
86.910095884026305
 30
0.0
 11
72.987649789867731
 21
86.693017884026176
 31
0.0
  0
LINE
  5
9F4
  8
0
 10
73.044187789867792
 20
84.416141884026274
 30
0.0
 11
72.848049789867787
 21
84.189291884026275
 31
0.0
  0
LINE
  5
9F5
  8
0
 10
72.987649789867731
 20
86.693017884026176
 30
0.0
 11
73.159357789867812
 21
86.473147884026261
 31
0.0
  0
LINE
  5
9F6
  8
0
 10
73.204727789867761
 20
84.645085884026216
 30
0.0
 11
73.044187789867792
 21
84.416141884026274
 31
0.0
  0
LINE
  5
9F7
  8
0
 10
73.159357789867812
 20
86.473147884026261
 30
0.0
 11
73.294071789867857
 21
86.249787884026432
 31
0.0
  0
LINE
  5
9F8
  8
0
 10
73.328273789867794
 20
84.874727884026342
 30
0.0
 11
73.204727789867761
 21
84.645085884026216
 31
0.0
  0
LINE
  5
9F9
  8
0
 10
73.294071789867857
 20
86.249787884026432
 30
0.0
 11
73.392489789867781
 21
86.023635884026234
 31
0.0
  0
LINE
  5
9FA
  8
0
 10
73.41552378986772
 20
85.105067884026269
 30
0.0
 11
73.328273789867794
 21
84.874727884026342
 31
0.0
  0
LINE
  5
9FB
  8
0
 10
73.392489789867781
 20
86.023635884026234
 30
0.0
 11
73.453913789867784
 21
85.795389884026349
 31
0.0
  0
LINE
  5
9FC
  8
0
 10
73.46577978986771
 20
85.336105884026225
 30
0.0
 11
73.41552378986772
 21
85.105067884026269
 31
0.0
  0
LINE
  5
9FD
  8
0
 10
73.453913789867784
 20
85.795389884026349
 30
0.0
 11
73.478343789867807
 21
85.56644588402628
 31
0.0
  0
LINE
  5
9FE
  8
0
 10
73.478343789867807
 20
85.56644588402628
 30
0.0
 11
73.46577978986771
 21
85.336105884026225
 31
0.0
  0
ENDBLK
  5
A00
  8
0
  0
BLOCK
  8
0
  2
*U11
 70
     1
 10
0.0
 20
0.0
 30
0.0
  3
*U11
  1

  0
CIRCLE
  5
A02
  8
0
 10
25.402737650757881
 20
85.535449212658946
 30
0.0
 40
0.9835652357394796
  0
ENDBLK
  5
A04
  8
0
  0
BLOCK
  8
0
  2
*U12
 70
     1
 10
0.0
 20
0.0
 30
0.0
  3
*U12
  1

  0
LINE
  5
A06
  8
0
 10
111.43401863271809
 20
72.253510870561286
 30
0.0
 11
111.565870425345
 21
92.430471719106777
 31
0.0
  0
LINE
  5
A07
  8
0
 10
116.66079567335009
 20
72.125487206978733
 30
0.0
 11
111.43401863271809
 21
72.253510870561286
 31
0.0
  0
LINE
  5
A08
  8
0
 10
111.565870425345
 20
92.430471719106777
 30
0.0
 11
116.7484238833628
 21
92.387131716295826
 31
0.0
  0
LINE
  5
A09
  8
0
 10
116.7484238833628
 20
92.387131716295826
 30
0.0
 11
116.66079567335009
 21
72.125487206978733
 31
0.0
  0
ENDBLK
  5
A0B
  8
0
  0
BLOCK
  8
0
 62
     1
  2
*D13
 70
     1
 10
0.0
 20
0.0
 30
0.0
  3
*D13
  1

  0
ARC
  5
ED7
  8
0
 62
     0
 10
3.8279109895937551
 20
41.152263670403343
 30
0.0
 40
10.25016405131125
 50
236.9165814473487
 51
304.07211534419258
  0
SOLID
  5
ED8
  8
0
 62
     0
 10
-2.0355567186971482
 20
32.245116492989567
 30
0.0
 11
-1.4989201836599571
 21
32.8826630981156
 31
0.0
 12
-3.6798782665566319
 22
34.173799400664173
 32
0.0
 13
-3.6798782665566319
 23
34.173799400664173
 33
0.0
  0
SOLID
  5
ED9
  8
0
 62
     0
 10
9.2966423611775522
 20
32.975809600393269
 30
0.0
 11
9.8441999684253823
 21
32.347617662217132
 31
0.0
 12
11.454996979329851
 22
34.3043864530487
 32
0.0
 13
11.454996979329851
 23
34.3043864530487
 33
0.0
  0
INSERT
  5
EDA
  8
0
 62
     1
  2
*U14
 10
0.0
 20
0.0
 30
0.0
  0
POINT
  5
EDB
  8
DEFPOINTS
 62
     0
 10
1.111439789603744
 20
31.268608106877341
 30
0.0
  0
POINT
  5
EDC
  8
DEFPOINTS
 62
     0
 10
3.8279109895937271
 20
41.152263670403308
 30
0.0
  0
POINT
  5
EDD
  8
DEFPOINTS
 62
     0
 10
18.177521580639311
 20
28.268657588530381
 30
0.0
  0
POINT
  5
EDE
  8
DEFPOINTS
 62
     0
 10
3.8279109895936592
 20
41.152263670403407
 30
0.0
  0
POINT
  5
EDF
  8
DEFPOINTS
 62
     0
 10
-39.659139129280682
 20
0.7312002791637725
 30
0.0
  0
ENDBLK
  5
ED6
  8
0
 62
     1
  0
BLOCK
  8
0
 62
     1
  2
*U14
 70
     1
 10
0.0
 20
0.0
 30
0.0
  3
*U14
  1

  0
TEXT
  5
4AE4
  8
0
 62
     0
 10
0.994397838222132
 20
31.502293168888691
 30
0.0
 40
2.5
  1
95°
 50
0.4943483957706799
  0
ENDBLK
  5
4AE6
  8
0
 62
     1
  0
BLOCK
  8
0
 62
     1
  2
*D15
 70
     1
 10
0.0
 20
0.0
 30
0.0
  3
*D15
  1

  0
LINE
  5
EE5
  8
0
 62
     0
 10
3.827910989593442
 20
41.777263670403357
 30
0.0
 11
3.827910989593442
 21
45.189180753732217
 31
0.0
  0
ARC
  5
EE6
  8
0
 62
     0
 10
3.827910989593442
 20
41.15226367040303
 30
0.0
 40
2.7869170833291701
 50
36.701913716996323
 51
90.0
  0
LINE
  5
EE7
  8
0
 62
     0
 10
6.0623375984239161
 20
42.817870034194407
 30
0.0
 11
11.29179195512288
 21
35.80250781038859
 31
0.0
  0
ARC
  5
EE8
  8
0
 62
     0
 10
3.827910989593442
 20
41.15226367040303
 30
0.0
 40
2.7869170833291701
 50
143.29808628300361
 51
169.60926768775599
  0
SOLID
  5
EE9
  8
0
 62
     0
 10
1.4065992608400091
 20
43.19027446899949
 30
0.0
 11
1.780369500685935
 21
42.445465599389337
 31
0.0
 12
3.827910989593442
 22
43.939180753732209
 32
0.0
 13
3.827910989593442
 23
43.939180753732209
 33
0.0
  0
SOLID
  5
EEA
  8
0
 62
     0
 10
1.4867013709477861
 20
41.771565615735447
 30
0.0
 11
0.6866936586856272
 21
41.538258726069678
 31
0.0
 12
1.7866181838140021
 22
39.25488903411609
 32
0.0
 13
1.7866181838140021
 23
39.25488903411609
 33
0.0
  0
INSERT
  5
EEB
  8
0
 62
     1
  2
*U16
 10
0.0
 20
0.0
 30
0.0
  0
POINT
  5
EEC
  8
DEFPOINTS
 62
     0
 10
1.8814001658592769
 20
43.146756699329877
 30
0.0
  0
POINT
  5
EED
  8
DEFPOINTS
 62
     0
 10
3.8279109895937271
 20
41.152263670403308
 30
0.0
  0
POINT
  5
EEE
  8
DEFPOINTS
 62
     0
 10
3.827910989593442
 20
41.152263670403379
 30
0.0
  0
POINT
  5
EEF
  8
DEFPOINTS
 62
     0
 10
3.8279109895934429
 20
8.7659057030768963
 30
0.0
  0
POINT
  5
EF0
  8
DEFPOINTS
 62
     0
 10
-39.659139129280689
 20
0.7312002791637707
 30
0.0
  0
ENDBLK
  5
EE4
  8
0
 62
     1
  0
BLOCK
  8
0
 62
     1
  2
*U16
 70
     1
 10
0.0
 20
0.0
 30
0.0
  3
*U16
  1

  0
TEXT
  5
4AE8
  8
0
 62
     0
 10
12.05718104102584
 20
41.050286344890637
 30
0.0
 40
2.5
  1
133°
 50
216.7019137169963
  0
ENDBLK
  5
4AEA
  8
0
 62
     1
  0
BLOCK
  8
0
 62
     1
  2
*D17
 70
     1
 10
0.0
 20
0.0
 30
0.0
  3
*D17
  1

  0
LINE
  5
F23
  8
0
 62
     0
 10
120.279346904652
 20
54.27618343203082
 30
0.0
 11
120.3292149001921
 21
58.169555646834127
 31
0.0
  0
LINE
  5
F24
  8
0
 62
     0
 10
115.1558139315124
 20
54.341807858712208
 30
0.0
 11
115.2056819270524
 21
58.235180073515536
 31
0.0
  0
LINE
  5
F25
  8
0
 62
     0
 10
122.8130006279091
 20
56.887639714025319
 30
0.0
 11
125.3127955832063
 21
56.855621258865092
 31
0.0
  0
LINE
  5
F26
  8
0
 62
     0
 10
112.68987774417521
 20
57.017301051027182
 30
0.0
 11
99.774270475139843
 21
57.18272973602172
 31
0.0
  0
LINE
  5
F27
  8
0
 62
     0
 10
120.313205672612
 20
56.919658169185539
 30
0.0
 11
115.1896726994723
 21
56.985282595866948
 31
0.0
  0
SOLID
  5
F28
  8
0
 62
     0
 10
122.81833703710249
 20
57.304272206574851
 30
0.0
 11
122.8076642187158
 21
56.47100722147578
 31
0.0
 12
120.313205672612
 22
56.919658169185539
 32
0.0
 13
120.313205672612
 23
56.919658169185539
 33
0.0
  0
SOLID
  5
F29
  8
0
 62
     0
 10
112.6952141533685
 20
57.433933543576707
 30
0.0
 11
112.6845413349818
 21
56.600668558477672
 31
0.0
 12
115.1896726994723
 22
56.985282595866948
 32
0.0
 13
115.1896726994723
 23
56.985282595866948
 33
0.0
  0
INSERT
  5
F2A
  8
0
 62
     1
  2
*U18
 10
0.0
 20
0.0
 30
0.0
  0
POINT
  5
F2B
  8
DEFPOINTS
 62
     0
 10
120.27134229086199
 20
53.651234693206533
 30
0.0
  0
POINT
  5
F2C
  8
DEFPOINTS
 62
     0
 10
115.14780931772231
 20
53.716859119887943
 30
0.0
  0
POINT
  5
F2D
  8
DEFPOINTS
 62
     0
 10
115.1896726994723
 20
56.985282595866948
 30
0.0
  0
ENDBLK
  5
F12
  8
0
 62
     1
  0
BLOCK
  8
0
 62
     1
  2
*U18
 70
     1
 10
0.0
 20
0.0
 30
0.0
  3
*U18
  1

  0
TEXT
  5
4AEC
  8
0
 62
     0
 10
100.40722382775419
 20
57.799673861055958
 30
0.0
 40
2.5
  1
5.124
 50
359.26617099863961
  0
ENDBLK
  5
4AEE
  8
0
 62
     1
  0
BLOCK
  8
0
 62
     1
  2
*D19
 70
     1
 10
0.0
 20
0.0
 30
0.0
  3
*D19
  1

  0
LINE
  5
11C7
  8
0
 62
     0
 10
-1.3412379521187261
 20
82.119896240915565
 30
0.0
 11
-1.963866378957811
 21
125.7090544617058
 31
0.0
  0
LINE
  5
11C8
  8
0
 62
     0
 10
189.0121677419281
 20
84.838908178021924
 30
0.0
 11
188.389539315089
 21
128.42806639881221
 31
0.0
  0
LINE
  5
11C9
  8
0
 62
     0
 10
0.553731822828537
 20
124.4948883716002
 30
0.0
 11
185.9076475219328
 21
127.1424874914464
 31
0.0
  0
SOLID
  5
11CA
  8
0
 62
     0
 10
0.547780754723517
 20
124.9115125378455
 30
0.0
 11
0.5596828909335568
 21
124.0782642053551
 31
0.0
 12
-1.9460131746427509
 22
124.45918196297011
 32
0.0
 13
-1.9460131746427509
 23
124.45918196297011
 33
0.0
  0
SOLID
  5
11CB
  8
0
 62
     0
 10
185.90169645382781
 20
127.5591116576916
 30
0.0
 11
185.91359859003779
 21
126.7258633252012
 31
0.0
 12
188.40739251940411
 22
127.17819390007639
 32
0.0
 13
188.40739251940411
 23
127.17819390007639
 33
0.0
  0
INSERT
  5
11CC
  8
0
 62
     1
  2
*U20
 10
0.0
 20
0.0
 30
0.0
  0
POINT
  5
11CD
  8
DEFPOINTS
 62
     0
 10
-1.332311349961196
 20
81.494959991547717
 30
0.0
  0
POINT
  5
11CE
  8
DEFPOINTS
 62
     0
 10
189.02109434408561
 20
84.213971928654104
 30
0.0
  0
POINT
  5
11CF
  8
DEFPOINTS
 62
     0
 10
188.40739251940411
 20
127.17819390007639
 30
0.0
  0
ENDBLK
  5
11C6
  8
0
 62
     1
  0
BLOCK
  8
0
 62
     1
  2
*U20
 70
     1
 10
0.0
 20
0.0
 30
0.0
  3
*U20
  1

  0
TEXT
  5
5231
  8
0
 62
     0
 10
85.097591828441452
 20
126.3275783528433
 30
0.0
 40
2.5
  1
190.3728
 50
0.8183584310819068
  0
ENDBLK
  5
5233
  8
0
 62
     1
  0
BLOCK
  8
0
 62
     1
  2
*D21
 70
     1
 10
0.0
 20
0.0
 30
0.0
  3
*D21
  1

  0
LINE
  5
11DD
  8
0
 62
     0
 10
-16.352177028905761
 20
161.19177488988939
 30
0.0
 11
-16.535149347323362
 21
241.80861506455119
 31
0.0
  0
LINE
  5
11DE
  8
0
 62
     0
 10
222.79883257109381
 20
161.73456488988961
 30
0.0
 11
222.6158602526763
 21
242.35140506455139
 31
0.0
  0
LINE
  5
11DF
  8
0
 62
     0
 10
-14.03231872650435
 20
240.56429240402841
 30
0.0
 11
220.11870375176659
 21
241.09573416420989
 31
0.0
  0
SOLID
  5
11E0
  8
0
 62
     0
 10
-14.0332644131559
 20
240.9809579975057
 30
0.0
 11
-14.0313730398528
 21
240.147626810551
 31
0.0
 12
-16.532312287368711
 22
240.55861828411901
 32
0.0
 13
-16.532312287368711
 23
240.55861828411901
 33
0.0
  0
SOLID
  5
11E1
  8
0
 62
     0
 10
220.117758065115
 20
241.51239975768729
 30
0.0
 11
220.11964943841809
 21
240.6790685707326
 31
0.0
 12
222.6186973126309
 22
241.10140828411929
 32
0.0
 13
222.6186973126309
 23
241.10140828411929
 33
0.0
  0
INSERT
  5
11E2
  8
0
 62
     1
  2
*U22
 10
0.0
 20
0.0
 30
0.0
  0
POINT
  5
11E3
  8
DEFPOINTS
 62
     0
 10
-16.350758498928439
 20
160.5667764996733
 30
0.0
  0
POINT
  5
11E4
  8
DEFPOINTS
 62
     0
 10
222.80025110107121
 20
161.10956649967341
 30
0.0
  0
POINT
  5
11E5
  8
DEFPOINTS
 62
     0
 10
222.6186973126309
 20
241.10140828411929
 30
0.0
  0
ENDBLK
  5
11D3
  8
0
 62
     1
  0
BLOCK
  8
0
 62
     1
  2
*U22
 70
     1
 10
0.0
 20
0.0
 30
0.0
  3
*U22
  1

  0
TEXT
  5
5235
  8
0
 62
     0
 10
95.125127706583314
 20
241.4370436279558
 30
0.0
 40
2.5
  1
239.1516
 50
0.130041360948977
  0
ENDBLK
  5
5237
  8
0
 62
     1
  0
BLOCK
  8
0
 62
     1
  2
*D23
 70
     1
 10
0.0
 20
0.0
 30
0.0
  3
*D23
  1

  0
LINE
  5
31F9
  8
0
 62
     0
 10
151.65098575393759
 20
239.6138576882397
 30
0.0
 11
145.5800650773063
 21
253.11753420147389
 31
0.0
  0
LINE
  5
31FA
  8
0
 62
     0
 10
152.6209299131215
 20
240.0499207148826
 30
0.0
 11
146.5500092364901
 21
253.5535972281167
 31
0.0
  0
LINE
  5
31FB
  8
0
 62
     0
 10
143.8124523934616
 20
250.9523447409621
 30
0.0
 11
141.5322864621811
 21
249.9272382460905
 31
0.0
  0
LINE
  5
31FC
  8
0
 62
     0
 10
149.34272841520641
 20
253.4386207573481
 30
0.0
 11
163.0237240028892
 21
259.5892597265775
 31
0.0
  0
LINE
  5
31FD
  8
0
 62
     0
 10
146.09261832474209
 20
251.97745123583371
 30
0.0
 11
147.06256248392589
 21
252.4135142624765
 31
0.0
  0
SOLID
  5
31FE
  8
0
 62
     0
 10
143.64160131098299
 20
251.33237239617549
 30
0.0
 11
143.98330347594009
 21
250.57231708574861
 31
0.0
 12
146.09261832474209
 22
251.97745123583371
 32
0.0
 13
146.09261832474209
 23
251.97745123583371
 33
0.0
  0
SOLID
  5
31FF
  8
0
 62
     0
 10
149.1718773327278
 20
253.81864841256149
 30
0.0
 11
149.51357949768499
 21
253.05859310213469
 31
0.0
 12
147.06256248392589
 22
252.4135142624765
 32
0.0
 13
147.06256248392589
 23
252.4135142624765
 33
0.0
  0
INSERT
  5
3200
  8
0
 62
     1
  2
*U24
 10
0.0
 20
0.0
 30
0.0
  0
POINT
  5
3201
  8
DEFPOINTS
 62
     0
 10
151.90726237765551
 20
239.04381620541969
 30
0.0
  0
POINT
  5
3202
  8
DEFPOINTS
 62
     0
 10
152.87720653683931
 20
239.47987923206259
 30
0.0
  0
POINT
  5
3203
  8
DEFPOINTS
 62
     0
 10
147.06256248392589
 20
252.4135142624765
 30
0.0
  0
ENDBLK
  5
31F8
  8
0
 62
     1
  0
BLOCK
  8
0
 62
     1
  2
*U24
 70
     1
 10
0.0
 20
0.0
 30
0.0
  3
*U24
  1

  0
TEXT
  5
5582
  8
0
 62
     0
 10
151.936659205589
 20
255.29004535875771
 30
0.0
 40
2.5
  1
1.0635
 50
24.20751076575581
  0
ENDBLK
  5
5584
  8
0
 62
     1
  0
BLOCK
  8
0
 62
     1
  2
*D25
 70
     1
 10
0.0
 20
0.0
 30
0.0
  3
*D25
  1

  0
LINE
  5
320F
  8
0
 62
     0
 10
154.6405861946011
 20
233.6743154781233
 30
0.0
 11
154.0201459867167
 21
239.30607327014391
 31
0.0
  0
LINE
  5
3210
  8
0
 62
     0
 10
155.93347973604349
 20
233.81675113804491
 30
0.0
 11
155.31303952815909
 21
239.44850893006549
 31
0.0
  0
LINE
  5
3211
  8
0
 62
     0
 10
151.67206253320731
 20
237.78982655692241
 30
0.0
 11
149.18709708511111
 21
237.51606256774889
 31
0.0
  0
LINE
  5
3212
  8
0
 62
     0
 10
157.934886970842
 20
238.4797901951909
 30
0.0
 11
172.43051875140301
 21
240.0767467987028
 31
0.0
  0
LINE
  5
3213
  8
0
 62
     0
 10
154.1570279813034
 20
238.06359054609581
 30
0.0
 11
155.4499215227458
 21
238.20602620601741
 31
0.0
  0
SOLID
  5
3214
  8
0
 62
     0
 10
151.62643520167831
 20
238.20398746493839
 30
0.0
 11
151.7176898647362
 21
237.37566564890631
 31
0.0
 12
154.1570279813034
 22
238.06359054609581
 32
0.0
 13
154.1570279813034
 23
238.06359054609581
 33
0.0
  0
SOLID
  5
3215
  8
0
 62
     0
 10
157.88925963931311
 20
238.89395110320689
 30
0.0
 11
157.98051430237101
 21
238.06562928717489
 31
0.0
 12
155.4499215227458
 22
238.20602620601741
 32
0.0
 13
155.4499215227458
 23
238.20602620601741
 33
0.0
  0
INSERT
  5
3216
  8
0
 62
     1
  2
*U26
 10
0.0
 20
0.0
 30
0.0
  0
POINT
  5
3217
  8
DEFPOINTS
 62
     0
 10
154.70902719189439
 20
233.05307411609931
 30
0.0
  0
POINT
  5
3218
  8
DEFPOINTS
 62
     0
 10
156.0019207333369
 20
233.19550977602091
 30
0.0
  0
POINT
  5
3219
  8
DEFPOINTS
 62
     0
 10
155.4499215227458
 20
238.20602620601741
 30
0.0
  0
ENDBLK
  5
320E
  8
0
 62
     1
  0
BLOCK
  8
0
 62
     1
  2
*U26
 70
     1
 10
0.0
 20
0.0
 30
0.0
  3
*U26
  1

  0
TEXT
  5
5586
  8
0
 62
     0
 10
160.97265278366891
 20
239.44323654368179
 30
0.0
 40
2.5
  1
1.3007
 50
6.2868161199219692
  0
ENDBLK
  5
5588
  8
0
 62
     1
  0
BLOCK
  8
0
 62
     1
  2
*U27
 70
     1
 10
0.0
 20
0.0
 30
0.0
  3
*U27
  1

  0
LINE
  5
49CC
  8
0
 10
3.8279109895936592
 20
41.152263670403407
 30
0.0
 11
9.4502957957031608
 21
42.431006672512702
 31
0.0
  0
LINE
  5
49CD
  8
0
 10
18.177521580639311
 20
28.268657588530381
 30
0.0
 11
3.8279109895936592
 21
41.152263670403407
 31
0.0
  0
LINE
  5
49CE
  8
0
 10
9.4502957957031608
 20
42.431006672512702
 30
0.0
 11
12.798536924373909
 21
43.184209496001898
 31
0.0
  0
LINE
  5
49CF
  8
0
 10
24.148036383394821
 20
27.702421463315599
 30
0.0
 11
18.177521580639311
 21
28.268657588530381
 31
0.0
  0
LINE
  5
49D0
  8
0
 10
12.798536924373909
 20
43.184209496001898
 30
0.0
 11
16.910501554758529
 21
44.056264729992421
 31
0.0
  0
LINE
  5
49D1
  8
0
 10
35.9389654107894
 20
26.720752161918181
 30
0.0
 11
24.148036383394821
 21
27.702421463315599
 31
0.0
  0
LINE
  5
49D2
  8
0
 10
16.910501554758529
 20
44.056264729992421
 30
0.0
 11
20.80194097741056
 21
44.795601553248737
 31
0.0
  0
LINE
  5
49D3
  8
0
 10
47.548505820174363
 20
25.825491867669822
 30
0.0
 11
35.9389654107894
 21
26.720752161918181
 31
0.0
  0
LINE
  5
49D4
  8
0
 10
20.80194097741056
 20
44.795601553248737
 30
0.0
 11
24.504039851264501
 21
45.43689358262457
 31
0.0
  0
LINE
  5
49D5
  8
0
 10
55.48931089290879
 20
25.40216869259644
 30
0.0
 11
47.548505820174363
 21
25.825491867669822
 31
0.0
  0
LINE
  5
49D6
  8
0
 10
24.504039851264501
 20
45.43689358262457
 30
0.0
 11
28.061850531031009
 21
46.054555952665567
 31
0.0
  0
LINE
  5
49D7
  8
0
 10
63.102133993037157
 20
25.044132593915201
 30
0.0
 11
55.48931089290879
 21
25.40216869259644
 31
0.0
  0
LINE
  5
49D8
  8
0
 10
28.061850531031009
 20
46.054555952665567
 30
0.0
 11
33.97048030809993
 21
47.150064712862687
 31
0.0
  0
LINE
  5
49D9
  8
0
 10
69.417084895478013
 20
24.861805792537471
 30
0.0
 11
63.102133993037157
 21
25.044132593915201
 31
0.0
  0
LINE
  5
49DA
  8
0
 10
33.97048030809993
 20
47.150064712862687
 30
0.0
 11
39.204256187487438
 21
48.036328672106563
 31
0.0
  0
LINE
  5
49DB
  8
0
 10
76.909465575905472
 20
24.720371239213211
 30
0.0
 11
69.417084895478013
 21
24.861805792537471
 31
0.0
  0
LINE
  5
49DC
  8
0
 10
39.204256187487438
 20
48.036328672106563
 30
0.0
 11
45.059927919514969
 21
49.011356560294047
 31
0.0
  0
LINE
  5
49DD
  8
0
 10
83.628419674557904
 20
24.583869755385091
 30
0.0
 11
76.909465575905472
 21
24.720371239213211
 31
0.0
  0
LINE
  5
49DE
  8
0
 10
45.059927919514969
 20
49.011356560294047
 30
0.0
 11
50.90966586275345
 21
49.896866411952459
 31
0.0
  0
LINE
  5
49DF
  8
0
 10
91.146107452458509
 20
24.526154662223881
 30
0.0
 11
83.628419674557904
 21
24.583869755385091
 31
0.0
  0
LINE
  5
49E0
  8
0
 10
50.90966586275345
 20
49.896866411952459
 30
0.0
 11
57.118983088387928
 21
50.694480660882483
 31
0.0
  0
LINE
  5
49E1
  8
0
 10
91.240278717992055
 20
40.306444593966283
 30
0.0
 11
91.146107452458509
 21
24.526154662223881
 31
0.0
  0
LINE
  5
49E2
  8
0
 10
57.118983088387928
 20
50.694480660882483
 30
0.0
 11
64.801542818032871
 21
51.674028449986338
 31
0.0
  0
ARC
  5
49E3
  8
0
 10
96.608835683678436
 20
40.453111190359323
 30
0.0
 40
5.3705600252038384
 50
355.84406184239009
 51
181.56490604742541
  0
LINE
  5
49E4
  8
0
 10
64.801542818032871
 20
51.674028449986338
 30
0.0
 11
70.935754915960501
 21
52.357278882101028
 31
0.0
  0
LINE
  5
49E5
  8
0
 10
102.0245796060198
 20
24.511646499518911
 30
0.0
 11
101.9652738441833
 21
40.063900171753168
 31
0.0
  0
LINE
  5
49E6
  8
0
 10
70.935754915960501
 20
52.357278882101028
 30
0.0
 11
78.101334660218043
 21
53.241001087767927
 31
0.0
  0
LINE
  5
49E7
  8
0
 10
108.37736493910251
 20
24.761988565699909
 30
0.0
 11
102.0245796060198
 21
24.511646499518911
 31
0.0
  0
LINE
  5
49E8
  8
0
 10
78.101334660218043
 20
53.241001087767927
 30
0.0
 11
86.490327349724083
 21
53.92969149144227
 31
0.0
  0
LINE
  5
49E9
  8
0
 10
116.6581149954792
 20
25.070838871632841
 30
0.0
 11
108.37736493910251
 21
24.761988565699909
 31
0.0
  0
LINE
  5
49EA
  8
0
 10
86.490327349724083
 20
53.92969149144227
 30
0.0
 11
92.392619708666345
 21
54.304637150546228
 31
0.0
  0
LINE
  5
49EB
  8
0
 10
123.61677539339421
 20
25.357926866622769
 30
0.0
 11
116.6581149954792
 21
25.070838871632841
 31
0.0
  0
LINE
  5
49EC
  8
0
 10
92.392619708666345
 20
54.304637150546228
 30
0.0
 11
97.590980698321872
 21
54.599991817567989
 31
0.0
  0
LINE
  5
49ED
  8
0
 10
129.77839934750031
 20
25.791452549300669
 30
0.0
 11
123.61677539339421
 21
25.357926866622769
 31
0.0
  0
LINE
  5
49EE
  8
0
 10
97.590980698321872
 20
54.599991817567989
 30
0.0
 11
108.5800020632788
 21
54.975145391619101
 31
0.0
  0
LINE
  5
49EF
  8
0
 10
137.7137753318286
 20
26.44795816848573
 30
0.0
 11
129.77839934750031
 21
25.791452549300669
 31
0.0
  0
LINE
  5
49F0
  8
0
 10
108.5800020632788
 20
54.975145391619101
 30
0.0
 11
117.3064731314806
 21
54.998886153625541
 31
0.0
  0
LINE
  5
49F1
  8
0
 10
144.81450886365309
 20
27.343251217409229
 30
0.0
 11
137.7137753318286
 21
26.44795816848573
 31
0.0
  0
LINE
  5
49F2
  8
0
 10
117.3064731314806
 20
54.998886153625541
 30
0.0
 11
128.19932616280099
 21
54.777996143183351
 31
0.0
  0
LINE
  5
49F3
  8
0
 10
151.11138995398599
 20
28.200414705780108
 30
0.0
 11
144.81450886365309
 21
27.343251217409229
 31
0.0
  0
LINE
  5
49F4
  8
0
 10
128.19932616280099
 20
54.777996143183351
 30
0.0
 11
135.03560859964219
 21
54.395777065959813
 31
0.0
  0
LINE
  5
49F5
  8
0
 10
157.6773388190957
 20
29.23491868098516
 30
0.0
 11
151.11138995398599
 21
28.200414705780108
 31
0.0
  0
LINE
  5
49F6
  8
0
 10
135.03560859964219
 20
54.395777065959813
 30
0.0
 11
142.1938456080529
 21
53.909288832164847
 31
0.0
  0
LINE
  5
49F7
  8
0
 10
163.95279552388709
 20
30.407763012264098
 30
0.0
 11
157.6773388190957
 21
29.23491868098516
 31
0.0
  0
LINE
  5
49F8
  8
0
 10
142.1938456080529
 20
53.909288832164847
 30
0.0
 11
148.50222246151071
 21
53.407060763835041
 31
0.0
  0
LINE
  5
49F9
  8
0
 10
168.98902676167441
 20
31.421580559381571
 30
0.0
 11
163.95279552388709
 21
30.407763012264098
 31
0.0
  0
LINE
  5
49FA
  8
0
 10
148.50222246151071
 20
53.407060763835041
 30
0.0
 11
153.88320368630451
 21
52.910471688996338
 31
0.0
  0
LINE
  5
49FB
  8
0
 10
175.78748141081769
 20
32.876405775972749
 30
0.0
 11
168.98902676167441
 21
31.421580559381571
 31
0.0
  0
LINE
  5
49FC
  8
0
 10
153.88320368630451
 20
52.910471688996338
 30
0.0
 11
158.4246305629805
 21
52.361731640884543
 31
0.0
  0
LINE
  5
49FD
  8
0
 10
182.32157121983329
 20
34.393686818042298
 30
0.0
 11
175.78748141081769
 21
32.876405775972749
 31
0.0
  0
LINE
  5
49FE
  8
0
 10
158.4246305629805
 20
52.361731640884543
 30
0.0
 11
164.6296001341581
 21
51.468274649153003
 31
0.0
  0
LINE
  5
49FF
  8
0
 10
187.33606573318079
 20
35.881416857918992
 30
0.0
 11
182.32157121983329
 21
34.393686818042298
 31
0.0
  0
LINE
  5
4A00
  8
0
 10
164.6296001341581
 20
51.468274649153003
 30
0.0
 11
169.38388270953311
 21
50.696795691787351
 31
0.0
  0
LINE
  5
4A01
  8
0
 10
191.04964763292881
 20
37.501570750924671
 30
0.0
 11
187.33606573318079
 21
35.881416857918992
 31
0.0
  0
LINE
  5
4A02
  8
0
 10
169.38388270953311
 20
50.696795691787351
 30
0.0
 11
173.3097686638325
 21
49.964680593184212
 31
0.0
  0
LINE
  5
4A03
  8
0
 10
193.5506504632489
 20
39.156082338458823
 30
0.0
 11
191.04964763292881
 21
37.501570750924671
 31
0.0
  0
LINE
  5
4A04
  8
0
 10
173.3097686638325
 20
49.964680593184212
 30
0.0
 11
177.90035962023629
 21
49.027378544029432
 31
0.0
  0
LINE
  5
4A05
  8
0
 10
194.0342662081303
 20
40.337272174442752
 30
0.0
 11
193.5506504632489
 21
39.156082338458823
 31
0.0
  0
LINE
  5
4A06
  8
0
 10
177.90035962023629
 20
49.027378544029432
 30
0.0
 11
182.6906222535724
 21
47.952515283855377
 31
0.0
  0
LINE
  5
4A07
  8
0
 10
194.1484442136686
 20
41.876789142580357
 30
0.0
 11
194.0342662081303
 21
40.337272174442752
 31
0.0
  0
LINE
  5
4A08
  8
0
 10
182.6906222535724
 20
47.952515283855377
 30
0.0
 11
185.9990440447454
 21
47.054121399696498
 31
0.0
  0
LINE
  5
4A09
  8
0
 10
193.69235971119039
 20
43.072823083078319
 30
0.0
 11
194.1484442136686
 21
41.876789142580357
 31
0.0
  0
LINE
  5
4A0A
  8
0
 10
185.9990440447454
 20
47.054121399696498
 30
0.0
 11
189.1210466275927
 21
46.120376584926262
 31
0.0
  0
LINE
  5
4A0B
  8
0
 10
193.13818323139191
 20
43.964454932305991
 30
0.0
 11
193.69235971119039
 21
43.072823083078319
 31
0.0
  0
LINE
  5
4A0C
  8
0
 10
189.1210466275927
 20
46.120376584926262
 30
0.0
 11
191.0574404948355
 21
45.417107223234332
 31
0.0
  0
LINE
  5
4A0D
  8
0
 10
192.3658826594328
 20
44.666489098102929
 30
0.0
 11
193.13818323139191
 21
43.964454932305991
 31
0.0
  0
LINE
  5
4A0E
  8
0
 10
191.0574404948355
 20
45.417107223234332
 30
0.0
 11
192.3658826594328
 21
44.666489098102929
 31
0.0
  0
ENDBLK
  5
4A10
  8
0
 62
     1
  0
BLOCK
  8
0
 62
     1
  2
*U28
 70
     1
 10
0.0
 20
0.0
 30
0.0
  3
*U28
  1

  0
LINE
  5
4A12
  8
0
 10
-1.332311349961196
 20
81.494959991547717
 30
0.0
 11
12.33255883124208
 21
94.208673290814687
 31
0.0
  0
LINE
  5
4A13
  8
0
 10
-1.332311349961196
 20
81.494959991547717
 30
0.0
 11
4.4754217711158111
 21
80.368348207510365
 31
0.0
  0
LINE
  5
4A14
  8
0
 10
12.33255883124208
 20
94.208673290814687
 30
0.0
 11
18.826952415876288
 21
94.941030411979867
 31
0.0
  0
LINE
  5
4A15
  8
0
 10
4.4754217711158111
 20
80.368348207510365
 30
0.0
 11
7.7106692286505503
 21
79.84888880934237
 31
0.0
  0
LINE
  5
4A16
  8
0
 10
18.826952415876288
 20
94.941030411979867
 30
0.0
 11
30.595547076077839
 21
96.131362884486933
 31
0.0
  0
LINE
  5
4A17
  8
0
 10
7.7106692286505503
 20
79.84888880934237
 30
0.0
 11
11.80059825887802
 21
79.116455698884195
 31
0.0
  0
LINE
  5
4A18
  8
0
 10
30.595547076077839
 20
96.131362884486933
 30
0.0
 11
42.333535420585989
 21
97.263441888884415
 31
0.0
  0
LINE
  5
4A19
  8
0
 10
11.80059825887802
 20
79.116455698884195
 30
0.0
 11
15.5213179099011
 21
78.493463075220831
 31
0.0
  0
LINE
  5
4A1A
  8
0
 10
42.333535420585989
 20
97.263441888884415
 30
0.0
 11
50.451855637455502
 21
97.921800216552924
 31
0.0
  0
LINE
  5
4A1B
  8
0
 10
15.5213179099011
 20
78.493463075220831
 30
0.0
 11
19.373703454291949
 21
77.883061632718309
 31
0.0
  0
LINE
  5
4A1C
  8
0
 10
50.451855637455502
 20
97.921800216552924
 30
0.0
 11
57.915976178539701
 21
98.547804738457003
 31
0.0
  0
LINE
  5
4A1D
  8
0
 10
19.373703454291949
 20
77.883061632718309
 30
0.0
 11
23.368267864545679
 21
77.342878507747201
 31
0.0
  0
LINE
  5
4A1E
  8
0
 10
57.915976178539701
 20
98.547804738457003
 30
0.0
 11
64.158421240821241
 21
98.945587602083364
 31
0.0
  0
LINE
  5
4A1F
  8
0
 10
23.368267864545679
 20
77.342878507747201
 30
0.0
 11
29.061005609780409
 21
76.430556073822132
 31
0.0
  0
LINE
  5
4A20
  8
0
 10
64.158421240821241
 20
98.945587602083364
 30
0.0
 11
71.060254109930256
 21
99.335332204560487
 31
0.0
  0
LINE
  5
4A21
  8
0
 10
29.061005609780409
 20
76.430556073822132
 30
0.0
 11
34.427530165697668
 21
75.627206050705794
 31
0.0
  0
LINE
  5
4A22
  8
0
 10
71.060254109930256
 20
99.335332204560487
 30
0.0
 11
78.341124464834081
 21
99.742081988828346
 31
0.0
  0
LINE
  5
4A23
  8
0
 10
34.427530165697668
 20
75.627206050705794
 30
0.0
 11
40.215096158237579
 21
74.873984834034303
 31
0.0
  0
LINE
  5
4A24
  8
0
 10
78.341124464834081
 20
99.742081988828346
 30
0.0
 11
86.39261186040217
 21
100.08453686785791
 31
0.0
  0
LINE
  5
4A25
  8
0
 10
40.215096158237579
 20
74.873984834034303
 30
0.0
 11
45.957453033406487
 21
74.05467025105969
 31
0.0
  0
LINE
  5
4A26
  8
0
 10
86.39261186040217
 20
100.08453686785791
 30
0.0
 11
86.483699015128764
 21
84.821051743170941
 31
0.0
  0
LINE
  5
4A27
  8
0
 10
45.957453033406487
 20
74.05467025105969
 30
0.0
 11
52.120675898718432
 21
73.284659220575577
 31
0.0
  0
ARC
  5
4A28
  8
0
 10
91.852255980815144
 20
84.674385146777936
 30
0.0
 40
5.370560025203825
 50
178.4350939525747
 51
4.1559381576102803
  0
LINE
  5
4A29
  8
0
 10
52.120675898718432
 20
73.284659220575577
 30
0.0
 11
59.740441675032351
 21
72.478532431846261
 31
0.0
  0
LINE
  5
4A2A
  8
0
 10
97.208694141320024
 20
85.063596165384112
 30
0.0
 11
97.266445751375201
 21
100.20829141493429
 31
0.0
  0
LINE
  5
4A2B
  8
0
 10
59.740441675032351
 20
72.478532431846261
 30
0.0
 11
65.730598260074061
 21
71.874441862328652
 31
0.0
  0
LINE
  5
4A2C
  8
0
 10
97.266445751375201
 20
100.20829141493429
 30
0.0
 11
103.13646846570521
 21
100.2084976622227
 31
0.0
  0
LINE
  5
4A2D
  8
0
 10
65.730598260074061
 20
71.874441862328652
 30
0.0
 11
73.044592718870703
 21
71.178940343225548
 31
0.0
  0
LINE
  5
4A2E
  8
0
 10
103.13646846570521
 20
100.2084976622227
 30
0.0
 11
111.30978217408349
 21
100.02045253716059
 31
0.0
  0
LINE
  5
4A2F
  8
0
 10
73.044592718870703
 20
71.178940343225548
 30
0.0
 11
80.995679524106848
 21
70.49510691253532
 31
0.0
  0
LINE
  5
4A30
  8
0
 10
111.30978217408349
 20
100.02045253716059
 30
0.0
 11
118.3346766882571
 21
99.759532658515994
 31
0.0
  0
LINE
  5
4A31
  8
0
 10
80.995679524106848
 20
70.49510691253532
 30
0.0
 11
87.019581190202572
 21
70.168631030910092
 31
0.0
  0
LINE
  5
4A32
  8
0
 10
118.3346766882571
 20
99.759532658515994
 30
0.0
 11
124.6228615899479
 21
99.40446864378076
 31
0.0
  0
LINE
  5
4A33
  8
0
 10
87.019581190202572
 20
70.168631030910092
 30
0.0
 11
92.17368335455393
 21
70.04332693579768
 31
0.0
  0
LINE
  5
4A34
  8
0
 10
124.6228615899479
 20
99.40446864378076
 30
0.0
 11
132.4747328510287
 21
98.886263331377364
 31
0.0
  0
LINE
  5
4A35
  8
0
 10
92.17368335455393
 20
70.04332693579768
 30
0.0
 11
103.5212222607603
 21
69.980094688312363
 31
0.0
  0
LINE
  5
4A36
  8
0
 10
132.4747328510287
 20
98.886263331377364
 30
0.0
 11
139.7375238952572
 21
98.315740510488524
 31
0.0
  0
LINE
  5
4A37
  8
0
 10
103.5212222607603
 20
69.980094688312363
 30
0.0
 11
112.81806578286429
 21
70.26440834684432
 31
0.0
  0
LINE
  5
4A38
  8
0
 10
139.7375238952572
 20
98.315740510488524
 30
0.0
 11
145.90150636535199
 21
97.702280469893296
 31
0.0
  0
LINE
  5
4A39
  8
0
 10
112.81806578286429
 20
70.26440834684432
 30
0.0
 11
122.80673107198901
 21
70.615360659257732
 31
0.0
  0
LINE
  5
4A3A
  8
0
 10
145.90150636535199
 20
97.702280469893296
 30
0.0
 11
152.43329002667281
 21
96.851331979479767
 31
0.0
  0
LINE
  5
4A3B
  8
0
 10
122.80673107198901
 20
70.615360659257732
 30
0.0
 11
130.04361809724509
 21
71.181886950767591
 31
0.0
  0
LINE
  5
4A3C
  8
0
 10
152.43329002667281
 20
96.851331979479767
 30
0.0
 11
158.98179266378861
 21
95.880575981744542
 31
0.0
  0
LINE
  5
4A3D
  8
0
 10
130.04361809724509
 20
71.181886950767591
 30
0.0
 11
137.13602033253269
 21
71.848478501313139
 31
0.0
  0
LINE
  5
4A3E
  8
0
 10
158.98179266378861
 20
95.880575981744542
 30
0.0
 11
164.35500337535541
 21
94.897599673596204
 31
0.0
  0
LINE
  5
4A3F
  8
0
 10
137.13602033253269
 20
71.848478501313139
 30
0.0
 11
143.4145981226398
 21
72.365136494181172
 31
0.0
  0
LINE
  5
4A40
  8
0
 10
164.35500337535541
 20
94.897599673596204
 30
0.0
 11
170.78042149041099
 21
93.491460510809205
 31
0.0
  0
LINE
  5
4A41
  8
0
 10
143.4145981226398
 20
72.365136494181172
 30
0.0
 11
148.77898830809471
 21
72.97109763389831
 31
0.0
  0
LINE
  5
4A42
  8
0
 10
170.78042149041099
 20
93.491460510809205
 30
0.0
 11
177.50117434938909
 21
91.811636818275133
 31
0.0
  0
LINE
  5
4A43
  8
0
 10
148.77898830809471
 20
72.97109763389831
 30
0.0
 11
153.3082396375824
 21
73.61262402534777
 31
0.0
  0
LINE
  5
4A44
  8
0
 10
177.50117434938909
 20
91.811636818275133
 30
0.0
 11
182.2134722184727
 21
90.254171808299034
 31
0.0
  0
LINE
  5
4A45
  8
0
 10
153.3082396375824
 20
73.61262402534777
 30
0.0
 11
159.4936338971502
 21
74.632825294226805
 31
0.0
  0
LINE
  5
4A46
  8
0
 10
182.2134722184727
 20
90.254171808299034
 30
0.0
 11
185.9542655577317
 21
88.724886899860905
 31
0.0
  0
LINE
  5
4A47
  8
0
 10
159.4936338971502
 20
74.632825294226805
 30
0.0
 11
164.23113995197511
 21
75.50139824376285
 31
0.0
  0
LINE
  5
4A48
  8
0
 10
185.9542655577317
 20
88.724886899860905
 30
0.0
 11
188.2693109698528
 21
87.304496690705065
 31
0.0
  0
LINE
  5
4A49
  8
0
 10
164.23113995197511
 20
75.50139824376285
 30
0.0
 11
168.1412279729725
 21
76.313669572708804
 31
0.0
  0
LINE
  5
4A4A
  8
0
 10
188.2693109698528
 20
87.304496690705065
 30
0.0
 11
189.05222220826559
 21
85.940463284805006
 31
0.0
  0
LINE
  5
4A4B
  8
0
 10
168.1412279729725
 20
76.313669572708804
 30
0.0
 11
172.7116845211664
 21
77.344682376426007
 31
0.0
  0
LINE
  5
4A4C
  8
0
 10
189.05222220826559
 20
85.940463284805006
 30
0.0
 11
189.02109434408561
 21
84.213971928654104
 31
0.0
  0
LINE
  5
4A4D
  8
0
 10
172.7116845211664
 20
77.344682376426007
 30
0.0
 11
177.47895695938661
 21
78.517312166340901
 31
0.0
  0
LINE
  5
4A4E
  8
0
 10
188.60738294426301
 20
83.068428587406459
 30
0.0
 11
189.02109434408561
 21
84.213971928654104
 31
0.0
  0
LINE
  5
4A4F
  8
0
 10
177.47895695938661
 20
78.517312166340901
 30
0.0
 11
180.7683085613368
 21
79.483196402754103
 31
0.0
  0
LINE
  5
4A50
  8
0
 10
187.50126510499041
 20
82.094797661284701
 30
0.0
 11
188.60738294426301
 21
83.068428587406459
 31
0.0
  0
LINE
  5
4A51
  8
0
 10
180.7683085613368
 20
79.483196402754103
 30
0.0
 11
183.85650306388141
 21
80.47609224177755
 31
0.0
  0
LINE
  5
4A52
  8
0
 10
183.85650306388141
 20
80.47609224177755
 30
0.0
 11
187.50126510499041
 21
82.094797661284701
 31
0.0
  0
ENDBLK
  5
4A54
  8
0
 62
     1
  0
BLOCK
  8
0
 62
     1
  2
*U29
 70
     1
 10
0.0
 20
0.0
 30
0.0
  3
*U29
  1

  0
LINE
  5
4A56
  8
0
 10
42.630931789867738
 20
85.02828788402627
 30
0.0
 11
42.680489789867892
 21
85.259325884026225
 31
0.0
  0
LINE
  5
4A57
  8
0
 10
42.617669789867797
 20
84.797947884026371
 30
0.0
 11
42.630931789867738
 21
85.02828788402627
 31
0.0
  0
LINE
  5
4A58
  8
0
 10
42.680489789867892
 20
85.259325884026225
 30
0.0
 11
42.767739789867719
 21
85.489665884026294
 31
0.0
  0
LINE
  5
4A59
  8
0
 10
42.642099789867743
 20
84.569003884026301
 30
0.0
 11
42.617669789867797
 21
84.797947884026371
 31
0.0
  0
LINE
  5
4A5A
  8
0
 10
42.767739789867719
 20
85.489665884026294
 30
0.0
 11
42.891285789867752
 21
85.72000588402625
 31
0.0
  0
LINE
  5
4A5B
  8
0
 10
42.703523789867837
 20
84.340757884026274
 30
0.0
 11
42.642099789867743
 21
84.569003884026301
 31
0.0
  0
LINE
  5
4A5C
  8
0
 10
42.891285789867752
 20
85.72000588402625
 30
0.0
 11
43.051825789867827
 21
85.948251884026263
 31
0.0
  0
LINE
  5
4A5D
  8
0
 10
42.801941789867783
 20
84.114605884026346
 30
0.0
 11
42.703523789867837
 21
84.340757884026274
 31
0.0
  0
LINE
  5
4A5E
  8
0
 10
43.051825789867827
 20
85.948251884026263
 30
0.0
 11
43.248661789867768
 21
86.175101884026262
 31
0.0
  0
LINE
  5
4A5F
  8
0
 10
42.937353789867842
 20
83.891245884026276
 30
0.0
 11
42.801941789867783
 21
84.114605884026346
 31
0.0
  0
LINE
  5
4A60
  8
0
 10
43.248661789867768
 20
86.175101884026262
 30
0.0
 11
43.480397789867872
 21
86.399159884026403
 31
0.0
  0
LINE
  5
4A61
  8
0
 10
43.108363789867767
 20
83.671375884026219
 30
0.0
 11
42.937353789867842
 21
83.891245884026276
 31
0.0
  0
LINE
  5
4A62
  8
0
 10
43.480397789867872
 20
86.399159884026403
 30
0.0
 11
43.74773178986775
 21
86.620425884026403
 31
0.0
  0
LINE
  5
4A63
  8
0
 10
43.316367789867719
 20
83.454297884026246
 30
0.0
 11
43.108363789867767
 21
83.671375884026219
 31
0.0
  0
LINE
  5
4A64
  8
0
 10
43.74773178986775
 20
86.620425884026403
 30
0.0
 11
44.049267789867812
 21
86.838201884026248
 31
0.0
  0
LINE
  5
4A65
  8
0
 10
43.559271789867793
 20
83.242105884026373
 30
0.0
 11
43.316367789867719
 21
83.454297884026246
 31
0.0
  0
LINE
  5
4A66
  8
0
 10
44.049267789867812
 20
86.838201884026248
 30
0.0
 11
44.385005789867769
 21
87.052487884026249
 31
0.0
  0
LINE
  5
4A67
  8
0
 10
43.837075789867747
 20
83.034101884026285
 30
0.0
 11
43.559271789867793
 21
83.242105884026373
 31
0.0
  0
LINE
  5
4A68
  8
0
 10
44.385005789867769
 20
87.052487884026249
 30
0.0
 11
44.75285178986779
 21
87.261887884026208
 31
0.0
  0
LINE
  5
4A69
  8
0
 10
44.14908178986785
 20
82.831681884026352
 30
0.0
 11
43.837075789867747
 21
83.034101884026285
 31
0.0
  0
LINE
  5
4A6A
  8
0
 10
44.75285178986779
 20
87.261887884026208
 30
0.0
 11
45.153503789867827
 21
87.466401884026254
 31
0.0
  0
LINE
  5
4A6B
  8
0
 10
44.494591789867727
 20
82.634845884026376
 30
0.0
 11
44.14908178986785
 21
82.831681884026352
 31
0.0
  0
LINE
  5
4A6C
  8
0
 10
45.153503789867827
 20
87.466401884026254
 30
0.0
 11
45.58486778986785
 21
87.665331884026386
 31
0.0
  0
LINE
  5
4A6D
  8
0
 10
44.872907789867881
 20
82.443593884026427
 30
0.0
 11
44.494591789867727
 21
82.634845884026376
 31
0.0
  0
LINE
  5
4A6E
  8
0
 10
45.58486778986785
 20
87.665331884026386
 30
0.0
 11
46.046245789867818
 21
87.857979884026449
 31
0.0
  0
LINE
  5
4A6F
  8
0
 10
45.283331789867802
 20
82.259321884026207
 30
0.0
 11
44.872907789867881
 21
82.443593884026427
 31
0.0
  0
LINE
  5
4A70
  8
0
 10
46.046245789867818
 20
87.857979884026449
 30
0.0
 11
46.536939789867652
 21
88.044345884026256
 31
0.0
  0
LINE
  5
4A71
  8
0
 10
45.723769789867767
 20
82.082727884026269
 30
0.0
 11
45.283331789867802
 21
82.259321884026207
 31
0.0
  0
LINE
  5
4A72
  8
0
 10
46.536939789867652
 20
88.044345884026256
 30
0.0
 11
47.054855789867773
 21
88.223731884026265
 31
0.0
  0
LINE
  5
4A73
  8
0
 10
46.19422178986779
 20
81.912415884026245
 30
0.0
 11
45.723769789867767
 21
82.082727884026269
 31
0.0
  0
LINE
  5
4A74
  8
0
 10
47.054855789867773
 20
88.223731884026265
 30
0.0
 11
47.599295789867782
 21
88.396137884026189
 31
0.0
  0
LINE
  5
4A75
  8
0
 10
46.69329178986775
 20
81.751177884026205
 30
0.0
 11
46.19422178986779
 21
81.912415884026245
 31
0.0
  0
LINE
  5
4A76
  8
0
 10
47.599295789867782
 20
88.396137884026189
 30
0.0
 11
48.168863789867707
 21
88.560865884026384
 31
0.0
  0
LINE
  5
4A77
  8
0
 10
47.219583789867762
 20
81.597617884026221
 30
0.0
 11
46.69329178986775
 21
81.751177884026205
 31
0.0
  0
LINE
  5
4A78
  8
0
 10
48.168863789867707
 20
88.560865884026384
 30
0.0
 11
48.762861789867749
 21
88.71721788402634
 31
0.0
  0
LINE
  5
4A79
  8
0
 10
47.772399789867769
 20
81.452433884026263
 30
0.0
 11
47.219583789867762
 21
81.597617884026221
 31
0.0
  0
LINE
  5
4A7A
  8
0
 10
48.762861789867749
 20
88.71721788402634
 30
0.0
 11
49.378497789867872
 21
88.865193884026297
 31
0.0
  0
LINE
  5
4A7B
  8
0
 10
48.349645789867843
 20
81.316323884026204
 30
0.0
 11
47.772399789867769
 21
81.452433884026263
 31
0.0
  0
LINE
  5
4A7C
  8
0
 10
49.378497789867872
 20
88.865193884026297
 30
0.0
 11
50.015073789867742
 21
89.004095884026341
 31
0.0
  0
LINE
  5
4A7D
  8
0
 10
48.949925789867699
 20
81.1899858840262
 30
0.0
 11
48.349645789867843
 21
81.316323884026204
 31
0.0
  0
LINE
  5
4A7E
  8
0
 10
50.015073789867742
 20
89.004095884026341
 30
0.0
 11
50.671193789867701
 21
89.133923884026302
 31
0.0
  0
LINE
  5
4A7F
  8
0
 10
49.572541789867827
 20
81.07272188402635
 30
0.0
 11
48.949925789867699
 21
81.1899858840262
 31
0.0
  0
LINE
  5
4A80
  8
0
 10
50.671193789867701
 20
89.133923884026302
 30
0.0
 11
51.345461789867826
 21
89.253979884026293
 31
0.0
  0
LINE
  5
4A81
  8
0
 10
50.21539978986786
 20
80.965927884026271
 30
0.0
 11
49.572541789867827
 21
81.07272188402635
 31
0.0
  0
LINE
  5
4A82
  8
0
 10
51.345461789867826
 20
89.253979884026293
 30
0.0
 11
52.035783789867757
 21
89.364263884026414
 31
0.0
  0
LINE
  5
4A83
  8
0
 10
50.877103789867739
 20
80.868905884026276
 30
0.0
 11
50.21539978986786
 21
80.965927884026271
 31
0.0
  0
LINE
  5
4A84
  8
0
 10
52.035783789867757
 20
89.364263884026414
 30
0.0
 11
52.740065789867671
 21
89.46477588402638
 31
0.0
  0
LINE
  5
4A85
  8
0
 10
51.556257789867779
 20
80.782353884026165
 30
0.0
 11
50.877103789867739
 21
80.868905884026276
 31
0.0
  0
LINE
  5
4A86
  8
0
 10
52.740065789867671
 20
89.46477588402638
 30
0.0
 11
53.457609789867753
 21
89.554817884026406
 31
0.0
  0
LINE
  5
4A87
  8
0
 10
52.250767789867709
 20
80.706271884026265
 30
0.0
 11
51.556257789867779
 21
80.782353884026165
 31
0.0
  0
LINE
  5
4A88
  8
0
 10
53.457609789867753
 20
89.554817884026406
 30
0.0
 11
54.18562378986779
 21
89.634389884026305
 31
0.0
  0
LINE
  5
4A89
  8
0
 10
52.959935789867792
 20
80.641357884026263
 30
0.0
 11
52.250767789867709
 21
80.706271884026265
 31
0.0
  0
LINE
  5
4A8A
  8
0
 10
54.18562378986779
 20
89.634389884026305
 30
0.0
 11
54.923409789867812
 21
89.702793884026363
 31
0.0
  0
LINE
  5
4A8B
  8
0
 10
53.680271789867767
 20
80.586913884026188
 30
0.0
 11
52.959935789867792
 21
80.641357884026263
 31
0.0
  0
LINE
  5
4A8C
  8
0
 10
54.923409789867812
 20
89.702793884026363
 30
0.0
 11
55.668873789867781
 21
89.760727884026323
 31
0.0
  0
LINE
  5
4A8D
  8
0
 10
54.41177578986774
 20
80.543637884026225
 30
0.0
 11
53.680271789867767
 21
80.586913884026188
 31
0.0
  0
LINE
  5
4A8E
  8
0
 10
55.668873789867781
 20
89.760727884026323
 30
0.0
 11
56.41992178986775
 21
89.807493884026258
 31
0.0
  0
LINE
  5
4A8F
  8
0
 10
55.152353789867888
 20
80.511529884026345
 30
0.0
 11
54.41177578986774
 21
80.543637884026225
 31
0.0
  0
LINE
  5
4A90
  8
0
 10
56.41992178986775
 20
89.807493884026258
 30
0.0
 11
57.174459789867662
 21
89.843091884026165
 31
0.0
  0
LINE
  5
4A91
  8
0
 10
55.899213789867858
 20
80.490589884026221
 30
0.0
 11
55.152353789867888
 21
80.511529884026345
 31
0.0
  0
LINE
  5
4A92
  8
0
 10
57.174459789867662
 20
89.843091884026165
 30
0.0
 11
57.931789789867793
 21
89.86821988402626
 31
0.0
  0
LINE
  5
4A93
  8
0
 10
56.651657789867819
 20
80.481515884026294
 30
0.0
 11
55.899213789867858
 21
80.490589884026221
 31
0.0
  0
LINE
  5
4A94
  8
0
 10
57.931789789867793
 20
89.86821988402626
 30
0.0
 11
58.689119789867831
 21
89.8807838840263
 31
0.0
  0
LINE
  5
4A95
  8
0
 10
57.407591789867737
 20
80.483609884026222
 30
0.0
 11
56.651657789867819
 21
80.481515884026294
 31
0.0
  0
LINE
  5
4A96
  8
0
 10
58.689119789867831
 20
89.8807838840263
 30
0.0
 11
59.444355789867792
 21
89.882877884026357
 31
0.0
  0
LINE
  5
4A97
  8
0
 10
58.164921789867748
 20
80.496173884026206
 30
0.0
 11
57.407591789867737
 21
80.483609884026222
 31
0.0
  0
LINE
  5
4A98
  8
0
 10
59.444355789867792
 20
89.882877884026357
 30
0.0
 11
60.196799789867761
 21
89.873803884026302
 31
0.0
  0
LINE
  5
4A99
  8
0
 10
58.921553789867829
 20
80.521301884026229
 30
0.0
 11
58.164921789867748
 21
80.496173884026206
 31
0.0
  0
LINE
  5
4A9A
  8
0
 10
60.196799789867761
 20
89.873803884026302
 30
0.0
 11
60.94435778986778
 21
89.852863884026405
 31
0.0
  0
LINE
  5
4A9B
  8
0
 10
59.676789789867811
 20
80.556899884026294
 30
0.0
 11
58.921553789867829
 21
80.521301884026229
 31
0.0
  0
LINE
  5
4A9C
  8
0
 10
60.94435778986778
 20
89.852863884026405
 30
0.0
 11
61.684237789867879
 21
89.820755884026255
 31
0.0
  0
LINE
  5
4A9D
  8
0
 10
60.42783778986778
 20
80.603665884026199
 30
0.0
 11
59.676789789867811
 21
80.556899884026294
 31
0.0
  0
LINE
  5
4A9E
  8
0
 10
61.684237789867879
 20
89.820755884026255
 30
0.0
 11
62.415741789867717
 21
89.777479884026206
 31
0.0
  0
LINE
  5
4A9F
  8
0
 10
61.172603789867701
 20
80.661599884026359
 30
0.0
 11
60.42783778986778
 21
80.603665884026199
 31
0.0
  0
LINE
  5
4AA0
  8
0
 10
62.415741789867717
 20
89.777479884026206
 30
0.0
 11
63.136775789867762
 21
89.723733884026259
 31
0.0
  0
LINE
  5
4AA1
  8
0
 10
61.910389789867828
 20
80.730003884026246
 30
0.0
 11
61.172603789867701
 21
80.661599884026359
 31
0.0
  0
LINE
  5
4AA2
  8
0
 10
63.136775789867762
 20
89.723733884026259
 30
0.0
 11
63.845245789867811
 21
89.658121884026258
 31
0.0
  0
LINE
  5
4AA3
  8
0
 10
62.639101789867809
 20
80.809575884026344
 30
0.0
 11
61.910389789867828
 21
80.730003884026246
 31
0.0
  0
LINE
  5
4AA4
  8
0
 10
63.845245789867811
 20
89.658121884026258
 30
0.0
 11
64.53975578986784
 21
89.582039884026344
 31
0.0
  0
LINE
  5
4AA5
  8
0
 10
63.355947789867841
 20
80.899617884026384
 30
0.0
 11
62.639101789867809
 21
80.809575884026344
 31
0.0
  0
LINE
  5
4AA6
  8
0
 10
64.53975578986784
 20
89.582039884026344
 30
0.0
 11
65.21890978986778
 21
89.495487884026375
 31
0.0
  0
LINE
  5
4AA7
  8
0
 10
64.060927789867804
 20
81.000129884026265
 30
0.0
 11
63.355947789867841
 21
80.899617884026384
 31
0.0
  0
LINE
  5
4AA8
  8
0
 10
65.21890978986778
 20
89.495487884026375
 30
0.0
 11
65.880613789867752
 21
89.398465884026336
 31
0.0
  0
LINE
  5
4AA9
  8
0
 10
64.750551789867785
 20
81.110413884026343
 30
0.0
 11
64.060927789867804
 21
81.000129884026265
 31
0.0
  0
LINE
  5
4AAA
  8
0
 10
65.880613789867752
 20
89.398465884026336
 30
0.0
 11
66.523471789867784
 21
89.291671884026414
 31
0.0
  0
LINE
  5
4AAB
  8
0
 10
65.424819789867783
 20
81.231167884026263
 30
0.0
 11
64.750551789867785
 21
81.110413884026343
 31
0.0
  0
LINE
  5
4AAC
  8
0
 10
66.523471789867784
 20
89.291671884026414
 30
0.0
 11
67.146087789867792
 21
89.174407884026323
 31
0.0
  0
LINE
  5
4AAD
  8
0
 10
66.08093978986777
 20
81.360297884026295
 30
0.0
 11
65.424819789867783
 21
81.231167884026263
 31
0.0
  0
LINE
  5
4AAE
  8
0
 10
67.146087789867792
 20
89.174407884026323
 30
0.0
 11
67.747065789867719
 21
89.048069884026305
 31
0.0
  0
LINE
  5
4AAF
  8
0
 10
66.717515789867747
 20
81.499897884026254
 30
0.0
 11
66.08093978986777
 21
81.360297884026295
 31
0.0
  0
LINE
  5
4AB0
  8
0
 10
67.747065789867719
 20
89.048069884026305
 30
0.0
 11
68.324311789867792
 21
88.911959884026274
 31
0.0
  0
LINE
  5
4AB1
  8
0
 10
67.333849789867685
 20
81.647175884026296
 30
0.0
 11
66.717515789867747
 21
81.499897884026254
 31
0.0
  0
LINE
  5
4AB2
  8
0
 10
68.324311789867792
 20
88.911959884026274
 30
0.0
 11
68.876429789867743
 21
88.766775884026188
 31
0.0
  0
LINE
  5
4AB3
  8
0
 10
67.927149789867812
 20
81.80352788402638
 30
0.0
 11
67.333849789867685
 21
81.647175884026296
 31
0.0
  0
LINE
  5
4AB4
  8
0
 10
68.876429789867743
 20
88.766775884026188
 30
0.0
 11
69.402721789867755
 21
88.613215884026289
 31
0.0
  0
LINE
  5
4AB5
  8
0
 10
68.496717789867816
 20
81.968255884026348
 30
0.0
 11
67.927149789867812
 21
81.80352788402638
 31
0.0
  0
LINE
  5
4AB6
  8
0
 10
69.402721789867755
 20
88.613215884026289
 30
0.0
 11
69.901791789867715
 21
88.451977884026292
 31
0.0
  0
LINE
  5
4AB7
  8
0
 10
69.041157789867825
 20
82.140661884026244
 30
0.0
 11
68.496717789867816
 21
81.968255884026348
 31
0.0
  0
LINE
  5
4AB8
  8
0
 10
69.901791789867715
 20
88.451977884026292
 30
0.0
 11
70.372243789867838
 21
88.28166588402641
 31
0.0
  0
LINE
  5
4AB9
  8
0
 10
69.559771789867781
 20
82.32004788402628
 30
0.0
 11
69.041157789867825
 21
82.140661884026244
 31
0.0
  0
LINE
  5
4ABA
  8
0
 10
70.372243789867838
 20
88.28166588402641
 30
0.0
 11
70.813379789867767
 21
88.105071884026259
 31
0.0
  0
LINE
  5
4ABB
  8
0
 10
70.049767789867786
 20
82.506413884026301
 30
0.0
 11
69.559771789867781
 21
82.32004788402628
 31
0.0
  0
LINE
  5
4ABC
  8
0
 10
70.813379789867767
 20
88.105071884026259
 30
0.0
 11
71.223105789867759
 21
87.920799884026309
 31
0.0
  0
LINE
  5
4ABD
  8
0
 10
70.511145789867754
 20
82.699759884026435
 30
0.0
 11
70.049767789867786
 21
82.506413884026301
 31
0.0
  0
LINE
  5
4ABE
  8
0
 10
71.223105789867759
 20
87.920799884026309
 30
0.0
 11
71.601421789867786
 21
87.729547884026275
 31
0.0
  0
LINE
  5
4ABF
  8
0
 10
70.942509789867799
 20
82.897991884026368
 30
0.0
 11
70.511145789867754
 21
82.699759884026435
 31
0.0
  0
LINE
  5
4AC0
  8
0
 10
71.601421789867786
 20
87.729547884026275
 30
0.0
 11
71.946931789867662
 21
87.532711884026298
 31
0.0
  0
LINE
  5
4AC1
  8
0
 10
71.343161789867835
 20
83.102505884026272
 30
0.0
 11
70.942509789867799
 21
82.897991884026368
 31
0.0
  0
LINE
  5
4AC2
  8
0
 10
71.946931789867662
 20
87.532711884026298
 30
0.0
 11
72.258937789867787
 21
87.330291884026337
 31
0.0
  0
LINE
  5
4AC3
  8
0
 10
71.711705789867878
 20
83.311905884026203
 30
0.0
 11
71.343161789867835
 21
83.102505884026272
 31
0.0
  0
LINE
  5
4AC4
  8
0
 10
72.258937789867787
 20
87.330291884026337
 30
0.0
 11
72.537439789867776
 21
87.122287884026377
 31
0.0
  0
LINE
  5
4AC5
  8
0
 10
72.046745789867813
 20
83.526191884026275
 30
0.0
 11
71.711705789867878
 21
83.311905884026203
 31
0.0
  0
LINE
  5
4AC6
  8
0
 10
72.537439789867776
 20
87.122287884026377
 30
0.0
 11
72.780343789867842
 21
86.910095884026305
 31
0.0
  0
LINE
  5
4AC7
  8
0
 10
72.348281789867741
 20
83.743967884026347
 30
0.0
 11
72.046745789867813
 21
83.526191884026275
 31
0.0
  0
LINE
  5
4AC8
  8
0
 10
72.780343789867842
 20
86.910095884026305
 30
0.0
 11
72.987649789867731
 21
86.693017884026176
 31
0.0
  0
LINE
  5
4AC9
  8
0
 10
72.615615789867761
 20
83.965233884026375
 30
0.0
 11
72.348281789867741
 21
83.743967884026347
 31
0.0
  0
LINE
  5
4ACA
  8
0
 10
72.987649789867731
 20
86.693017884026176
 30
0.0
 11
73.159357789867812
 21
86.473147884026261
 31
0.0
  0
LINE
  5
4ACB
  8
0
 10
72.848049789867787
 20
84.189291884026275
 30
0.0
 11
72.615615789867761
 21
83.965233884026375
 31
0.0
  0
LINE
  5
4ACC
  8
0
 10
73.159357789867812
 20
86.473147884026261
 30
0.0
 11
73.294071789867857
 21
86.249787884026432
 31
0.0
  0
LINE
  5
4ACD
  8
0
 10
73.044187789867792
 20
84.416141884026274
 30
0.0
 11
72.848049789867787
 21
84.189291884026275
 31
0.0
  0
LINE
  5
4ACE
  8
0
 10
73.294071789867857
 20
86.249787884026432
 30
0.0
 11
73.392489789867781
 21
86.023635884026234
 31
0.0
  0
LINE
  5
4ACF
  8
0
 10
73.204727789867761
 20
84.645085884026216
 30
0.0
 11
73.044187789867792
 21
84.416141884026274
 31
0.0
  0
LINE
  5
4AD0
  8
0
 10
73.392489789867781
 20
86.023635884026234
 30
0.0
 11
73.453913789867784
 21
85.795389884026349
 31
0.0
  0
LINE
  5
4AD1
  8
0
 10
73.328273789867794
 20
84.874727884026342
 30
0.0
 11
73.204727789867761
 21
84.645085884026216
 31
0.0
  0
LINE
  5
4AD2
  8
0
 10
73.453913789867784
 20
85.795389884026349
 30
0.0
 11
73.478343789867807
 21
85.56644588402628
 31
0.0
  0
LINE
  5
4AD3
  8
0
 10
73.41552378986772
 20
85.105067884026269
 30
0.0
 11
73.328273789867794
 21
84.874727884026342
 31
0.0
  0
LINE
  5
4AD4
  8
0
 10
73.478343789867807
 20
85.56644588402628
 30
0.0
 11
73.46577978986771
 21
85.336105884026225
 31
0.0
  0
LINE
  5
4AD5
  8
0
 10
73.46577978986771
 20
85.336105884026225
 30
0.0
 11
73.41552378986772
 21
85.105067884026269
 31
0.0
  0
ENDBLK
  5
4AD7
  8
0
 62
     1
  0
BLOCK
  8
0
 62
     1
  2
*U30
 70
     1
 10
0.0
 20
0.0
 30
0.0
  3
*U30
  1

  0
CIRCLE
  5
4AD9
  8
0
 10
25.402737650757881
 20
85.535449212658946
 30
0.0
 40
0.9835652357394796
  0
ENDBLK
  5
4ADB
  8
0
 62
     1
  0
BLOCK
  8
0
 62
     1
  2
*U31
 70
     1
 10
0.0
 20
0.0
 30
0.0
  3
*U31
  1

  0
LINE
  5
4ADD
  8
0
 10
111.565870425345
 20
92.430471719106777
 30
0.0
 11
116.7484238833628
 21
92.387131716295826
 31
0.0
  0
LINE
  5
4ADE
  8
0
 10
111.43401863271809
 20
72.253510870561286
 30
0.0
 11
111.565870425345
 21
92.430471719106777
 31
0.0
  0
LINE
  5
4ADF
  8
0
 10
116.7484238833628
 20
92.387131716295826
 30
0.0
 11
116.66079567335009
 21
72.125487206978733
 31
0.0
  0
LINE
  5
4AE0
  8
0
 10
116.66079567335009
 20
72.125487206978733
 30
0.0
 11
111.43401863271809
 21
72.253510870561286
 31
0.0
  0
ENDBLK
  5
4AE2
  8
0
 62
     1
  0
BLOCK
  8
0
 62
     1
  2
*U32
 70
     1
 10
0.0
 20
0.0
 30
0.0
  3
*U32
  1

  0
LINE
  5
4AF0
  8
0
 62
     0
 10
115.14780931772231
 20
53.716859119887943
 30
0.0
 11
120.27134229086199
 21
53.651234693206533
 31
0.0
  0
LINE
  5
4AF1
  8
0
 62
     0
 10
115.14780931772231
 20
53.716859119887943
 30
0.0
 11
115.6971709280226
 21
32.972543170366073
 31
0.0
  0
LINE
  5
4AF2
  8
0
 62
     0
 10
120.27134229086199
 20
53.651234693206533
 30
0.0
 11
120.8183045827748
 21
32.9975188470776
 31
0.0
  0
LINE
  5
4AF3
  8
0
 62
     0
 10
115.6971709280226
 20
32.972543170366073
 30
0.0
 11
120.8183045827748
 21
32.9975188470776
 31
0.0
  0
ENDBLK
  5
4AF5
  8
0
 62
     1
  0
BLOCK
  8
0
 62
     1
  2
*U33
 70
     1
 10
0.0
 20
0.0
 30
0.0
  3
*U33
  1

  0
LINE
  5
5239
  8
0
 10
499.7014628796681
 20
153.14752566411141
 30
0.0
 11
505.32384768577748
 21
154.42626866622069
 31
0.0
  0
LINE
  5
523A
  8
0
 10
514.05107347071385
 20
140.2639195822384
 30
0.0
 11
499.7014628796681
 21
153.14752566411141
 31
0.0
  0
LINE
  5
523B
  8
0
 10
505.32384768577748
 20
154.42626866622069
 30
0.0
 11
508.67208881444822
 21
155.1794714897099
 31
0.0
  0
LINE
  5
523C
  8
0
 10
520.02158827346921
 20
139.6976834570236
 30
0.0
 11
514.05107347071385
 21
140.2639195822384
 31
0.0
  0
LINE
  5
523D
  8
0
 10
508.67208881444822
 20
155.1794714897099
 30
0.0
 11
512.78405344483281
 21
156.05152672370039
 31
0.0
  0
LINE
  5
523E
  8
0
 10
531.81251730086365
 20
138.7160141556262
 30
0.0
 11
520.02158827346921
 21
139.6976834570236
 31
0.0
  0
LINE
  5
523F
  8
0
 10
512.78405344483281
 20
156.05152672370039
 30
0.0
 11
516.67549286748488
 21
156.79086354695681
 31
0.0
  0
LINE
  5
5240
  8
0
 10
543.42205771024885
 20
137.8207538613778
 30
0.0
 11
531.81251730086365
 21
138.7160141556262
 31
0.0
  0
LINE
  5
5241
  8
0
 10
516.67549286748488
 20
156.79086354695681
 30
0.0
 11
520.37759174133885
 21
157.4321555763326
 31
0.0
  0
LINE
  5
5242
  8
0
 10
551.36286278298326
 20
137.3974306863044
 30
0.0
 11
543.42205771024885
 21
137.8207538613778
 31
0.0
  0
LINE
  5
5243
  8
0
 10
520.37759174133885
 20
157.4321555763326
 30
0.0
 11
523.93540242110555
 21
158.04981794637359
 31
0.0
  0
LINE
  5
5244
  8
0
 10
558.97568588311151
 20
137.03939458762321
 30
0.0
 11
551.36286278298326
 21
137.3974306863044
 31
0.0
  0
LINE
  5
5245
  8
0
 10
523.93540242110555
 20
158.04981794637359
 30
0.0
 11
529.84403219817409
 21
159.14532670657059
 31
0.0
  0
LINE
  5
5246
  8
0
 10
565.29063678555235
 20
136.85706778624541
 30
0.0
 11
558.97568588311151
 21
137.03939458762321
 31
0.0
  0
LINE
  5
5247
  8
0
 10
529.84403219817409
 20
159.14532670657059
 30
0.0
 11
535.07780807756194
 21
160.0315906658146
 31
0.0
  0
LINE
  5
5248
  8
0
 10
572.78301746598004
 20
136.71563323292119
 30
0.0
 11
565.29063678555235
 21
136.85706778624541
 31
0.0
  0
LINE
  5
5249
  8
0
 10
535.07780807756194
 20
160.0315906658146
 30
0.0
 11
540.93347980958924
 21
161.00661855400199
 31
0.0
  0
LINE
  5
524A
  8
0
 10
579.5019715646323
 20
136.57913174909311
 30
0.0
 11
572.78301746598004
 21
136.71563323292119
 31
0.0
  0
LINE
  5
524B
  8
0
 10
540.93347980958924
 20
161.00661855400199
 30
0.0
 11
546.78321775282757
 21
161.8921284056604
 31
0.0
  0
LINE
  5
524C
  8
0
 10
587.01965934253303
 20
136.52141665593189
 30
0.0
 11
579.5019715646323
 21
136.57913174909311
 31
0.0
  0
LINE
  5
524D
  8
0
 10
546.78321775282757
 20
161.8921284056604
 30
0.0
 11
552.99253497846234
 21
162.6897426545905
 31
0.0
  0
LINE
  5
524E
  8
0
 10
587.11383060806645
 20
152.30170658767409
 30
0.0
 11
587.01965934253303
 21
136.52141665593189
 31
0.0
  0
LINE
  5
524F
  8
0
 10
552.99253497846234
 20
162.6897426545905
 30
0.0
 11
560.67509470810717
 21
163.66929044369431
 31
0.0
  0
ARC
  5
5250
  8
0
 10
592.48238757375293
 20
152.44837318406729
 30
0.0
 40
5.3705600252038384
 50
355.84406184239032
 51
181.5649060474255
  0
LINE
  5
5251
  8
0
 10
560.67509470810717
 20
163.66929044369431
 30
0.0
 11
566.80930680603501
 21
164.35254087580901
 31
0.0
  0
LINE
  5
5252
  8
0
 10
597.89813149609427
 20
136.5069084932268
 30
0.0
 11
597.83882573425785
 21
152.0591621654612
 31
0.0
  0
LINE
  5
5253
  8
0
 10
566.80930680603501
 20
164.35254087580901
 30
0.0
 11
573.97488655029235
 21
165.2362630814759
 31
0.0
  0
LINE
  5
5254
  8
0
 10
604.25091682917673
 20
136.75725055940791
 30
0.0
 11
597.89813149609427
 21
136.5069084932268
 31
0.0
  0
LINE
  5
5255
  8
0
 10
573.97488655029235
 20
165.2362630814759
 30
0.0
 11
582.36387923979851
 21
165.9249534851503
 31
0.0
  0
LINE
  5
5256
  8
0
 10
612.53166688555359
 20
137.06610086534079
 30
0.0
 11
604.25091682917673
 21
136.75725055940791
 31
0.0
  0
LINE
  5
5257
  8
0
 10
582.36387923979851
 20
165.9249534851503
 30
0.0
 11
588.26617159874081
 21
166.2998991442542
 31
0.0
  0
LINE
  5
5258
  8
0
 10
619.49032728346845
 20
137.35318886033079
 30
0.0
 11
612.53166688555359
 21
137.06610086534079
 31
0.0
  0
LINE
  5
5259
  8
0
 10
588.26617159874081
 20
166.2998991442542
 30
0.0
 11
593.46453258839631
 21
166.595253811276
 31
0.0
  0
LINE
  5
525A
  8
0
 10
625.65195123757485
 20
137.78671454300871
 30
0.0
 11
619.49032728346845
 21
137.35318886033079
 31
0.0
  0
LINE
  5
525B
  8
0
 10
593.46453258839631
 20
166.595253811276
 30
0.0
 11
604.45355395335332
 21
166.97040738532709
 31
0.0
  0
LINE
  5
525C
  8
0
 10
633.58732722190325
 20
138.44322016219371
 30
0.0
 11
625.65195123757485
 21
137.78671454300871
 31
0.0
  0
LINE
  5
525D
  8
0
 10
604.45355395335332
 20
166.97040738532709
 30
0.0
 11
613.18002502155525
 21
166.9941481473335
 31
0.0
  0
LINE
  5
525E
  8
0
 10
640.68806075372765
 20
139.3385132111172
 30
0.0
 11
633.58732722190325
 21
138.44322016219371
 31
0.0
  0
LINE
  5
525F
  8
0
 10
613.18002502155525
 20
166.9941481473335
 30
0.0
 11
624.07287805287547
 21
166.77325813689129
 31
0.0
  0
LINE
  5
5260
  8
0
 10
646.98494184406013
 20
140.19567669948799
 30
0.0
 11
640.68806075372765
 21
139.3385132111172
 31
0.0
  0
LINE
  5
5261
  8
0
 10
624.07287805287547
 20
166.77325813689129
 30
0.0
 11
630.90916048971644
 21
166.3910390596678
 31
0.0
  0
LINE
  5
5262
  8
0
 10
653.5508907091704
 20
141.23018067469309
 30
0.0
 11
646.98494184406013
 21
140.19567669948799
 31
0.0
  0
LINE
  5
5263
  8
0
 10
630.90916048971644
 20
166.3910390596678
 30
0.0
 11
638.06739749812721
 21
165.9045508258728
 31
0.0
  0
LINE
  5
5264
  8
0
 10
659.82634741396157
 20
142.4030250059721
 30
0.0
 11
653.5508907091704
 21
141.23018067469309
 31
0.0
  0
LINE
  5
5265
  8
0
 10
638.06739749812721
 20
165.9045508258728
 30
0.0
 11
644.37577435158528
 21
165.402322757543
 31
0.0
  0
LINE
  5
5266
  8
0
 10
664.86257865174889
 20
143.41684255308951
 30
0.0
 11
659.82634741396157
 21
142.4030250059721
 31
0.0
  0
LINE
  5
5267
  8
0
 10
644.37577435158528
 20
165.402322757543
 30
0.0
 11
649.75675557637885
 21
164.9057336827041
 31
0.0
  0
LINE
  5
5268
  8
0
 10
671.6610333008922
 20
144.8716677696807
 30
0.0
 11
664.86257865174889
 21
143.41684255308951
 31
0.0
  0
LINE
  5
5269
  8
0
 10
649.75675557637885
 20
164.9057336827041
 30
0.0
 11
654.29818245305466
 21
164.3569936345925
 31
0.0
  0
LINE
  5
526A
  8
0
 10
678.19512310990785
 20
146.38894881175031
 30
0.0
 11
671.6610333008922
 21
144.8716677696807
 31
0.0
  0
LINE
  5
526B
  8
0
 10
654.29818245305466
 20
164.3569936345925
 30
0.0
 11
660.50315202423246
 21
163.46353664286099
 31
0.0
  0
LINE
  5
526C
  8
0
 10
683.20961762325521
 20
147.87667885162699
 30
0.0
 11
678.19512310990785
 21
146.38894881175031
 31
0.0
  0
LINE
  5
526D
  8
0
 10
660.50315202423246
 20
163.46353664286099
 30
0.0
 11
665.25743459960745
 21
162.69205768549531
 31
0.0
  0
LINE
  5
526E
  8
0
 10
686.9231995230034
 20
149.49683274463271
 30
0.0
 11
683.20961762325521
 21
147.87667885162699
 31
0.0
  0
LINE
  5
526F
  8
0
 10
665.25743459960745
 20
162.69205768549531
 30
0.0
 11
669.18332055390704
 21
161.9599425868922
 31
0.0
  0
LINE
  5
5270
  8
0
 10
689.42420235332338
 20
151.15134433216679
 30
0.0
 11
686.9231995230034
 21
149.49683274463271
 31
0.0
  0
LINE
  5
5271
  8
0
 10
669.18332055390704
 20
161.9599425868922
 30
0.0
 11
673.77391151031054
 21
161.0226405377374
 31
0.0
  0
LINE
  5
5272
  8
0
 10
689.90781809820464
 20
152.33253416815069
 30
0.0
 11
689.42420235332338
 21
151.15134433216679
 31
0.0
  0
LINE
  5
5273
  8
0
 10
673.77391151031054
 20
161.0226405377374
 30
0.0
 11
678.56417414364705
 21
159.9477772775634
 31
0.0
  0
LINE
  5
5274
  8
0
 10
690.02199610374305
 20
153.87205113628841
 30
0.0
 11
689.90781809820464
 21
152.33253416815069
 31
0.0
  0
LINE
  5
5275
  8
0
 10
678.56417414364705
 20
159.9477772775634
 30
0.0
 11
681.87259593481986
 21
159.0493833934045
 31
0.0
  0
LINE
  5
5276
  8
0
 10
689.56591160126482
 20
155.0680850767863
 30
0.0
 11
690.02199610374305
 21
153.87205113628841
 31
0.0
  0
LINE
  5
5277
  8
0
 10
681.87259593481986
 20
159.0493833934045
 30
0.0
 11
684.99459851766721
 21
158.1156385786343
 31
0.0
  0
LINE
  5
5278
  8
0
 10
689.01173512146624
 20
155.95971692601401
 30
0.0
 11
689.56591160126482
 21
155.0680850767863
 31
0.0
  0
LINE
  5
5279
  8
0
 10
684.99459851766721
 20
158.1156385786343
 30
0.0
 11
686.93099238491016
 21
157.4123692169423
 31
0.0
  0
LINE
  5
527A
  8
0
 10
688.23943454950745
 20
156.66175109181091
 30
0.0
 11
689.01173512146624
 21
155.95971692601401
 31
0.0
  0
LINE
  5
527B
  8
0
 10
686.93099238491016
 20
157.4123692169423
 30
0.0
 11
688.23943454950745
 21
156.66175109181091
 31
0.0
  0
ENDBLK
  5
527D
  8
0
 62
     1
  0
BLOCK
  8
0
 62
     1
  2
*U34
 70
     1
 10
0.0
 20
0.0
 30
0.0
  3
*U34
  1

  0
LINE
  5
527F
  8
0
 62
     0
 10
611.02136120779664
 20
165.71212111359591
 30
0.0
 11
616.14489418093615
 21
165.6464966869145
 31
0.0
  0
LINE
  5
5280
  8
0
 62
     0
 10
611.02136120779664
 20
165.71212111359591
 30
0.0
 11
611.57072281809712
 21
144.96780516407409
 31
0.0
  0
LINE
  5
5281
  8
0
 62
     0
 10
616.14489418093615
 20
165.6464966869145
 30
0.0
 11
616.69185647284928
 21
144.9927808407856
 31
0.0
  0
LINE
  5
5282
  8
0
 62
     0
 10
611.57072281809712
 20
144.96780516407409
 30
0.0
 11
616.69185647284928
 21
144.9927808407856
 31
0.0
  0
ENDBLK
  5
5284
  8
0
 62
     1
  0
BLOCK
  8
0
 62
     1
  2
*U35
 70
     1
 10
0.0
 20
0.0
 30
0.0
  3
*U35
  1

  0
LINE
  5
5286
  8
0
 62
     1
 10
57.930091920563527
 20
254.6989077120374
 30
0.0
 11
52.813442669121919
 21
254.42541707243831
 31
0.0
  0
LINE
  5
5287
  8
0
 62
     1
 10
52.813442669121919
 20
254.42541707243831
 30
0.0
 11
53.105088178310382
 21
233.766518532139
 31
0.0
  0
LINE
  5
5288
  8
0
 62
     1
 10
57.930091920563527
 20
254.6989077120374
 30
0.0
 11
58.223016769193052
 21
233.94938633381
 31
0.0
  0
LINE
  5
5289
  8
0
 62
     1
 10
58.223016769193052
 20
233.94938633381
 30
0.0
 11
53.105088178310382
 21
233.766518532139
 31
0.0
  0
ENDBLK
  5
528B
  8
0
 62
     1
  0
BLOCK
  8
0
 62
     1
  2
*U36
 70
     1
 10
0.0
 20
0.0
 30
0.0
  3
*U36
  1

  0
LINE
  5
5545
  8
0
 62
     1
 10
163.09999630107129
 20
155.87548729967341
 30
0.0
 11
162.5130283010713
 21
155.80740729967329
 31
0.0
  0
LINE
  5
5546
  8
0
 62
     1
 10
163.6869199010718
 20
155.9435524996735
 30
0.0
 11
163.09999630107129
 21
155.87548729967341
 31
0.0
  0
LINE
  5
5547
  8
0
 62
     1
 10
162.5130283010713
 20
155.80740729967329
 30
0.0
 11
163.09999630107129
 21
155.87548729967341
 31
0.0
  0
LINE
  5
5548
  8
0
 62
     1
 10
164.27362150107189
 20
156.0115880996733
 30
0.0
 11
163.6869199010718
 21
155.9435524996735
 31
0.0
  0
LINE
  5
5549
  8
0
 62
     1
 10
163.09999630107129
 20
155.87548729967341
 30
0.0
 11
163.6869199010718
 21
155.9435524996735
 31
0.0
  0
LINE
  5
554A
  8
0
 62
     1
 10
164.8603379010714
 20
156.07960889967359
 30
0.0
 11
164.27362150107189
 21
156.0115880996733
 31
0.0
  0
LINE
  5
554B
  8
0
 62
     1
 10
163.6869199010718
 20
155.9435524996735
 30
0.0
 11
164.27362150107189
 21
156.0115880996733
 31
0.0
  0
LINE
  5
554C
  8
0
 62
     1
 10
165.4472763010717
 20
156.1476296996735
 30
0.0
 11
164.8603379010714
 21
156.07960889967359
 31
0.0
  0
LINE
  5
554D
  8
0
 62
     1
 10
164.27362150107189
 20
156.0115880996733
 30
0.0
 11
164.8603379010714
 21
156.07960889967359
 31
0.0
  0
LINE
  5
554E
  8
0
 62
     1
 10
164.8603379010714
 20
156.07960889967359
 30
0.0
 11
165.4472763010717
 21
156.1476296996735
 31
0.0
  0
ENDBLK
  5
5550
  8
0
 62
     1
  0
BLOCK
  8
0
 62
     1
  2
*U37
 70
     1
 10
0.0
 20
0.0
 30
0.0
  3
*U37
  1

  0
LINE
  5
5552
  8
0
 62
     1
 10
166.03399270107141
 20
156.21559129967341
 30
0.0
 11
165.4472763010717
 21
156.1476296996735
 31
0.0
  0
LINE
  5
5553
  8
0
 62
     1
 10
166.62051670107181
 20
156.2835084996733
 30
0.0
 11
166.03399270107141
 21
156.21559129967341
 31
0.0
  0
LINE
  5
5554
  8
0
 62
     1
 10
165.4472763010717
 20
156.1476296996735
 30
0.0
 11
166.03399270107141
 21
156.21559129967341
 31
0.0
  0
LINE
  5
5555
  8
0
 62
     1
 10
167.20704070107169
 20
156.3513664996733
 30
0.0
 11
166.62051670107181
 21
156.2835084996733
 31
0.0
  0
LINE
  5
5556
  8
0
 62
     1
 10
166.03399270107141
 20
156.21559129967341
 30
0.0
 11
166.62051670107181
 21
156.2835084996733
 31
0.0
  0
LINE
  5
5557
  8
0
 62
     1
 10
167.79380150107161
 20
156.41920969967359
 30
0.0
 11
167.20704070107169
 21
156.3513664996733
 31
0.0
  0
LINE
  5
5558
  8
0
 62
     1
 10
166.62051670107181
 20
156.2835084996733
 30
0.0
 11
167.20704070107169
 21
156.3513664996733
 31
0.0
  0
LINE
  5
5559
  8
0
 62
     1
 10
168.38019230107139
 20
156.4869640996734
 30
0.0
 11
167.79380150107161
 21
156.41920969967359
 31
0.0
  0
LINE
  5
555A
  8
0
 62
     1
 10
167.20704070107169
 20
156.3513664996733
 30
0.0
 11
167.79380150107161
 21
156.41920969967359
 31
0.0
  0
LINE
  5
555B
  8
0
 62
     1
 10
168.96637590107181
 20
156.5546296996736
 30
0.0
 11
168.38019230107139
 21
156.4869640996734
 31
0.0
  0
LINE
  5
555C
  8
0
 62
     1
 10
167.79380150107161
 20
156.41920969967359
 30
0.0
 11
168.38019230107139
 21
156.4869640996734
 31
0.0
  0
LINE
  5
555D
  8
0
 62
     1
 10
169.55258910107139
 20
156.6222360996735
 30
0.0
 11
168.96637590107181
 21
156.5546296996736
 31
0.0
  0
LINE
  5
555E
  8
0
 62
     1
 10
168.38019230107139
 20
156.4869640996734
 30
0.0
 11
168.96637590107181
 21
156.5546296996736
 31
0.0
  0
LINE
  5
555F
  8
0
 62
     1
 10
170.1390095010718
 20
156.68979809967351
 30
0.0
 11
169.55258910107139
 21
156.6222360996735
 31
0.0
  0
LINE
  5
5560
  8
0
 62
     1
 10
168.96637590107181
 20
156.5546296996736
 30
0.0
 11
169.55258910107139
 21
156.6222360996735
 31
0.0
  0
LINE
  5
5561
  8
0
 62
     1
 10
170.72494150107181
 20
156.7572120996733
 30
0.0
 11
170.1390095010718
 21
156.68979809967351
 31
0.0
  0
LINE
  5
5562
  8
0
 62
     1
 10
169.55258910107139
 20
156.6222360996735
 30
0.0
 11
170.1390095010718
 21
156.68979809967351
 31
0.0
  0
LINE
  5
5563
  8
0
 62
     1
 10
170.1390095010718
 20
156.68979809967351
 30
0.0
 11
170.72494150107181
 21
156.7572120996733
 31
0.0
  0
ENDBLK
  5
5565
  8
0
 62
     1
  0
BLOCK
  8
0
 62
     1
  2
*U38
 70
     1
 10
0.0
 20
0.0
 30
0.0
  3
*U38
  1

  0
LINE
  5
5567
  8
0
 62
     1
 10
171.31068110107191
 20
156.82452249967329
 30
0.0
 11
170.72494150107181
 21
156.7572120996733
 31
0.0
  0
LINE
  5
5568
  8
0
 62
     1
 10
171.89643550107161
 20
156.8917440996735
 30
0.0
 11
171.31068110107191
 21
156.82452249967329
 31
0.0
  0
LINE
  5
5569
  8
0
 62
     1
 10
170.72494150107181
 20
156.7572120996733
 30
0.0
 11
171.31068110107191
 21
156.82452249967329
 31
0.0
  0
LINE
  5
556A
  8
0
 62
     1
 10
172.4824119010718
 20
156.95889169967359
 30
0.0
 11
171.89643550107161
 21
156.8917440996735
 31
0.0
  0
LINE
  5
556B
  8
0
 62
     1
 10
171.31068110107191
 20
156.82452249967329
 30
0.0
 11
171.89643550107161
 21
156.8917440996735
 31
0.0
  0
LINE
  5
556C
  8
0
 62
     1
 10
173.06772230107131
 20
157.02584689967341
 30
0.0
 11
172.4824119010718
 21
156.95889169967359
 31
0.0
  0
LINE
  5
556D
  8
0
 62
     1
 10
171.89643550107161
 20
156.8917440996735
 30
0.0
 11
172.4824119010718
 21
156.95889169967359
 31
0.0
  0
LINE
  5
556E
  8
0
 62
     1
 10
173.65282550107139
 20
157.0926836996733
 30
0.0
 11
173.06772230107131
 21
157.02584689967341
 31
0.0
  0
LINE
  5
556F
  8
0
 62
     1
 10
172.4824119010718
 20
156.95889169967359
 30
0.0
 11
173.06772230107131
 21
157.02584689967341
 31
0.0
  0
LINE
  5
5570
  8
0
 62
     1
 10
174.23795830107139
 20
157.15938729967351
 30
0.0
 11
173.65282550107139
 21
157.0926836996733
 31
0.0
  0
LINE
  5
5571
  8
0
 62
     1
 10
173.06772230107131
 20
157.02584689967341
 30
0.0
 11
173.65282550107139
 21
157.0926836996733
 31
0.0
  0
LINE
  5
5572
  8
0
 62
     1
 10
174.82332790107139
 20
157.22598729967331
 30
0.0
 11
174.23795830107139
 21
157.15938729967351
 31
0.0
  0
LINE
  5
5573
  8
0
 62
     1
 10
173.65282550107139
 20
157.0926836996733
 30
0.0
 11
174.23795830107139
 21
157.15938729967351
 31
0.0
  0
LINE
  5
5574
  8
0
 62
     1
 10
175.40782430107129
 20
157.29236529967361
 30
0.0
 11
174.82332790107139
 21
157.22598729967331
 31
0.0
  0
LINE
  5
5575
  8
0
 62
     1
 10
174.23795830107139
 20
157.15938729967351
 30
0.0
 11
174.82332790107139
 21
157.22598729967331
 31
0.0
  0
LINE
  5
5576
  8
0
 62
     1
 10
175.9921135010718
 20
157.35858049967331
 30
0.0
 11
175.40782430107129
 21
157.29236529967361
 31
0.0
  0
LINE
  5
5577
  8
0
 62
     1
 10
174.82332790107139
 20
157.22598729967331
 30
0.0
 11
175.40782430107129
 21
157.29236529967361
 31
0.0
  0
LINE
  5
5578
  8
0
 62
     1
 10
176.57643230107141
 20
157.4246328996735
 30
0.0
 11
175.9921135010718
 21
157.35858049967331
 31
0.0
  0
LINE
  5
5579
  8
0
 62
     1
 10
175.40782430107129
 20
157.29236529967361
 30
0.0
 11
175.9921135010718
 21
157.35858049967331
 31
0.0
  0
LINE
  5
557A
  8
0
 62
     1
 10
177.16098790107191
 20
157.4905816996735
 30
0.0
 11
176.57643230107141
 21
157.4246328996735
 31
0.0
  0
LINE
  5
557B
  8
0
 62
     1
 10
175.9921135010718
 20
157.35858049967331
 30
0.0
 11
176.57643230107141
 21
157.4246328996735
 31
0.0
  0
LINE
  5
557C
  8
0
 62
     1
 10
177.7444335010714
 20
157.55621969967339
 30
0.0
 11
177.16098790107191
 21
157.4905816996735
 31
0.0
  0
LINE
  5
557D
  8
0
 62
     1
 10
176.57643230107141
 20
157.4246328996735
 30
0.0
 11
177.16098790107191
 21
157.4905816996735
 31
0.0
  0
LINE
  5
557E
  8
0
 62
     1
 10
177.16098790107191
 20
157.4905816996735
 30
0.0
 11
177.7444335010714
 21
157.55621969967339
 31
0.0
  0
ENDBLK
  5
5580
  8
0
 62
     1
  0
BLOCK
  8
0
 62
     1
  2
*D39
 70
     1
 10
0.0
 20
0.0
 30
0.0
  3
*D39
  1

  0
LINE
  5
5660
  8
0
 62
     0
 10
-14.693672958543999
 20
244.65875583197391
 30
0.0
 11
-23.063808021471232
 21
244.65875583197391
 31
0.0
  0
LINE
  5
5661
  8
0
 62
     0
 10
-14.693672958543999
 20
234.19965574968029
 30
0.0
 11
-23.063808021471232
 21
234.19965574968029
 31
0.0
  0
LINE
  5
5662
  8
0
 62
     0
 10
-21.813808021471232
 20
242.15875583197391
 30
0.0
 11
-21.813808021471232
 21
236.69965574968029
 31
0.0
  0
LINE
  5
5663
  8
0
 62
     0
 10
-21.813808021471232
 20
234.19965574968029
 30
0.0
 11
-21.813808021471239
 21
217.5329890830136
 31
0.0
  0
SOLID
  5
5664
  8
0
 62
     0
 10
-22.2304746881379
 20
242.15875583197391
 30
0.0
 11
-21.39714135480456
 21
242.15875583197391
 31
0.0
 12
-21.813808021471232
 22
244.65875583197391
 32
0.0
 13
-21.813808021471232
 23
244.65875583197391
 33
0.0
  0
SOLID
  5
5665
  8
0
 62
     0
 10
-22.2304746881379
 20
236.69965574968029
 30
0.0
 11
-21.39714135480456
 21
236.69965574968029
 31
0.0
 12
-21.813808021471232
 22
234.19965574968029
 32
0.0
 13
-21.813808021471232
 23
234.19965574968029
 33
0.0
  0
INSERT
  5
5666
  8
0
 62
     1
  2
*U40
 10
0.0
 20
0.0
 30
0.0
  0
POINT
  5
5667
  8
DEFPOINTS
 62
     0
 10
-14.068672958543999
 20
244.65875583197391
 30
0.0
  0
POINT
  5
5668
  8
DEFPOINTS
 62
     0
 10
-14.068672958543999
 20
234.19965574968029
 30
0.0
  0
POINT
  5
5669
  8
DEFPOINTS
 62
     0
 10
-21.813808021471232
 20
234.19965574968029
 30
0.0
  0
ENDBLK
  5
565F
  8
0
 62
     1
  0
BLOCK
  8
0
 62
     1
  2
*U40
 70
     1
 10
0.0
 20
0.0
 30
0.0
  3
*U40
  1

  0
TEXT
  5
7561
  8
0
 62
     0
 10
-22.438808021471271
 20
218.1579890830136
 30
0.0
 40
2.5
  1
10.4591
 50
90.0
  0
ENDBLK
  5
7563
  8
0
 62
     1
  0
BLOCK
  8
0
 62
     1
  2
*U41
 70
     1
 10
0.0
 20
0.0
 30
0.0
  3
*U41
  1

  0
LINE
  5
7565
  8
0
 62
     5
 10
-24.524993615248722
 20
156.36440088869139
 30
0.0
 11
-24.28572201524878
 21
156.46416768869119
 31
0.0
  0
LINE
  5
7566
  8
0
 62
     5
 10
-24.76362881524858
 20
156.2634500886912
 30
0.0
 11
-24.524993615248722
 21
156.36440088869139
 31
0.0
  0
LINE
  5
7567
  8
0
 62
     5
 10
-24.28572201524878
 20
156.46416768869119
 30
0.0
 11
-24.524993615248722
 21
156.36440088869139
 31
0.0
  0
LINE
  5
7568
  8
0
 62
     5
 10
-25.001568415248531
 20
156.1612264886916
 30
0.0
 11
-24.76362881524858
 21
156.2634500886912
 31
0.0
  0
LINE
  5
7569
  8
0
 62
     5
 10
-24.524993615248722
 20
156.36440088869139
 30
0.0
 11
-24.76362881524858
 21
156.2634500886912
 31
0.0
  0
LINE
  5
756A
  8
0
 62
     5
 10
-25.2389456152485
 20
156.0575228886913
 30
0.0
 11
-25.001568415248531
 21
156.1612264886916
 31
0.0
  0
LINE
  5
756B
  8
0
 62
     5
 10
-24.76362881524858
 20
156.2634500886912
 30
0.0
 11
-25.001568415248531
 21
156.1612264886916
 31
0.0
  0
LINE
  5
756C
  8
0
 62
     5
 10
-25.442430815248599
 20
155.96715408869119
 30
0.0
 11
-25.2389456152485
 21
156.0575228886913
 31
0.0
  0
LINE
  5
756D
  8
0
 62
     5
 10
-25.001568415248531
 20
156.1612264886916
 30
0.0
 11
-25.2389456152485
 21
156.0575228886913
 31
0.0
  0
LINE
  5
756E
  8
0
 62
     5
 10
-25.645116815248741
 20
155.8755864886912
 30
0.0
 11
-25.442430815248599
 21
155.96715408869119
 31
0.0
  0
LINE
  5
756F
  8
0
 62
     5
 10
-25.2389456152485
 20
156.0575228886913
 30
0.0
 11
-25.442430815248599
 21
155.96715408869119
 31
0.0
  0
LINE
  5
7570
  8
0
 62
     5
 10
-25.846840815248228
 20
155.7826720886913
 30
0.0
 11
-25.645116815248741
 21
155.8755864886912
 31
0.0
  0
LINE
  5
7571
  8
0
 62
     5
 10
-25.442430815248599
 20
155.96715408869119
 30
0.0
 11
-25.645116815248741
 21
155.8755864886912
 31
0.0
  0
LINE
  5
7572
  8
0
 62
     5
 10
-26.04778041524867
 20
155.6881000886915
 30
0.0
 11
-25.846840815248228
 21
155.7826720886913
 31
0.0
  0
LINE
  5
7573
  8
0
 62
     5
 10
-25.645116815248741
 20
155.8755864886912
 30
0.0
 11
-25.846840815248228
 21
155.7826720886913
 31
0.0
  0
LINE
  5
7574
  8
0
 62
     5
 10
-26.220896015248741
 20
155.60485008869131
 30
0.0
 11
-26.04778041524867
 21
155.6881000886915
 31
0.0
  0
LINE
  5
7575
  8
0
 62
     5
 10
-25.846840815248228
 20
155.7826720886913
 30
0.0
 11
-26.04778041524867
 21
155.6881000886915
 31
0.0
  0
LINE
  5
7576
  8
0
 62
     5
 10
-26.393242015248749
 20
155.52017928869139
 30
0.0
 11
-26.220896015248741
 21
155.60485008869131
 31
0.0
  0
LINE
  5
7577
  8
0
 62
     5
 10
-26.04778041524867
 20
155.6881000886915
 30
0.0
 11
-26.220896015248741
 21
155.60485008869131
 31
0.0
  0
LINE
  5
7578
  8
0
 62
     5
 10
-26.564640815248431
 20
155.4340580886915
 30
0.0
 11
-26.393242015248749
 21
155.52017928869139
 31
0.0
  0
LINE
  5
7579
  8
0
 62
     5
 10
-26.220896015248741
 20
155.60485008869131
 30
0.0
 11
-26.393242015248749
 21
155.52017928869139
 31
0.0
  0
LINE
  5
757A
  8
0
 62
     5
 10
-26.735284815248288
 20
155.3462644886913
 30
0.0
 11
-26.564640815248431
 21
155.4340580886915
 31
0.0
  0
LINE
  5
757B
  8
0
 62
     5
 10
-26.393242015248749
 20
155.52017928869139
 30
0.0
 11
-26.564640815248431
 21
155.4340580886915
 31
0.0
  0
LINE
  5
757C
  8
0
 62
     5
 10
-26.883758415248341
 20
155.2680760886912
 30
0.0
 11
-26.735284815248288
 21
155.3462644886913
 31
0.0
  0
LINE
  5
757D
  8
0
 62
     5
 10
-26.564640815248431
 20
155.4340580886915
 30
0.0
 11
-26.735284815248288
 21
155.3462644886913
 31
0.0
  0
LINE
  5
757E
  8
0
 62
     5
 10
-27.031492015248212
 20
155.18852608869119
 30
0.0
 11
-26.883758415248341
 21
155.2680760886912
 31
0.0
  0
LINE
  5
757F
  8
0
 62
     5
 10
-26.735284815248288
 20
155.3462644886913
 30
0.0
 11
-26.883758415248341
 21
155.2680760886912
 31
0.0
  0
LINE
  5
7580
  8
0
 62
     5
 10
-27.17829321524874
 20
155.1076144886913
 30
0.0
 11
-27.031492015248212
 21
155.18852608869119
 31
0.0
  0
LINE
  5
7581
  8
0
 62
     5
 10
-26.883758415248341
 20
155.2680760886912
 30
0.0
 11
-27.031492015248212
 21
155.18852608869119
 31
0.0
  0
LINE
  5
7582
  8
0
 62
     5
 10
-27.324354415248418
 20
155.0251488886914
 30
0.0
 11
-27.17829321524874
 21
155.1076144886913
 31
0.0
  0
LINE
  5
7583
  8
0
 62
     5
 10
-27.031492015248212
 20
155.18852608869119
 30
0.0
 11
-27.17829321524874
 21
155.1076144886913
 31
0.0
  0
LINE
  5
7584
  8
0
 62
     5
 10
-27.452892415248641
 20
154.9508528886912
 30
0.0
 11
-27.324354415248418
 21
155.0251488886914
 31
0.0
  0
LINE
  5
7585
  8
0
 62
     5
 10
-27.17829321524874
 20
155.1076144886913
 30
0.0
 11
-27.324354415248418
 21
155.0251488886914
 31
0.0
  0
LINE
  5
7586
  8
0
 62
     5
 10
-27.58072001524863
 20
154.87528408869119
 30
0.0
 11
-27.452892415248641
 21
154.9508528886912
 31
0.0
  0
LINE
  5
7587
  8
0
 62
     5
 10
-27.324354415248418
 20
155.0251488886914
 30
0.0
 11
-27.452892415248641
 21
154.9508528886912
 31
0.0
  0
LINE
  5
7588
  8
0
 62
     5
 10
-27.70764481524856
 20
154.7984868886914
 30
0.0
 11
-27.58072001524863
 21
154.87528408869119
 31
0.0
  0
LINE
  5
7589
  8
0
 62
     5
 10
-27.452892415248641
 20
154.9508528886912
 30
0.0
 11
-27.58072001524863
 21
154.87528408869119
 31
0.0
  0
LINE
  5
758A
  8
0
 62
     5
 10
-27.83388881524883
 20
154.7202836886915
 30
0.0
 11
-27.70764481524856
 21
154.7984868886914
 31
0.0
  0
LINE
  5
758B
  8
0
 62
     5
 10
-27.58072001524863
 20
154.87528408869119
 30
0.0
 11
-27.70764481524856
 21
154.7984868886914
 31
0.0
  0
LINE
  5
758C
  8
0
 62
     5
 10
-27.946206015248261
 20
154.64909568869129
 30
0.0
 11
-27.83388881524883
 21
154.7202836886915
 31
0.0
  0
LINE
  5
758D
  8
0
 62
     5
 10
-27.70764481524856
 20
154.7984868886914
 30
0.0
 11
-27.83388881524883
 21
154.7202836886915
 31
0.0
  0
LINE
  5
758E
  8
0
 62
     5
 10
-28.057857215248362
 20
154.57675328869141
 30
0.0
 11
-27.946206015248261
 21
154.64909568869129
 31
0.0
  0
LINE
  5
758F
  8
0
 62
     5
 10
-27.83388881524883
 20
154.7202836886915
 30
0.0
 11
-27.946206015248261
 21
154.64909568869129
 31
0.0
  0
LINE
  5
7590
  8
0
 62
     5
 10
-28.168709215248441
 20
154.5033156886914
 30
0.0
 11
-28.057857215248362
 21
154.57675328869141
 31
0.0
  0
LINE
  5
7591
  8
0
 62
     5
 10
-27.946206015248261
 20
154.64909568869129
 30
0.0
 11
-28.057857215248362
 21
154.57675328869141
 31
0.0
  0
LINE
  5
7592
  8
0
 62
     5
 10
-28.278924815248502
 20
154.42864968869119
 30
0.0
 11
-28.168709215248441
 21
154.5033156886914
 31
0.0
  0
LINE
  5
7593
  8
0
 62
     5
 10
-28.057857215248362
 20
154.57675328869141
 30
0.0
 11
-28.168709215248441
 21
154.5033156886914
 31
0.0
  0
LINE
  5
7594
  8
0
 62
     5
 10
-28.377626015248669
 20
154.36030328869151
 30
0.0
 11
-28.278924815248502
 21
154.42864968869119
 31
0.0
  0
LINE
  5
7595
  8
0
 62
     5
 10
-28.168709215248441
 20
154.5033156886914
 30
0.0
 11
-28.278924815248502
 21
154.42864968869119
 31
0.0
  0
LINE
  5
7596
  8
0
 62
     5
 10
-28.475720415248649
 20
154.29096528869121
 30
0.0
 11
-28.377626015248669
 21
154.36030328869151
 31
0.0
  0
LINE
  5
7597
  8
0
 62
     5
 10
-28.278924815248502
 20
154.42864968869119
 30
0.0
 11
-28.377626015248669
 21
154.36030328869151
 31
0.0
  0
LINE
  5
7598
  8
0
 62
     5
 10
-28.573030415248301
 20
154.2207096886913
 30
0.0
 11
-28.475720415248649
 21
154.29096528869121
 31
0.0
  0
LINE
  5
7599
  8
0
 62
     5
 10
-28.377626015248669
 20
154.36030328869151
 30
0.0
 11
-28.475720415248649
 21
154.29096528869121
 31
0.0
  0
LINE
  5
759A
  8
0
 62
     5
 10
-28.66973361524845
 20
154.1493588886913
 30
0.0
 11
-28.573030415248301
 21
154.2207096886913
 31
0.0
  0
LINE
  5
759B
  8
0
 62
     5
 10
-28.475720415248649
 20
154.29096528869121
 30
0.0
 11
-28.573030415248301
 21
154.2207096886913
 31
0.0
  0
LINE
  5
759C
  8
0
 62
     5
 10
-28.756816815248669
 20
154.0837800886915
 30
0.0
 11
-28.66973361524845
 21
154.1493588886913
 31
0.0
  0
LINE
  5
759D
  8
0
 62
     5
 10
-28.573030415248301
 20
154.2207096886913
 30
0.0
 11
-28.66973361524845
 21
154.1493588886913
 31
0.0
  0
LINE
  5
759E
  8
0
 62
     5
 10
-28.84330801524834
 20
154.0173132886913
 30
0.0
 11
-28.756816815248669
 21
154.0837800886915
 31
0.0
  0
LINE
  5
759F
  8
0
 62
     5
 10
-28.66973361524845
 20
154.1493588886913
 30
0.0
 11
-28.756816815248669
 21
154.0837800886915
 31
0.0
  0
LINE
  5
75A0
  8
0
 62
     5
 10
-28.929118415248411
 20
153.95003248869111
 30
0.0
 11
-28.84330801524834
 21
154.0173132886913
 31
0.0
  0
LINE
  5
75A1
  8
0
 62
     5
 10
-28.756816815248669
 20
154.0837800886915
 30
0.0
 11
-28.84330801524834
 21
154.0173132886913
 31
0.0
  0
LINE
  5
75A2
  8
0
 62
     5
 10
-29.014307215248721
 20
153.88184888869139
 30
0.0
 11
-28.929118415248411
 21
153.95003248869111
 31
0.0
  0
LINE
  5
75A3
  8
0
 62
     5
 10
-28.84330801524834
 20
154.0173132886913
 30
0.0
 11
-28.929118415248411
 21
153.95003248869111
 31
0.0
  0
LINE
  5
75A4
  8
0
 62
     5
 10
-29.091296815248128
 20
153.8189636886913
 30
0.0
 11
-29.014307215248721
 21
153.88184888869139
 31
0.0
  0
LINE
  5
75A5
  8
0
 62
     5
 10
-28.929118415248411
 20
153.95003248869111
 30
0.0
 11
-29.014307215248721
 21
153.88184888869139
 31
0.0
  0
LINE
  5
75A6
  8
0
 62
     5
 10
-29.167102415248571
 20
153.75559008869141
 30
0.0
 11
-29.091296815248128
 21
153.8189636886913
 31
0.0
  0
LINE
  5
75A7
  8
0
 62
     5
 10
-29.014307215248721
 20
153.88184888869139
 30
0.0
 11
-29.091296815248128
 21
153.8189636886913
 31
0.0
  0
LINE
  5
75A8
  8
0
 62
     5
 10
-29.241457615248638
 20
153.6917132886912
 30
0.0
 11
-29.167102415248571
 21
153.75559008869141
 31
0.0
  0
LINE
  5
75A9
  8
0
 62
     5
 10
-29.091296815248128
 20
153.8189636886913
 30
0.0
 11
-29.167102415248571
 21
153.75559008869141
 31
0.0
  0
LINE
  5
75AA
  8
0
 62
     5
 10
-29.31445121524877
 20
153.6270224886913
 30
0.0
 11
-29.241457615248638
 21
153.6917132886912
 31
0.0
  0
LINE
  5
75AB
  8
0
 62
     5
 10
-29.167102415248571
 20
153.75559008869141
 30
0.0
 11
-29.241457615248638
 21
153.6917132886912
 31
0.0
  0
LINE
  5
75AC
  8
0
 62
     5
 10
-29.380784815248148
 20
153.56619448869151
 30
0.0
 11
-29.31445121524877
 21
153.6270224886913
 31
0.0
  0
LINE
  5
75AD
  8
0
 62
     5
 10
-29.241457615248638
 20
153.6917132886912
 30
0.0
 11
-29.31445121524877
 21
153.6270224886913
 31
0.0
  0
LINE
  5
75AE
  8
0
 62
     5
 10
-29.445727215248439
 20
153.5044636886914
 30
0.0
 11
-29.380784815248148
 21
153.56619448869151
 31
0.0
  0
LINE
  5
75AF
  8
0
 62
     5
 10
-29.31445121524877
 20
153.6270224886913
 30
0.0
 11
-29.380784815248148
 21
153.56619448869151
 31
0.0
  0
LINE
  5
75B0
  8
0
 62
     5
 10
-29.509041615248751
 20
153.4418892886913
 30
0.0
 11
-29.445727215248439
 21
153.5044636886914
 31
0.0
  0
LINE
  5
75B1
  8
0
 62
     5
 10
-29.380784815248148
 20
153.56619448869151
 30
0.0
 11
-29.445727215248439
 21
153.5044636886914
 31
0.0
  0
LINE
  5
75B2
  8
0
 62
     5
 10
-29.570846415248191
 20
153.3781900886913
 30
0.0
 11
-29.509041615248751
 21
153.4418892886913
 31
0.0
  0
LINE
  5
75B3
  8
0
 62
     5
 10
-29.445727215248439
 20
153.5044636886914
 30
0.0
 11
-29.509041615248751
 21
153.4418892886913
 31
0.0
  0
LINE
  5
75B4
  8
0
 62
     5
 10
-29.627634015248528
 20
153.3170512886912
 30
0.0
 11
-29.570846415248191
 21
153.3781900886913
 31
0.0
  0
LINE
  5
75B5
  8
0
 62
     5
 10
-29.509041615248751
 20
153.4418892886913
 30
0.0
 11
-29.570846415248191
 21
153.3781900886913
 31
0.0
  0
LINE
  5
75B6
  8
0
 62
     5
 10
-29.683237615248451
 20
153.2545804886914
 30
0.0
 11
-29.627634015248528
 21
153.3170512886912
 31
0.0
  0
LINE
  5
75B7
  8
0
 62
     5
 10
-29.570846415248191
 20
153.3781900886913
 30
0.0
 11
-29.627634015248528
 21
153.3170512886912
 31
0.0
  0
LINE
  5
75B8
  8
0
 62
     5
 10
-29.737553615248601
 20
153.19092568869121
 30
0.0
 11
-29.683237615248451
 21
153.2545804886914
 31
0.0
  0
LINE
  5
75B9
  8
0
 62
     5
 10
-29.627634015248528
 20
153.3170512886912
 30
0.0
 11
-29.683237615248451
 21
153.2545804886914
 31
0.0
  0
LINE
  5
75BA
  8
0
 62
     5
 10
-29.79070041524869
 20
153.12590928869119
 30
0.0
 11
-29.737553615248601
 21
153.19092568869121
 31
0.0
  0
LINE
  5
75BB
  8
0
 62
     5
 10
-29.683237615248451
 20
153.2545804886914
 30
0.0
 11
-29.737553615248601
 21
153.19092568869121
 31
0.0
  0
LINE
  5
75BC
  8
0
 62
     5
 10
-29.839392415248259
 20
153.06383808869151
 30
0.0
 11
-29.79070041524869
 21
153.12590928869119
 31
0.0
  0
LINE
  5
75BD
  8
0
 62
     5
 10
-29.737553615248601
 20
153.19092568869121
 30
0.0
 11
-29.79070041524869
 21
153.12590928869119
 31
0.0
  0
LINE
  5
75BE
  8
0
 62
     5
 10
-29.886944815248341
 20
153.0007012886914
 30
0.0
 11
-29.839392415248259
 21
153.06383808869151
 31
0.0
  0
LINE
  5
75BF
  8
0
 62
     5
 10
-29.79070041524869
 20
153.12590928869119
 30
0.0
 11
-29.839392415248259
 21
153.06383808869151
 31
0.0
  0
LINE
  5
75C0
  8
0
 62
     5
 10
-29.933194815248331
 20
152.9366616886912
 30
0.0
 11
-29.886944815248341
 21
153.0007012886914
 31
0.0
  0
LINE
  5
75C1
  8
0
 62
     5
 10
-29.839392415248259
 20
153.06383808869151
 30
0.0
 11
-29.886944815248341
 21
153.0007012886914
 31
0.0
  0
LINE
  5
75C2
  8
0
 62
     5
 10
-29.978290415248519
 20
152.87154168869139
 30
0.0
 11
-29.933194815248331
 21
152.9366616886912
 31
0.0
  0
LINE
  5
75C3
  8
0
 62
     5
 10
-29.886944815248341
 20
153.0007012886914
 30
0.0
 11
-29.933194815248331
 21
152.9366616886912
 31
0.0
  0
LINE
  5
75C4
  8
0
 62
     5
 10
-30.01925681524876
 20
152.80984048869121
 30
0.0
 11
-29.978290415248519
 21
152.87154168869139
 31
0.0
  0
LINE
  5
75C5
  8
0
 62
     5
 10
-29.933194815248331
 20
152.9366616886912
 30
0.0
 11
-29.978290415248519
 21
152.87154168869139
 31
0.0
  0
LINE
  5
75C6
  8
0
 62
     5
 10
-30.05909841524846
 20
152.74729568869139
 30
0.0
 11
-30.01925681524876
 21
152.80984048869121
 31
0.0
  0
LINE
  5
75C7
  8
0
 62
     5
 10
-29.978290415248519
 20
152.87154168869139
 30
0.0
 11
-30.01925681524876
 21
152.80984048869121
 31
0.0
  0
LINE
  5
75C8
  8
0
 62
     5
 10
-30.09765241524838
 20
152.68407008869119
 30
0.0
 11
-30.05909841524846
 21
152.74729568869139
 31
0.0
  0
LINE
  5
75C9
  8
0
 62
     5
 10
-30.01925681524876
 20
152.80984048869121
 30
0.0
 11
-30.05909841524846
 21
152.74729568869139
 31
0.0
  0
LINE
  5
75CA
  8
0
 62
     5
 10
-30.13502241524856
 20
152.61998608869141
 30
0.0
 11
-30.09765241524838
 21
152.68407008869119
 31
0.0
  0
LINE
  5
75CB
  8
0
 62
     5
 10
-30.05909841524846
 20
152.74729568869139
 30
0.0
 11
-30.09765241524838
 21
152.68407008869119
 31
0.0
  0
LINE
  5
75CC
  8
0
 62
     5
 10
-30.168825615248689
 20
152.5593652886914
 30
0.0
 11
-30.13502241524856
 21
152.61998608869141
 31
0.0
  0
LINE
  5
75CD
  8
0
 62
     5
 10
-30.09765241524838
 20
152.68407008869119
 30
0.0
 11
-30.13502241524856
 21
152.61998608869141
 31
0.0
  0
LINE
  5
75CE
  8
0
 62
     5
 10
-30.201474415248409
 20
152.49809328869131
 30
0.0
 11
-30.168825615248689
 21
152.5593652886914
 31
0.0
  0
LINE
  5
75CF
  8
0
 62
     5
 10
-30.13502241524856
 20
152.61998608869141
 30
0.0
 11
-30.168825615248689
 21
152.5593652886914
 31
0.0
  0
LINE
  5
75D0
  8
0
 62
     5
 10
-30.232835615248291
 20
152.43631808869151
 30
0.0
 11
-30.201474415248409
 21
152.49809328869131
 31
0.0
  0
LINE
  5
75D1
  8
0
 62
     5
 10
-30.168825615248689
 20
152.5593652886914
 30
0.0
 11
-30.201474415248409
 21
152.49809328869131
 31
0.0
  0
LINE
  5
75D2
  8
0
 62
     5
 10
-30.263012815248491
 20
152.37384728869139
 30
0.0
 11
-30.232835615248291
 21
152.43631808869151
 31
0.0
  0
LINE
  5
75D3
  8
0
 62
     5
 10
-30.201474415248409
 20
152.49809328869131
 30
0.0
 11
-30.232835615248291
 21
152.43631808869151
 31
0.0
  0
LINE
  5
75D4
  8
0
 62
     5
 10
-30.290141215248301
 20
152.31470648869129
 30
0.0
 11
-30.263012815248491
 21
152.37384728869139
 31
0.0
  0
LINE
  5
75D5
  8
0
 62
     5
 10
-30.232835615248291
 20
152.43631808869151
 30
0.0
 11
-30.263012815248491
 21
152.37384728869139
 31
0.0
  0
LINE
  5
75D6
  8
0
 62
     5
 10
-30.316100415248741
 20
152.25504768869141
 30
0.0
 11
-30.290141215248301
 21
152.31470648869129
 31
0.0
  0
LINE
  5
75D7
  8
0
 62
     5
 10
-30.263012815248491
 20
152.37384728869139
 30
0.0
 11
-30.290141215248301
 21
152.31470648869129
 31
0.0
  0
LINE
  5
75D8
  8
0
 62
     5
 10
-30.34077201524866
 20
152.1950484886913
 30
0.0
 11
-30.316100415248741
 21
152.25504768869141
 31
0.0
  0
LINE
  5
75D9
  8
0
 62
     5
 10
-30.290141215248301
 20
152.31470648869129
 30
0.0
 11
-30.316100415248741
 21
152.25504768869141
 31
0.0
  0
LINE
  5
75DA
  8
0
 62
     5
 10
-30.364215215248748
 20
152.13451648869119
 30
0.0
 11
-30.34077201524866
 21
152.1950484886913
 31
0.0
  0
LINE
  5
75DB
  8
0
 62
     5
 10
-30.316100415248741
 20
152.25504768869141
 30
0.0
 11
-30.34077201524866
 21
152.1950484886913
 31
0.0
  0
LINE
  5
75DC
  8
0
 62
     5
 10
-30.385127615248749
 20
152.07700368869141
 30
0.0
 11
-30.364215215248748
 21
152.13451648869119
 31
0.0
  0
LINE
  5
75DD
  8
0
 62
     5
 10
-30.34077201524866
 20
152.1950484886913
 30
0.0
 11
-30.364215215248748
 21
152.13451648869119
 31
0.0
  0
LINE
  5
75DE
  8
0
 62
     5
 10
-30.40484121524878
 20
152.01912088869119
 30
0.0
 11
-30.385127615248749
 21
152.07700368869141
 31
0.0
  0
LINE
  5
75DF
  8
0
 62
     5
 10
-30.364215215248748
 20
152.13451648869119
 30
0.0
 11
-30.385127615248749
 21
152.07700368869141
 31
0.0
  0
LINE
  5
75E0
  8
0
 62
     5
 10
-30.423252415248729
 20
151.96103088869151
 30
0.0
 11
-30.40484121524878
 21
152.01912088869119
 31
0.0
  0
LINE
  5
75E1
  8
0
 62
     5
 10
-30.385127615248749
 20
152.07700368869141
 30
0.0
 11
-30.40484121524878
 21
152.01912088869119
 31
0.0
  0
LINE
  5
75E2
  8
0
 62
     5
 10
-30.440376015248258
 20
151.9025560886914
 30
0.0
 11
-30.423252415248729
 21
151.96103088869151
 31
0.0
  0
LINE
  5
75E3
  8
0
 62
     5
 10
-30.40484121524878
 20
152.01912088869119
 30
0.0
 11
-30.423252415248729
 21
151.96103088869151
 31
0.0
  0
LINE
  5
75E4
  8
0
 62
     5
 10
-30.455412815248621
 20
151.84673048869121
 30
0.0
 11
-30.440376015248258
 21
151.9025560886914
 31
0.0
  0
LINE
  5
75E5
  8
0
 62
     5
 10
-30.423252415248729
 20
151.96103088869151
 30
0.0
 11
-30.440376015248258
 21
151.9025560886914
 31
0.0
  0
LINE
  5
75E6
  8
0
 62
     5
 10
-30.469191615248519
 20
151.79066808869121
 30
0.0
 11
-30.455412815248621
 21
151.84673048869121
 31
0.0
  0
LINE
  5
75E7
  8
0
 62
     5
 10
-30.440376015248258
 20
151.9025560886914
 30
0.0
 11
-30.455412815248621
 21
151.84673048869121
 31
0.0
  0
LINE
  5
75E8
  8
0
 62
     5
 10
-30.481653215248681
 20
151.73454648869119
 30
0.0
 11
-30.469191615248519
 21
151.79066808869121
 31
0.0
  0
LINE
  5
75E9
  8
0
 62
     5
 10
-30.455412815248621
 20
151.84673048869121
 30
0.0
 11
-30.469191615248519
 21
151.79066808869121
 31
0.0
  0
LINE
  5
75EA
  8
0
 62
     5
 10
-30.49278281524818
 20
151.6781880886912
 30
0.0
 11
-30.481653215248681
 21
151.73454648869119
 31
0.0
  0
LINE
  5
75EB
  8
0
 62
     5
 10
-30.469191615248519
 20
151.79066808869121
 30
0.0
 11
-30.481653215248681
 21
151.73454648869119
 31
0.0
  0
LINE
  5
75EC
  8
0
 62
     5
 10
-30.502166015248751
 20
151.62399048869139
 30
0.0
 11
-30.49278281524818
 21
151.6781880886912
 31
0.0
  0
LINE
  5
75ED
  8
0
 62
     5
 10
-30.481653215248681
 20
151.73454648869119
 30
0.0
 11
-30.49278281524818
 21
151.6781880886912
 31
0.0
  0
LINE
  5
75EE
  8
0
 62
     5
 10
-30.510246815248539
 20
151.56970408869151
 30
0.0
 11
-30.502166015248751
 21
151.62399048869139
 31
0.0
  0
LINE
  5
75EF
  8
0
 62
     5
 10
-30.49278281524818
 20
151.6781880886912
 30
0.0
 11
-30.502166015248751
 21
151.62399048869139
 31
0.0
  0
LINE
  5
75F0
  8
0
 62
     5
 10
-30.516980815248651
 20
151.51546208869141
 30
0.0
 11
-30.510246815248539
 21
151.56970408869151
 31
0.0
  0
LINE
  5
75F1
  8
0
 62
     5
 10
-30.502166015248751
 20
151.62399048869139
 30
0.0
 11
-30.510246815248539
 21
151.56970408869151
 31
0.0
  0
LINE
  5
75F2
  8
0
 62
     5
 10
-30.522338415248608
 20
151.46117568869121
 30
0.0
 11
-30.516980815248651
 21
151.51546208869141
 31
0.0
  0
LINE
  5
75F3
  8
0
 62
     5
 10
-30.510246815248539
 20
151.56970408869151
 30
0.0
 11
-30.516980815248651
 21
151.51546208869141
 31
0.0
  0
LINE
  5
75F4
  8
0
 62
     5
 10
-30.526186415248329
 20
151.4084432886915
 30
0.0
 11
-30.522338415248608
 21
151.46117568869121
 31
0.0
  0
LINE
  5
75F5
  8
0
 62
     5
 10
-30.516980815248651
 20
151.51546208869141
 30
0.0
 11
-30.522338415248608
 21
151.46117568869121
 31
0.0
  0
LINE
  5
75F6
  8
0
 62
     5
 10
-30.5286728152488
 20
151.35581448869121
 30
0.0
 11
-30.526186415248329
 21
151.4084432886915
 31
0.0
  0
LINE
  5
75F7
  8
0
 62
     5
 10
-30.522338415248608
 20
151.46117568869121
 30
0.0
 11
-30.526186415248329
 21
151.4084432886915
 31
0.0
  0
LINE
  5
75F8
  8
0
 62
     5
 10
-30.529768015248688
 20
151.30340768869141
 30
0.0
 11
-30.5286728152488
 21
151.35581448869121
 31
0.0
  0
LINE
  5
75F9
  8
0
 62
     5
 10
-30.526186415248329
 20
151.4084432886915
 30
0.0
 11
-30.5286728152488
 21
151.35581448869121
 31
0.0
  0
LINE
  5
75FA
  8
0
 62
     5
 10
-30.529427615248551
 20
151.25116368869141
 30
0.0
 11
-30.529768015248688
 21
151.30340768869141
 31
0.0
  0
LINE
  5
75FB
  8
0
 62
     5
 10
-30.5286728152488
 20
151.35581448869121
 30
0.0
 11
-30.529768015248688
 21
151.30340768869141
 31
0.0
  0
LINE
  5
75FC
  8
0
 62
     5
 10
-30.527666415248628
 20
151.19967448869119
 30
0.0
 11
-30.529427615248551
 21
151.25116368869141
 31
0.0
  0
LINE
  5
75FD
  8
0
 62
     5
 10
-30.529768015248688
 20
151.30340768869141
 30
0.0
 11
-30.529427615248551
 21
151.25116368869141
 31
0.0
  0
LINE
  5
75FE
  8
0
 62
     5
 10
-30.524469615248631
 20
151.1483332886913
 30
0.0
 11
-30.527666415248628
 21
151.19967448869119
 31
0.0
  0
LINE
  5
75FF
  8
0
 62
     5
 10
-30.529427615248551
 20
151.25116368869141
 30
0.0
 11
-30.527666415248628
 21
151.19967448869119
 31
0.0
  0
LINE
  5
7600
  8
0
 62
     5
 10
-30.519837215248518
 20
151.0971844886912
 30
0.0
 11
-30.524469615248631
 21
151.1483332886913
 31
0.0
  0
LINE
  5
7601
  8
0
 62
     5
 10
-30.527666415248628
 20
151.19967448869119
 30
0.0
 11
-30.524469615248631
 21
151.1483332886913
 31
0.0
  0
LINE
  5
7602
  8
0
 62
     5
 10
-30.513769215248381
 20
151.0462724886911
 30
0.0
 11
-30.519837215248518
 21
151.0971844886912
 31
0.0
  0
LINE
  5
7603
  8
0
 62
     5
 10
-30.524469615248631
 20
151.1483332886913
 30
0.0
 11
-30.519837215248518
 21
151.0971844886912
 31
0.0
  0
LINE
  5
7604
  8
0
 62
     5
 10
-30.506147215248411
 20
150.9949164886913
 30
0.0
 11
-30.513769215248381
 21
151.0462724886911
 31
0.0
  0
LINE
  5
7605
  8
0
 62
     5
 10
-30.519837215248518
 20
151.0971844886912
 30
0.0
 11
-30.513769215248381
 21
151.0462724886911
 31
0.0
  0
LINE
  5
7606
  8
0
 62
     5
 10
-30.497060015248518
 20
150.9436344886912
 30
0.0
 11
-30.506147215248411
 21
150.9949164886913
 31
0.0
  0
LINE
  5
7607
  8
0
 62
     5
 10
-30.513769215248381
 20
151.0462724886911
 30
0.0
 11
-30.506147215248411
 21
150.9949164886913
 31
0.0
  0
LINE
  5
7608
  8
0
 62
     5
 10
-30.486522415248199
 20
150.8923376886915
 30
0.0
 11
-30.497060015248518
 21
150.9436344886912
 31
0.0
  0
LINE
  5
7609
  8
0
 62
     5
 10
-30.506147215248411
 20
150.9949164886913
 30
0.0
 11
-30.497060015248518
 21
150.9436344886912
 31
0.0
  0
LINE
  5
760A
  8
0
 62
     5
 10
-30.474578815248378
 20
150.8411740886915
 30
0.0
 11
-30.486522415248199
 21
150.8923376886915
 31
0.0
  0
LINE
  5
760B
  8
0
 62
     5
 10
-30.497060015248518
 20
150.9436344886912
 30
0.0
 11
-30.486522415248199
 21
150.8923376886915
 31
0.0
  0
LINE
  5
760C
  8
0
 62
     5
 10
-30.460829615248429
 20
150.7885600886915
 30
0.0
 11
-30.474578815248378
 21
150.8411740886915
 31
0.0
  0
LINE
  5
760D
  8
0
 62
     5
 10
-30.486522415248199
 20
150.8923376886915
 30
0.0
 11
-30.474578815248378
 21
150.8411740886915
 31
0.0
  0
LINE
  5
760E
  8
0
 62
     5
 10
-30.445704015248278
 20
150.7362420886912
 30
0.0
 11
-30.460829615248429
 21
150.7885600886915
 31
0.0
  0
LINE
  5
760F
  8
0
 62
     5
 10
-30.474578815248378
 20
150.8411740886915
 30
0.0
 11
-30.460829615248429
 21
150.7885600886915
 31
0.0
  0
LINE
  5
7610
  8
0
 62
     5
 10
-30.429187215248248
 20
150.68407208869129
 30
0.0
 11
-30.445704015248278
 21
150.7362420886912
 31
0.0
  0
LINE
  5
7611
  8
0
 62
     5
 10
-30.460829615248429
 20
150.7885600886915
 30
0.0
 11
-30.445704015248278
 21
150.7362420886912
 31
0.0
  0
LINE
  5
7612
  8
0
 62
     5
 10
-30.411368015248801
 20
150.6322276886913
 30
0.0
 11
-30.429187215248248
 21
150.68407208869129
 31
0.0
  0
LINE
  5
7613
  8
0
 62
     5
 10
-30.445704015248278
 20
150.7362420886912
 30
0.0
 11
-30.429187215248248
 21
150.68407208869129
 31
0.0
  0
LINE
  5
7614
  8
0
 62
     5
 10
-30.391328815248251
 20
150.5782520886913
 30
0.0
 11
-30.411368015248801
 21
150.6322276886913
 31
0.0
  0
LINE
  5
7615
  8
0
 62
     5
 10
-30.429187215248248
 20
150.68407208869129
 30
0.0
 11
-30.411368015248801
 21
150.6322276886913
 31
0.0
  0
LINE
  5
7616
  8
0
 62
     5
 10
-30.36997241524864
 20
150.5247204886912
 30
0.0
 11
-30.391328815248251
 21
150.5782520886913
 31
0.0
  0
LINE
  5
7617
  8
0
 62
     5
 10
-30.411368015248801
 20
150.6322276886913
 30
0.0
 11
-30.391328815248251
 21
150.5782520886913
 31
0.0
  0
LINE
  5
7618
  8
0
 62
     5
 10
-30.347254415248472
 20
150.4714404886914
 30
0.0
 11
-30.36997241524864
 21
150.5247204886912
 31
0.0
  0
LINE
  5
7619
  8
0
 62
     5
 10
-30.391328815248251
 20
150.5782520886913
 30
0.0
 11
-30.36997241524864
 21
150.5247204886912
 31
0.0
  0
LINE
  5
761A
  8
0
 62
     5
 10
-30.323308015248362
 20
150.4186340886915
 30
0.0
 11
-30.347254415248472
 21
150.4714404886914
 31
0.0
  0
LINE
  5
761B
  8
0
 62
     5
 10
-30.36997241524864
 20
150.5247204886912
 30
0.0
 11
-30.347254415248472
 21
150.4714404886914
 31
0.0
  0
LINE
  5
761C
  8
0
 62
     5
 10
-30.296594015248161
 20
150.36310448869139
 30
0.0
 11
-30.323308015248362
 21
150.4186340886915
 31
0.0
  0
LINE
  5
761D
  8
0
 62
     5
 10
-30.347254415248472
 20
150.4714404886914
 30
0.0
 11
-30.323308015248362
 21
150.4186340886915
 31
0.0
  0
LINE
  5
761E
  8
0
 62
     5
 10
-30.2686516152487
 20
150.30818168869141
 30
0.0
 11
-30.296594015248161
 21
150.36310448869139
 31
0.0
  0
LINE
  5
761F
  8
0
 62
     5
 10
-30.323308015248362
 20
150.4186340886915
 30
0.0
 11
-30.296594015248161
 21
150.36310448869139
 31
0.0
  0
LINE
  5
7620
  8
0
 62
     5
 10
-30.2393920152482
 20
150.25364368869151
 30
0.0
 11
-30.2686516152487
 21
150.30818168869141
 31
0.0
  0
LINE
  5
7621
  8
0
 62
     5
 10
-30.296594015248161
 20
150.36310448869139
 30
0.0
 11
-30.2686516152487
 21
150.30818168869141
 31
0.0
  0
LINE
  5
7622
  8
0
 62
     5
 10
-30.208963215248328
 20
150.1996976886914
 30
0.0
 11
-30.2393920152482
 21
150.25364368869151
 31
0.0
  0
LINE
  5
7623
  8
0
 62
     5
 10
-30.2686516152487
 20
150.30818168869141
 30
0.0
 11
-30.2393920152482
 21
150.25364368869151
 31
0.0
  0
LINE
  5
7624
  8
0
 62
     5
 10
-30.175130415248251
 20
150.14256968869131
 30
0.0
 11
-30.208963215248328
 21
150.1996976886914
 31
0.0
  0
LINE
  5
7625
  8
0
 62
     5
 10
-30.2393920152482
 20
150.25364368869151
 30
0.0
 11
-30.208963215248328
 21
150.1996976886914
 31
0.0
  0
LINE
  5
7626
  8
0
 62
     5
 10
-30.140113615248481
 20
150.08619648869129
 30
0.0
 11
-30.175130415248251
 21
150.14256968869131
 31
0.0
  0
LINE
  5
7627
  8
0
 62
     5
 10
-30.208963215248328
 20
150.1996976886914
 30
0.0
 11
-30.175130415248251
 21
150.14256968869131
 31
0.0
  0
LINE
  5
7628
  8
0
 62
     5
 10
-30.10382401524863
 20
150.0303412886912
 30
0.0
 11
-30.140113615248481
 21
150.08619648869129
 31
0.0
  0
LINE
  5
7629
  8
0
 62
     5
 10
-30.175130415248251
 20
150.14256968869131
 30
0.0
 11
-30.140113615248481
 21
150.08619648869129
 31
0.0
  0
LINE
  5
762A
  8
0
 62
     5
 10
-30.066439215248749
 20
149.9752112886915
 30
0.0
 11
-30.10382401524863
 21
150.0303412886912
 31
0.0
  0
LINE
  5
762B
  8
0
 62
     5
 10
-30.140113615248481
 20
150.08619648869129
 30
0.0
 11
-30.10382401524863
 21
150.0303412886912
 31
0.0
  0
LINE
  5
762C
  8
0
 62
     5
 10
-30.024910415248659
 20
149.91654408869121
 30
0.0
 11
-30.066439215248749
 21
149.9752112886915
 31
0.0
  0
LINE
  5
762D
  8
0
 62
     5
 10
-30.10382401524863
 20
150.0303412886912
 30
0.0
 11
-30.066439215248749
 21
149.9752112886915
 31
0.0
  0
LINE
  5
762E
  8
0
 62
     5
 10
-29.982271615248241
 20
149.8587648886913
 30
0.0
 11
-30.024910415248659
 21
149.91654408869121
 31
0.0
  0
LINE
  5
762F
  8
0
 62
     5
 10
-30.066439215248749
 20
149.9752112886915
 30
0.0
 11
-30.024910415248659
 21
149.91654408869121
 31
0.0
  0
LINE
  5
7630
  8
0
 62
     5
 10
-29.938389615248351
 20
149.8016812886915
 30
0.0
 11
-29.982271615248241
 21
149.8587648886913
 31
0.0
  0
LINE
  5
7631
  8
0
 62
     5
 10
-30.024910415248659
 20
149.91654408869121
 30
0.0
 11
-29.982271615248241
 21
149.8587648886913
 31
0.0
  0
LINE
  5
7632
  8
0
 62
     5
 10
-29.89345681524874
 20
149.7454560886915
 30
0.0
 11
-29.938389615248351
 21
149.8016812886915
 31
0.0
  0
LINE
  5
7633
  8
0
 62
     5
 10
-29.982271615248241
 20
149.8587648886913
 30
0.0
 11
-29.938389615248351
 21
149.8016812886915
 31
0.0
  0
LINE
  5
7634
  8
0
 62
     5
 10
-29.843625215248331
 20
149.68547168869139
 30
0.0
 11
-29.89345681524874
 21
149.7454560886915
 31
0.0
  0
LINE
  5
7635
  8
0
 62
     5
 10
-29.938389615248351
 20
149.8016812886915
 30
0.0
 11
-29.89345681524874
 21
149.7454560886915
 31
0.0
  0
LINE
  5
7636
  8
0
 62
     5
 10
-29.792713215248341
 20
149.62655288869141
 30
0.0
 11
-29.843625215248331
 21
149.68547168869139
 31
0.0
  0
LINE
  5
7637
  8
0
 62
     5
 10
-29.89345681524874
 20
149.7454560886915
 30
0.0
 11
-29.843625215248331
 21
149.68547168869139
 31
0.0
  0
LINE
  5
7638
  8
0
 62
     5
 10
-29.740587615248671
 20
149.56849248869131
 30
0.0
 11
-29.792713215248341
 21
149.62655288869141
 31
0.0
  0
LINE
  5
7639
  8
0
 62
     5
 10
-29.843625215248331
 20
149.68547168869139
 30
0.0
 11
-29.792713215248341
 21
149.62655288869141
 31
0.0
  0
LINE
  5
763A
  8
0
 62
     5
 10
-29.687455615248211
 20
149.51143848869131
 30
0.0
 11
-29.740587615248671
 21
149.56849248869131
 31
0.0
  0
LINE
  5
763B
  8
0
 62
     5
 10
-29.792713215248341
 20
149.62655288869141
 30
0.0
 11
-29.740587615248671
 21
149.56849248869131
 31
0.0
  0
LINE
  5
763C
  8
0
 62
     5
 10
-29.628744015248731
 20
149.45071408869151
 30
0.0
 11
-29.687455615248211
 21
149.51143848869131
 31
0.0
  0
LINE
  5
763D
  8
0
 62
     5
 10
-29.740587615248671
 20
149.56849248869131
 30
0.0
 11
-29.687455615248211
 21
149.51143848869131
 31
0.0
  0
LINE
  5
763E
  8
0
 62
     5
 10
-29.569011215248789
 20
149.39124768869121
 30
0.0
 11
-29.628744015248731
 21
149.45071408869151
 31
0.0
  0
LINE
  5
763F
  8
0
 62
     5
 10
-29.687455615248211
 20
149.51143848869131
 30
0.0
 11
-29.628744015248731
 21
149.45071408869151
 31
0.0
  0
LINE
  5
7640
  8
0
 62
     5
 10
-29.508094415248479
 20
149.33284688869131
 30
0.0
 11
-29.569011215248789
 21
149.39124768869121
 31
0.0
  0
LINE
  5
7641
  8
0
 62
     5
 10
-29.628744015248731
 20
149.45071408869151
 30
0.0
 11
-29.569011215248789
 21
149.39124768869121
 31
0.0
  0
LINE
  5
7642
  8
0
 62
     5
 10
-29.446171215248679
 20
149.2756448886914
 30
0.0
 11
-29.508094415248479
 21
149.33284688869131
 31
0.0
  0
LINE
  5
7643
  8
0
 62
     5
 10
-29.569011215248789
 20
149.39124768869121
 30
0.0
 11
-29.508094415248479
 21
149.33284688869131
 31
0.0
  0
LINE
  5
7644
  8
0
 62
     5
 10
-29.378476015248609
 20
149.2154088886914
 30
0.0
 11
-29.446171215248679
 21
149.2756448886914
 31
0.0
  0
LINE
  5
7645
  8
0
 62
     5
 10
-29.508094415248479
 20
149.33284688869131
 30
0.0
 11
-29.446171215248679
 21
149.2756448886914
 31
0.0
  0
LINE
  5
7646
  8
0
 62
     5
 10
-29.309774415248452
 20
149.15666768869119
 30
0.0
 11
-29.378476015248609
 21
149.2154088886914
 31
0.0
  0
LINE
  5
7647
  8
0
 62
     5
 10
-29.446171215248679
 20
149.2756448886914
 30
0.0
 11
-29.378476015248609
 21
149.2154088886914
 31
0.0
  0
LINE
  5
7648
  8
0
 62
     5
 10
-29.2399184152485
 20
149.0992140886913
 30
0.0
 11
-29.309774415248452
 21
149.15666768869119
 31
0.0
  0
LINE
  5
7649
  8
0
 62
     5
 10
-29.378476015248609
 20
149.2154088886914
 30
0.0
 11
-29.309774415248452
 21
149.15666768869119
 31
0.0
  0
LINE
  5
764A
  8
0
 62
     5
 10
-29.169070815248691
 20
149.0431664886915
 30
0.0
 11
-29.2399184152485
 21
149.0992140886913
 31
0.0
  0
LINE
  5
764B
  8
0
 62
     5
 10
-29.309774415248452
 20
149.15666768869119
 30
0.0
 11
-29.2399184152485
 21
149.0992140886913
 31
0.0
  0
LINE
  5
764C
  8
0
 62
     5
 10
-29.092170015248321
 20
148.98475088869151
 30
0.0
 11
-29.169070815248691
 21
149.0431664886915
 31
0.0
  0
LINE
  5
764D
  8
0
 62
     5
 10
-29.2399184152485
 20
149.0992140886913
 30
0.0
 11
-29.169070815248691
 21
149.0431664886915
 31
0.0
  0
LINE
  5
764E
  8
0
 62
     5
 10
-29.014011215248789
 20
148.92765248869131
 30
0.0
 11
-29.092170015248321
 21
148.98475088869151
 31
0.0
  0
LINE
  5
764F
  8
0
 62
     5
 10
-29.169070815248691
 20
149.0431664886915
 30
0.0
 11
-29.092170015248321
 21
148.98475088869151
 31
0.0
  0
LINE
  5
7650
  8
0
 62
     5
 10
-28.934416815248479
 20
148.87159008869119
 30
0.0
 11
-29.014011215248789
 21
148.92765248869131
 31
0.0
  0
LINE
  5
7651
  8
0
 62
     5
 10
-29.092170015248321
 20
148.98475088869151
 30
0.0
 11
-29.014011215248789
 21
148.92765248869131
 31
0.0
  0
LINE
  5
7652
  8
0
 62
     5
 10
-28.85365321524813
 20
148.81662288869131
 30
0.0
 11
-28.934416815248479
 21
148.87159008869119
 31
0.0
  0
LINE
  5
7653
  8
0
 62
     5
 10
-29.014011215248789
 20
148.92765248869131
 30
0.0
 11
-28.934416815248479
 21
148.87159008869119
 31
0.0
  0
LINE
  5
7654
  8
0
 62
     5
 10
-28.765030815248451
 20
148.7582220886913
 30
0.0
 11
-28.85365321524813
 21
148.81662288869131
 31
0.0
  0
LINE
  5
7655
  8
0
 62
     5
 10
-28.934416815248479
 20
148.87159008869119
 30
0.0
 11
-28.85365321524813
 21
148.81662288869131
 31
0.0
  0
LINE
  5
7656
  8
0
 62
     5
 10
-28.67537241524866
 20
148.70096088869121
 30
0.0
 11
-28.765030815248451
 21
148.7582220886913
 31
0.0
  0
LINE
  5
7657
  8
0
 62
     5
 10
-28.85365321524813
 20
148.81662288869131
 30
0.0
 11
-28.765030815248451
 21
148.7582220886913
 31
0.0
  0
LINE
  5
7658
  8
0
 62
     5
 10
-28.584530015248561
 20
148.64460248869119
 30
0.0
 11
-28.67537241524866
 21
148.70096088869121
 31
0.0
  0
LINE
  5
7659
  8
0
 62
     5
 10
-28.765030815248451
 20
148.7582220886913
 30
0.0
 11
-28.67537241524866
 21
148.70096088869121
 31
0.0
  0
LINE
  5
765A
  8
0
 62
     5
 10
-28.492770015248709
 20
148.58910248869131
 30
0.0
 11
-28.584530015248561
 21
148.64460248869119
 31
0.0
  0
LINE
  5
765B
  8
0
 62
     5
 10
-28.67537241524866
 20
148.70096088869121
 30
0.0
 11
-28.584530015248561
 21
148.64460248869119
 31
0.0
  0
LINE
  5
765C
  8
0
 62
     5
 10
-28.390931215248369
 20
148.5289996886913
 30
0.0
 11
-28.492770015248709
 21
148.58910248869131
 31
0.0
  0
LINE
  5
765D
  8
0
 62
     5
 10
-28.584530015248561
 20
148.64460248869119
 30
0.0
 11
-28.492770015248709
 21
148.58910248869131
 31
0.0
  0
LINE
  5
765E
  8
0
 62
     5
 10
-28.288559615248751
 20
148.4700808886914
 30
0.0
 11
-28.390931215248369
 21
148.5289996886913
 31
0.0
  0
LINE
  5
765F
  8
0
 62
     5
 10
-28.492770015248709
 20
148.58910248869131
 30
0.0
 11
-28.390931215248369
 21
148.5289996886913
 31
0.0
  0
LINE
  5
7660
  8
0
 62
     5
 10
-28.185477615248221
 20
148.4122128886915
 30
0.0
 11
-28.288559615248751
 21
148.4700808886914
 31
0.0
  0
LINE
  5
7661
  8
0
 62
     5
 10
-28.390931215248369
 20
148.5289996886913
 30
0.0
 11
-28.288559615248751
 21
148.4700808886914
 31
0.0
  0
LINE
  5
7662
  8
0
 62
     5
 10
-28.081862815248311
 20
148.3554696886913
 30
0.0
 11
-28.185477615248221
 21
148.4122128886915
 31
0.0
  0
LINE
  5
7663
  8
0
 62
     5
 10
-28.288559615248751
 20
148.4700808886914
 30
0.0
 11
-28.185477615248221
 21
148.4122128886915
 31
0.0
  0
LINE
  5
7664
  8
0
 62
     5
 10
-27.96600841524873
 20
148.29363528869121
 30
0.0
 11
-28.081862815248311
 21
148.3554696886913
 31
0.0
  0
LINE
  5
7665
  8
0
 62
     5
 10
-28.185477615248221
 20
148.4122128886915
 30
0.0
 11
-28.081862815248311
 21
148.3554696886913
 31
0.0
  0
LINE
  5
7666
  8
0
 62
     5
 10
-27.84956201524864
 20
148.23311808869121
 30
0.0
 11
-27.96600841524873
 21
148.29363528869121
 31
0.0
  0
LINE
  5
7667
  8
0
 62
     5
 10
-28.081862815248311
 20
148.3554696886913
 30
0.0
 11
-27.96600841524873
 21
148.29363528869121
 31
0.0
  0
LINE
  5
7668
  8
0
 62
     5
 10
-27.73231641524854
 20
148.17372568869141
 30
0.0
 11
-27.84956201524864
 21
148.23311808869121
 31
0.0
  0
LINE
  5
7669
  8
0
 62
     5
 10
-27.96600841524873
 20
148.29363528869121
 30
0.0
 11
-27.84956201524864
 21
148.23311808869121
 31
0.0
  0
LINE
  5
766A
  8
0
 62
     5
 10
-27.61447881524856
 20
148.11551728869139
 30
0.0
 11
-27.73231641524854
 21
148.17372568869141
 31
0.0
  0
LINE
  5
766B
  8
0
 62
     5
 10
-27.84956201524864
 20
148.23311808869121
 30
0.0
 11
-27.73231641524854
 21
148.17372568869141
 31
0.0
  0
LINE
  5
766C
  8
0
 62
     5
 10
-27.481782015248431
 20
148.05161088869119
 30
0.0
 11
-27.61447881524856
 21
148.11551728869139
 31
0.0
  0
LINE
  5
766D
  8
0
 62
     5
 10
-27.73231641524854
 20
148.17372568869141
 30
0.0
 11
-27.61447881524856
 21
148.11551728869139
 31
0.0
  0
LINE
  5
766E
  8
0
 62
     5
 10
-27.34855241524826
 20
147.9891252886915
 30
0.0
 11
-27.481782015248431
 21
148.05161088869119
 31
0.0
  0
LINE
  5
766F
  8
0
 62
     5
 10
-27.61447881524856
 20
148.11551728869139
 30
0.0
 11
-27.481782015248431
 21
148.05161088869119
 31
0.0
  0
LINE
  5
7670
  8
0
 62
     5
 10
-27.214582815248669
 20
147.92791248869119
 30
0.0
 11
-27.34855241524826
 21
147.9891252886915
 31
0.0
  0
LINE
  5
7671
  8
0
 62
     5
 10
-27.481782015248431
 20
148.05161088869119
 30
0.0
 11
-27.34855241524826
 21
147.9891252886915
 31
0.0
  0
LINE
  5
7672
  8
0
 62
     5
 10
-27.080050815248448
 20
147.86798728869141
 30
0.0
 11
-27.214582815248669
 21
147.92791248869119
 31
0.0
  0
LINE
  5
7673
  8
0
 62
     5
 10
-27.34855241524826
 20
147.9891252886915
 30
0.0
 11
-27.214582815248669
 21
147.92791248869119
 31
0.0
  0
LINE
  5
7674
  8
0
 62
     5
 10
-26.927181615248401
 20
147.8016684886914
 30
0.0
 11
-27.080050815248448
 21
147.86798728869141
 31
0.0
  0
LINE
  5
7675
  8
0
 62
     5
 10
-27.214582815248669
 20
147.92791248869119
 30
0.0
 11
-27.080050815248448
 21
147.86798728869141
 31
0.0
  0
LINE
  5
7676
  8
0
 62
     5
 10
-26.773779615248369
 20
147.7369332886914
 30
0.0
 11
-26.927181615248401
 21
147.8016684886914
 31
0.0
  0
LINE
  5
7677
  8
0
 62
     5
 10
-27.080050815248448
 20
147.86798728869141
 30
0.0
 11
-26.927181615248401
 21
147.8016684886914
 31
0.0
  0
LINE
  5
7678
  8
0
 62
     5
 10
-26.61962281524859
 20
147.6735892886912
 30
0.0
 11
-26.773779615248369
 21
147.7369332886914
 31
0.0
  0
LINE
  5
7679
  8
0
 62
     5
 10
-26.927181615248401
 20
147.8016684886914
 30
0.0
 11
-26.773779615248369
 21
147.7369332886914
 31
0.0
  0
LINE
  5
767A
  8
0
 62
     5
 10
-26.464903615248211
 20
147.61165128869121
 30
0.0
 11
-26.61962281524859
 21
147.6735892886912
 31
0.0
  0
LINE
  5
767B
  8
0
 62
     5
 10
-26.773779615248369
 20
147.7369332886914
 30
0.0
 11
-26.61962281524859
 21
147.6735892886912
 31
0.0
  0
LINE
  5
767C
  8
0
 62
     5
 10
-26.28699281524877
 20
147.54234288869151
 30
0.0
 11
-26.464903615248211
 21
147.61165128869121
 31
0.0
  0
LINE
  5
767D
  8
0
 62
     5
 10
-26.61962281524859
 20
147.6735892886912
 30
0.0
 11
-26.464903615248211
 21
147.61165128869121
 31
0.0
  0
LINE
  5
767E
  8
0
 62
     5
 10
-26.108534415248421
 20
147.47473648869121
 30
0.0
 11
-26.28699281524877
 21
147.54234288869151
 31
0.0
  0
LINE
  5
767F
  8
0
 62
     5
 10
-26.464903615248211
 20
147.61165128869121
 30
0.0
 11
-26.28699281524877
 21
147.54234288869151
 31
0.0
  0
LINE
  5
7680
  8
0
 62
     5
 10
-25.92929161524836
 20
147.4086544886915
 30
0.0
 11
-26.108534415248421
 21
147.47473648869121
 31
0.0
  0
LINE
  5
7681
  8
0
 62
     5
 10
-26.28699281524877
 20
147.54234288869151
 30
0.0
 11
-26.108534415248421
 21
147.47473648869121
 31
0.0
  0
LINE
  5
7682
  8
0
 62
     5
 10
-25.74944201524881
 20
147.34402288869151
 30
0.0
 11
-25.92929161524836
 21
147.4086544886915
 31
0.0
  0
LINE
  5
7683
  8
0
 62
     5
 10
-26.108534415248421
 20
147.47473648869121
 30
0.0
 11
-25.92929161524836
 21
147.4086544886915
 31
0.0
  0
LINE
  5
7684
  8
0
 62
     5
 10
-25.54052521524865
 20
147.2709108886913
 30
0.0
 11
-25.74944201524881
 21
147.34402288869151
 31
0.0
  0
LINE
  5
7685
  8
0
 62
     5
 10
-25.92929161524836
 20
147.4086544886915
 30
0.0
 11
-25.74944201524881
 21
147.34402288869151
 31
0.0
  0
LINE
  5
7686
  8
0
 62
     5
 10
-25.331046015248489
 20
147.1995008886914
 30
0.0
 11
-25.54052521524865
 21
147.2709108886913
 31
0.0
  0
LINE
  5
7687
  8
0
 62
     5
 10
-25.74944201524881
 20
147.34402288869151
 30
0.0
 11
-25.54052521524865
 21
147.2709108886913
 31
0.0
  0
LINE
  5
7688
  8
0
 62
     5
 10
-25.120738015248492
 20
147.1295264886912
 30
0.0
 11
-25.331046015248489
 21
147.1995008886914
 31
0.0
  0
LINE
  5
7689
  8
0
 62
     5
 10
-25.54052521524865
 20
147.2709108886913
 30
0.0
 11
-25.331046015248489
 21
147.1995008886914
 31
0.0
  0
LINE
  5
768A
  8
0
 62
     5
 10
-24.909793615248361
 20
147.06085448869121
 30
0.0
 11
-25.120738015248492
 21
147.1295264886912
 31
0.0
  0
LINE
  5
768B
  8
0
 62
     5
 10
-25.331046015248489
 20
147.1995008886914
 30
0.0
 11
-25.120738015248492
 21
147.1295264886912
 31
0.0
  0
LINE
  5
768C
  8
0
 62
     5
 10
-24.663166415248501
 20
146.98225168869121
 30
0.0
 11
-24.909793615248361
 21
147.06085448869121
 31
0.0
  0
LINE
  5
768D
  8
0
 62
     5
 10
-25.120738015248492
 20
147.1295264886912
 30
0.0
 11
-24.909793615248361
 21
147.06085448869121
 31
0.0
  0
LINE
  5
768E
  8
0
 62
     5
 10
-24.416110015248709
 20
146.9051436886914
 30
0.0
 11
-24.663166415248501
 21
146.98225168869121
 31
0.0
  0
LINE
  5
768F
  8
0
 62
     5
 10
-24.909793615248361
 20
147.06085448869121
 30
0.0
 11
-24.663166415248501
 21
146.98225168869121
 31
0.0
  0
LINE
  5
7690
  8
0
 62
     5
 10
-24.168402415248519
 20
146.8292788886915
 30
0.0
 11
-24.416110015248709
 21
146.9051436886914
 31
0.0
  0
LINE
  5
7691
  8
0
 62
     5
 10
-24.663166415248501
 20
146.98225168869121
 30
0.0
 11
-24.416110015248709
 21
146.9051436886914
 31
0.0
  0
LINE
  5
7692
  8
0
 62
     5
 10
-23.920162015248309
 20
146.7545240886914
 30
0.0
 11
-24.168402415248519
 21
146.8292788886915
 31
0.0
  0
LINE
  5
7693
  8
0
 62
     5
 10
-24.416110015248709
 20
146.9051436886914
 30
0.0
 11
-24.168402415248519
 21
146.8292788886915
 31
0.0
  0
LINE
  5
7694
  8
0
 62
     5
 10
-23.62999321524871
 20
146.6685656886915
 30
0.0
 11
-23.920162015248309
 21
146.7545240886914
 31
0.0
  0
LINE
  5
7695
  8
0
 62
     5
 10
-24.168402415248519
 20
146.8292788886915
 30
0.0
 11
-23.920162015248309
 21
146.7545240886914
 31
0.0
  0
LINE
  5
7696
  8
0
 62
     5
 10
-23.339617215248222
 20
146.5840428886915
 30
0.0
 11
-23.62999321524871
 21
146.6685656886915
 31
0.0
  0
LINE
  5
7697
  8
0
 62
     5
 10
-23.920162015248309
 20
146.7545240886914
 30
0.0
 11
-23.62999321524871
 21
146.6685656886915
 31
0.0
  0
LINE
  5
7698
  8
0
 62
     5
 10
-23.048856415248729
 20
146.50088168869141
 30
0.0
 11
-23.339617215248222
 21
146.5840428886915
 31
0.0
  0
LINE
  5
7699
  8
0
 62
     5
 10
-23.62999321524871
 20
146.6685656886915
 30
0.0
 11
-23.339617215248222
 21
146.5840428886915
 31
0.0
  0
LINE
  5
769A
  8
0
 62
     5
 10
-22.757710815248171
 20
146.4191116886912
 30
0.0
 11
-23.048856415248729
 21
146.50088168869141
 31
0.0
  0
LINE
  5
769B
  8
0
 62
     5
 10
-23.339617215248222
 20
146.5840428886915
 30
0.0
 11
-23.048856415248729
 21
146.50088168869141
 31
0.0
  0
LINE
  5
769C
  8
0
 62
     5
 10
-22.421528815248621
 20
146.32649328869121
 30
0.0
 11
-22.757710815248171
 21
146.4191116886912
 31
0.0
  0
LINE
  5
769D
  8
0
 62
     5
 10
-23.048856415248729
 20
146.50088168869141
 30
0.0
 11
-22.757710815248171
 21
146.4191116886912
 31
0.0
  0
LINE
  5
769E
  8
0
 62
     5
 10
-22.085050815248451
 20
146.2356952886914
 30
0.0
 11
-22.421528815248621
 21
146.32649328869121
 31
0.0
  0
LINE
  5
769F
  8
0
 62
     5
 10
-22.757710815248171
 20
146.4191116886912
 30
0.0
 11
-22.421528815248621
 21
146.32649328869121
 31
0.0
  0
LINE
  5
76A0
  8
0
 62
     5
 10
-21.748054815248562
 20
146.1465844886915
 30
0.0
 11
-22.085050815248451
 21
146.2356952886914
 31
0.0
  0
LINE
  5
76A1
  8
0
 62
     5
 10
-22.421528815248621
 20
146.32649328869121
 30
0.0
 11
-22.085050815248451
 21
146.2356952886914
 31
0.0
  0
LINE
  5
76A2
  8
0
 62
     5
 10
-21.410540815248279
 20
146.0591016886913
 30
0.0
 11
-21.748054815248562
 21
146.1465844886915
 31
0.0
  0
LINE
  5
76A3
  8
0
 62
     5
 10
-22.085050815248451
 20
146.2356952886914
 30
0.0
 11
-21.748054815248562
 21
146.1465844886915
 31
0.0
  0
LINE
  5
76A4
  8
0
 62
     5
 10
-21.032696815248581
 20
145.96315328869119
 30
0.0
 11
-21.410540815248279
 21
146.0591016886913
 31
0.0
  0
LINE
  5
76A5
  8
0
 62
     5
 10
-21.748054815248562
 20
146.1465844886915
 30
0.0
 11
-21.410540815248279
 21
146.0591016886913
 31
0.0
  0
LINE
  5
76A6
  8
0
 62
     5
 10
-20.65455681524827
 20
145.86917328869129
 30
0.0
 11
-21.032696815248581
 21
145.96315328869119
 31
0.0
  0
LINE
  5
76A7
  8
0
 62
     5
 10
-21.410540815248279
 20
146.0591016886913
 30
0.0
 11
-21.032696815248581
 21
145.96315328869119
 31
0.0
  0
LINE
  5
76A8
  8
0
 62
     5
 10
-20.275898815248301
 20
145.7770432886914
 30
0.0
 11
-20.65455681524827
 21
145.86917328869129
 31
0.0
  0
LINE
  5
76A9
  8
0
 62
     5
 10
-21.032696815248581
 20
145.96315328869119
 30
0.0
 11
-20.65455681524827
 21
145.86917328869129
 31
0.0
  0
LINE
  5
76AA
  8
0
 62
     5
 10
-19.896663615248698
 20
145.6866448886914
 30
0.0
 11
-20.275898815248301
 21
145.7770432886914
 31
0.0
  0
LINE
  5
76AB
  8
0
 62
     5
 10
-20.65455681524827
 20
145.86917328869129
 30
0.0
 11
-20.275898815248301
 21
145.7770432886914
 31
0.0
  0
LINE
  5
76AC
  8
0
 62
     5
 10
-19.488168815248621
 20
145.59130328869119
 30
0.0
 11
-19.896663615248698
 21
145.6866448886914
 31
0.0
  0
LINE
  5
76AD
  8
0
 62
     5
 10
-20.275898815248301
 20
145.7770432886914
 30
0.0
 11
-19.896663615248698
 21
145.6866448886914
 31
0.0
  0
LINE
  5
76AE
  8
0
 62
     5
 10
-19.079378015248661
 20
145.4979152886915
 30
0.0
 11
-19.488168815248621
 21
145.59130328869119
 31
0.0
  0
LINE
  5
76AF
  8
0
 62
     5
 10
-19.896663615248698
 20
145.6866448886914
 30
0.0
 11
-19.488168815248621
 21
145.59130328869119
 31
0.0
  0
LINE
  5
76B0
  8
0
 62
     5
 10
-18.670084015248559
 20
145.40631808869151
 30
0.0
 11
-19.079378015248661
 21
145.4979152886915
 31
0.0
  0
LINE
  5
76B1
  8
0
 62
     5
 10
-19.488168815248621
 20
145.59130328869119
 30
0.0
 11
-19.079378015248661
 21
145.4979152886915
 31
0.0
  0
LINE
  5
76B2
  8
0
 62
     5
 10
-18.260227615248581
 20
145.3163932886915
 30
0.0
 11
-18.670084015248559
 21
145.40631808869151
 31
0.0
  0
LINE
  5
76B3
  8
0
 62
     5
 10
-19.079378015248661
 20
145.4979152886915
 30
0.0
 11
-18.670084015248559
 21
145.40631808869151
 31
0.0
  0
LINE
  5
76B4
  8
0
 62
     5
 10
-17.827238815248791
 20
145.22327168869131
 30
0.0
 11
-18.260227615248581
 21
145.3163932886915
 31
0.0
  0
LINE
  5
76B5
  8
0
 62
     5
 10
-18.670084015248559
 20
145.40631808869151
 30
0.0
 11
-18.260227615248581
 21
145.3163932886915
 31
0.0
  0
LINE
  5
76B6
  8
0
 62
     5
 10
-17.394028015248519
 20
145.13194088869139
 30
0.0
 11
-17.827238815248791
 21
145.22327168869131
 31
0.0
  0
LINE
  5
76B7
  8
0
 62
     5
 10
-18.260227615248581
 20
145.3163932886915
 30
0.0
 11
-17.827238815248791
 21
145.22327168869131
 31
0.0
  0
LINE
  5
76B8
  8
0
 62
     5
 10
-16.96038801524838
 20
145.0423120886914
 30
0.0
 11
-17.394028015248519
 21
145.13194088869139
 31
0.0
  0
LINE
  5
76B9
  8
0
 62
     5
 10
-17.827238815248791
 20
145.22327168869131
 30
0.0
 11
-17.394028015248519
 21
145.13194088869139
 31
0.0
  0
LINE
  5
76BA
  8
0
 62
     5
 10
-16.526259615248421
 20
144.95428168869131
 30
0.0
 11
-16.96038801524838
 21
145.0423120886914
 31
0.0
  0
LINE
  5
76BB
  8
0
 62
     5
 10
-17.394028015248519
 20
145.13194088869139
 30
0.0
 11
-16.96038801524838
 21
145.0423120886914
 31
0.0
  0
LINE
  5
76BC
  8
0
 62
     5
 10
-16.06706001524849
 20
144.86296568869139
 30
0.0
 11
-16.526259615248421
 21
144.95428168869131
 31
0.0
  0
LINE
  5
76BD
  8
0
 62
     5
 10
-16.96038801524838
 20
145.0423120886914
 30
0.0
 11
-16.526259615248421
 21
144.95428168869131
 31
0.0
  0
LINE
  5
76BE
  8
0
 62
     5
 10
-15.607682815248319
 20
144.7733812886915
 30
0.0
 11
-16.06706001524849
 21
144.86296568869139
 31
0.0
  0
LINE
  5
76BF
  8
0
 62
     5
 10
-16.526259615248421
 20
144.95428168869131
 30
0.0
 11
-16.06706001524849
 21
144.86296568869139
 31
0.0
  0
LINE
  5
76C0
  8
0
 62
     5
 10
-15.1479356152488
 20
144.6854396886913
 30
0.0
 11
-15.607682815248319
 21
144.7733812886915
 31
0.0
  0
LINE
  5
76C1
  8
0
 62
     5
 10
-16.06706001524849
 20
144.86296568869139
 30
0.0
 11
-15.607682815248319
 21
144.7733812886915
 31
0.0
  0
LINE
  5
76C2
  8
0
 62
     5
 10
-14.68770001524882
 20
144.59902248869139
 30
0.0
 11
-15.1479356152488
 21
144.6854396886913
 31
0.0
  0
LINE
  5
76C3
  8
0
 62
     5
 10
-15.607682815248319
 20
144.7733812886915
 30
0.0
 11
-15.1479356152488
 21
144.6854396886913
 31
0.0
  0
LINE
  5
76C4
  8
0
 62
     5
 10
-14.20120921524847
 20
144.50936408869131
 30
0.0
 11
-14.68770001524882
 21
144.59902248869139
 31
0.0
  0
LINE
  5
76C5
  8
0
 62
     5
 10
-15.1479356152488
 20
144.6854396886913
 30
0.0
 11
-14.68770001524882
 21
144.59902248869139
 31
0.0
  0
LINE
  5
76C6
  8
0
 62
     5
 10
-13.71457041524849
 20
144.4213336886915
 30
0.0
 11
-14.20120921524847
 21
144.50936408869131
 31
0.0
  0
LINE
  5
76C7
  8
0
 62
     5
 10
-14.68770001524882
 20
144.59902248869139
 30
0.0
 11
-14.20120921524847
 21
144.50936408869131
 31
0.0
  0
LINE
  5
76C8
  8
0
 62
     5
 10
-13.22760601524868
 20
144.3347980886912
 30
0.0
 11
-13.71457041524849
 21
144.4213336886915
 31
0.0
  0
LINE
  5
76C9
  8
0
 62
     5
 10
-14.20120921524847
 20
144.50936408869131
 30
0.0
 11
-13.71457041524849
 21
144.4213336886915
 31
0.0
  0
LINE
  5
76CA
  8
0
 62
     5
 10
-12.74016801524874
 20
144.24962408869121
 30
0.0
 11
-13.22760601524868
 21
144.3347980886912
 31
0.0
  0
LINE
  5
76CB
  8
0
 62
     5
 10
-13.71457041524849
 20
144.4213336886915
 30
0.0
 11
-13.22760601524868
 21
144.3347980886912
 31
0.0
  0
LINE
  5
76CC
  8
0
 62
     5
 10
-12.22964201524848
 20
144.16190448869131
 30
0.0
 11
-12.74016801524874
 21
144.24962408869121
 31
0.0
  0
LINE
  5
76CD
  8
0
 62
     5
 10
-13.22760601524868
 20
144.3347980886912
 30
0.0
 11
-12.74016801524874
 21
144.24962408869121
 31
0.0
  0
LINE
  5
76CE
  8
0
 62
     5
 10
-11.71904201524881
 20
144.0756056886915
 30
0.0
 11
-12.22964201524848
 21
144.16190448869131
 31
0.0
  0
LINE
  5
76CF
  8
0
 62
     5
 10
-12.74016801524874
 20
144.24962408869121
 30
0.0
 11
-12.22964201524848
 21
144.16190448869131
 31
0.0
  0
LINE
  5
76D0
  8
0
 62
     5
 10
-11.20819041524873
 20
143.9906684886912
 30
0.0
 11
-11.71904201524881
 21
144.0756056886915
 31
0.0
  0
LINE
  5
76D1
  8
0
 62
     5
 10
-12.22964201524848
 20
144.16190448869131
 30
0.0
 11
-11.71904201524881
 21
144.0756056886915
 31
0.0
  0
LINE
  5
76D2
  8
0
 62
     5
 10
-10.69690961524873
 20
143.90700408869151
 30
0.0
 11
-11.20819041524873
 21
143.9906684886912
 31
0.0
  0
LINE
  5
76D3
  8
0
 62
     5
 10
-11.71904201524881
 20
144.0756056886915
 30
0.0
 11
-11.20819041524873
 21
143.9906684886912
 31
0.0
  0
LINE
  5
76D4
  8
0
 62
     5
 10
-10.170370015248521
 20
143.8222000886912
 30
0.0
 11
-10.69690961524873
 21
143.90700408869151
 31
0.0
  0
LINE
  5
76D5
  8
0
 62
     5
 10
-11.20819041524873
 20
143.9906684886912
 30
0.0
 11
-10.69690961524873
 21
143.90700408869151
 31
0.0
  0
LINE
  5
76D6
  8
0
 62
     5
 10
-9.6438008152484258
 20
143.7387280886912
 30
0.0
 11
-10.170370015248521
 21
143.8222000886912
 31
0.0
  0
LINE
  5
76D7
  8
0
 62
     5
 10
-10.69690961524873
 20
143.90700408869151
 30
0.0
 11
-10.170370015248521
 21
143.8222000886912
 31
0.0
  0
LINE
  5
76D8
  8
0
 62
     5
 10
-9.1170244152481796
 20
143.6565584886915
 30
0.0
 11
-9.6438008152484258
 21
143.7387280886912
 31
0.0
  0
LINE
  5
76D9
  8
0
 62
     5
 10
-10.170370015248521
 20
143.8222000886912
 30
0.0
 11
-9.6438008152484258
 21
143.7387280886912
 31
0.0
  0
LINE
  5
76DA
  8
0
 62
     5
 10
-8.5898336152482671
 20
143.57563208869141
 30
0.0
 11
-9.1170244152481796
 21
143.6565584886915
 31
0.0
  0
LINE
  5
76DB
  8
0
 62
     5
 10
-9.6438008152484258
 20
143.7387280886912
 30
0.0
 11
-9.1170244152481796
 21
143.6565584886915
 31
0.0
  0
LINE
  5
76DC
  8
0
 62
     5
 10
-8.0547100152482471
 20
143.4947944886913
 30
0.0
 11
-8.5898336152482671
 21
143.57563208869141
 31
0.0
  0
LINE
  5
76DD
  8
0
 62
     5
 10
-9.1170244152481796
 20
143.6565584886915
 30
0.0
 11
-8.5898336152482671
 21
143.57563208869141
 31
0.0
  0
LINE
  5
76DE
  8
0
 62
     5
 10
-7.5195864152482272
 20
143.4152444886914
 30
0.0
 11
-8.0547100152482471
 21
143.4947944886913
 31
0.0
  0
LINE
  5
76DF
  8
0
 62
     5
 10
-8.5898336152482671
 20
143.57563208869141
 30
0.0
 11
-8.0547100152482471
 21
143.4947944886913
 31
0.0
  0
LINE
  5
76E0
  8
0
 62
     5
 10
-6.9842556152486841
 20
143.3369228886915
 30
0.0
 11
-7.5195864152482272
 21
143.4152444886914
 31
0.0
  0
LINE
  5
76E1
  8
0
 62
     5
 10
-8.0547100152482471
 20
143.4947944886913
 30
0.0
 11
-7.5195864152482272
 21
143.4152444886914
 31
0.0
  0
LINE
  5
76E2
  8
0
 62
     5
 10
-6.4485400152487937
 20
143.2597704886914
 30
0.0
 11
-6.9842556152486841
 21
143.3369228886915
 31
0.0
  0
LINE
  5
76E3
  8
0
 62
     5
 10
-7.5195864152482272
 20
143.4152444886914
 30
0.0
 11
-6.9842556152486841
 21
143.3369228886915
 31
0.0
  0
LINE
  5
76E4
  8
0
 62
     5
 10
-5.908532415248315
 20
143.1832248886912
 30
0.0
 11
-6.4485400152487937
 21
143.2597704886914
 31
0.0
  0
LINE
  5
76E5
  8
0
 62
     5
 10
-6.9842556152486841
 20
143.3369228886915
 30
0.0
 11
-6.4485400152487937
 21
143.2597704886914
 31
0.0
  0
LINE
  5
76E6
  8
0
 62
     5
 10
-5.3685396152487774
 20
143.10786328869131
 30
0.0
 11
-5.908532415248315
 21
143.1832248886912
 31
0.0
  0
LINE
  5
76E7
  8
0
 62
     5
 10
-6.4485400152487937
 20
143.2597704886914
 30
0.0
 11
-5.908532415248315
 21
143.1832248886912
 31
0.0
  0
LINE
  5
76E8
  8
0
 62
     5
 10
-4.8283692152483582
 20
143.0336412886914
 30
0.0
 11
-5.3685396152487774
 21
143.10786328869131
 31
0.0
  0
LINE
  5
76E9
  8
0
 62
     5
 10
-5.908532415248315
 20
143.1832248886912
 30
0.0
 11
-5.3685396152487774
 21
143.10786328869131
 31
0.0
  0
LINE
  5
76EA
  8
0
 62
     5
 10
-4.2878436152488462
 20
142.9605292886915
 30
0.0
 11
-4.8283692152483582
 21
143.0336412886914
 31
0.0
  0
LINE
  5
76EB
  8
0
 62
     5
 10
-5.3685396152487774
 20
143.10786328869131
 30
0.0
 11
-4.8283692152483582
 21
143.0336412886914
 31
0.0
  0
LINE
  5
76EC
  8
0
 62
     5
 10
-3.7434404152482998
 20
142.88800928869151
 30
0.0
 11
-4.2878436152488462
 21
142.9605292886915
 31
0.0
  0
LINE
  5
76ED
  8
0
 62
     5
 10
-4.8283692152483582
 20
143.0336412886914
 30
0.0
 11
-4.2878436152488462
 21
142.9605292886915
 31
0.0
  0
LINE
  5
76EE
  8
0
 62
     5
 10
-3.1990816152487001
 20
142.8166288886913
 30
0.0
 11
-3.7434404152482998
 21
142.88800928869151
 31
0.0
  0
LINE
  5
76EF
  8
0
 62
     5
 10
-4.2878436152488462
 20
142.9605292886915
 30
0.0
 11
-3.7434404152482998
 21
142.88800928869151
 31
0.0
  0
LINE
  5
76F0
  8
0
 62
     5
 10
-2.6545600152484781
 20
142.74631408869121
 30
0.0
 11
-3.1990816152487001
 21
142.8166288886913
 31
0.0
  0
LINE
  5
76F1
  8
0
 62
     5
 10
-3.7434404152482998
 20
142.88800928869151
 30
0.0
 11
-3.1990816152487001
 21
142.8166288886913
 31
0.0
  0
LINE
  5
76F2
  8
0
 62
     5
 10
-2.1096980152487941
 20
142.67703528869151
 30
0.0
 11
-2.6545600152484781
 21
142.74631408869121
 31
0.0
  0
LINE
  5
76F3
  8
0
 62
     5
 10
-3.1990816152487001
 20
142.8166288886913
 30
0.0
 11
-2.6545600152484781
 21
142.74631408869121
 31
0.0
  0
LINE
  5
76F4
  8
0
 62
     5
 10
-1.5608992152482981
 20
142.6083336886912
 30
0.0
 11
-2.1096980152487941
 21
142.67703528869151
 31
0.0
  0
LINE
  5
76F5
  8
0
 62
     5
 10
-2.6545600152484781
 20
142.74631408869121
 30
0.0
 11
-2.1096980152487941
 21
142.67703528869151
 31
0.0
  0
LINE
  5
76F6
  8
0
 62
     5
 10
-1.0121596152483221
 20
142.54066808869121
 30
0.0
 11
-1.5608992152482981
 21
142.6083336886912
 31
0.0
  0
LINE
  5
76F7
  8
0
 62
     5
 10
-2.1096980152487941
 20
142.67703528869151
 30
0.0
 11
-1.5608992152482981
 21
142.6083336886912
 31
0.0
  0
LINE
  5
76F8
  8
0
 62
     5
 10
-0.4632868152482958
 20
142.4740236886914
 30
0.0
 11
-1.0121596152483221
 21
142.54066808869121
 31
0.0
  0
LINE
  5
76F9
  8
0
 62
     5
 10
-1.5608992152482981
 20
142.6083336886912
 30
0.0
 11
-1.0121596152483221
 21
142.54066808869121
 31
0.0
  0
LINE
  5
76FA
  8
0
 62
     5
 10
0.0859115847515
 20
142.4083412886915
 30
0.0
 11
-0.4632868152482958
 21
142.4740236886914
 31
0.0
  0
LINE
  5
76FB
  8
0
 62
     5
 10
-1.0121596152483221
 20
142.54066808869121
 30
0.0
 11
-0.4632868152482958
 21
142.4740236886914
 31
0.0
  0
LINE
  5
76FC
  8
0
 62
     5
 10
0.6389431847514402
 20
142.34319168869141
 30
0.0
 11
0.0859115847515
 21
142.4083412886915
 31
0.0
  0
LINE
  5
76FD
  8
0
 62
     5
 10
-0.4632868152482958
 20
142.4740236886914
 30
0.0
 11
0.0859115847515
 21
142.4083412886915
 31
0.0
  0
LINE
  5
76FE
  8
0
 62
     5
 10
1.191885984751593
 20
142.2790336886915
 30
0.0
 11
0.6389431847514402
 21
142.34319168869141
 31
0.0
  0
LINE
  5
76FF
  8
0
 62
     5
 10
0.0859115847515
 20
142.4083412886915
 30
0.0
 11
0.6389431847514402
 21
142.34319168869141
 31
0.0
  0
LINE
  5
7700
  8
0
 62
     5
 10
1.7449619847517379
 20
142.2158080886914
 30
0.0
 11
1.191885984751593
 21
142.2790336886915
 31
0.0
  0
LINE
  5
7701
  8
0
 62
     5
 10
0.6389431847514402
 20
142.34319168869141
 30
0.0
 11
1.191885984751593
 21
142.2790336886915
 31
0.0
  0
LINE
  5
7702
  8
0
 62
     5
 10
2.2983487847514521
 20
142.15348528869151
 30
0.0
 11
1.7449619847517379
 21
142.2158080886914
 31
0.0
  0
LINE
  5
7703
  8
0
 62
     5
 10
1.191885984751593
 20
142.2790336886915
 30
0.0
 11
1.7449619847517379
 21
142.2158080886914
 31
0.0
  0
LINE
  5
7704
  8
0
 62
     5
 10
2.8552431847513722
 20
142.0916804886914
 30
0.0
 11
2.2983487847514521
 21
142.15348528869151
 31
0.0
  0
LINE
  5
7705
  8
0
 62
     5
 10
1.7449619847517379
 20
142.2158080886914
 30
0.0
 11
2.2983487847514521
 21
142.15348528869151
 31
0.0
  0
LINE
  5
7706
  8
0
 62
     5
 10
3.41203398475119
 20
142.0307784886914
 30
0.0
 11
2.8552431847513722
 21
142.0916804886914
 31
0.0
  0
LINE
  5
7707
  8
0
 62
     5
 10
2.2983487847514521
 20
142.15348528869151
 30
0.0
 11
2.8552431847513722
 21
142.0916804886914
 31
0.0
  0
LINE
  5
7708
  8
0
 62
     5
 10
3.9689431847514229
 20
141.97074968869151
 30
0.0
 11
3.41203398475119
 21
142.0307784886914
 31
0.0
  0
LINE
  5
7709
  8
0
 62
     5
 10
2.8552431847513722
 20
142.0916804886914
 30
0.0
 11
3.41203398475119
 21
142.0307784886914
 31
0.0
  0
LINE
  5
770A
  8
0
 62
     5
 10
4.5261483847515924
 20
141.91153488869131
 30
0.0
 11
3.9689431847514229
 21
141.97074968869151
 31
0.0
  0
LINE
  5
770B
  8
0
 62
     5
 10
3.41203398475119
 20
142.0307784886914
 30
0.0
 11
3.9689431847514229
 21
141.97074968869151
 31
0.0
  0
LINE
  5
770C
  8
0
 62
     5
 10
5.0863135847516769
 20
141.8528380886915
 30
0.0
 11
4.5261483847515924
 21
141.91153488869131
 31
0.0
  0
LINE
  5
770D
  8
0
 62
     5
 10
3.9689431847514229
 20
141.97074968869151
 30
0.0
 11
4.5261483847515924
 21
141.91153488869131
 31
0.0
  0
LINE
  5
770E
  8
0
 62
     5
 10
5.6463603847514019
 20
141.79497008869151
 30
0.0
 11
5.0863135847516769
 21
141.8528380886915
 31
0.0
  0
LINE
  5
770F
  8
0
 62
     5
 10
4.5261483847515924
 20
141.91153488869131
 30
0.0
 11
5.0863135847516769
 21
141.8528380886915
 31
0.0
  0
LINE
  5
7710
  8
0
 62
     5
 10
6.2065107847511731
 20
141.7378864886912
 30
0.0
 11
5.6463603847514019
 21
141.79497008869151
 31
0.0
  0
LINE
  5
7711
  8
0
 62
     5
 10
5.0863135847516769
 20
141.8528380886915
 30
0.0
 11
5.6463603847514019
 21
141.79497008869151
 31
0.0
  0
LINE
  5
7712
  8
0
 62
     5
 10
6.7669571847515604
 20
141.6815576886915
 30
0.0
 11
6.2065107847511731
 21
141.7378864886912
 31
0.0
  0
LINE
  5
7713
  8
0
 62
     5
 10
5.6463603847514019
 20
141.79497008869151
 30
0.0
 11
6.2065107847511731
 21
141.7378864886912
 31
0.0
  0
LINE
  5
7714
  8
0
 62
     5
 10
7.3295791847514771
 20
141.62576168869131
 30
0.0
 11
6.7669571847515604
 21
141.6815576886915
 31
0.0
  0
LINE
  5
7715
  8
0
 62
     5
 10
6.2065107847511731
 20
141.7378864886912
 30
0.0
 11
6.7669571847515604
 21
141.6815576886915
 31
0.0
  0
LINE
  5
7716
  8
0
 62
     5
 10
7.8920679847514341
 20
141.57073528869131
 30
0.0
 11
7.3295791847514771
 21
141.62576168869131
 31
0.0
  0
LINE
  5
7717
  8
0
 62
     5
 10
6.7669571847515604
 20
141.6815576886915
 30
0.0
 11
7.3295791847514771
 21
141.62576168869131
 31
0.0
  0
LINE
  5
7718
  8
0
 62
     5
 10
8.4546307847515152
 20
141.51644888869129
 30
0.0
 11
7.8920679847514341
 21
141.57073528869131
 31
0.0
  0
LINE
  5
7719
  8
0
 62
     5
 10
7.3295791847514771
 20
141.62576168869131
 30
0.0
 11
7.8920679847514341
 21
141.57073528869131
 31
0.0
  0
LINE
  5
771A
  8
0
 62
     5
 10
9.0174747847512453
 20
141.4628876886913
 30
0.0
 11
8.4546307847515152
 21
141.51644888869129
 31
0.0
  0
LINE
  5
771B
  8
0
 62
     5
 10
7.8920679847514341
 20
141.57073528869131
 30
0.0
 11
8.4546307847515152
 21
141.51644888869129
 31
0.0
  0
LINE
  5
771C
  8
0
 62
     5
 10
9.5817691847513249
 20
141.4099184886914
 30
0.0
 11
9.0174747847512453
 21
141.4628876886913
 31
0.0
  0
LINE
  5
771D
  8
0
 62
     5
 10
8.4546307847515152
 20
141.51644888869129
 30
0.0
 11
9.0174747847512453
 21
141.4628876886913
 31
0.0
  0
LINE
  5
771E
  8
0
 62
     5
 10
10.1459303847514
 20
141.35771888869121
 30
0.0
 11
9.5817691847513249
 21
141.4099184886914
 31
0.0
  0
LINE
  5
771F
  8
0
 62
     5
 10
9.0174747847512453
 20
141.4628876886913
 30
0.0
 11
9.5817691847513249
 21
141.4099184886914
 31
0.0
  0
LINE
  5
7720
  8
0
 62
     5
 10
10.71016558475165
 20
141.30624448869131
 30
0.0
 11
10.1459303847514
 21
141.35771888869121
 31
0.0
  0
LINE
  5
7721
  8
0
 62
     5
 10
9.5817691847513249
 20
141.4099184886914
 30
0.0
 11
10.1459303847514
 21
141.35771888869121
 31
0.0
  0
LINE
  5
7722
  8
0
 62
     5
 10
11.27466718475122
 20
141.2554656886914
 30
0.0
 11
10.71016558475165
 21
141.30624448869131
 31
0.0
  0
LINE
  5
7723
  8
0
 62
     5
 10
10.1459303847514
 20
141.35771888869121
 30
0.0
 11
10.71016558475165
 21
141.30624448869131
 31
0.0
  0
LINE
  5
7724
  8
0
 62
     5
 10
11.84008638475183
 20
141.20535288869121
 30
0.0
 11
11.27466718475122
 21
141.2554656886914
 31
0.0
  0
LINE
  5
7725
  8
0
 62
     5
 10
10.71016558475165
 20
141.30624448869131
 30
0.0
 11
11.27466718475122
 21
141.2554656886914
 31
0.0
  0
LINE
  5
7726
  8
0
 62
     5
 10
12.405357584751471
 20
141.15595048869119
 30
0.0
 11
11.84008638475183
 21
141.20535288869121
 31
0.0
  0
LINE
  5
7727
  8
0
 62
     5
 10
11.27466718475122
 20
141.2554656886914
 30
0.0
 11
11.84008638475183
 21
141.20535288869121
 31
0.0
  0
LINE
  5
7728
  8
0
 62
     5
 10
12.970687984751621
 20
141.1072732886912
 30
0.0
 11
12.405357584751471
 21
141.15595048869119
 31
0.0
  0
LINE
  5
7729
  8
0
 62
     5
 10
11.84008638475183
 20
141.20535288869121
 30
0.0
 11
12.405357584751471
 21
141.15595048869119
 31
0.0
  0
LINE
  5
772A
  8
0
 62
     5
 10
13.53629958475145
 20
141.0592768886913
 30
0.0
 11
12.970687984751621
 21
141.1072732886912
 31
0.0
  0
LINE
  5
772B
  8
0
 62
     5
 10
12.405357584751471
 20
141.15595048869119
 30
0.0
 11
12.970687984751621
 21
141.1072732886912
 31
0.0
  0
LINE
  5
772C
  8
0
 62
     5
 10
14.102458784751519
 20
141.01194648869139
 30
0.0
 11
13.53629958475145
 21
141.0592768886913
 31
0.0
  0
LINE
  5
772D
  8
0
 62
     5
 10
12.970687984751621
 20
141.1072732886912
 30
0.0
 11
13.53629958475145
 21
141.0592768886913
 31
0.0
  0
LINE
  5
772E
  8
0
 62
     5
 10
14.66846998475131
 20
140.96534128869141
 30
0.0
 11
14.102458784751519
 21
141.01194648869139
 31
0.0
  0
LINE
  5
772F
  8
0
 62
     5
 10
13.53629958475145
 20
141.0592768886913
 30
0.0
 11
14.102458784751519
 21
141.01194648869139
 31
0.0
  0
LINE
  5
7730
  8
0
 62
     5
 10
15.23454038475165
 20
140.9194168886915
 30
0.0
 11
14.66846998475131
 21
140.96534128869141
 31
0.0
  0
LINE
  5
7731
  8
0
 62
     5
 10
14.102458784751519
 20
141.01194648869139
 30
0.0
 11
14.66846998475131
 21
140.96534128869141
 31
0.0
  0
LINE
  5
7732
  8
0
 62
     5
 10
15.800891984751591
 20
140.87417328869131
 30
0.0
 11
15.23454038475165
 21
140.9194168886915
 31
0.0
  0
LINE
  5
7733
  8
0
 62
     5
 10
14.66846998475131
 20
140.96534128869141
 30
0.0
 11
15.23454038475165
 21
140.9194168886915
 31
0.0
  0
LINE
  5
7734
  8
0
 62
     5
 10
16.367657984751801
 20
140.82956608869151
 30
0.0
 11
15.800891984751591
 21
140.87417328869131
 31
0.0
  0
LINE
  5
7735
  8
0
 62
     5
 10
15.23454038475165
 20
140.9194168886915
 30
0.0
 11
15.800891984751591
 21
140.87417328869131
 31
0.0
  0
LINE
  5
7736
  8
0
 62
     5
 10
16.934275984751761
 20
140.78566928869131
 30
0.0
 11
16.367657984751801
 21
140.82956608869151
 31
0.0
  0
LINE
  5
7737
  8
0
 62
     5
 10
15.800891984751591
 20
140.87417328869131
 30
0.0
 11
16.367657984751801
 21
140.82956608869151
 31
0.0
  0
LINE
  5
7738
  8
0
 62
     5
 10
17.50095318475158
 20
140.74243848869139
 30
0.0
 11
16.934275984751761
 21
140.78566928869131
 31
0.0
  0
LINE
  5
7739
  8
0
 62
     5
 10
16.367657984751801
 20
140.82956608869151
 30
0.0
 11
16.934275984751761
 21
140.78566928869131
 31
0.0
  0
LINE
  5
773A
  8
0
 62
     5
 10
18.067896784751351
 20
140.6998736886915
 30
0.0
 11
17.50095318475158
 21
140.74243848869139
 31
0.0
  0
LINE
  5
773B
  8
0
 62
     5
 10
16.934275984751761
 20
140.78566928869131
 30
0.0
 11
17.50095318475158
 21
140.74243848869139
 31
0.0
  0
LINE
  5
773C
  8
0
 62
     5
 10
18.63535838475153
 20
140.65793048869139
 30
0.0
 11
18.067896784751351
 21
140.6998736886915
 31
0.0
  0
LINE
  5
773D
  8
0
 62
     5
 10
17.50095318475158
 20
140.74243848869139
 30
0.0
 11
18.067896784751351
 21
140.6998736886915
 31
0.0
  0
LINE
  5
773E
  8
0
 62
     5
 10
19.202657184751772
 20
140.61666808869131
 30
0.0
 11
18.63535838475153
 21
140.65793048869139
 31
0.0
  0
LINE
  5
773F
  8
0
 62
     5
 10
18.067896784751351
 20
140.6998736886915
 30
0.0
 11
18.63535838475153
 21
140.65793048869139
 31
0.0
  0
LINE
  5
7740
  8
0
 62
     5
 10
19.770000384751562
 20
140.57605688869151
 30
0.0
 11
19.202657184751772
 21
140.61666808869131
 31
0.0
  0
LINE
  5
7741
  8
0
 62
     5
 10
18.63535838475153
 20
140.65793048869139
 30
0.0
 11
19.202657184751772
 21
140.61666808869131
 31
0.0
  0
LINE
  5
7742
  8
0
 62
     5
 10
20.337624784751661
 20
140.5360820886915
 30
0.0
 11
19.770000384751562
 21
140.57605688869151
 31
0.0
  0
LINE
  5
7743
  8
0
 62
     5
 10
19.202657184751772
 20
140.61666808869131
 30
0.0
 11
19.770000384751562
 21
140.57605688869151
 31
0.0
  0
LINE
  5
7744
  8
0
 62
     5
 10
20.905944784751711
 20
140.49671408869131
 30
0.0
 11
20.337624784751661
 21
140.5360820886915
 31
0.0
  0
LINE
  5
7745
  8
0
 62
     5
 10
19.770000384751562
 20
140.57605688869151
 30
0.0
 11
20.337624784751661
 21
140.5360820886915
 31
0.0
  0
LINE
  5
7746
  8
0
 62
     5
 10
21.474116784751399
 20
140.4579972886915
 30
0.0
 11
20.905944784751711
 21
140.49671408869131
 31
0.0
  0
LINE
  5
7747
  8
0
 62
     5
 10
20.337624784751661
 20
140.5360820886915
 30
0.0
 11
20.905944784751711
 21
140.49671408869131
 31
0.0
  0
LINE
  5
7748
  8
0
 62
     5
 10
22.04233318475136
 20
140.41993168869141
 30
0.0
 11
21.474116784751399
 21
140.4579972886915
 31
0.0
  0
LINE
  5
7749
  8
0
 62
     5
 10
20.905944784751711
 20
140.49671408869131
 30
0.0
 11
21.474116784751399
 21
140.4579972886915
 31
0.0
  0
LINE
  5
774A
  8
0
 62
     5
 10
22.610801184751669
 20
140.3824728886913
 30
0.0
 11
22.04233318475136
 21
140.41993168869141
 31
0.0
  0
LINE
  5
774B
  8
0
 62
     5
 10
21.474116784751399
 20
140.4579972886915
 30
0.0
 11
22.04233318475136
 21
140.41993168869141
 31
0.0
  0
LINE
  5
774C
  8
0
 62
     5
 10
23.18008318475162
 20
140.3456060886912
 30
0.0
 11
22.610801184751669
 21
140.3824728886913
 31
0.0
  0
LINE
  5
774D
  8
0
 62
     5
 10
22.04233318475136
 20
140.41993168869141
 30
0.0
 11
22.610801184751669
 21
140.3824728886913
 31
0.0
  0
LINE
  5
774E
  8
0
 62
     5
 10
23.749202384751641
 20
140.30939048869141
 30
0.0
 11
23.18008318475162
 21
140.3456060886912
 31
0.0
  0
LINE
  5
774F
  8
0
 62
     5
 10
22.610801184751669
 20
140.3824728886913
 30
0.0
 11
23.18008318475162
 21
140.3456060886912
 31
0.0
  0
LINE
  5
7750
  8
0
 62
     5
 10
24.31836598475121
 20
140.2737816886914
 30
0.0
 11
23.749202384751641
 21
140.30939048869141
 31
0.0
  0
LINE
  5
7751
  8
0
 62
     5
 10
23.18008318475162
 20
140.3456060886912
 30
0.0
 11
23.749202384751641
 21
140.30939048869141
 31
0.0
  0
LINE
  5
7752
  8
0
 62
     5
 10
24.887781184751859
 20
140.2387944886913
 30
0.0
 11
24.31836598475121
 21
140.2737816886914
 31
0.0
  0
LINE
  5
7753
  8
0
 62
     5
 10
23.749202384751641
 20
140.30939048869141
 30
0.0
 11
24.31836598475121
 21
140.2737816886914
 31
0.0
  0
LINE
  5
7754
  8
0
 62
     5
 10
25.45796598475118
 20
140.2043696886914
 30
0.0
 11
24.887781184751859
 21
140.2387944886913
 31
0.0
  0
LINE
  5
7755
  8
0
 62
     5
 10
24.31836598475121
 20
140.2737816886914
 30
0.0
 11
24.887781184751859
 21
140.2387944886913
 31
0.0
  0
LINE
  5
7756
  8
0
 62
     5
 10
26.027973184751659
 20
140.17058128869121
 30
0.0
 11
25.45796598475118
 21
140.2043696886914
 31
0.0
  0
LINE
  5
7757
  8
0
 62
     5
 10
24.887781184751859
 20
140.2387944886913
 30
0.0
 11
25.45796598475118
 21
140.2043696886914
 31
0.0
  0
LINE
  5
7758
  8
0
 62
     5
 10
26.598024784751701
 20
140.1373996886912
 30
0.0
 11
26.027973184751659
 21
140.17058128869121
 31
0.0
  0
LINE
  5
7759
  8
0
 62
     5
 10
25.45796598475118
 20
140.2043696886914
 30
0.0
 11
26.027973184751659
 21
140.17058128869121
 31
0.0
  0
LINE
  5
775A
  8
0
 62
     5
 10
27.168327984751421
 20
140.10481008869149
 30
0.0
 11
26.598024784751701
 21
140.1373996886912
 31
0.0
  0
LINE
  5
775B
  8
0
 62
     5
 10
26.027973184751659
 20
140.17058128869121
 30
0.0
 11
26.598024784751701
 21
140.1373996886912
 31
0.0
  0
LINE
  5
775C
  8
0
 62
     5
 10
27.73920838475135
 20
140.07278288869139
 30
0.0
 11
27.168327984751421
 21
140.10481008869149
 31
0.0
  0
LINE
  5
775D
  8
0
 62
     5
 10
26.598024784751701
 20
140.1373996886912
 30
0.0
 11
27.168327984751421
 21
140.10481008869149
 31
0.0
  0
LINE
  5
775E
  8
0
 62
     5
 10
28.309911184751741
 20
140.04136248869139
 30
0.0
 11
27.73920838475135
 21
140.07278288869139
 31
0.0
  0
LINE
  5
775F
  8
0
 62
     5
 10
27.168327984751421
 20
140.10481008869149
 30
0.0
 11
27.73920838475135
 21
140.07278288869139
 31
0.0
  0
LINE
  5
7760
  8
0
 62
     5
 10
28.880658384751712
 20
140.01054888869149
 30
0.0
 11
28.309911184751741
 21
140.04136248869139
 31
0.0
  0
LINE
  5
7761
  8
0
 62
     5
 10
27.73920838475135
 20
140.07278288869139
 30
0.0
 11
28.309911184751741
 21
140.04136248869139
 31
0.0
  0
LINE
  5
7762
  8
0
 62
     5
 10
29.451642384751722
 20
139.98029768869139
 30
0.0
 11
28.880658384751712
 21
140.01054888869149
 31
0.0
  0
LINE
  5
7763
  8
0
 62
     5
 10
28.309911184751741
 20
140.04136248869139
 30
0.0
 11
28.880658384751712
 21
140.01054888869149
 31
0.0
  0
LINE
  5
7764
  8
0
 62
     5
 10
30.022848384751541
 20
139.95062368869139
 30
0.0
 11
29.451642384751722
 21
139.98029768869139
 31
0.0
  0
LINE
  5
7765
  8
0
 62
     5
 10
28.880658384751712
 20
140.01054888869149
 30
0.0
 11
29.451642384751722
 21
139.98029768869139
 31
0.0
  0
LINE
  5
7766
  8
0
 62
     5
 10
30.593891584751429
 20
139.92154168869141
 30
0.0
 11
30.022848384751541
 21
139.95062368869139
 31
0.0
  0
LINE
  5
7767
  8
0
 62
     5
 10
29.451642384751722
 20
139.98029768869139
 30
0.0
 11
30.022848384751541
 21
139.95062368869139
 31
0.0
  0
LINE
  5
7768
  8
0
 62
     5
 10
31.164949584751611
 20
139.89303688869131
 30
0.0
 11
30.593891584751429
 21
139.92154168869141
 31
0.0
  0
LINE
  5
7769
  8
0
 62
     5
 10
30.022848384751541
 20
139.95062368869139
 30
0.0
 11
30.593891584751429
 21
139.92154168869141
 31
0.0
  0
LINE
  5
776A
  8
0
 62
     5
 10
31.736259184751479
 20
139.8650944886912
 30
0.0
 11
31.164949584751611
 21
139.89303688869131
 31
0.0
  0
LINE
  5
776B
  8
0
 62
     5
 10
30.593891584751429
 20
139.92154168869141
 30
0.0
 11
31.164949584751611
 21
139.89303688869131
 31
0.0
  0
LINE
  5
776C
  8
0
 62
     5
 10
32.307317184751639
 20
139.83774408869121
 30
0.0
 11
31.736259184751479
 21
139.8650944886912
 31
0.0
  0
LINE
  5
776D
  8
0
 62
     5
 10
31.164949584751611
 20
139.89303688869131
 30
0.0
 11
31.736259184751479
 21
139.8650944886912
 31
0.0
  0
LINE
  5
776E
  8
0
 62
     5
 10
32.878197584751611
 20
139.8109708886912
 30
0.0
 11
32.307317184751639
 21
139.83774408869121
 31
0.0
  0
LINE
  5
776F
  8
0
 62
     5
 10
31.736259184751479
 20
139.8650944886912
 30
0.0
 11
32.307317184751639
 21
139.83774408869121
 31
0.0
  0
LINE
  5
7770
  8
0
 62
     5
 10
33.449107584751452
 20
139.7847896886914
 30
0.0
 11
32.878197584751611
 21
139.8109708886912
 31
0.0
  0
LINE
  5
7771
  8
0
 62
     5
 10
32.307317184751639
 20
139.83774408869121
 30
0.0
 11
32.878197584751611
 21
139.8109708886912
 31
0.0
  0
LINE
  5
7772
  8
0
 62
     5
 10
34.020239584751813
 20
139.7591708886915
 30
0.0
 11
33.449107584751452
 21
139.7847896886914
 31
0.0
  0
LINE
  5
7773
  8
0
 62
     5
 10
32.878197584751611
 20
139.8109708886912
 30
0.0
 11
33.449107584751452
 21
139.7847896886914
 31
0.0
  0
LINE
  5
7774
  8
0
 62
     5
 10
34.590809184751521
 20
139.7341736886913
 30
0.0
 11
34.020239584751813
 21
139.7591708886915
 31
0.0
  0
LINE
  5
7775
  8
0
 62
     5
 10
33.449107584751452
 20
139.7847896886914
 30
0.0
 11
34.020239584751813
 21
139.7591708886915
 31
0.0
  0
LINE
  5
7776
  8
0
 62
     5
 10
35.161186384751431
 20
139.70976848869131
 30
0.0
 11
34.590809184751521
 21
139.7341736886913
 31
0.0
  0
LINE
  5
7777
  8
0
 62
     5
 10
34.020239584751813
 20
139.7591708886915
 30
0.0
 11
34.590809184751521
 21
139.7341736886913
 31
0.0
  0
LINE
  5
7778
  8
0
 62
     5
 10
35.731593184751198
 20
139.6859700886915
 30
0.0
 11
35.161186384751431
 21
139.70976848869131
 31
0.0
  0
LINE
  5
7779
  8
0
 62
     5
 10
34.590809184751521
 20
139.7341736886913
 30
0.0
 11
35.161186384751431
 21
139.70976848869131
 31
0.0
  0
LINE
  5
777A
  8
0
 62
     5
 10
36.302221984751441
 20
139.66274888869131
 30
0.0
 11
35.731593184751198
 21
139.6859700886915
 31
0.0
  0
LINE
  5
777B
  8
0
 62
     5
 10
35.161186384751431
 20
139.70976848869131
 30
0.0
 11
35.731593184751198
 21
139.6859700886915
 31
0.0
  0
LINE
  5
777C
  8
0
 62
     5
 10
36.872214384751601
 20
139.64016408869139
 30
0.0
 11
36.302221984751441
 21
139.66274888869131
 31
0.0
  0
LINE
  5
777D
  8
0
 62
     5
 10
35.731593184751198
 20
139.6859700886915
 30
0.0
 11
36.302221984751441
 21
139.66274888869131
 31
0.0
  0
LINE
  5
777E
  8
0
 62
     5
 10
37.441999584751642
 20
139.6181860886914
 30
0.0
 11
36.872214384751601
 21
139.64016408869139
 31
0.0
  0
LINE
  5
777F
  8
0
 62
     5
 10
36.302221984751441
 20
139.66274888869131
 30
0.0
 11
36.872214384751601
 21
139.64016408869139
 31
0.0
  0
LINE
  5
7780
  8
0
 62
     5
 10
38.011814384751602
 20
139.59680008869151
 30
0.0
 11
37.441999584751642
 21
139.6181860886914
 31
0.0
  0
LINE
  5
7781
  8
0
 62
     5
 10
36.872214384751601
 20
139.64016408869139
 30
0.0
 11
37.441999584751642
 21
139.6181860886914
 31
0.0
  0
LINE
  5
7782
  8
0
 62
     5
 10
38.581865984751637
 20
139.57603568869141
 30
0.0
 11
38.011814384751602
 21
139.59680008869151
 31
0.0
  0
LINE
  5
7783
  8
0
 62
     5
 10
37.441999584751642
 20
139.6181860886914
 30
0.0
 11
38.011814384751602
 21
139.59680008869151
 31
0.0
  0
LINE
  5
7784
  8
0
 62
     5
 10
39.15142918475118
 20
139.55589288869149
 30
0.0
 11
38.581865984751637
 21
139.57603568869141
 31
0.0
  0
LINE
  5
7785
  8
0
 62
     5
 10
38.011814384751602
 20
139.59680008869151
 30
0.0
 11
38.581865984751637
 21
139.57603568869141
 31
0.0
  0
LINE
  5
7786
  8
0
 62
     5
 10
39.720814784751212
 20
139.5363716886913
 30
0.0
 11
39.15142918475118
 21
139.55589288869149
 31
0.0
  0
LINE
  5
7787
  8
0
 62
     5
 10
38.581865984751637
 20
139.57603568869141
 30
0.0
 11
39.15142918475118
 21
139.55589288869149
 31
0.0
  0
LINE
  5
7788
  8
0
 62
     5
 10
40.290200384751238
 20
139.5174868886912
 30
0.0
 11
39.720814784751212
 21
139.5363716886913
 31
0.0
  0
LINE
  5
7789
  8
0
 62
     5
 10
39.15142918475118
 20
139.55589288869149
 30
0.0
 11
39.720814784751212
 21
139.5363716886913
 31
0.0
  0
LINE
  5
778A
  8
0
 62
     5
 10
40.859837584751652
 20
139.4991940886913
 30
0.0
 11
40.290200384751238
 21
139.5174868886912
 31
0.0
  0
LINE
  5
778B
  8
0
 62
     5
 10
39.720814784751212
 20
139.5363716886913
 30
0.0
 11
40.290200384751238
 21
139.5174868886912
 31
0.0
  0
LINE
  5
778C
  8
0
 62
     5
 10
41.429430384751811
 20
139.48153768869139
 30
0.0
 11
40.859837584751652
 21
139.4991940886913
 31
0.0
  0
LINE
  5
778D
  8
0
 62
     5
 10
40.290200384751238
 20
139.5174868886912
 30
0.0
 11
40.859837584751652
 21
139.4991940886913
 31
0.0
  0
LINE
  5
778E
  8
0
 62
     5
 10
41.998830784751448
 20
139.4645176886913
 30
0.0
 11
41.429430384751811
 21
139.48153768869139
 31
0.0
  0
LINE
  5
778F
  8
0
 62
     5
 10
40.859837584751652
 20
139.4991940886913
 30
0.0
 11
41.429430384751811
 21
139.48153768869139
 31
0.0
  0
LINE
  5
7790
  8
0
 62
     5
 10
42.5682607847517
 20
139.4481340886914
 30
0.0
 11
41.998830784751448
 21
139.4645176886913
 31
0.0
  0
LINE
  5
7791
  8
0
 62
     5
 10
41.429430384751811
 20
139.48153768869139
 30
0.0
 11
41.998830784751448
 21
139.4645176886913
 31
0.0
  0
LINE
  5
7792
  8
0
 62
     5
 10
43.137897984751433
 20
139.4323868886915
 30
0.0
 11
42.5682607847517
 21
139.4481340886914
 31
0.0
  0
LINE
  5
7793
  8
0
 62
     5
 10
41.998830784751448
 20
139.4645176886913
 30
0.0
 11
42.5682607847517
 21
139.4481340886914
 31
0.0
  0
LINE
  5
7794
  8
0
 62
     5
 10
43.708215984751448
 20
139.41724648869121
 30
0.0
 11
43.137897984751433
 21
139.4323868886915
 31
0.0
  0
LINE
  5
7795
  8
0
 62
     5
 10
42.5682607847517
 20
139.4481340886914
 30
0.0
 11
43.137897984751433
 21
139.4323868886915
 31
0.0
  0
LINE
  5
7796
  8
0
 62
     5
 10
44.278326784751329
 20
139.4027572886915
 30
0.0
 11
43.708215984751448
 21
139.41724648869121
 31
0.0
  0
LINE
  5
7797
  8
0
 62
     5
 10
43.137897984751433
 20
139.4323868886915
 30
0.0
 11
43.708215984751448
 21
139.41724648869121
 31
0.0
  0
LINE
  5
7798
  8
0
 62
     5
 10
44.848467184751811
 20
139.3889044886914
 30
0.0
 11
44.278326784751329
 21
139.4027572886915
 31
0.0
  0
LINE
  5
7799
  8
0
 62
     5
 10
43.708215984751448
 20
139.41724648869121
 30
0.0
 11
44.278326784751329
 21
139.4027572886915
 31
0.0
  0
LINE
  5
779A
  8
0
 62
     5
 10
45.418829584751379
 20
139.3756732886915
 30
0.0
 11
44.848467184751811
 21
139.3889044886914
 31
0.0
  0
LINE
  5
779B
  8
0
 62
     5
 10
44.278326784751329
 20
139.4027572886915
 30
0.0
 11
44.848467184751811
 21
139.3889044886914
 31
0.0
  0
LINE
  5
779C
  8
0
 62
     5
 10
45.990494384751742
 20
139.3630192886915
 30
0.0
 11
45.418829584751379
 21
139.3756732886915
 31
0.0
  0
LINE
  5
779D
  8
0
 62
     5
 10
44.848467184751811
 20
139.3889044886914
 30
0.0
 11
45.418829584751379
 21
139.3756732886915
 31
0.0
  0
LINE
  5
779E
  8
0
 62
     5
 10
46.561951984751218
 20
139.35098688869121
 30
0.0
 11
45.990494384751742
 21
139.3630192886915
 31
0.0
  0
LINE
  5
779F
  8
0
 62
     5
 10
45.418829584751379
 20
139.3756732886915
 30
0.0
 11
45.990494384751742
 21
139.3630192886915
 31
0.0
  0
LINE
  5
77A0
  8
0
 62
     5
 10
47.133424384751677
 20
139.3395760886915
 30
0.0
 11
46.561951984751218
 21
139.35098688869121
 31
0.0
  0
LINE
  5
77A1
  8
0
 62
     5
 10
45.990494384751742
 20
139.3630192886915
 30
0.0
 11
46.561951984751218
 21
139.35098688869121
 31
0.0
  0
LINE
  5
77A2
  8
0
 62
     5
 10
47.70513358475155
 20
139.3287424886912
 30
0.0
 11
47.133424384751677
 21
139.3395760886915
 31
0.0
  0
LINE
  5
77A3
  8
0
 62
     5
 10
46.561951984751218
 20
139.35098688869121
 30
0.0
 11
47.133424384751677
 21
139.3395760886915
 31
0.0
  0
LINE
  5
77A4
  8
0
 62
     5
 10
48.278337584751362
 20
139.3184860886912
 30
0.0
 11
47.70513358475155
 21
139.3287424886912
 31
0.0
  0
LINE
  5
77A5
  8
0
 62
     5
 10
47.133424384751677
 20
139.3395760886915
 30
0.0
 11
47.70513358475155
 21
139.3287424886912
 31
0.0
  0
LINE
  5
77A6
  8
0
 62
     5
 10
48.851349184751342
 20
139.30880688869141
 30
0.0
 11
48.278337584751362
 21
139.3184860886912
 31
0.0
  0
LINE
  5
77A7
  8
0
 62
     5
 10
47.70513358475155
 20
139.3287424886912
 30
0.0
 11
48.278337584751362
 21
139.3184860886912
 31
0.0
  0
LINE
  5
77A8
  8
0
 62
     5
 10
49.424375584751608
 20
139.29971968869151
 30
0.0
 11
48.851349184751342
 21
139.30880688869141
 31
0.0
  0
LINE
  5
77A9
  8
0
 62
     5
 10
48.278337584751362
 20
139.3184860886912
 30
0.0
 11
48.851349184751342
 21
139.30880688869141
 31
0.0
  0
LINE
  5
77AA
  8
0
 62
     5
 10
49.997623984751598
 20
139.29118008869119
 30
0.0
 11
49.424375584751608
 21
139.29971968869151
 31
0.0
  0
LINE
  5
77AB
  8
0
 62
     5
 10
48.851349184751342
 20
139.30880688869141
 30
0.0
 11
49.424375584751608
 21
139.29971968869151
 31
0.0
  0
LINE
  5
77AC
  8
0
 62
     5
 10
50.57205638475132
 20
139.28320288869139
 30
0.0
 11
49.997623984751598
 21
139.29118008869119
 31
0.0
  0
LINE
  5
77AD
  8
0
 62
     5
 10
49.424375584751608
 20
139.29971968869151
 30
0.0
 11
49.997623984751598
 21
139.29118008869119
 31
0.0
  0
LINE
  5
77AE
  8
0
 62
     5
 10
51.14626678475129
 20
139.27578808869129
 30
0.0
 11
50.57205638475132
 21
139.28320288869139
 31
0.0
  0
LINE
  5
77AF
  8
0
 62
     5
 10
49.997623984751598
 20
139.29118008869119
 30
0.0
 11
50.57205638475132
 21
139.28320288869139
 31
0.0
  0
LINE
  5
77B0
  8
0
 62
     5
 10
51.720506784751841
 20
139.2689208886915
 30
0.0
 11
51.14626678475129
 21
139.27578808869129
 31
0.0
  0
LINE
  5
77B1
  8
0
 62
     5
 10
50.57205638475132
 20
139.28320288869139
 30
0.0
 11
51.14626678475129
 21
139.27578808869129
 31
0.0
  0
LINE
  5
77B2
  8
0
 62
     5
 10
52.294968784751518
 20
139.26260128869129
 30
0.0
 11
51.720506784751841
 21
139.2689208886915
 31
0.0
  0
LINE
  5
77B3
  8
0
 62
     5
 10
51.14626678475129
 20
139.27578808869129
 30
0.0
 11
51.720506784751841
 21
139.2689208886915
 31
0.0
  0
LINE
  5
77B4
  8
0
 62
     5
 10
52.869741584751402
 20
139.2568144886915
 30
0.0
 11
52.294968784751518
 21
139.26260128869129
 31
0.0
  0
LINE
  5
77B5
  8
0
 62
     5
 10
51.720506784751841
 20
139.2689208886915
 30
0.0
 11
52.294968784751518
 21
139.26260128869129
 31
0.0
  0
LINE
  5
77B6
  8
0
 62
     5
 10
53.444321984751433
 20
139.2515604886913
 30
0.0
 11
52.869741584751402
 21
139.2568144886915
 31
0.0
  0
LINE
  5
77B7
  8
0
 62
     5
 10
52.294968784751518
 20
139.26260128869129
 30
0.0
 11
52.869741584751402
 21
139.2568144886915
 31
0.0
  0
LINE
  5
77B8
  8
0
 62
     5
 10
54.01890238475147
 20
139.24682448869149
 30
0.0
 11
53.444321984751433
 21
139.2515604886913
 31
0.0
  0
LINE
  5
77B9
  8
0
 62
     5
 10
52.869741584751402
 20
139.2568144886915
 30
0.0
 11
53.444321984751433
 21
139.2515604886913
 31
0.0
  0
LINE
  5
77BA
  8
0
 62
     5
 10
54.593719584751561
 20
139.24257688869139
 30
0.0
 11
54.01890238475147
 21
139.24682448869149
 31
0.0
  0
LINE
  5
77BB
  8
0
 62
     5
 10
53.444321984751433
 20
139.2515604886913
 30
0.0
 11
54.01890238475147
 21
139.24682448869149
 31
0.0
  0
LINE
  5
77BC
  8
0
 62
     5
 10
55.167456384751361
 20
139.2388472886914
 30
0.0
 11
54.593719584751561
 21
139.24257688869139
 31
0.0
  0
LINE
  5
77BD
  8
0
 62
     5
 10
54.01890238475147
 20
139.24682448869149
 30
0.0
 11
54.593719584751561
 21
139.24257688869139
 31
0.0
  0
LINE
  5
77BE
  8
0
 62
     5
 10
55.740971184751402
 20
139.2356208886915
 30
0.0
 11
55.167456384751361
 21
139.2388472886914
 31
0.0
  0
LINE
  5
77BF
  8
0
 62
     5
 10
54.593719584751561
 20
139.24257688869139
 30
0.0
 11
55.167456384751361
 21
139.2388472886914
 31
0.0
  0
LINE
  5
77C0
  8
0
 62
     5
 10
56.314485984751428
 20
139.2329124886912
 30
0.0
 11
55.740971184751402
 21
139.2356208886915
 31
0.0
  0
LINE
  5
77C1
  8
0
 62
     5
 10
55.167456384751361
 20
139.2388472886914
 30
0.0
 11
55.740971184751402
 21
139.2356208886915
 31
0.0
  0
LINE
  5
77C2
  8
0
 62
     5
 10
56.888207984751602
 20
139.23072208869149
 30
0.0
 11
56.314485984751428
 21
139.2329124886912
 31
0.0
  0
LINE
  5
77C3
  8
0
 62
     5
 10
55.740971184751402
 20
139.2356208886915
 30
0.0
 11
56.314485984751428
 21
139.2329124886912
 31
0.0
  0
LINE
  5
77C4
  8
0
 62
     5
 10
57.459236384751193
 20
139.22907928869151
 30
0.0
 11
56.888207984751602
 21
139.23072208869149
 31
0.0
  0
LINE
  5
77C5
  8
0
 62
     5
 10
56.314485984751428
 20
139.2329124886912
 30
0.0
 11
56.888207984751602
 21
139.23072208869149
 31
0.0
  0
LINE
  5
77C6
  8
0
 62
     5
 10
58.030027984751371
 20
139.2279840886913
 30
0.0
 11
57.459236384751193
 21
139.22907928869151
 31
0.0
  0
LINE
  5
77C7
  8
0
 62
     5
 10
56.888207984751602
 20
139.23072208869149
 30
0.0
 11
57.459236384751193
 21
139.22907928869151
 31
0.0
  0
LINE
  5
77C8
  8
0
 62
     5
 10
58.600804784751219
 20
139.22749568869139
 30
0.0
 11
58.030027984751371
 21
139.2279840886913
 31
0.0
  0
LINE
  5
77C9
  8
0
 62
     5
 10
57.459236384751193
 20
139.22907928869151
 30
0.0
 11
58.030027984751371
 21
139.2279840886913
 31
0.0
  0
LINE
  5
77CA
  8
0
 62
     5
 10
59.171773984751603
 20
139.2276288886915
 30
0.0
 11
58.600804784751219
 21
139.22749568869139
 31
0.0
  0
LINE
  5
77CB
  8
0
 62
     5
 10
58.030027984751371
 20
139.2279840886913
 30
0.0
 11
58.600804784751219
 21
139.22749568869139
 31
0.0
  0
LINE
  5
77CC
  8
0
 62
     5
 10
59.739013584751312
 20
139.22839848869151
 30
0.0
 11
59.171773984751603
 21
139.2276288886915
 31
0.0
  0
LINE
  5
77CD
  8
0
 62
     5
 10
58.600804784751219
 20
139.22749568869139
 30
0.0
 11
59.171773984751603
 21
139.2276288886915
 31
0.0
  0
LINE
  5
77CE
  8
0
 62
     5
 10
60.306016384751672
 20
139.22984888869121
 30
0.0
 11
59.739013584751312
 21
139.22839848869151
 31
0.0
  0
LINE
  5
77CF
  8
0
 62
     5
 10
59.171773984751603
 20
139.2276288886915
 30
0.0
 11
59.739013584751312
 21
139.22839848869151
 31
0.0
  0
LINE
  5
77D0
  8
0
 62
     5
 10
60.873004384751702
 20
139.2319948886915
 30
0.0
 11
60.306016384751672
 21
139.22984888869121
 31
0.0
  0
LINE
  5
77D1
  8
0
 62
     5
 10
59.739013584751312
 20
139.22839848869151
 30
0.0
 11
60.306016384751672
 21
139.22984888869121
 31
0.0
  0
LINE
  5
77D2
  8
0
 62
     5
 10
61.44018478475158
 20
139.2348660886914
 30
0.0
 11
60.873004384751702
 21
139.2319948886915
 31
0.0
  0
LINE
  5
77D3
  8
0
 62
     5
 10
60.306016384751672
 20
139.22984888869121
 30
0.0
 11
60.873004384751702
 21
139.2319948886915
 31
0.0
  0
LINE
  5
77D4
  8
0
 62
     5
 10
62.003428384751288
 20
139.2384624886914
 30
0.0
 11
61.44018478475158
 21
139.2348660886914
 31
0.0
  0
LINE
  5
77D5
  8
0
 62
     5
 10
60.873004384751702
 20
139.2319948886915
 30
0.0
 11
61.44018478475158
 21
139.2348660886914
 31
0.0
  0
LINE
  5
77D6
  8
0
 62
     5
 10
62.566435184751583
 20
139.2428432886914
 30
0.0
 11
62.003428384751288
 21
139.2384624886914
 31
0.0
  0
LINE
  5
77D7
  8
0
 62
     5
 10
61.44018478475158
 20
139.2348660886914
 30
0.0
 11
62.003428384751288
 21
139.2384624886914
 31
0.0
  0
LINE
  5
77D8
  8
0
 62
     5
 10
63.129427184751592
 20
139.2479936886912
 30
0.0
 11
62.566435184751583
 21
139.2428432886914
 31
0.0
  0
LINE
  5
77D9
  8
0
 62
     5
 10
62.003428384751288
 20
139.2384624886914
 30
0.0
 11
62.566435184751583
 21
139.2428432886914
 31
0.0
  0
LINE
  5
77DA
  8
0
 62
     5
 10
63.692596784751849
 20
139.25398768869121
 30
0.0
 11
63.129427184751592
 21
139.2479936886912
 31
0.0
  0
LINE
  5
77DB
  8
0
 62
     5
 10
62.566435184751583
 20
139.2428432886914
 30
0.0
 11
63.129427184751592
 21
139.2479936886912
 31
0.0
  0
LINE
  5
77DC
  8
0
 62
     5
 10
64.252377184751538
 20
139.26078088869119
 30
0.0
 11
63.692596784751849
 21
139.25398768869121
 31
0.0
  0
LINE
  5
77DD
  8
0
 62
     5
 10
63.129427184751592
 20
139.2479936886912
 30
0.0
 11
63.692596784751849
 21
139.25398768869121
 31
0.0
  0
LINE
  5
77DE
  8
0
 62
     5
 10
64.811920784751862
 20
139.26844728869131
 30
0.0
 11
64.252377184751538
 21
139.26078088869119
 31
0.0
  0
LINE
  5
77DF
  8
0
 62
     5
 10
63.692596784751849
 20
139.25398768869121
 30
0.0
 11
64.252377184751538
 21
139.26078088869119
 31
0.0
  0
LINE
  5
77E0
  8
0
 62
     5
 10
65.371419984751242
 20
139.27700168869131
 30
0.0
 11
64.811920784751862
 21
139.26844728869131
 31
0.0
  0
LINE
  5
77E1
  8
0
 62
     5
 10
64.252377184751538
 20
139.26078088869119
 30
0.0
 11
64.811920784751862
 21
139.26844728869131
 31
0.0
  0
LINE
  5
77E2
  8
0
 62
     5
 10
65.931111584751193
 20
139.2864736886913
 30
0.0
 11
65.371419984751242
 21
139.27700168869131
 31
0.0
  0
LINE
  5
77E3
  8
0
 62
     5
 10
64.811920784751862
 20
139.26844728869131
 30
0.0
 11
65.371419984751242
 21
139.27700168869131
 31
0.0
  0
LINE
  5
77E4
  8
0
 62
     5
 10
66.488657184751503
 20
139.2968632886913
 30
0.0
 11
65.931111584751193
 21
139.2864736886913
 31
0.0
  0
LINE
  5
77E5
  8
0
 62
     5
 10
65.371419984751242
 20
139.27700168869131
 30
0.0
 11
65.931111584751193
 21
139.2864736886913
 31
0.0
  0
LINE
  5
77E6
  8
0
 62
     5
 10
67.045951184751402
 20
139.30820008869131
 30
0.0
 11
66.488657184751503
 21
139.2968632886913
 31
0.0
  0
LINE
  5
77E7
  8
0
 62
     5
 10
65.931111584751193
 20
139.2864736886913
 30
0.0
 11
66.488657184751503
 21
139.2968632886913
 31
0.0
  0
LINE
  5
77E8
  8
0
 62
     5
 10
67.603215584751467
 20
139.3205432886914
 30
0.0
 11
67.045951184751402
 21
139.30820008869131
 31
0.0
  0
LINE
  5
77E9
  8
0
 62
     5
 10
66.488657184751503
 20
139.2968632886913
 30
0.0
 11
67.045951184751402
 21
139.30820008869131
 31
0.0
  0
LINE
  5
77EA
  8
0
 62
     5
 10
68.160657584751675
 20
139.33389288869139
 30
0.0
 11
67.603215584751467
 21
139.3205432886914
 31
0.0
  0
LINE
  5
77EB
  8
0
 62
     5
 10
67.045951184751402
 20
139.30820008869131
 30
0.0
 11
67.603215584751467
 21
139.3205432886914
 31
0.0
  0
LINE
  5
77EC
  8
0
 62
     5
 10
68.717788784751633
 20
139.34826368869139
 30
0.0
 11
68.160657584751675
 21
139.33389288869139
 31
0.0
  0
LINE
  5
77ED
  8
0
 62
     5
 10
67.603215584751467
 20
139.3205432886914
 30
0.0
 11
68.160657584751675
 21
139.33389288869139
 31
0.0
  0
LINE
  5
77EE
  8
0
 62
     5
 10
69.274697984751185
 20
139.3636556886913
 30
0.0
 11
68.717788784751633
 21
139.34826368869139
 31
0.0
  0
LINE
  5
77EF
  8
0
 62
     5
 10
68.160657584751675
 20
139.33389288869139
 30
0.0
 11
68.717788784751633
 21
139.34826368869139
 31
0.0
  0
LINE
  5
77F0
  8
0
 62
     5
 10
69.831592384751843
 20
139.3800244886913
 30
0.0
 11
69.274697984751185
 21
139.3636556886913
 31
0.0
  0
LINE
  5
77F1
  8
0
 62
     5
 10
68.717788784751633
 20
139.34826368869139
 30
0.0
 11
69.274697984751185
 21
139.3636556886913
 31
0.0
  0
LINE
  5
77F2
  8
0
 62
     5
 10
70.388693984751214
 20
139.3973700886913
 30
0.0
 11
69.831592384751843
 21
139.3800244886913
 31
0.0
  0
LINE
  5
77F3
  8
0
 62
     5
 10
69.274697984751185
 20
139.3636556886913
 30
0.0
 11
69.831592384751843
 21
139.3800244886913
 31
0.0
  0
LINE
  5
77F4
  8
0
 62
     5
 10
70.947349584751748
 20
139.41570728869149
 30
0.0
 11
70.388693984751214
 21
139.3973700886913
 31
0.0
  0
LINE
  5
77F5
  8
0
 62
     5
 10
69.831592384751843
 20
139.3800244886913
 30
0.0
 11
70.388693984751214
 21
139.3973700886913
 31
0.0
  0
LINE
  5
77F6
  8
0
 62
     5
 10
71.505768384751548
 20
139.43494728869121
 30
0.0
 11
70.947349584751748
 21
139.41570728869149
 31
0.0
  0
LINE
  5
77F7
  8
0
 62
     5
 10
70.388693984751214
 20
139.3973700886913
 30
0.0
 11
70.947349584751748
 21
139.41570728869149
 31
0.0
  0
LINE
  5
77F8
  8
0
 62
     5
 10
72.064187184751304
 20
139.45510488869121
 30
0.0
 11
71.505768384751548
 21
139.43494728869121
 31
0.0
  0
LINE
  5
77F9
  8
0
 62
     5
 10
70.947349584751748
 20
139.41570728869149
 30
0.0
 11
71.505768384751548
 21
139.43494728869121
 31
0.0
  0
LINE
  5
77FA
  8
0
 62
     5
 10
72.62279838475159
 20
139.4761356886913
 30
0.0
 11
72.064187184751304
 21
139.45510488869121
 31
0.0
  0
LINE
  5
77FB
  8
0
 62
     5
 10
71.505768384751548
 20
139.43494728869121
 30
0.0
 11
72.064187184751304
 21
139.45510488869121
 31
0.0
  0
LINE
  5
77FC
  8
0
 62
     5
 10
73.184236384751173
 20
139.49812848869121
 30
0.0
 11
72.62279838475159
 21
139.4761356886913
 31
0.0
  0
LINE
  5
77FD
  8
0
 62
     5
 10
72.064187184751304
 20
139.45510488869121
 30
0.0
 11
72.62279838475159
 21
139.4761356886913
 31
0.0
  0
LINE
  5
77FE
  8
0
 62
     5
 10
73.745467184751249
 20
139.52096488869111
 30
0.0
 11
73.184236384751173
 21
139.49812848869121
 31
0.0
  0
LINE
  5
77FF
  8
0
 62
     5
 10
72.62279838475159
 20
139.4761356886913
 30
0.0
 11
73.184236384751173
 21
139.49812848869121
 31
0.0
  0
LINE
  5
7800
  8
0
 62
     5
 10
74.306683184751762
 20
139.5446004886914
 30
0.0
 11
73.745467184751249
 21
139.52096488869111
 31
0.0
  0
LINE
  5
7801
  8
0
 62
     5
 10
73.184236384751173
 20
139.49812848869121
 30
0.0
 11
73.745467184751249
 21
139.52096488869111
 31
0.0
  0
LINE
  5
7802
  8
0
 62
     5
 10
74.868076784751736
 20
139.5690500886914
 30
0.0
 11
74.306683184751762
 21
139.5446004886914
 31
0.0
  0
LINE
  5
7803
  8
0
 62
     5
 10
73.745467184751249
 20
139.52096488869111
 30
0.0
 11
74.306683184751762
 21
139.5446004886914
 31
0.0
  0
LINE
  5
7804
  8
0
 62
     5
 10
75.433007584751209
 20
139.59441728869149
 30
0.0
 11
74.868076784751736
 21
139.5690500886914
 31
0.0
  0
LINE
  5
7805
  8
0
 62
     5
 10
74.306683184751762
 20
139.5446004886914
 30
0.0
 11
74.868076784751736
 21
139.5690500886914
 31
0.0
  0
LINE
  5
7806
  8
0
 62
     5
 10
75.997716384751655
 20
139.62052448869119
 30
0.0
 11
75.433007584751209
 21
139.59441728869149
 31
0.0
  0
LINE
  5
7807
  8
0
 62
     5
 10
74.868076784751736
 20
139.5690500886914
 30
0.0
 11
75.433007584751209
 21
139.59441728869149
 31
0.0
  0
LINE
  5
7808
  8
0
 62
     5
 10
76.562410384751701
 20
139.64737168869149
 30
0.0
 11
75.997716384751655
 21
139.62052448869119
 31
0.0
  0
LINE
  5
7809
  8
0
 62
     5
 10
75.433007584751209
 20
139.59441728869149
 30
0.0
 11
75.997716384751655
 21
139.62052448869119
 31
0.0
  0
LINE
  5
780A
  8
0
 62
     5
 10
77.12729678475165
 20
139.67491448869151
 30
0.0
 11
76.562410384751701
 21
139.64737168869149
 31
0.0
  0
LINE
  5
780B
  8
0
 62
     5
 10
75.997716384751655
 20
139.62052448869119
 30
0.0
 11
76.562410384751701
 21
139.64737168869149
 31
0.0
  0
LINE
  5
780C
  8
0
 62
     5
 10
77.695794384751181
 20
139.70333048869151
 30
0.0
 11
77.12729678475165
 21
139.67491448869151
 31
0.0
  0
LINE
  5
780D
  8
0
 62
     5
 10
76.562410384751701
 20
139.64737168869149
 30
0.0
 11
77.12729678475165
 21
139.67491448869151
 31
0.0
  0
LINE
  5
780E
  8
0
 62
     5
 10
78.2640699847517
 20
139.73239768869141
 30
0.0
 11
77.695794384751181
 21
139.70333048869151
 31
0.0
  0
LINE
  5
780F
  8
0
 62
     5
 10
77.12729678475165
 20
139.67491448869151
 30
0.0
 11
77.695794384751181
 21
139.70333048869151
 31
0.0
  0
LINE
  5
7810
  8
0
 62
     5
 10
78.832345584751522
 20
139.7621012886915
 30
0.0
 11
78.2640699847517
 21
139.73239768869141
 31
0.0
  0
LINE
  5
7811
  8
0
 62
     5
 10
77.695794384751181
 20
139.70333048869151
 30
0.0
 11
78.2640699847517
 21
139.73239768869141
 31
0.0
  0
LINE
  5
7812
  8
0
 62
     5
 10
79.400798784751487
 20
139.79242648869121
 30
0.0
 11
78.832345584751522
 21
139.7621012886915
 31
0.0
  0
LINE
  5
7813
  8
0
 62
     5
 10
78.2640699847517
 20
139.73239768869141
 30
0.0
 11
78.832345584751522
 21
139.7621012886915
 31
0.0
  0
LINE
  5
7814
  8
0
 62
     5
 10
79.972226784751726
 20
139.82350648869121
 30
0.0
 11
79.400798784751487
 21
139.79242648869121
 31
0.0
  0
LINE
  5
7815
  8
0
 62
     5
 10
78.832345584751522
 20
139.7621012886915
 30
0.0
 11
79.400798784751487
 21
139.79242648869121
 31
0.0
  0
LINE
  5
7816
  8
0
 62
     5
 10
80.543432784751559
 20
139.8551340886915
 30
0.0
 11
79.972226784751726
 21
139.82350648869121
 31
0.0
  0
LINE
  5
7817
  8
0
 62
     5
 10
79.400798784751487
 20
139.79242648869121
 30
0.0
 11
79.972226784751726
 21
139.82350648869121
 31
0.0
  0
LINE
  5
7818
  8
0
 62
     5
 10
81.114609184751487
 20
139.8873388886914
 30
0.0
 11
80.543432784751559
 21
139.8551340886915
 31
0.0
  0
LINE
  5
7819
  8
0
 62
     5
 10
79.972226784751726
 20
139.82350648869121
 30
0.0
 11
80.543432784751559
 21
139.8551340886915
 31
0.0
  0
LINE
  5
781A
  8
0
 62
     5
 10
81.685977984751844
 20
139.92009128869131
 30
0.0
 11
81.114609184751487
 21
139.8873388886914
 31
0.0
  0
LINE
  5
781B
  8
0
 62
     5
 10
80.543432784751559
 20
139.8551340886915
 30
0.0
 11
81.114609184751487
 21
139.8873388886914
 31
0.0
  0
LINE
  5
781C
  8
0
 62
     5
 10
82.259211584751569
 20
139.9535096886915
 30
0.0
 11
81.685977984751844
 21
139.92009128869131
 31
0.0
  0
LINE
  5
781D
  8
0
 62
     5
 10
81.114609184751487
 20
139.8873388886914
 30
0.0
 11
81.685977984751844
 21
139.92009128869131
 31
0.0
  0
LINE
  5
781E
  8
0
 62
     5
 10
82.832193584751565
 20
139.9874460886912
 30
0.0
 11
82.259211584751569
 21
139.9535096886915
 31
0.0
  0
LINE
  5
781F
  8
0
 62
     5
 10
81.685977984751844
 20
139.92009128869131
 30
0.0
 11
82.259211584751569
 21
139.9535096886915
 31
0.0
  0
LINE
  5
7820
  8
0
 62
     5
 10
83.405145984751698
 20
140.02193008869131
 30
0.0
 11
82.832193584751565
 21
139.9874460886912
 31
0.0
  0
LINE
  5
7821
  8
0
 62
     5
 10
82.259211584751569
 20
139.9535096886915
 30
0.0
 11
82.832193584751565
 21
139.9874460886912
 31
0.0
  0
LINE
  5
7822
  8
0
 62
     5
 10
83.978275984751363
 20
140.0569764886913
 30
0.0
 11
83.405145984751698
 21
140.02193008869131
 31
0.0
  0
LINE
  5
7823
  8
0
 62
     5
 10
82.832193584751565
 20
139.9874460886912
 30
0.0
 11
83.405145984751698
 21
140.02193008869131
 31
0.0
  0
LINE
  5
7824
  8
0
 62
     5
 10
84.552308784751816
 20
140.09260008869131
 30
0.0
 11
83.978275984751363
 21
140.0569764886913
 31
0.0
  0
LINE
  5
7825
  8
0
 62
     5
 10
83.405145984751698
 20
140.02193008869131
 30
0.0
 11
83.978275984751363
 21
140.0569764886913
 31
0.0
  0
LINE
  5
7826
  8
0
 62
     5
 10
85.126089984751843
 20
140.12875648869149
 30
0.0
 11
84.552308784751816
 21
140.09260008869131
 31
0.0
  0
LINE
  5
7827
  8
0
 62
     5
 10
83.978275984751363
 20
140.0569764886913
 30
0.0
 11
84.552308784751816
 21
140.09260008869131
 31
0.0
  0
LINE
  5
7828
  8
0
 62
     5
 10
85.699856384751499
 20
140.16544568869139
 30
0.0
 11
85.126089984751843
 21
140.12875648869149
 31
0.0
  0
LINE
  5
7829
  8
0
 62
     5
 10
84.552308784751816
 20
140.09260008869131
 30
0.0
 11
85.126089984751843
 21
140.12875648869149
 31
0.0
  0
LINE
  5
782A
  8
0
 62
     5
 10
86.273785584751238
 20
140.20268248869121
 30
0.0
 11
85.699856384751499
 21
140.16544568869139
 31
0.0
  0
LINE
  5
782B
  8
0
 62
     5
 10
85.126089984751843
 20
140.12875648869149
 30
0.0
 11
85.699856384751499
 21
140.16544568869139
 31
0.0
  0
LINE
  5
782C
  8
0
 62
     5
 10
86.847966384751203
 20
140.24045208869151
 30
0.0
 11
86.273785584751238
 21
140.20268248869121
 31
0.0
  0
LINE
  5
782D
  8
0
 62
     5
 10
85.699856384751499
 20
140.16544568869139
 30
0.0
 11
86.273785584751238
 21
140.20268248869121
 31
0.0
  0
LINE
  5
782E
  8
0
 62
     5
 10
87.421895584751496
 20
140.2787248886915
 30
0.0
 11
86.847966384751203
 21
140.24045208869151
 31
0.0
  0
LINE
  5
782F
  8
0
 62
     5
 10
86.273785584751238
 20
140.20268248869121
 30
0.0
 11
86.847966384751203
 21
140.24045208869151
 31
0.0
  0
LINE
  5
7830
  8
0
 62
     5
 10
87.995795184751316
 20
140.3175304886914
 30
0.0
 11
87.421895584751496
 21
140.2787248886915
 31
0.0
  0
LINE
  5
7831
  8
0
 62
     5
 10
86.847966384751203
 20
140.24045208869151
 30
0.0
 11
87.421895584751496
 21
140.2787248886915
 31
0.0
  0
LINE
  5
7832
  8
0
 62
     5
 10
88.569872384751179
 20
140.35686888869131
 30
0.0
 11
87.995795184751316
 21
140.3175304886914
 31
0.0
  0
LINE
  5
7833
  8
0
 62
     5
 10
87.421895584751496
 20
140.2787248886915
 30
0.0
 11
87.995795184751316
 21
140.3175304886914
 31
0.0
  0
LINE
  5
7834
  8
0
 62
     5
 10
89.143860784751439
 20
140.3967104886913
 30
0.0
 11
88.569872384751179
 21
140.35686888869131
 31
0.0
  0
LINE
  5
7835
  8
0
 62
     5
 10
87.995795184751316
 20
140.3175304886914
 30
0.0
 11
88.569872384751179
 21
140.35686888869131
 31
0.0
  0
LINE
  5
7836
  8
0
 62
     5
 10
89.717597584751203
 20
140.43705528869151
 30
0.0
 11
89.143860784751439
 21
140.3967104886913
 31
0.0
  0
LINE
  5
7837
  8
0
 62
     5
 10
88.569872384751179
 20
140.35686888869131
 30
0.0
 11
89.143860784751439
 21
140.3967104886913
 31
0.0
  0
LINE
  5
7838
  8
0
 62
     5
 10
90.291304784751716
 20
140.47790328869129
 30
0.0
 11
89.717597584751203
 21
140.43705528869151
 31
0.0
  0
LINE
  5
7839
  8
0
 62
     5
 10
89.143860784751439
 20
140.3967104886913
 30
0.0
 11
89.717597584751203
 21
140.43705528869151
 31
0.0
  0
LINE
  5
783A
  8
0
 62
     5
 10
90.865174784751488
 20
140.5192692886915
 30
0.0
 11
90.291304784751716
 21
140.47790328869129
 31
0.0
  0
LINE
  5
783B
  8
0
 62
     5
 10
89.717597584751203
 20
140.43705528869151
 30
0.0
 11
90.291304784751716
 21
140.47790328869129
 31
0.0
  0
LINE
  5
783C
  8
0
 62
     5
 10
91.439000384751125
 20
140.56112368869151
 30
0.0
 11
90.865174784751488
 21
140.5192692886915
 31
0.0
  0
LINE
  5
783D
  8
0
 62
     5
 10
90.291304784751716
 20
140.47790328869129
 30
0.0
 11
90.865174784751488
 21
140.5192692886915
 31
0.0
  0
LINE
  5
783E
  8
0
 62
     5
 10
92.012574384751701
 20
140.6034812886912
 30
0.0
 11
91.439000384751125
 21
140.56112368869151
 31
0.0
  0
LINE
  5
783F
  8
0
 62
     5
 10
90.865174784751488
 20
140.5192692886915
 30
0.0
 11
91.439000384751125
 21
140.56112368869151
 31
0.0
  0
LINE
  5
7840
  8
0
 62
     5
 10
92.586103984751318
 20
140.6463272886914
 30
0.0
 11
92.012574384751701
 21
140.6034812886912
 31
0.0
  0
LINE
  5
7841
  8
0
 62
     5
 10
91.439000384751125
 20
140.56112368869151
 30
0.0
 11
92.012574384751701
 21
140.6034812886912
 31
0.0
  0
LINE
  5
7842
  8
0
 62
     5
 10
93.159825984751507
 20
140.68967648869139
 30
0.0
 11
92.586103984751318
 21
140.6463272886914
 31
0.0
  0
LINE
  5
7843
  8
0
 62
     5
 10
92.012574384751701
 20
140.6034812886912
 30
0.0
 11
92.586103984751318
 21
140.6463272886914
 31
0.0
  0
LINE
  5
7844
  8
0
 62
     5
 10
93.733784784751833
 20
140.7335288886915
 30
0.0
 11
93.159825984751507
 21
140.68967648869139
 31
0.0
  0
LINE
  5
7845
  8
0
 62
     5
 10
92.586103984751318
 20
140.6463272886914
 30
0.0
 11
93.159825984751507
 21
140.68967648869139
 31
0.0
  0
LINE
  5
7846
  8
0
 62
     5
 10
94.307506784751283
 20
140.77785488869151
 30
0.0
 11
93.733784784751833
 21
140.7335288886915
 31
0.0
  0
LINE
  5
7847
  8
0
 62
     5
 10
93.159825984751507
 20
140.68967648869139
 30
0.0
 11
93.733784784751833
 21
140.7335288886915
 31
0.0
  0
LINE
  5
7848
  8
0
 62
     5
 10
94.881199184751495
 20
140.82263968869159
 30
0.0
 11
94.307506784751283
 21
140.77785488869151
 31
0.0
  0
LINE
  5
7849
  8
0
 62
     5
 10
93.733784784751833
 20
140.7335288886915
 30
0.0
 11
94.307506784751283
 21
140.77785488869151
 31
0.0
  0
LINE
  5
784A
  8
0
 62
     5
 10
95.455054384751676
 20
140.8679276886912
 30
0.0
 11
94.881199184751495
 21
140.82263968869159
 31
0.0
  0
LINE
  5
784B
  8
0
 62
     5
 10
94.307506784751283
 20
140.77785488869151
 30
0.0
 11
94.881199184751495
 21
140.82263968869159
 31
0.0
  0
LINE
  5
784C
  8
0
 62
     5
 10
96.029516384751417
 20
140.91371888869131
 30
0.0
 11
95.455054384751676
 21
140.8679276886912
 31
0.0
  0
LINE
  5
784D
  8
0
 62
     5
 10
94.881199184751495
 20
140.82263968869159
 30
0.0
 11
95.455054384751676
 21
140.8679276886912
 31
0.0
  0
LINE
  5
784E
  8
0
 62
     5
 10
96.603741584751589
 20
140.9599392886914
 30
0.0
 11
96.029516384751417
 21
140.91371888869131
 31
0.0
  0
LINE
  5
784F
  8
0
 62
     5
 10
95.455054384751676
 20
140.8679276886912
 30
0.0
 11
96.029516384751417
 21
140.91371888869131
 31
0.0
  0
LINE
  5
7850
  8
0
 62
     5
 10
97.177922384751696
 20
141.0066184886914
 30
0.0
 11
96.603741584751589
 21
140.9599392886914
 31
0.0
  0
LINE
  5
7851
  8
0
 62
     5
 10
96.029516384751417
 20
140.91371888869131
 30
0.0
 11
96.603741584751589
 21
140.9599392886914
 31
0.0
  0
LINE
  5
7852
  8
0
 62
     5
 10
97.752295584751494
 20
141.0537564886915
 30
0.0
 11
97.177922384751696
 21
141.0066184886914
 31
0.0
  0
LINE
  5
7853
  8
0
 62
     5
 10
96.603741584751589
 20
140.9599392886914
 30
0.0
 11
97.177922384751696
 21
141.0066184886914
 31
0.0
  0
LINE
  5
7854
  8
0
 62
     5
 10
98.327512384751628
 20
141.1014124886913
 30
0.0
 11
97.752295584751494
 21
141.0537564886915
 31
0.0
  0
LINE
  5
7855
  8
0
 62
     5
 10
97.177922384751696
 20
141.0066184886914
 30
0.0
 11
97.752295584751494
 21
141.0537564886915
 31
0.0
  0
LINE
  5
7856
  8
0
 62
     5
 10
98.9025071847513
 20
141.14946808869141
 30
0.0
 11
98.327512384751628
 21
141.1014124886913
 31
0.0
  0
LINE
  5
7857
  8
0
 62
     5
 10
97.752295584751494
 20
141.0537564886915
 30
0.0
 11
98.327512384751628
 21
141.1014124886913
 31
0.0
  0
LINE
  5
7858
  8
0
 62
     5
 10
99.477457584751448
 20
141.19795288869119
 30
0.0
 11
98.9025071847513
 21
141.14946808869141
 31
0.0
  0
LINE
  5
7859
  8
0
 62
     5
 10
98.327512384751628
 20
141.1014124886913
 30
0.0
 11
98.9025071847513
 21
141.14946808869141
 31
0.0
  0
LINE
  5
785A
  8
0
 62
     5
 10
100.0525855847518
 20
141.2468668886913
 30
0.0
 11
99.477457584751448
 21
141.19795288869119
 31
0.0
  0
LINE
  5
785B
  8
0
 62
     5
 10
98.9025071847513
 20
141.14946808869141
 30
0.0
 11
99.477457584751448
 21
141.19795288869119
 31
0.0
  0
LINE
  5
785C
  8
0
 62
     5
 10
100.6287347847512
 20
141.29628408869121
 30
0.0
 11
100.0525855847518
 21
141.2468668886913
 31
0.0
  0
LINE
  5
785D
  8
0
 62
     5
 10
99.477457584751448
 20
141.19795288869119
 30
0.0
 11
100.0525855847518
 21
141.2468668886913
 31
0.0
  0
LINE
  5
785E
  8
0
 62
     5
 10
101.2046323847516
 20
141.3461008886915
 30
0.0
 11
100.6287347847512
 21
141.29628408869121
 31
0.0
  0
LINE
  5
785F
  8
0
 62
     5
 10
100.0525855847518
 20
141.2468668886913
 30
0.0
 11
100.6287347847512
 21
141.29628408869121
 31
0.0
  0
LINE
  5
7860
  8
0
 62
     5
 10
101.78050038475141
 20
141.3963024886915
 30
0.0
 11
101.2046323847516
 21
141.3461008886915
 31
0.0
  0
LINE
  5
7861
  8
0
 62
     5
 10
100.6287347847512
 20
141.29628408869121
 30
0.0
 11
101.2046323847516
 21
141.3461008886915
 31
0.0
  0
LINE
  5
7862
  8
0
 62
     5
 10
102.35654598475141
 20
141.44691848869121
 30
0.0
 11
101.78050038475141
 21
141.3963024886915
 31
0.0
  0
LINE
  5
7863
  8
0
 62
     5
 10
101.2046323847516
 20
141.3461008886915
 30
0.0
 11
101.78050038475141
 21
141.3963024886915
 31
0.0
  0
LINE
  5
7864
  8
0
 62
     5
 10
102.93362758475151
 20
141.49802288869139
 30
0.0
 11
102.35654598475141
 21
141.44691848869121
 31
0.0
  0
LINE
  5
7865
  8
0
 62
     5
 10
101.78050038475141
 20
141.3963024886915
 30
0.0
 11
102.35654598475141
 21
141.44691848869121
 31
0.0
  0
LINE
  5
7866
  8
0
 62
     5
 10
103.51047238475149
 20
141.5494824886915
 30
0.0
 11
102.93362758475151
 21
141.49802288869139
 31
0.0
  0
LINE
  5
7867
  8
0
 62
     5
 10
102.35654598475141
 20
141.44691848869121
 30
0.0
 11
102.93362758475151
 21
141.49802288869139
 31
0.0
  0
LINE
  5
7868
  8
0
 62
     5
 10
104.08728758475171
 20
141.6013268886914
 30
0.0
 11
103.51047238475149
 21
141.5494824886915
 31
0.0
  0
LINE
  5
7869
  8
0
 62
     5
 10
102.93362758475151
 20
141.49802288869139
 30
0.0
 11
103.51047238475149
 21
141.5494824886915
 31
0.0
  0
LINE
  5
786A
  8
0
 62
     5
 10
104.66429518475169
 20
141.65354128869151
 30
0.0
 11
104.08728758475171
 21
141.6013268886914
 31
0.0
  0
LINE
  5
786B
  8
0
 62
     5
 10
103.51047238475149
 20
141.5494824886915
 30
0.0
 11
104.08728758475171
 21
141.6013268886914
 31
0.0
  0
LINE
  5
786C
  8
0
 62
     5
 10
105.24223518475149
 20
141.7062144886915
 30
0.0
 11
104.66429518475169
 21
141.65354128869151
 31
0.0
  0
LINE
  5
786D
  8
0
 62
     5
 10
104.08728758475171
 20
141.6013268886914
 30
0.0
 11
104.66429518475169
 21
141.65354128869151
 31
0.0
  0
LINE
  5
786E
  8
0
 62
     5
 10
105.8199383847514
 20
141.7592280886914
 30
0.0
 11
105.24223518475149
 21
141.7062144886915
 31
0.0
  0
LINE
  5
786F
  8
0
 62
     5
 10
104.66429518475169
 20
141.65354128869151
 30
0.0
 11
105.24223518475149
 21
141.7062144886915
 31
0.0
  0
LINE
  5
7870
  8
0
 62
     5
 10
106.39761198475151
 20
141.8125968886915
 30
0.0
 11
105.8199383847514
 21
141.7592280886914
 31
0.0
  0
LINE
  5
7871
  8
0
 62
     5
 10
105.24223518475149
 20
141.7062144886915
 30
0.0
 11
105.8199383847514
 21
141.7592280886914
 31
0.0
  0
LINE
  5
7872
  8
0
 62
     5
 10
106.97547798475129
 20
141.86633568869121
 30
0.0
 11
106.39761198475151
 21
141.8125968886915
 31
0.0
  0
LINE
  5
7873
  8
0
 62
     5
 10
105.8199383847514
 20
141.7592280886914
 30
0.0
 11
106.39761198475151
 21
141.8125968886915
 31
0.0
  0
LINE
  5
7874
  8
0
 62
     5
 10
107.55414318475179
 20
141.92048888869141
 30
0.0
 11
106.97547798475129
 21
141.86633568869121
 31
0.0
  0
LINE
  5
7875
  8
0
 62
     5
 10
106.39761198475151
 20
141.8125968886915
 30
0.0
 11
106.97547798475129
 21
141.86633568869121
 31
0.0
  0
LINE
  5
7876
  8
0
 62
     5
 10
108.1325567847512
 20
141.9749528886914
 30
0.0
 11
107.55414318475179
 21
141.92048888869141
 31
0.0
  0
LINE
  5
7877
  8
0
 62
     5
 10
106.97547798475129
 20
141.86633568869121
 30
0.0
 11
107.55414318475179
 21
141.92048888869141
 31
0.0
  0
LINE
  5
7878
  8
0
 62
     5
 10
108.7109555847517
 20
142.0297572886914
 30
0.0
 11
108.1325567847512
 21
141.9749528886914
 31
0.0
  0
LINE
  5
7879
  8
0
 62
     5
 10
107.55414318475179
 20
141.92048888869141
 30
0.0
 11
108.1325567847512
 21
141.9749528886914
 31
0.0
  0
LINE
  5
787A
  8
0
 62
     5
 10
109.2895319847517
 20
142.08491688869131
 30
0.0
 11
108.7109555847517
 21
142.0297572886914
 31
0.0
  0
LINE
  5
787B
  8
0
 62
     5
 10
108.1325567847512
 20
141.9749528886914
 30
0.0
 11
108.7109555847517
 21
142.0297572886914
 31
0.0
  0
LINE
  5
787C
  8
0
 62
     5
 10
109.86880398475159
 20
142.1404612886914
 30
0.0
 11
109.2895319847517
 21
142.08491688869131
 31
0.0
  0
LINE
  5
787D
  8
0
 62
     5
 10
108.7109555847517
 20
142.0297572886914
 30
0.0
 11
109.2895319847517
 21
142.08491688869131
 31
0.0
  0
LINE
  5
787E
  8
0
 62
     5
 10
110.4478243847513
 20
142.19631648869139
 30
0.0
 11
109.86880398475159
 21
142.1404612886914
 31
0.0
  0
LINE
  5
787F
  8
0
 62
     5
 10
109.2895319847517
 20
142.08491688869131
 30
0.0
 11
109.86880398475159
 21
142.1404612886914
 31
0.0
  0
LINE
  5
7880
  8
0
 62
     5
 10
111.0268299847513
 20
142.2524824886913
 30
0.0
 11
110.4478243847513
 21
142.19631648869139
 31
0.0
  0
LINE
  5
7881
  8
0
 62
     5
 10
109.86880398475159
 20
142.1404612886914
 30
0.0
 11
110.4478243847513
 21
142.19631648869139
 31
0.0
  0
LINE
  5
7882
  8
0
 62
     5
 10
111.6060131847514
 20
142.30897408869129
 30
0.0
 11
111.0268299847513
 21
142.2524824886913
 31
0.0
  0
LINE
  5
7883
  8
0
 62
     5
 10
110.4478243847513
 20
142.19631648869139
 30
0.0
 11
111.0268299847513
 21
142.2524824886913
 31
0.0
  0
LINE
  5
7884
  8
0
 62
     5
 10
112.1857735847512
 20
142.3658356886915
 30
0.0
 11
111.6060131847514
 21
142.30897408869129
 31
0.0
  0
LINE
  5
7885
  8
0
 62
     5
 10
111.0268299847513
 20
142.2524824886913
 30
0.0
 11
111.6060131847514
 21
142.30897408869129
 31
0.0
  0
LINE
  5
7886
  8
0
 62
     5
 10
112.7652971847515
 20
142.42297848869151
 30
0.0
 11
112.1857735847512
 21
142.3658356886915
 31
0.0
  0
LINE
  5
7887
  8
0
 62
     5
 10
111.6060131847514
 20
142.30897408869129
 30
0.0
 11
112.1857735847512
 21
142.3658356886915
 31
0.0
  0
LINE
  5
7888
  8
0
 62
     5
 10
113.3447911847513
 20
142.4804172886912
 30
0.0
 11
112.7652971847515
 21
142.42297848869151
 31
0.0
  0
LINE
  5
7889
  8
0
 62
     5
 10
112.1857735847512
 20
142.3658356886915
 30
0.0
 11
112.7652971847515
 21
142.42297848869151
 31
0.0
  0
LINE
  5
788A
  8
0
 62
     5
 10
113.9244775847515
 20
142.53816688869139
 30
0.0
 11
113.3447911847513
 21
142.4804172886912
 31
0.0
  0
LINE
  5
788B
  8
0
 62
     5
 10
112.7652971847515
 20
142.42297848869151
 30
0.0
 11
113.3447911847513
 21
142.4804172886912
 31
0.0
  0
LINE
  5
788C
  8
0
 62
     5
 10
114.5046671847512
 20
142.5962568886915
 30
0.0
 11
113.9244775847515
 21
142.53816688869139
 31
0.0
  0
LINE
  5
788D
  8
0
 62
     5
 10
113.3447911847513
 20
142.4804172886912
 30
0.0
 11
113.9244775847515
 21
142.53816688869139
 31
0.0
  0
LINE
  5
788E
  8
0
 62
     5
 10
115.0846199847515
 20
142.65461328869119
 30
0.0
 11
114.5046671847512
 21
142.5962568886915
 31
0.0
  0
LINE
  5
788F
  8
0
 62
     5
 10
113.9244775847515
 20
142.53816688869139
 30
0.0
 11
114.5046671847512
 21
142.5962568886915
 31
0.0
  0
LINE
  5
7890
  8
0
 62
     5
 10
115.66454318475181
 20
142.71325088869119
 30
0.0
 11
115.0846199847515
 21
142.65461328869119
 31
0.0
  0
LINE
  5
7891
  8
0
 62
     5
 10
114.5046671847512
 20
142.5962568886915
 30
0.0
 11
115.0846199847515
 21
142.65461328869119
 31
0.0
  0
LINE
  5
7892
  8
0
 62
     5
 10
116.24465878475119
 20
142.77216968869121
 30
0.0
 11
115.66454318475181
 21
142.71325088869119
 31
0.0
  0
LINE
  5
7893
  8
0
 62
     5
 10
115.0846199847515
 20
142.65461328869119
 30
0.0
 11
115.66454318475181
 21
142.71325088869119
 31
0.0
  0
LINE
  5
7894
  8
0
 62
     5
 10
116.82521838475169
 20
142.83141408869139
 30
0.0
 11
116.24465878475119
 21
142.77216968869121
 31
0.0
  0
LINE
  5
7895
  8
0
 62
     5
 10
115.66454318475181
 20
142.71325088869119
 30
0.0
 11
116.24465878475119
 21
142.77216968869121
 31
0.0
  0
LINE
  5
7896
  8
0
 62
     5
 10
117.4055559847517
 20
142.8908952886913
 30
0.0
 11
116.82521838475169
 21
142.83141408869139
 31
0.0
  0
LINE
  5
7897
  8
0
 62
     5
 10
116.24465878475119
 20
142.77216968869121
 30
0.0
 11
116.82521838475169
 21
142.83141408869139
 31
0.0
  0
LINE
  5
7898
  8
0
 62
     5
 10
117.9858639847517
 20
142.95064288869119
 30
0.0
 11
117.4055559847517
 21
142.8908952886913
 31
0.0
  0
LINE
  5
7899
  8
0
 62
     5
 10
116.82521838475169
 20
142.83141408869139
 30
0.0
 11
117.4055559847517
 21
142.8908952886913
 31
0.0
  0
LINE
  5
789A
  8
0
 62
     5
 10
118.56634958475119
 20
143.0106568886915
 30
0.0
 11
117.9858639847517
 21
142.95064288869119
 31
0.0
  0
LINE
  5
789B
  8
0
 62
     5
 10
117.4055559847517
 20
142.8908952886913
 30
0.0
 11
117.9858639847517
 21
142.95064288869119
 31
0.0
  0
LINE
  5
789C
  8
0
 62
     5
 10
119.1472791847518
 20
143.07098168869121
 30
0.0
 11
118.56634958475119
 21
143.0106568886915
 31
0.0
  0
LINE
  5
789D
  8
0
 62
     5
 10
117.9858639847517
 20
142.95064288869119
 30
0.0
 11
118.56634958475119
 21
143.0106568886915
 31
0.0
  0
LINE
  5
789E
  8
0
 62
     5
 10
119.7279719847516
 20
143.1315284886912
 30
0.0
 11
119.1472791847518
 21
143.07098168869121
 31
0.0
  0
LINE
  5
789F
  8
0
 62
     5
 10
118.56634958475119
 20
143.0106568886915
 30
0.0
 11
119.1472791847518
 21
143.07098168869121
 31
0.0
  0
LINE
  5
78A0
  8
0
 62
     5
 10
120.3086351847514
 20
143.1923268886915
 30
0.0
 11
119.7279719847516
 21
143.1315284886912
 31
0.0
  0
LINE
  5
78A1
  8
0
 62
     5
 10
119.1472791847518
 20
143.07098168869121
 30
0.0
 11
119.7279719847516
 21
143.1315284886912
 31
0.0
  0
LINE
  5
78A2
  8
0
 62
     5
 10
120.8894907847517
 20
143.25337688869141
 30
0.0
 11
120.3086351847514
 21
143.1923268886915
 31
0.0
  0
LINE
  5
78A3
  8
0
 62
     5
 10
119.7279719847516
 20
143.1315284886912
 30
0.0
 11
120.3086351847514
 21
143.1923268886915
 31
0.0
  0
LINE
  5
78A4
  8
0
 62
     5
 10
121.47077558475129
 20
143.31472288869131
 30
0.0
 11
120.8894907847517
 21
143.25337688869141
 31
0.0
  0
LINE
  5
78A5
  8
0
 62
     5
 10
120.3086351847514
 20
143.1923268886915
 30
0.0
 11
120.8894907847517
 21
143.25337688869141
 31
0.0
  0
LINE
  5
78A6
  8
0
 62
     5
 10
122.0518087847512
 20
143.3762760886915
 30
0.0
 11
121.47077558475129
 21
143.31472288869131
 31
0.0
  0
LINE
  5
78A7
  8
0
 62
     5
 10
120.8894907847517
 20
143.25337688869141
 30
0.0
 11
121.47077558475129
 21
143.31472288869131
 31
0.0
  0
LINE
  5
78A8
  8
0
 62
     5
 10
122.63282718475151
 20
143.4380660886913
 30
0.0
 11
122.0518087847512
 21
143.3762760886915
 31
0.0
  0
LINE
  5
78A9
  8
0
 62
     5
 10
121.47077558475129
 20
143.31472288869131
 30
0.0
 11
122.0518087847512
 21
143.3762760886915
 31
0.0
  0
LINE
  5
78AA
  8
0
 62
     5
 10
123.2140379847516
 20
143.5000928886914
 30
0.0
 11
122.63282718475151
 21
143.4380660886913
 31
0.0
  0
LINE
  5
78AB
  8
0
 62
     5
 10
122.0518087847512
 20
143.3762760886915
 30
0.0
 11
122.63282718475151
 21
143.4380660886913
 31
0.0
  0
LINE
  5
78AC
  8
0
 62
     5
 10
123.7957223847512
 20
143.5624156886912
 30
0.0
 11
123.2140379847516
 21
143.5000928886914
 31
0.0
  0
LINE
  5
78AD
  8
0
 62
     5
 10
122.63282718475151
 20
143.4380660886913
 30
0.0
 11
123.2140379847516
 21
143.5000928886914
 31
0.0
  0
LINE
  5
78AE
  8
0
 62
     5
 10
124.3771551847518
 20
143.62491608869121
 30
0.0
 11
123.7957223847512
 21
143.5624156886912
 31
0.0
  0
LINE
  5
78AF
  8
0
 62
     5
 10
123.2140379847516
 20
143.5000928886914
 30
0.0
 11
123.7957223847512
 21
143.5624156886912
 31
0.0
  0
LINE
  5
78B0
  8
0
 62
     5
 10
124.9585731847513
 20
143.68763848869139
 30
0.0
 11
124.3771551847518
 21
143.62491608869121
 31
0.0
  0
LINE
  5
78B1
  8
0
 62
     5
 10
123.7957223847512
 20
143.5624156886912
 30
0.0
 11
124.3771551847518
 21
143.62491608869121
 31
0.0
  0
LINE
  5
78B2
  8
0
 62
     5
 10
125.5401983847518
 20
143.75061248869119
 30
0.0
 11
124.9585731847513
 21
143.68763848869139
 31
0.0
  0
LINE
  5
78B3
  8
0
 62
     5
 10
124.3771551847518
 20
143.62491608869121
 30
0.0
 11
124.9585731847513
 21
143.68763848869139
 31
0.0
  0
LINE
  5
78B4
  8
0
 62
     5
 10
126.12232678475149
 20
143.81383808869151
 30
0.0
 11
125.5401983847518
 21
143.75061248869119
 31
0.0
  0
LINE
  5
78B5
  8
0
 62
     5
 10
124.9585731847513
 20
143.68763848869139
 30
0.0
 11
125.5401983847518
 21
143.75061248869119
 31
0.0
  0
LINE
  5
78B6
  8
0
 62
     5
 10
126.7042183847513
 20
143.87725608869121
 30
0.0
 11
126.12232678475149
 21
143.81383808869151
 31
0.0
  0
LINE
  5
78B7
  8
0
 62
     5
 10
125.5401983847518
 20
143.75061248869119
 30
0.0
 11
126.12232678475149
 21
143.81383808869151
 31
0.0
  0
LINE
  5
78B8
  8
0
 62
     5
 10
127.2860951847514
 20
143.9408664886914
 30
0.0
 11
126.7042183847513
 21
143.87725608869121
 31
0.0
  0
LINE
  5
78B9
  8
0
 62
     5
 10
126.12232678475149
 20
143.81383808869151
 30
0.0
 11
126.7042183847513
 21
143.87725608869121
 31
0.0
  0
LINE
  5
78BA
  8
0
 62
     5
 10
127.8681643847514
 20
144.0047136886914
 30
0.0
 11
127.2860951847514
 21
143.9408664886914
 31
0.0
  0
LINE
  5
78BB
  8
0
 62
     5
 10
126.7042183847513
 20
143.87725608869121
 30
0.0
 11
127.2860951847514
 21
143.9408664886914
 31
0.0
  0
LINE
  5
78BC
  8
0
 62
     5
 10
128.45082558475119
 20
144.06881248869141
 30
0.0
 11
127.8681643847514
 21
144.0047136886914
 31
0.0
  0
LINE
  5
78BD
  8
0
 62
     5
 10
127.2860951847514
 20
143.9408664886914
 30
0.0
 11
127.8681643847514
 21
144.0047136886914
 31
0.0
  0
LINE
  5
78BE
  8
0
 62
     5
 10
129.03324998475159
 20
144.13308888869139
 30
0.0
 11
128.45082558475119
 21
144.06881248869141
 31
0.0
  0
LINE
  5
78BF
  8
0
 62
     5
 10
127.8681643847514
 20
144.0047136886914
 30
0.0
 11
128.45082558475119
 21
144.06881248869141
 31
0.0
  0
LINE
  5
78C0
  8
0
 62
     5
 10
129.61564478475151
 20
144.19754288869109
 30
0.0
 11
129.03324998475159
 21
144.13308888869139
 31
0.0
  0
LINE
  5
78C1
  8
0
 62
     5
 10
128.45082558475119
 20
144.06881248869141
 30
0.0
 11
129.03324998475159
 21
144.13308888869139
 31
0.0
  0
LINE
  5
78C2
  8
0
 62
     5
 10
130.19824678475129
 20
144.2622040886915
 30
0.0
 11
129.61564478475151
 21
144.19754288869109
 31
0.0
  0
LINE
  5
78C3
  8
0
 62
     5
 10
129.03324998475159
 20
144.13308888869139
 30
0.0
 11
129.61564478475151
 21
144.19754288869109
 31
0.0
  0
LINE
  5
78C4
  8
0
 62
     5
 10
130.78155918475159
 20
144.3271316886914
 30
0.0
 11
130.19824678475129
 21
144.2622040886915
 31
0.0
  0
LINE
  5
78C5
  8
0
 62
     5
 10
129.61564478475151
 20
144.19754288869109
 30
0.0
 11
130.19824678475129
 21
144.2622040886915
 31
0.0
  0
LINE
  5
78C6
  8
0
 62
     5
 10
131.3646347847517
 20
144.39222208869131
 30
0.0
 11
130.78155918475159
 21
144.3271316886914
 31
0.0
  0
LINE
  5
78C7
  8
0
 62
     5
 10
130.19824678475129
 20
144.2622040886915
 30
0.0
 11
130.78155918475159
 21
144.3271316886914
 31
0.0
  0
LINE
  5
78C8
  8
0
 62
     5
 10
131.9476955847515
 20
144.45746048869151
 30
0.0
 11
131.3646347847517
 21
144.39222208869131
 31
0.0
  0
LINE
  5
78C9
  8
0
 62
     5
 10
130.78155918475159
 20
144.3271316886914
 30
0.0
 11
131.3646347847517
 21
144.39222208869131
 31
0.0
  0
LINE
  5
78CA
  8
0
 62
     5
 10
132.5309635847515
 20
144.52290608869151
 30
0.0
 11
131.9476955847515
 21
144.45746048869151
 31
0.0
  0
LINE
  5
78CB
  8
0
 62
     5
 10
131.3646347847517
 20
144.39222208869131
 30
0.0
 11
131.9476955847515
 21
144.45746048869151
 31
0.0
  0
LINE
  5
78CC
  8
0
 62
     5
 10
133.11498638475129
 20
144.5885736886913
 30
0.0
 11
132.5309635847515
 21
144.52290608869151
 31
0.0
  0
LINE
  5
78CD
  8
0
 62
     5
 10
131.9476955847515
 20
144.45746048869151
 30
0.0
 11
132.5309635847515
 21
144.52290608869151
 31
0.0
  0
LINE
  5
78CE
  8
0
 62
     5
 10
133.6987871847513
 20
144.65438928869131
 30
0.0
 11
133.11498638475129
 21
144.5885736886913
 31
0.0
  0
LINE
  5
78CF
  8
0
 62
     5
 10
132.5309635847515
 20
144.52290608869151
 30
0.0
 11
133.11498638475129
 21
144.5885736886913
 31
0.0
  0
LINE
  5
78D0
  8
0
 62
     5
 10
134.28257318475161
 20
144.72033808869139
 30
0.0
 11
133.6987871847513
 21
144.65438928869131
 31
0.0
  0
LINE
  5
78D1
  8
0
 62
     5
 10
133.11498638475129
 20
144.5885736886913
 30
0.0
 11
133.6987871847513
 21
144.65438928869131
 31
0.0
  0
LINE
  5
78D2
  8
0
 62
     5
 10
134.86655158475179
 20
144.78644968869139
 30
0.0
 11
134.28257318475161
 21
144.72033808869139
 31
0.0
  0
LINE
  5
78D3
  8
0
 62
     5
 10
133.6987871847513
 20
144.65438928869131
 30
0.0
 11
134.28257318475161
 21
144.72033808869139
 31
0.0
  0
LINE
  5
78D4
  8
0
 62
     5
 10
135.45134398475159
 20
144.8527832886916
 30
0.0
 11
134.86655158475179
 21
144.78644968869139
 31
0.0
  0
LINE
  5
78D5
  8
0
 62
     5
 10
134.28257318475161
 20
144.72033808869139
 30
0.0
 11
134.86655158475179
 21
144.78644968869139
 31
0.0
  0
LINE
  5
78D6
  8
0
 62
     5
 10
136.03589958475129
 20
144.91923528869131
 30
0.0
 11
135.45134398475159
 21
144.8527832886916
 31
0.0
  0
LINE
  5
78D7
  8
0
 62
     5
 10
134.86655158475179
 20
144.78644968869139
 30
0.0
 11
135.45134398475159
 21
144.8527832886916
 31
0.0
  0
LINE
  5
78D8
  8
0
 62
     5
 10
136.62044038475139
 20
144.9858056886915
 30
0.0
 11
136.03589958475129
 21
144.91923528869131
 31
0.0
  0
LINE
  5
78D9
  8
0
 62
     5
 10
135.45134398475159
 20
144.8527832886916
 30
0.0
 11
136.03589958475129
 21
144.91923528869131
 31
0.0
  0
LINE
  5
78DA
  8
0
 62
     5
 10
137.20518838475181
 20
145.0525092886914
 30
0.0
 11
136.62044038475139
 21
144.9858056886915
 31
0.0
  0
LINE
  5
78DB
  8
0
 62
     5
 10
136.03589958475129
 20
144.91923528869131
 30
0.0
 11
136.62044038475139
 21
144.9858056886915
 31
0.0
  0
LINE
  5
78DC
  8
0
 62
     5
 10
137.79067638475149
 20
145.1194200886913
 30
0.0
 11
137.20518838475181
 21
145.0525092886914
 31
0.0
  0
LINE
  5
78DD
  8
0
 62
     5
 10
136.62044038475139
 20
144.9858056886915
 30
0.0
 11
137.20518838475181
 21
145.0525092886914
 31
0.0
  0
LINE
  5
78DE
  8
0
 62
     5
 10
138.37594238475151
 20
145.1864048886915
 30
0.0
 11
137.79067638475149
 21
145.1194200886913
 31
0.0
  0
LINE
  5
78DF
  8
0
 62
     5
 10
137.20518838475181
 20
145.0525092886914
 30
0.0
 11
137.79067638475149
 21
145.1194200886913
 31
0.0
  0
LINE
  5
78E0
  8
0
 62
     5
 10
138.96119358475119
 20
145.2534784886914
 30
0.0
 11
138.37594238475151
 21
145.1864048886915
 31
0.0
  0
LINE
  5
78E1
  8
0
 62
     5
 10
137.79067638475149
 20
145.1194200886913
 30
0.0
 11
138.37594238475151
 21
145.1864048886915
 31
0.0
  0
LINE
  5
78E2
  8
0
 62
     5
 10
139.5466667847513
 20
145.32068528869121
 30
0.0
 11
138.96119358475119
 21
145.2534784886914
 31
0.0
  0
LINE
  5
78E3
  8
0
 62
     5
 10
138.37594238475151
 20
145.1864048886915
 30
0.0
 11
138.96119358475119
 21
145.2534784886914
 31
0.0
  0
LINE
  5
78E4
  8
0
 62
     5
 10
140.13276158475119
 20
145.38805488869119
 30
0.0
 11
139.5466667847513
 21
145.32068528869121
 31
0.0
  0
LINE
  5
78E5
  8
0
 62
     5
 10
138.96119358475119
 20
145.2534784886914
 30
0.0
 11
139.5466667847513
 21
145.32068528869121
 31
0.0
  0
LINE
  5
78E6
  8
0
 62
     5
 10
140.7186491847516
 20
145.4554688886912
 30
0.0
 11
140.13276158475119
 21
145.38805488869119
 31
0.0
  0
LINE
  5
78E7
  8
0
 62
     5
 10
139.5466667847513
 20
145.32068528869121
 30
0.0
 11
140.13276158475119
 21
145.38805488869119
 31
0.0
  0
LINE
  5
78E8
  8
0
 62
     5
 10
141.30452198475169
 20
145.5229716886914
 30
0.0
 11
140.7186491847516
 21
145.4554688886912
 31
0.0
  0
LINE
  5
78E9
  8
0
 62
     5
 10
140.13276158475119
 20
145.38805488869119
 30
0.0
 11
140.7186491847516
 21
145.4554688886912
 31
0.0
  0
LINE
  5
78EA
  8
0
 62
     5
 10
141.89060198475141
 20
145.5905632886915
 30
0.0
 11
141.30452198475169
 21
145.5229716886914
 31
0.0
  0
LINE
  5
78EB
  8
0
 62
     5
 10
140.7186491847516
 20
145.4554688886912
 30
0.0
 11
141.30452198475169
 21
145.5229716886914
 31
0.0
  0
LINE
  5
78EC
  8
0
 62
     5
 10
142.47718518475159
 20
145.65827328869139
 30
0.0
 11
141.89060198475141
 21
145.5905632886915
 31
0.0
  0
LINE
  5
78ED
  8
0
 62
     5
 10
141.30452198475169
 20
145.5229716886914
 30
0.0
 11
141.89060198475141
 21
145.5905632886915
 31
0.0
  0
LINE
  5
78EE
  8
0
 62
     5
 10
143.0635315847513
 20
145.7260276886914
 30
0.0
 11
142.47718518475159
 21
145.65827328869139
 31
0.0
  0
LINE
  5
78EF
  8
0
 62
     5
 10
141.89060198475141
 20
145.5905632886915
 30
0.0
 11
142.47718518475159
 21
145.65827328869139
 31
0.0
  0
LINE
  5
78F0
  8
0
 62
     5
 10
143.64989278475119
 20
145.79382648869139
 30
0.0
 11
143.0635315847513
 21
145.7260276886914
 31
0.0
  0
LINE
  5
78F1
  8
0
 62
     5
 10
142.47718518475159
 20
145.65827328869139
 30
0.0
 11
143.0635315847513
 21
145.7260276886914
 31
0.0
  0
LINE
  5
78F2
  8
0
 62
     5
 10
144.23646118475119
 20
145.86169928869131
 30
0.0
 11
143.64989278475119
 21
145.79382648869139
 31
0.0
  0
LINE
  5
78F3
  8
0
 62
     5
 10
143.0635315847513
 20
145.7260276886914
 30
0.0
 11
143.64989278475119
 21
145.79382648869139
 31
0.0
  0
LINE
  5
78F4
  8
0
 62
     5
 10
144.82331078475161
 20
145.9296460886915
 30
0.0
 11
144.23646118475119
 21
145.86169928869131
 31
0.0
  0
LINE
  5
78F5
  8
0
 62
     5
 10
143.64989278475119
 20
145.79382648869139
 30
0.0
 11
144.23646118475119
 21
145.86169928869131
 31
0.0
  0
LINE
  5
78F6
  8
0
 62
     5
 10
145.4099679847514
 20
145.9976076886914
 30
0.0
 11
144.82331078475161
 21
145.9296460886915
 31
0.0
  0
LINE
  5
78F7
  8
0
 62
     5
 10
144.23646118475119
 20
145.86169928869131
 30
0.0
 11
144.82331078475161
 21
145.9296460886915
 31
0.0
  0
LINE
  5
78F8
  8
0
 62
     5
 10
145.99661038475159
 20
146.06559888869131
 30
0.0
 11
145.4099679847514
 21
145.9976076886914
 31
0.0
  0
LINE
  5
78F9
  8
0
 62
     5
 10
144.82331078475161
 20
145.9296460886915
 30
0.0
 11
145.4099679847514
 21
145.9976076886914
 31
0.0
  0
LINE
  5
78FA
  8
0
 62
     5
 10
146.5834599847513
 20
146.1336344886912
 30
0.0
 11
145.99661038475159
 21
146.06559888869131
 31
0.0
  0
LINE
  5
78FB
  8
0
 62
     5
 10
145.4099679847514
 20
145.9976076886914
 30
0.0
 11
145.99661038475159
 21
146.06559888869131
 31
0.0
  0
LINE
  5
78FC
  8
0
 62
     5
 10
147.17042798475151
 20
146.20169968869141
 30
0.0
 11
146.5834599847513
 21
146.1336344886912
 31
0.0
  0
LINE
  5
78FD
  8
0
 62
     5
 10
145.99661038475159
 20
146.06559888869131
 30
0.0
 11
146.5834599847513
 21
146.1336344886912
 31
0.0
  0
LINE
  5
78FE
  8
0
 62
     5
 10
147.75718878475121
 20
146.2697500886915
 30
0.0
 11
147.17042798475151
 21
146.20169968869141
 31
0.0
  0
LINE
  5
78FF
  8
0
 62
     5
 10
146.5834599847513
 20
146.1336344886912
 30
0.0
 11
147.17042798475151
 21
146.20169968869141
 31
0.0
  0
LINE
  5
7900
  8
0
 62
     5
 10
148.34394958475119
 20
146.33781528869119
 30
0.0
 11
147.75718878475121
 21
146.2697500886915
 31
0.0
  0
LINE
  5
7901
  8
0
 62
     5
 10
147.17042798475151
 20
146.20169968869141
 30
0.0
 11
147.75718878475121
 21
146.2697500886915
 31
0.0
  0
LINE
  5
7902
  8
0
 62
     5
 10
147.75718878475121
 20
146.2697500886915
 30
0.0
 11
148.34394958475119
 21
146.33781528869119
 31
0.0
  0
ENDBLK
  5
7904
  8
0
 62
     1
  0
ENDSEC
  0
SECTION
  2
ENTITIES
  0
POLYLINE
  5
7219
  8
0
 62
     1
 66
     1
 10
0.0
 20
0.0
 30
0.0
  0
VERTEX
  5
7FCD
  8
0
 62
     1
 10
154.4270980330333
 20
184.23166145769471
 30
0.0
  0
VERTEX
  5
7FCE
  8
0
 62
     1
 10
154.4270980330333
 20
184.23166145769471
 30
0.0
  0
SEQEND
  5
7FCF
  8
0
 62
     1
  0
POLYLINE
  5
7E4C
  8
0
 62
     1
 66
     1
 10
0.0
 20
0.0
 30
0.0
 70
     1
  0
VERTEX
  5
7FDB
  8
0
 62
     1
 10
148.19993612629119
 20
255.6636189427262
 30
0.0
  0
VERTEX
  5
7FDC
  8
0
 62
     1
 10
137.8384022876825
 20
257.37555643934002
 30
0.0
  0
VERTEX
  5
7FDD
  8
0
 62
     1
 10
134.25845678955821
 20
257.8483289712035
 30
0.0
  0
VERTEX
  5
7FDE
  8
0
 62
     1
 10
128.31023702971791
 20
258.70315466968179
 30
0.0
  0
VERTEX
  5
7FDF
  8
0
 62
     1
 10
123.0448066986221
 20
259.37629446904748
 30
0.0
  0
VERTEX
  5
7FE0
  8
0
 62
     1
 10
117.1543906443619
 20
260.11288765644667
 30
0.0
  0
VERTEX
  5
7FE1
  8
0
 62
     1
 10
111.27353626037851
 20
260.76027735078162
 30
0.0
  0
VERTEX
  5
7FE2
  8
0
 62
     1
 10
105.03696573181161
 20
261.30525160785157
 30
0.0
  0
VERTEX
  5
7FE3
  8
0
 62
     1
 10
97.32098318293427
 20
261.97222325351493
 30
0.0
  0
VERTEX
  5
7FE4
  8
0
 62
     1
 10
91.164096959793625
 20
262.40597577586931
 30
0.0
  0
VERTEX
  5
7FE5
  8
0
 62
     1
 10
83.968557264889952
 20
262.99818056069267
 30
0.0
  0
VERTEX
  5
7FE6
  8
0
 62
     1
 10
75.558527098483395
 20
263.34586636257472
 30
0.0
  0
VERTEX
  5
7FE7
  8
0
 62
     1
 10
69.645881014085603
 20
263.48097971633388
 30
0.0
  0
VERTEX
  5
7FE8
  8
0
 62
     1
 10
64.439816340628553
 20
263.5651341807868
 30
0.0
  0
VERTEX
  5
7FE9
  8
0
 62
     1
 10
53.444623083809013
 20
263.49402856362678
 30
0.0
  0
VERTEX
  5
7FEA
  8
0
 62
     1
 10
46.933289212070683
 20
263.24731314323571
 30
0.0
  0
VERTEX
  5
7FEB
  8
0
 62
     1
 10
46.933289212070683
 20
260.98528571118101
 30
0.0
  0
VERTEX
  5
7FEC
  8
0
 62
     1
 10
41.816639960629082
 20
260.98640937119842
 30
0.0
  0
VERTEX
  5
7FED
  8
0
 62
     1
 10
41.816639960629082
 20
262.98640941942642
 30
0.0
  0
VERTEX
  5
7FEE
  8
0
 62
     1
 10
33.849461301138192
 20
262.5008615790735
 30
0.0
  0
VERTEX
  5
7FEF
  8
0
 62
     1
 10
27.034321351898249
 20
261.84153127373912
 30
0.0
  0
VERTEX
  5
7FF0
  8
0
 62
     1
 10
19.90172343712538
 20
261.06495232966518
 30
0.0
  0
VERTEX
  5
7FF1
  8
0
 62
     1
 10
13.618924336884829
 20
260.30713505361689
 30
0.0
  0
VERTEX
  5
7FF2
  8
0
 62
     1
 10
8.2625280705331292
 20
259.59258716253828
 30
0.0
  0
VERTEX
  5
7FF3
  8
0
 62
     1
 10
3.7471109173620292
 20
258.8600015706478
 30
0.0
  0
VERTEX
  5
7FF4
  8
0
 62
     1
 10
-2.4164894564948858
 20
257.7154740669572
 30
0.0
  0
VERTEX
  5
7FF5
  8
0
 62
     1
 10
-7.1355479027475068
 20
256.75169506271192
 30
0.0
  0
VERTEX
  5
7FF6
  8
0
 62
     1
 10
-11.02848957385835
 20
255.8608650064738
 30
0.0
  0
VERTEX
  5
7FF7
  8
0
 62
     1
 10
-15.577261907164219
 20
254.73804234900879
 30
0.0
  0
VERTEX
  5
7FF8
  8
0
 62
     1
 10
-20.3199590047473
 20
253.4696688373858
 30
0.0
  0
VERTEX
  5
7FF9
  8
0
 62
     1
 10
-23.58919732815011
 20
252.4377545462763
 30
0.0
  0
VERTEX
  5
7FFA
  8
0
 62
     1
 10
-26.6707354177511
 20
251.37808360265581
 30
0.0
  0
VERTEX
  5
7FFB
  8
0
 62
     1
 10
-27.06547566703685
 20
251.21630109633281
 30
0.0
  0
VERTEX
  5
7FFC
  8
0
 62
     1
 10
-27.065475667036839
 20
242.2283833900737
 30
0.0
  0
VERTEX
  5
7FFD
  8
0
 62
     1
 10
-24.471713346584512
 20
241.2199954451718
 30
0.0
  0
VERTEX
  5
7FFE
  8
0
 62
     1
 10
-19.40097539414958
 20
239.93698628165069
 30
0.0
  0
VERTEX
  5
7FFF
  8
0
 62
     1
 10
-12.810694714194319
 20
238.68611780242799
 30
0.0
  0
VERTEX
  5
8000
  8
0
 62
     1
 10
-5.9588015151386449
 20
237.50838200182409
 30
0.0
  0
VERTEX
  5
8001
  8
0
 62
     1
 10
-0.8855767887797192
 20
236.69977704563891
 30
0.0
  0
VERTEX
  5
8002
  8
0
 62
     1
 10
5.4323061071945871
 20
235.78256584210959
 30
0.0
  0
VERTEX
  5
8003
  8
0
 62
     1
 10
12.034827817248029
 20
235.01536962064799
 30
0.0
  0
VERTEX
  5
8004
  8
0
 62
     1
 10
18.361306671464529
 20
234.41444864519551
 30
0.0
  0
VERTEX
  5
8005
  8
0
 62
     1
 10
25.492523133312289
 20
233.80805099703119
 30
0.0
  0
VERTEX
  5
8006
  8
0
 62
     1
 10
33.44800416382656
 20
233.47411505436639
 30
0.0
  0
VERTEX
  5
8007
  8
0
 62
     1
 10
39.622145475874198
 20
233.2909939790558
 30
0.0
  0
VERTEX
  5
8008
  8
0
 62
     1
 10
41.816639960629082
 20
233.28958893147029
 30
0.0
  0
VERTEX
  5
8009
  8
0
 62
     1
 10
41.816639960629082
 20
235.28961498800669
 30
0.0
  0
VERTEX
  5
800A
  8
0
 62
     1
 10
46.933289212070683
 20
235.26349665795959
 30
0.0
  0
VERTEX
  5
800B
  8
0
 62
     1
 10
46.933289212070683
 20
233.28768282723249
 30
0.0
  0
VERTEX
  5
800C
  8
0
 62
     1
 10
54.873186257753602
 20
233.31398359265731
 30
0.0
  0
VERTEX
  5
800D
  8
0
 62
     1
 10
61.230897624358242
 20
233.32165283480279
 30
0.0
  0
VERTEX
  5
800E
  8
0
 62
     1
 10
64.903112733251419
 20
233.43941764120251
 30
0.0
  0
VERTEX
  5
800F
  8
0
 62
     1
 10
68.150478451104405
 20
233.5620152524541
 30
0.0
  0
VERTEX
  5
8010
  8
0
 62
     1
 10
72.099819707620753
 20
233.7776129542888
 30
0.0
  0
VERTEX
  5
8011
  8
0
 62
     1
 10
79.608972514092784
 20
234.14035899083419
 30
0.0
  0
VERTEX
  5
8012
  8
0
 62
     1
 10
86.316852346392423
 20
234.5494127651871
 30
0.0
  0
VERTEX
  5
8013
  8
0
 62
     1
 10
93.797321447459055
 20
234.99478229861279
 30
0.0
  0
VERTEX
  5
8014
  8
0
 62
     1
 10
100.0996712306661
 20
235.43322861556649
 30
0.0
  0
VERTEX
  5
8015
  8
0
 62
     1
 10
101.4621804752166
 20
235.55287502039039
 30
0.0
  0
VERTEX
  5
8016
  8
0
 62
     1
 10
101.4621804752166
 20
246.45916994174291
 30
0.0
  0
VERTEX
  5
8017
  8
0
 62
     1
 10
99.072286975508646
 20
246.4084125009054
 30
0.0
  0
VERTEX
  5
8018
  8
0
 62
     1
 10
96.629119063730755
 20
246.54528450208551
 30
0.0
  0
VERTEX
  5
8019
  8
0
 62
     1
 10
94.322955021208145
 20
246.81903106189239
 30
0.0
  0
VERTEX
  5
801A
  8
0
 62
     1
 10
92.096830509187356
 20
247.348076038221
 30
0.0
  0
VERTEX
  5
801B
  8
0
 62
     1
 10
91.512638421941546
 20
247.6700905722852
 30
0.0
  0
VERTEX
  5
801C
  8
0
 62
     1
 10
91.210471035526069
 20
248.03235676326739
 30
0.0
  0
VERTEX
  5
801D
  8
0
 62
     1
 10
91.150037558243142
 20
248.47512626808449
 30
0.0
  0
VERTEX
  5
801E
  8
0
 62
     1
 10
91.311192594243053
 20
248.97827325827819
 30
0.0
  0
VERTEX
  5
801F
  8
0
 62
     1
 10
91.935672762922863
 20
249.4009169346366
 30
0.0
  0
VERTEX
  5
8020
  8
0
 62
     1
 10
93.365936242396359
 20
249.86381226791261
 30
0.0
  0
VERTEX
  5
8021
  8
0
 62
     1
 10
96.468199820740153
 20
250.44746257194149
 30
0.0
  0
VERTEX
  5
8022
  8
0
 62
     1
 10
99.510027211535956
 20
250.7090996206293
 30
0.0
  0
VERTEX
  5
8023
  8
0
 62
     1
 10
102.8679337763019
 20
250.8112683459633
 30
0.0
  0
VERTEX
  5
8024
  8
0
 62
     1
 10
106.6149584323984
 20
250.73161794067249
 30
0.0
  0
VERTEX
  5
8025
  8
0
 62
     1
 10
109.54481395663829
 20
250.35328075330759
 30
0.0
  0
VERTEX
  5
8026
  8
0
 62
     1
 10
111.6176377791098
 20
249.855467318645
 30
0.0
  0
VERTEX
  5
8027
  8
0
 62
     1
 10
112.4746721911424
 20
249.31782932069879
 30
0.0
  0
VERTEX
  5
8028
  8
0
 62
     1
 10
112.5942571906111
 20
248.76027776238709
 30
0.0
  0
VERTEX
  5
8029
  8
0
 62
     1
 10
112.3152246217618
 20
248.1828152011571
 30
0.0
  0
VERTEX
  5
802A
  8
0
 62
     1
 10
111.059569931147
 20
247.48587639262951
 30
0.0
  0
VERTEX
  5
802B
  8
0
 62
     1
 10
108.926954964073
 20
247.00797651833199
 30
0.0
  0
VERTEX
  5
802C
  8
0
 62
     1
 10
106.076821869391
 20
246.60972577060201
 30
0.0
  0
VERTEX
  5
802D
  8
0
 62
     1
 10
101.8621804752166
 20
246.46902526434599
 30
0.0
  0
VERTEX
  5
802E
  8
0
 62
     1
 10
101.8621804752166
 20
235.58800033210559
 30
0.0
  0
VERTEX
  5
802F
  8
0
 62
     1
 10
107.69169353564919
 20
236.09990899059369
 30
0.0
  0
VERTEX
  5
8030
  8
0
 62
     1
 10
115.60877819042339
 20
236.8451326367944
 30
0.0
  0
VERTEX
  5
8031
  8
0
 62
     1
 10
127.17242412373621
 20
238.21078714675591
 30
0.0
  0
VERTEX
  5
8032
  8
0
 62
     1
 10
138.91380265270831
 20
239.67014049182319
 30
0.0
  0
VERTEX
  5
8033
  8
0
 62
     1
 10
143.71222448340171
 20
240.324414247276
 30
0.0
  0
VERTEX
  5
8034
  8
0
 62
     1
 10
147.1195510491404
 20
240.71608604916571
 30
0.0
  0
VERTEX
  5
8035
  8
0
 62
     1
 10
156.6713752608274
 20
241.8309521045459
 30
0.0
  0
VERTEX
  5
8036
  8
0
 62
     1
 10
157.9843081038033
 20
249.77588340697409
 30
0.0
  0
VERTEX
  5
8037
  8
0
 62
     1
 10
159.38601027594601
 20
249.77588340697409
 30
0.0
  0
VERTEX
  5
8038
  8
0
 62
     1
 10
160.6713752608274
 20
242.29782252873801
 30
0.0
  0
VERTEX
  5
8039
  8
0
 62
     1
 10
162.3476482530067
 20
242.49347309946839
 30
0.0
  0
VERTEX
  5
803A
  8
0
 62
     1
 10
162.93076280719359
 20
242.56002767780879
 30
0.0
  0
VERTEX
  5
803B
  8
0
 62
     1
 10
163.23275202495151
 20
242.59441234172311
 30
0.0
  0
VERTEX
  5
803C
  8
0
 62
     1
 10
163.81589648453769
 20
242.66080417588671
 30
0.0
  0
VERTEX
  5
803D
  8
0
 62
     1
 10
164.39927804915851
 20
242.72703365463019
 30
0.0
  0
VERTEX
  5
803E
  8
0
 62
     1
 10
164.9812690548994
 20
242.79292012375149
 30
0.0
  0
VERTEX
  5
803F
  8
0
 62
     1
 10
165.56308287747731
 20
242.85858426004361
 30
0.0
  0
VERTEX
  5
8040
  8
0
 62
     1
 10
166.1449118610175
 20
242.9240560244431
 30
0.0
  0
VERTEX
  5
8041
  8
0
 62
     1
 10
166.7269928051025
 20
242.98933586124221
 30
0.0
  0
VERTEX
  5
8042
  8
0
 62
     1
 10
167.3074021296438
 20
243.05419816095201
 30
0.0
  0
VERTEX
  5
8043
  8
0
 62
     1
 10
167.88764912653301
 20
243.11880855565281
 30
0.0
  0
VERTEX
  5
8044
  8
0
 62
     1
 10
168.46792619543109
 20
243.1831674063333
 30
0.0
  0
VERTEX
  5
8045
  8
0
 62
     1
 10
169.04844050820569
 20
243.24728990172369
 30
0.0
  0
VERTEX
  5
8046
  8
0
 62
     1
 10
169.62712056833351
 20
243.31090575472899
 30
0.0
  0
VERTEX
  5
8047
  8
0
 62
     1
 10
170.2056236119073
 20
243.37421047506189
 30
0.0
  0
VERTEX
  5
8048
  8
0
 62
     1
 10
170.78415686633269
 20
243.43718965150421
 30
0.0
  0
VERTEX
  5
8049
  8
0
 62
     1
 10
171.36295704788699
 20
243.49988812827129
 30
0.0
  0
VERTEX
  5
804A
  8
0
 62
     1
 10
171.9398046880753
 20
243.5620205406114
 30
0.0
  0
VERTEX
  5
804B
  8
0
 62
     1
 10
172.51649025052629
 20
243.62376784817749
 30
0.0
  0
VERTEX
  5
804C
  8
0
 62
     1
 10
173.09322087933859
 20
243.68516003967349
 30
0.0
  0
VERTEX
  5
804D
  8
0
 62
     1
 10
173.6702186018899
 20
243.74618273165049
 30
0.0
  0
VERTEX
  5
804E
  8
0
 62
     1
 10
174.2453230107397
 20
243.80662467029961
 30
0.0
  0
VERTEX
  5
804F
  8
0
 62
     1
 10
174.82026548069379
 20
243.86660750430491
 30
0.0
  0
VERTEX
  5
8050
  8
0
 62
     1
 10
175.3952531003136
 20
243.92619082231849
 30
0.0
  0
VERTEX
  5
8051
  8
0
 62
     1
 10
175.9705079247463
 20
243.98534544091731
 30
0.0
  0
VERTEX
  5
8052
  8
0
 62
     1
 10
176.5440027463155
 20
244.04386035620709
 30
0.0
  0
VERTEX
  5
8053
  8
0
 62
     1
 10
177.11735045673171
 20
244.10190139464731
 30
0.0
  0
VERTEX
  5
8054
  8
0
 62
     1
 10
177.6907582833976
 20
244.15945414502059
 30
0.0
  0
VERTEX
  5
8055
  8
0
 62
     1
 10
178.2644185982063
 20
244.2165337682888
 30
0.0
  0
VERTEX
  5
8056
  8
0
 62
     1
 10
178.83658533745191
 20
244.2729593881038
 30
0.0
  0
VERTEX
  5
8057
  8
0
 62
     1
 10
179.4085902488755
 20
244.3288667033793
 30
0.0
  0
VERTEX
  5
8058
  8
0
 62
     1
 10
179.9806405321107
 20
244.38425610287109
 30
0.0
  0
VERTEX
  5
8059
  8
0
 62
     1
 10
180.55294330349
 20
244.43917237525801
 30
0.0
  0
VERTEX
  5
805A
  8
0
 62
     1
 10
181.12401884330001
 20
244.49346474396941
 30
0.0
  0
VERTEX
  5
805B
  8
0
 62
     1
 10
181.69493255528741
 20
244.54723880814109
 30
0.0
  0
VERTEX
  5
805C
  8
0
 62
     1
 10
182.26587681134509
 20
244.60050972873481
 30
0.0
  0
VERTEX
  5
805D
  8
0
 62
     1
 10
182.8371031832624
 20
244.65329277778631
 30
0.0
  0
VERTEX
  5
805E
  8
0
 62
     1
 10
183.40733906765701
 20
244.70548196740319
 30
0.0
  0
VERTEX
  5
805F
  8
0
 62
     1
 10
183.97741312422951
 20
244.75715285248049
 30
0.0
  0
VERTEX
  5
8060
  8
0
 62
     1
 10
184.54753252484639
 20
244.80832062174809
 30
0.0
  0
VERTEX
  5
8061
  8
0
 62
     1
 10
185.11790441360569
 20
244.85901526391069
 30
0.0
  0
VERTEX
  5
8062
  8
0
 62
     1
 10
185.6875373866323
 20
244.9091313186735
 30
0.0
  0
VERTEX
  5
8063
  8
0
 62
     1
 10
186.2570085040679
 20
244.9587438688709
 30
0.0
  0
VERTEX
  5
8064
  8
0
 62
     1
 10
186.82651019334219
 20
245.00783847551631
 30
0.0
  0
VERTEX
  5
8065
  8
0
 62
     1
 10
187.39627917073301
 20
245.0564599828254
 30
0.0
  0
VERTEX
  5
8066
  8
0
 62
     1
 10
187.9655016042837
 20
245.10451806369679
 30
0.0
  0
VERTEX
  5
8067
  8
0
 62
     1
 10
188.53456218224429
 20
245.15207264000239
 30
0.0
  0
VERTEX
  5
8068
  8
0
 62
     1
 10
189.1036533042745
 20
245.1991240727302
 30
0.0
  0
VERTEX
  5
8069
  8
0
 62
     1
 10
189.67299688667919
 20
245.24571717832691
 30
0.0
  0
VERTEX
  5
806A
  8
0
 62
     1
 10
190.24192706947281
 20
245.29177670734839
 30
0.0
  0
VERTEX
  5
806B
  8
0
 62
     1
 10
190.81072502439241
 20
245.3373179873673
 30
0.0
  0
VERTEX
  5
806C
  8
0
 62
     1
 10
191.3795980343763
 20
245.38229700721789
 30
0.0
  0
VERTEX
  5
806D
  8
0
 62
     1
 10
191.94875335459869
 20
245.42668455570791
 30
0.0
  0
VERTEX
  5
806E
  8
0
 62
     1
 10
192.51694806492921
 20
245.47033030056031
 30
0.0
  0
VERTEX
  5
806F
  8
0
 62
     1
 10
193.0850257083473
 20
245.51326542451659
 30
0.0
  0
VERTEX
  5
8070
  8
0
 62
     1
 10
193.6532084233036
 20
245.55541634423221
 30
0.0
  0
VERTEX
  5
8071
  8
0
 62
     1
 10
194.22171832048019
 20
245.59672427633461
 30
0.0
  0
VERTEX
  5
8072
  8
0
 62
     1
 10
194.78653044563401
 20
245.6368412684441
 30
0.0
  0
VERTEX
  5
8073
  8
0
 62
     1
 10
195.3512556314212
 20
245.6759664956891
 30
0.0
  0
VERTEX
  5
8074
  8
0
 62
     1
 10
195.91610116078141
 20
245.7140559469041
 30
0.0
  0
VERTEX
  5
8075
  8
0
 62
     1
 10
196.4812447444753
 20
245.7510507554129
 30
0.0
  0
VERTEX
  5
8076
  8
0
 62
     1
 10
197.03788150873569
 20
245.7863424001128
 30
0.0
  0
VERTEX
  5
8077
  8
0
 62
     1
 10
197.5944169224116
 20
245.82043505254489
 30
0.0
  0
VERTEX
  5
8078
  8
0
 62
     1
 10
198.15107309618509
 20
245.8532699293379
 30
0.0
  0
VERTEX
  5
8079
  8
0
 62
     1
 10
198.70802771304929
 20
245.8848029637895
 30
0.0
  0
VERTEX
  5
807A
  8
0
 62
     1
 10
199.2502751822116
 20
245.91416240031779
 30
0.0
  0
VERTEX
  5
807B
  8
0
 62
     1
 10
199.7924216340098
 20
245.94214524489109
 30
0.0
  0
VERTEX
  5
807C
  8
0
 62
     1
 10
200.33467432361451
 20
245.96872228631671
 30
0.0
  0
VERTEX
  5
807D
  8
0
 62
     1
 10
200.87722578952989
 20
245.99381988571389
 30
0.0
  0
VERTEX
  5
807E
  8
0
 62
     1
 10
201.39869179103161
 20
246.01648031948969
 30
0.0
  0
VERTEX
  5
807F
  8
0
 62
     1
 10
201.92005694177891
 20
246.03767536146569
 30
0.0
  0
VERTEX
  5
8080
  8
0
 62
     1
 10
202.44152855248009
 20
246.05734620050359
 30
0.0
  0
VERTEX
  5
8081
  8
0
 62
     1
 10
202.96323987843701
 20
246.07546348656919
 30
0.0
  0
VERTEX
  5
8082
  8
0
 62
     1
 10
203.45865609361451
 20
246.09116343251631
 30
0.0
  0
VERTEX
  5
8083
  8
0
 62
     1
 10
203.95392705811469
 20
246.10539790335909
 30
0.0
  0
VERTEX
  5
8084
  8
0
 62
     1
 10
204.4492303716257
 20
246.1181672323176
 30
0.0
  0
VERTEX
  5
8085
  8
0
 62
     1
 10
204.9447140061184
 20
246.1294864970487
 30
0.0
  0
VERTEX
  5
8086
  8
0
 62
     1
 10
205.41107495729401
 20
246.1387975171842
 30
0.0
  0
VERTEX
  5
8087
  8
0
 62
     1
 10
205.8772607246257
 20
246.1468206063665
 30
0.0
  0
VERTEX
  5
8088
  8
0
 62
     1
 10
206.34344893556869
 20
246.1535412978412
 30
0.0
  0
VERTEX
  5
8089
  8
0
 62
     1
 10
206.80980236206801
 20
246.15897469703361
 30
0.0
  0
VERTEX
  5
808A
  8
0
 62
     1
 10
207.24663256183149
 20
246.1629023010004
 30
0.0
  0
VERTEX
  5
808B
  8
0
 62
     1
 10
207.68327252786131
 20
246.1656751460111
 30
0.0
  0
VERTEX
  5
808C
  8
0
 62
     1
 10
209.72677281773159
 20
246.19921866168309
 30
0.0
  0
VERTEX
  5
808D
  8
0
 62
     1
 10
209.7262382562777
 20
246.48412961217539
 30
0.0
 42
-0.0069714683093853
  0
SEQEND
  5
808E
  8
0
 62
     1
  0
ENDSEC
  0
EOF
