  0
SECTION
  2
HEADER
  9
$ACADVER
  1
AC1009
  9
$INSBASE
 10
0.0
 20
0.0
 30
0.0
  9
$EXTMIN
 10
-275.02526550116693
 20
13.444416161397379
 30
0.0
  9
$EXTMAX
 10
-38.841108834006491
 20
149.9182050843894
 30
0.0
  9
$LIMMIN
 10
0.0
 20
0.0
  9
$LIMMAX
 10
420.0
 20
297.0
  9
$ORTHOMODE
 70
     0
  9
$REGENMODE
 70
     1
  9
$FILLMODE
 70
     1
  9
$QTEXTMODE
 70
     0
  9
$MIRRTEXT
 70
     0
  9
$DRAGMODE
 70
     2
  9
$LTSCALE
 40
1.0
  9
$OSMODE
 70
    37
  9
$ATTMODE
 70
     1
  9
$TEXTSIZE
 40
2.5
  9
$TRACEWID
 40
1.0
  9
$TEXTSTYLE
  7
STANDARD
  9
$CLAYER
  8
0
  9
$CELTYPE
  6
BYLAYER
  9
$CECOLOR
 62
   256
  9
$DIMSCALE
 40
1.0
  9
$DIMASZ
 40
2.5
  9
$DIMEXO
 40
0.625
  9
$DIMDLI
 40
3.75
  9
$DIMRND
 40
0.0
  9
$DIMDLE
 40
0.0
  9
$DIMEXE
 40
1.25
  9
$DIMTP
 40
0.0
  9
$DIMTM
 40
0.0
  9
$DIMTXT
 40
2.5
  9
$DIMCEN
 40
2.5
  9
$DIMTSZ
 40
0.0
  9
$DIMTOL
 70
     0
  9
$DIMLIM
 70
     0
  9
$DIMTIH
 70
     0
  9
$DIMTOH
 70
     0
  9
$DIMSE1
 70
     0
  9
$DIMSE2
 70
     0
  9
$DIMTAD
 70
     1
  9
$DIMZIN
 70
     8
  9
$DIMBLK
  1

  9
$DIMASO
 70
     1
  9
$DIMSHO
 70
     1
  9
$DIMPOST
  1

  9
$DIMAPOST
  1

  9
$DIMALT
 70
     0
  9
$DIMALTD
 70
     3
  9
$DIMALTF
 40
0.03937007874016
  9
$DIMLFAC
 40
1.0
  9
$DIMTOFL
 70
     1
  9
$DIMTVP
 40
0.0
  9
$DIMTIX
 70
     0
  9
$DIMSOXD
 70
     0
  9
$DIMSAH
 70
     0
  9
$DIMBLK1
  1

  9
$DIMBLK2
  1

  9
$DIMSTYLE
  2
ISO-25
  9
$DIMCLRD
 70
     0
  9
$DIMCLRE
 70
     0
  9
$DIMCLRT
 70
     0
  9
$DIMTFAC
 40
1.0
  9
$DIMGAP
 40
0.625
  9
$LUNITS
 70
     2
  9
$LUPREC
 70
     4
  9
$SKETCHINC
 40
1.0
  9
$FILLETRAD
 40
0.0
  9
$AUNITS
 70
     0
  9
$AUPREC
 70
     0
  9
$MENU
  1
.
  9
$ELEVATION
 40
0.0
  9
$PELEVATION
 40
0.0
  9
$THICKNESS
 40
0.0
  9
$LIMCHECK
 70
     0
  9
$BLIPMODE
 70
     0
  9
$CHAMFERA
 40
0.0
  9
$CHAMFERB
 40
0.0
  9
$SKPOLY
 70
     0
  9
$TDCREATE
 40
2454542.0144182178
  9
$TDUPDATE
 40
2454542.0310006128
  9
$TDINDWG
 40
0.0165861921
  9
$TDUSRTIMER
 40
0.0165852894
  9
$USRTIMER
 70
     1
  9
$ANGBASE
 50
0.0
  9
$ANGDIR
 70
     0
  9
$PDMODE
 70
     0
  9
$PDSIZE
 40
0.0
  9
$PLINEWID
 40
0.0
  9
$COORDS
 70
     1
  9
$SPLFRAME
 70
     0
  9
$SPLINETYPE
 70
     6
  9
$SPLINESEGS
 70
     8
  9
$ATTDIA
 70
     0
  9
$ATTREQ
 70
     1
  9
$HANDLING
 70
     1
  9
$HANDSEED
  5
376
  9
$SURFTAB1
 70
     6
  9
$SURFTAB2
 70
     6
  9
$SURFTYPE
 70
     6
  9
$SURFU
 70
     6
  9
$SURFV
 70
     6
  9
$UCSNAME
  2

  9
$UCSORG
 10
0.0
 20
0.0
 30
0.0
  9
$UCSXDIR
 10
1.0
 20
0.0
 30
0.0
  9
$UCSYDIR
 10
0.0
 20
1.0
 30
0.0
  9
$PUCSNAME
  2

  9
$PUCSORG
 10
0.0
 20
0.0
 30
0.0
  9
$PUCSXDIR
 10
1.0
 20
0.0
 30
0.0
  9
$PUCSYDIR
 10
0.0
 20
1.0
 30
0.0
  9
$USERI1
 70
     0
  9
$USERI2
 70
     0
  9
$USERI3
 70
     0
  9
$USERI4
 70
     0
  9
$USERI5
 70
     0
  9
$USERR1
 40
0.0
  9
$USERR2
 40
0.0
  9
$USERR3
 40
0.0
  9
$USERR4
 40
0.0
  9
$USERR5
 40
0.0
  9
$WORLDVIEW
 70
     1
  9
$SHADEDGE
 70
     3
  9
$SHADEDIF
 70
    70
  9
$TILEMODE
 70
     1
  9
$MAXACTVP
 70
    64
  9
$PLIMCHECK
 70
     0
  9
$PEXTMIN
 10
0.0
 20
0.0
 30
0.0
  9
$PEXTMAX
 10
0.0
 20
0.0
 30
0.0
  9
$PLIMMIN
 10
0.0
 20
0.0
  9
$PLIMMAX
 10
12.0
 20
9.0
  9
$UNITMODE
 70
     0
  9
$VISRETAIN
 70
     1
  9
$PLINEGEN
 70
     0
  9
$PSLTSCALE
 70
     1
  0
ENDSEC
  0
SECTION
  2
TABLES
  0
TABLE
  2
VPORT
 70
     1
  0
VPORT
  2
*ACTIVE
 70
     0
 10
0.0
 20
0.0
 11
1.0
 21
1.0
 12
-248.50947979749299
 22
60.354583004704267
 13
0.0
 23
0.0
 14
10.0
 24
10.0
 15
10.0
 25
10.0
 16
0.0
 26
0.0
 36
1.0
 17
0.0
 27
0.0
 37
0.0
 40
45.578519114733517
 41
1.816513761467889
 42
50.0
 43
0.0
 44
0.0
 50
0.0
 51
0.0
 71
     0
 72
  1000
 73
     1
 74
     3
 75
     0
 76
     0
 77
     0
 78
     0
  0
ENDTAB
  0
TABLE
  2
LTYPE
 70
     2
  0
LTYPE
  2
CONTINUOUS
 70
     0
  3
Solid line
 72
    65
 73
     0
 40
0.0
  0
ENDTAB
  0
TABLE
  2
LAYER
 70
     2
  0
LAYER
  2
0
 70
     0
 62
     7
  6
CONTINUOUS
  0
LAYER
  2
QUOTE
 70
     0
 62
    -7
  6
CONTINUOUS
  0
ENDTAB
  0
TABLE
  2
STYLE
 70
     2
  0
STYLE
  2
STANDARD
 70
     0
 40
0.0
 41
1.0
 50
0.0
 71
     0
 42
2.5
  3
txt.shx
  4

  0
STYLE
  2
ANNOTATIVA
 70
     0
 40
0.0
 41
1.0
 50
0.0
 71
     0
 42
2.5
  3
txt.shx
  4

  0
ENDTAB
  0
TABLE
  2
VIEW
 70
     0
  0
ENDTAB
  0
TABLE
  2
UCS
 70
     0
  0
ENDTAB
  0
TABLE
  2
APPID
 70
     8
  0
APPID
  2
ACAD
 70
     0
  0
APPID
  2
ACAD_PSEXT
 70
     0
  0
APPID
  2
ACADANNOPO
 70
     0
  0
APPID
  2
ACADANNOTATIVE
 70
     0
  0
APPID
  2
ACAD_DSTYLE_DIMJAG
 70
     0
  0
APPID
  2
ACAD_DSTYLE_DIMTALN
 70
     0
  0
APPID
  2
ACAD_MLEADERVER
 70
     0
  0
APPID
  2
ACAD_EXEMPT_FROM_CAD_STANDARDS
 70
     0
  0
ENDTAB
  0
TABLE
  2
DIMSTYLE
 70
     3
  0
DIMSTYLE
  2
ISO-25
 70
     0
  3

  4

  5

  6

  7

 40
1.0
 41
2.5
 42
0.625
 43
3.75
 44
1.25
 45
0.0
 46
0.0
 47
0.0
 48
0.0
140
2.5
141
2.5
142
0.0
143
0.03937007874016
144
1.0
145
0.0
146
1.0
147
0.625
 71
     0
 72
     0
 73
     0
 74
     0
 75
     0
 76
     0
 77
     1
 78
     8
170
     0
171
     3
172
     1
173
     0
174
     0
175
     0
176
     0
177
     0
178
     0
  0
DIMSTYLE
  2
ANNOTATIVA
 70
     0
  3

  4

  5

  6

  7

 40
0.0
 41
2.5
 42
0.625
 43
3.75
 44
1.25
 45
0.0
 46
0.0
 47
0.0
 48
0.0
140
2.5
141
2.5
142
0.0
143
0.03937007874016
144
1.0
145
0.0
146
1.0
147
0.625
 71
     0
 72
     0
 73
     0
 74
     0
 75
     0
 76
     0
 77
     1
 78
     8
170
     0
171
     3
172
     1
173
     0
174
     0
175
     0
176
     0
177
     0
178
     0
  0
ENDTAB
  0
ENDSEC
  0
SECTION
  2
BLOCKS
  0
BLOCK
  8
0
  2
$MODEL_SPACE
 70
     0
 10
0.0
 20
0.0
 30
0.0
  3
$MODEL_SPACE
  1

  0
ENDBLK
  5
21
  8
0
  0
BLOCK
 67
     1
  8
0
  2
$PAPER_SPACE
 70
     0
 10
0.0
 20
0.0
 30
0.0
  3
$PAPER_SPACE
  1

  0
ENDBLK
  5
D5
 67
     1
  8
0
  0
ENDSEC
  0
SECTION
  2
ENTITIES
  0
LINE
  5
1FC
  8
0
 10
-242.91786379430869
 20
66.022334431006215
 30
0.0
 11
-237.85668485899521
 21
66.022334154974516
 31
0.0
  0
POLYLINE
  5
1FD
  8
0
 66
     1
 10
0.0
 20
0.0
 30
0.0
 70
     1
1001
ACAD
1000
ASC_BOUNDS
1002
{
1070
    19
1005
0
1002
}
  0
VERTEX
  5
335
  8
0
 10
-237.85668485899521
 20
66.022334154974516
 30
0.0
  0
VERTEX
  5
336
  8
0
 10
-235.56272713973379
 20
61.216508663121779
 30
0.0
 42
0.2340510082627011
  0
VERTEX
  5
337
  8
0
 10
-242.17480007853609
 20
61.169759000596549
 30
0.0
  0
VERTEX
  5
338
  8
0
 10
-242.17480007853609
 20
61.169759000596549
 30
0.0
  0
VERTEX
  5
339
  8
0
 10
-242.91286108567641
 20
66.022334430733352
 30
0.0
  0
SEQEND
  5
33A
  8
0
  0
POLYLINE
  5
1FF
  8
0
 66
     1
 10
0.0
 20
0.0
 30
0.0
 70
     1
1001
ACAD
1000
ASC_BOUNDS
1002
{
1070
    19
1005
0
1002
}
  0
VERTEX
  5
33B
  8
0
 10
-246.0141685592327
 20
40.245843804079847
 30
0.0
 42
0.3294037756908554
  0
VERTEX
  5
33C
  8
0
 10
-240.1846592796982
 20
43.352116107062628
 30
0.0
  0
VERTEX
  5
33D
  8
0
 10
-232.89777185508771
 20
58.639842122365927
 30
0.0
  0
VERTEX
  5
33E
  8
0
 10
-240.18465761214301
 20
73.927568932508464
 30
0.0
 42
0.3294037756908554
  0
VERTEX
  5
33F
  8
0
 10
-246.01416655285149
 20
77.033841871362611
 30
0.0
  0
VERTEX
  5
340
  8
0
 10
-243.2267084577683
 20
58.639842685695953
 30
0.0
  0
VERTEX
  5
341
  8
0
 10
-243.2267084577683
 20
58.639842685695953
 30
0.0
  0
VERTEX
  5
342
  8
0
 10
-243.2267084577683
 20
58.639842685695953
 30
0.0
  0
SEQEND
  5
343
  8
0
  0
POLYLINE
  5
203
  8
0
 66
     1
 10
0.0
 20
0.0
 30
0.0
 70
     1
1001
ACAD
1000
ASC_BOUNDS
1002
{
1070
    19
1005
0
1002
}
  0
VERTEX
  5
344
  8
0
 10
-243.0884401812082
 20
67.17672518811014
 30
0.0
  0
VERTEX
  5
345
  8
0
 10
-244.28371826089949
 20
75.035394031982861
 30
0.0
 42
-0.3294037756908554
  0
VERTEX
  5
346
  8
0
 10
-241.42725887995229
 20
73.513320291944339
 30
0.0
  0
VERTEX
  5
347
  8
0
 10
-238.40502887045039
 20
67.17672518811014
 30
0.0
  0
SEQEND
  5
348
  8
0
  0
POLYLINE
  5
205
  8
0
 66
     1
 10
0.0
 20
0.0
 30
0.0
 70
     1
1001
ACAD
1000
ASC_BOUNDS
1002
{
1070
    19
1005
0
1002
}
  0
VERTEX
  5
349
  8
0
 10
-238.40502980163669
 20
50.102959657342502
 30
0.0
  0
VERTEX
  5
34A
  8
0
 10
-243.08844111239449
 20
50.102960168199758
 30
0.0
  0
VERTEX
  5
34B
  8
0
 10
-244.28372004929389
 20
42.244291454705682
 30
0.0
 42
0.3294037756908554
  0
VERTEX
  5
34C
  8
0
 10
-241.42726050232201
 20
43.766364883167242
 30
0.0
  0
SEQEND
  5
34D
  8
0
  0
LINE
  5
209
  8
0
 10
-242.9178645995764
 20
51.257350906697539
 30
0.0
 11
-237.8566856642629
 21
51.257350630665862
 31
0.0
1001
ACAD
1000
ASC_BOUNDS
1002
{
1070
    19
1005
0
1002
}
  0
POLYLINE
  5
2D4
  8
0
 66
     1
 10
0.0
 20
0.0
 30
0.0
 70
     1
1001
ACAD
1000
ASC_BOUNDS
1002
{
1070
    19
1005
0
1002
}
  0
VERTEX
  5
351
  8
0
 10
-275.02526550116647
 20
84.749292440133956
 30
0.0
 42
-0.3091892643255028
  0
VERTEX
  5
352
  8
0
 10
-255.97489791312091
 20
73.065593154545027
 30
0.0
  0
VERTEX
  5
353
  8
0
 10
-271.38216742746982
 20
41.428563343263498
 30
0.0
 42
-0.2865320098551836
  0
VERTEX
  5
354
  8
0
 10
-275.02526550116693
 20
39.304254382248281
 30
0.0
  0
VERTEX
  5
355
  8
0
 10
-268.9787345135087
 20
73.065593154545056
 30
0.0
  0
VERTEX
  5
356
  8
0
 10
-268.9787345135087
 20
73.065593154545056
 30
0.0
  0
SEQEND
  5
357
  8
0
  0
POLYLINE
  5
2DA
  8
0
 66
     1
 10
0.0
 20
0.0
 30
0.0
 70
     1
1001
ACAD
1000
ASC_BOUNDS
1002
{
1070
    19
1005
0
1002
}
  0
VERTEX
  5
358
  8
0
 10
-271.38863300068562
 20
50.020786221766713
 30
0.0
  0
VERTEX
  5
359
  8
0
 10
-269.61971109546857
 20
58.942308369370792
 30
0.0
 42
-0.3800353043410026
  0
VERTEX
  5
35A
  8
0
 10
-268.55407937654189
 20
59.864530325373302
 30
0.0
  0
VERTEX
  5
35B
  8
0
 10
-266.07597453551642
 20
59.864530325373302
 30
0.0
 42
-0.5664383381898949
  0
VERTEX
  5
35C
  8
0
 10
-264.93078957277271
 20
58.340250582303241
 30
0.0
  0
VERTEX
  5
35D
  8
0
 10
-269.27425231061568
 20
49.400245254691939
 30
0.0
 42
-0.8540477990874922
  0
SEQEND
  5
35E
  8
0
  0
POLYLINE
  5
2E0
  8
0
 66
     1
 10
0.0
 20
0.0
 30
0.0
 70
     1
1001
ACAD
1000
ASC_BOUNDS
1002
{
1070
    19
1005
0
1002
}
  0
VERTEX
  5
35F
  8
0
 10
-261.57559438827337
 20
65.3600192928875
 30
0.0
 42
-0.1688574877437242
  0
VERTEX
  5
360
  8
0
 10
-265.14763598079298
 20
70.495661051352641
 30
0.0
  0
VERTEX
  5
361
  8
0
 10
-267.26036706622563
 20
70.495661051352641
 30
0.0
  0
VERTEX
  5
362
  8
0
 10
-268.76697042019612
 20
63.251781895249692
 30
0.0
 42
0.5317006354695752
  0
VERTEX
  5
363
  8
0
 10
-267.75941155455757
 20
61.685366577672859
 30
0.0
  0
VERTEX
  5
364
  8
0
 10
-264.00002089937863
 20
61.685366577672859
 30
0.0
 42
0.2992759422431728
  0
VERTEX
  5
365
  8
0
 10
-262.9595902980962
 20
62.387952984975819
 30
0.0
  0
SEQEND
  5
366
  8
0
  0
POLYLINE
  5
2E7
  8
0
 66
     1
 10
0.0
 20
0.0
 30
0.0
 70
     1
1001
ACAD
1000
ASC_BOUNDS
1002
{
1070
    19
1005
0
1005
0
1002
}
  0
VERTEX
  5
367
  8
0
 10
-260.10101407702331
 20
68.526611354520014
 30
0.0
  0
VERTEX
  5
368
  8
0
 10
-257.98735590281922
 20
73.065593154545098
 30
0.0
 42
0.0684221110815191
  0
VERTEX
  5
369
  8
0
 10
-260.61764143047128
 20
77.074599227998078
 30
0.0
 42
0.4067620097519347
  0
SEQEND
  5
36A
  8
0
  0
POLYLINE
  5
2EA
  8
0
 66
     1
 10
0.0
 20
0.0
 30
0.0
 70
     1
1001
ACAD
1000
ASC_BOUNDS
1002
{
1070
    19
1005
0
1002
}
  0
VERTEX
  5
36B
  8
0
 10
-271.69032259085162
 20
82.968966803184117
 30
0.0
  0
VERTEX
  5
36C
  8
0
 10
-267.26036706622563
 20
75.635525257737541
 30
0.0
  0
VERTEX
  5
36D
  8
0
 10
-265.14763619415868
 20
75.635525257737541
 30
0.0
 42
-0.1142494596923406
  0
VERTEX
  5
36E
  8
0
 10
-263.08486538329112
 20
79.405312653718696
 30
0.0
 42
0.1346931604176938
  0
SEQEND
  5
36F
  8
0
  0
POLYLINE
  5
2EF
  8
0
 66
     1
 10
0.0
 20
0.0
 30
0.0
 70
     1
1001
ACAD
1000
ASC_BOUNDS
1002
{
1070
    19
1005
0
1002
}
  0
VERTEX
  5
370
  8
0
 10
-235.5627274207913
 20
56.063175872298203
 30
0.0
  0
VERTEX
  5
371
  8
0
 10
-237.8566856642629
 20
51.257350630665862
 30
0.0
  0
VERTEX
  5
372
  8
0
 10
-242.9128618909441
 20
51.257350906424712
 30
0.0
  0
VERTEX
  5
373
  8
0
 10
-242.17480035449429
 20
56.10992625605526
 30
0.0
  0
VERTEX
  5
374
  8
0
 10
-242.17480035449441
 20
56.10992625605526
 30
0.0
 42
0.2340510082627
  0
SEQEND
  5
375
  8
0
  0
ENDSEC
  0
EOF
