  0
SECTION
  2
HEADER
  9
$ACADVER
  1
AC1018
  9
$ACADMAINTVER
 70
   104
  9
$DWGCODEPAGE
  3
ANSI_1252
  9
$LASTSAVEDBY
  1
Alessandro
  9
$INSBASE
 10
0.0
 20
0.0
 30
0.0
  9
$EXTMIN
 10
-2087.25
 20
-2069.0
 30
0.0
  9
$EXTMAX
 10
3.71362444743363
 20
199.2500517934932
 30
0.0
  9
$LIMMIN
 10
0.0
 20
0.0
  9
$LIMMAX
 10
12.0
 20
9.0
  9
$ORTHOMODE
 70
     0
  9
$REGENMODE
 70
     1
  9
$FILLMODE
 70
     1
  9
$QTEXTMODE
 70
     0
  9
$MIRRTEXT
 70
     1
  9
$LTSCALE
 40
1.0
  9
$ATTMODE
 70
     1
  9
$TEXTSIZE
 40
2.5
  9
$TRACEWID
 40
0.05
  9
$TEXTSTYLE
  7
Standard
  9
$CLAYER
  8
Text
  9
$CELTYPE
  6
BYBLOCK
  9
$CECOLOR
 62
     0
  9
$CELTSCALE
 40
1.0
  9
$DISPSILH
 70
     0
  9
$DIMSCALE
 40
1.0
  9
$DIMASZ
 40
0.18
  9
$DIMEXO
 40
0.0625
  9
$DIMDLI
 40
0.38
  9
$DIMRND
 40
0.0
  9
$DIMDLE
 40
0.0
  9
$DIMEXE
 40
0.18
  9
$DIMTP
 40
0.0
  9
$DIMTM
 40
0.0
  9
$DIMTXT
 40
0.18
  9
$DIMCEN
 40
0.09
  9
$DIMTSZ
 40
0.0
  9
$DIMTOL
 70
     0
  9
$DIMLIM
 70
     0
  9
$DIMTIH
 70
     1
  9
$DIMTOH
 70
     1
  9
$DIMSE1
 70
     0
  9
$DIMSE2
 70
     0
  9
$DIMTAD
 70
     0
  9
$DIMZIN
 70
     0
  9
$DIMBLK
  1

  9
$DIMASO
 70
     1
  9
$DIMSHO
 70
     1
  9
$DIMPOST
  1

  9
$DIMAPOST
  1

  9
$DIMALT
 70
     0
  9
$DIMALTD
 70
     2
  9
$DIMALTF
 40
25.4
  9
$DIMLFAC
 40
1.0
  9
$DIMTOFL
 70
     0
  9
$DIMTVP
 40
0.0
  9
$DIMTIX
 70
     0
  9
$DIMSOXD
 70
     0
  9
$DIMSAH
 70
     0
  9
$DIMBLK1
  1

  9
$DIMBLK2
  1

  9
$DIMSTYLE
  2
Standard
  9
$DIMCLRD
 70
     0
  9
$DIMCLRE
 70
     0
  9
$DIMCLRT
 70
     0
  9
$DIMTFAC
 40
1.0
  9
$DIMGAP
 40
0.09
  9
$DIMJUST
 70
     0
  9
$DIMSD1
 70
     0
  9
$DIMSD2
 70
     0
  9
$DIMTOLJ
 70
     1
  9
$DIMTZIN
 70
     0
  9
$DIMALTZ
 70
     0
  9
$DIMALTTZ
 70
     0
  9
$DIMUPT
 70
     0
  9
$DIMDEC
 70
     4
  9
$DIMTDEC
 70
     4
  9
$DIMALTU
 70
     2
  9
$DIMALTTD
 70
     2
  9
$DIMTXSTY
  7
Standard
  9
$DIMAUNIT
 70
     0
  9
$DIMADEC
 70
     0
  9
$DIMALTRND
 40
0.0
  9
$DIMAZIN
 70
     0
  9
$DIMDSEP
 70
    46
  9
$DIMATFIT
 70
     3
  9
$DIMFRAC
 70
     0
  9
$DIMLDRBLK
  1

  9
$DIMLUNIT
 70
     2
  9
$DIMLWD
 70
    -2
  9
$DIMLWE
 70
    -2
  9
$DIMTMOVE
 70
     0
  9
$LUNITS
 70
     2
  9
$LUPREC
 70
     1
  9
$SKETCHINC
 40
0.1
  9
$FILLETRAD
 40
0.5
  9
$AUNITS
 70
     0
  9
$AUPREC
 70
     0
  9
$MENU
  1
.
  9
$ELEVATION
 40
0.0
  9
$PELEVATION
 40
0.0
  9
$THICKNESS
 40
0.0
  9
$LIMCHECK
 70
     0
  9
$CHAMFERA
 40
0.5
  9
$CHAMFERB
 40
0.5
  9
$CHAMFERC
 40
1.0
  9
$CHAMFERD
 40
0.0
  9
$SKPOLY
 70
     0
  9
$TDCREATE
 40
2456104.814538299
  9
$TDUCREATE
 40
2456104.731204965
  9
$TDUPDATE
 40
2456106.744452940
  9
$TDUUPDATE
 40
2456106.661119607
  9
$TDINDWG
 40
0.2314784028
  9
$TDUSRTIMER
 40
0.2314784028
  9
$USRTIMER
 70
     1
  9
$ANGBASE
 50
0.0
  9
$ANGDIR
 70
     0
  9
$PDMODE
 70
     0
  9
$PDSIZE
 40
0.0
  9
$PLINEWID
 40
0.0
  9
$SPLFRAME
 70
     0
  9
$SPLINETYPE
 70
     6
  9
$SPLINESEGS
 70
     8
  9
$HANDSEED
  5
10750
  9
$SURFTAB1
 70
     6
  9
$SURFTAB2
 70
     6
  9
$SURFTYPE
 70
     6
  9
$SURFU
 70
     6
  9
$SURFV
 70
     6
  9
$UCSBASE
  2

  9
$UCSNAME
  2

  9
$UCSORG
 10
0.0
 20
0.0
 30
0.0
  9
$UCSXDIR
 10
1.0
 20
0.0
 30
0.0
  9
$UCSYDIR
 10
0.0
 20
1.0
 30
0.0
  9
$UCSORTHOREF
  2

  9
$UCSORTHOVIEW
 70
     0
  9
$UCSORGTOP
 10
0.0
 20
0.0
 30
0.0
  9
$UCSORGBOTTOM
 10
0.0
 20
0.0
 30
0.0
  9
$UCSORGLEFT
 10
0.0
 20
0.0
 30
0.0
  9
$UCSORGRIGHT
 10
0.0
 20
0.0
 30
0.0
  9
$UCSORGFRONT
 10
0.0
 20
0.0
 30
0.0
  9
$UCSORGBACK
 10
0.0
 20
0.0
 30
0.0
  9
$PUCSBASE
  2

  9
$PUCSNAME
  2

  9
$PUCSORG
 10
0.0
 20
0.0
 30
0.0
  9
$PUCSXDIR
 10
1.0
 20
0.0
 30
0.0
  9
$PUCSYDIR
 10
0.0
 20
1.0
 30
0.0
  9
$PUCSORTHOREF
  2

  9
$PUCSORTHOVIEW
 70
     0
  9
$PUCSORGTOP
 10
0.0
 20
0.0
 30
0.0
  9
$PUCSORGBOTTOM
 10
0.0
 20
0.0
 30
0.0
  9
$PUCSORGLEFT
 10
0.0
 20
0.0
 30
0.0
  9
$PUCSORGRIGHT
 10
0.0
 20
0.0
 30
0.0
  9
$PUCSORGFRONT
 10
0.0
 20
0.0
 30
0.0
  9
$PUCSORGBACK
 10
0.0
 20
0.0
 30
0.0
  9
$USERI1
 70
     0
  9
$USERI2
 70
     0
  9
$USERI3
 70
     0
  9
$USERI4
 70
     0
  9
$USERI5
 70
     0
  9
$USERR1
 40
0.0
  9
$USERR2
 40
0.0
  9
$USERR3
 40
0.0
  9
$USERR4
 40
0.0
  9
$USERR5
 40
0.0
  9
$WORLDVIEW
 70
     1
  9
$SHADEDGE
 70
     3
  9
$SHADEDIF
 70
    70
  9
$TILEMODE
 70
     1
  9
$MAXACTVP
 70
    64
  9
$PINSBASE
 10
0.0
 20
0.0
 30
0.0
  9
$PLIMCHECK
 70
     0
  9
$PEXTMIN
 10
1.000000000000000E+20
 20
1.000000000000000E+20
 30
1.000000000000000E+20
  9
$PEXTMAX
 10
-1.000000000000000E+20
 20
-1.000000000000000E+20
 30
-1.000000000000000E+20
  9
$PLIMMIN
 10
0.0
 20
0.0
  9
$PLIMMAX
 10
12.0
 20
9.0
  9
$UNITMODE
 70
     0
  9
$VISRETAIN
 70
     1
  9
$PLINEGEN
 70
     0
  9
$PSLTSCALE
 70
     1
  9
$TREEDEPTH
 70
  3020
  9
$CMLSTYLE
  2
Standard
  9
$CMLJUST
 70
     0
  9
$CMLSCALE
 40
1.0
  9
$PROXYGRAPHICS
 70
     1
  9
$MEASUREMENT
 70
     0
  9
$CELWEIGHT
370
    -1
  9
$ENDCAPS
280
     0
  9
$JOINSTYLE
280
     0
  9
$LWDISPLAY
290
     0
  9
$INSUNITS
 70
     4
  9
$HYPERLINKBASE
  1

  9
$STYLESHEET
  1

  9
$XEDIT
290
     1
  9
$CEPSNTYPE
380
     0
  9
$PSTYLEMODE
290
     1
  9
$FINGERPRINTGUID
  2
{D9BFE02B-5603-4580-A587-7E3966894CCE}
  9
$VERSIONGUID
  2
{93E02268-21D8-495C-AA43-85288FDFFF4D}
  9
$EXTNAMES
290
     1
  9
$PSVPSCALE
 40
0.0
  9
$OLESTARTUP
290
     0
  9
$SORTENTS
280
   127
  9
$INDEXCTL
280
     0
  9
$HIDETEXT
280
     1
  9
$XCLIPFRAME
290
     0
  9
$HALOGAP
280
     0
  9
$OBSCOLOR
 70
   257
  9
$OBSLTYPE
280
     0
  9
$INTERSECTIONDISPLAY
280
     0
  9
$INTERSECTIONCOLOR
 70
   257
  9
$DIMASSOC
280
     1
  9
$PROJECTNAME
  1

  0
ENDSEC
  0
SECTION
  2
CLASSES
  0
CLASS
  1
ACDBDICTIONARYWDFLT
  2
AcDbDictionaryWithDefault
  3
ObjectDBX Classes
 90
        0
 91
        1
280
     0
281
     0
  0
CLASS
  1
DICTIONARYVAR
  2
AcDbDictionaryVar
  3
ObjectDBX Classes
 90
        0
 91
        7
280
     0
281
     0
  0
CLASS
  1
SCALE
  2
AcDbScale
  3
ObjectDBX Classes
 90
     1153
 91
       33
280
     0
281
     0
  0
CLASS
  1
MATERIAL
  2
AcDbMaterial
  3
ObjectDBX Classes
 90
     1153
 91
        3
280
     0
281
     0
  0
CLASS
  1
VISUALSTYLE
  2
AcDbVisualStyle
  3
ObjectDBX Classes
 90
     4095
 91
       16
280
     0
281
     0
  0
CLASS
  1
TABLESTYLE
  2
AcDbTableStyle
  3
ObjectDBX Classes
 90
     4095
 91
        1
280
     0
281
     0
  0
CLASS
  1
MLEADERSTYLE
  2
AcDbMLeaderStyle
  3
ACDB_MLEADERSTYLE_CLASS
 90
     4095
 91
        1
280
     0
281
     0
  0
CLASS
  1
CELLSTYLEMAP
  2
AcDbCellStyleMap
  3
ObjectDBX Classes
 90
     1152
 91
        5
280
     0
281
     0
  0
CLASS
  1
SORTENTSTABLE
  2
AcDbSortentsTable
  3
ObjectDBX Classes
 90
        0
 91
        1
280
     0
281
     0
  0
ENDSEC
  0
SECTION
  2
TABLES
  0
TABLE
  2
VPORT
  5
8
330
0
100
AcDbSymbolTable
 70
     1
  0
VPORT
  5
30
330
8
100
AcDbSymbolTableRecord
100
AcDbViewportTableRecord
  2
*Active
 70
     0
 10
0.0
 20
0.0
 11
1.0
 21
1.0
 12
-976.3621250252672
 22
-1025.792319595652
 13
0.0
 23
0.0
 14
0.5
 24
0.5
 15
10.0
 25
10.0
 16
0.0
 26
0.0
 36
1.0
 17
0.0
 27
0.0
 37
0.0
 40
3800.367579030438
 41
1.789077212806026
 42
50.0
 43
0.0
 44
0.0
 50
0.0
 51
0.0
 71
     0
 72
   100
 73
     1
 74
     3
 75
     0
 76
     0
 77
     0
 78
     0
281
     0
 65
     1
110
0.0
120
0.0
130
0.0
111
1.0
121
0.0
131
0.0
112
0.0
122
1.0
132
0.0
 79
     0
146
0.0
  0
ENDTAB
  0
TABLE
  2
LTYPE
  5
5
330
0
100
AcDbSymbolTable
 70
    24
  0
LTYPE
  5
14
330
5
100
AcDbSymbolTableRecord
100
AcDbLinetypeTableRecord
  2
BYBLOCK
 70
     0
  3

 72
    65
 73
     0
 40
0.0
  0
LTYPE
  5
15
330
5
100
AcDbSymbolTableRecord
100
AcDbLinetypeTableRecord
  2
BYLAYER
 70
     0
  3

 72
    65
 73
     0
 40
0.0
  0
LTYPE
  5
16
330
5
100
AcDbSymbolTableRecord
100
AcDbLinetypeTableRecord
  2
CONTINUOUS
 70
     0
  3
Solid line
 72
    65
 73
     0
 40
0.0
  0
LTYPE
  5
31
330
5
100
AcDbSymbolTableRecord
100
AcDbLinetypeTableRecord
  2
ACAD_ISO02W100
 70
     0
  3
ISO Dashed __ __ __ __ __ __ __ __ __ __ _
 72
    65
 73
     2
 40
15.0
 49
12.0
 74
     0
 49
-3.0
 74
     0
  0
LTYPE
  5
32
330
5
100
AcDbSymbolTableRecord
100
AcDbLinetypeTableRecord
  2
ACAD_ISO03W100
 70
     0
  3
ISO Dashed with Distance __    __    __    _
 72
    65
 73
     2
 40
30.0
 49
12.0
 74
     0
 49
-18.0
 74
     0
  0
LTYPE
  5
33
330
5
100
AcDbSymbolTableRecord
100
AcDbLinetypeTableRecord
  2
ACAD_ISO04W100
 70
     0
  3
ISO Long Dashed Dotted ____ . ____ . __
 72
    65
 73
     4
 40
30.0
 49
24.0
 74
     0
 49
-3.0
 74
     0
 49
0.0
 74
     0
 49
-3.0
 74
     0
  0
LTYPE
  5
34
330
5
100
AcDbSymbolTableRecord
100
AcDbLinetypeTableRecord
  2
ACAD_ISO05W100
 70
     0
  3
ISO Long Dashed Double Dotted ____ .. __
 72
    65
 73
     6
 40
33.0
 49
24.0
 74
     0
 49
-3.0
 74
     0
 49
0.0
 74
     0
 49
-3.0
 74
     0
 49
0.0
 74
     0
 49
-3.0
 74
     0
  0
LTYPE
  5
35
330
5
100
AcDbSymbolTableRecord
100
AcDbLinetypeTableRecord
  2
BORDER
 70
     0
  3
Border __ __ . __ __ . __ __ . __ __ . __ __ .
 72
    65
 73
     6
 40
44.45
 49
12.7
 74
     0
 49
-6.349999999999999
 74
     0
 49
12.7
 74
     0
 49
-6.349999999999999
 74
     0
 49
0.0
 74
     0
 49
-6.349999999999999
 74
     0
  0
LTYPE
  5
36
330
5
100
AcDbSymbolTableRecord
100
AcDbLinetypeTableRecord
  2
BORDER2
 70
     0
  3
Border (.5x) __.__.__.__.__.__.__.__.__.__.__.
 72
    65
 73
     6
 40
22.225
 49
6.349999999999999
 74
     0
 49
-3.174999999999999
 74
     0
 49
6.349999999999999
 74
     0
 49
-3.174999999999999
 74
     0
 49
0.0
 74
     0
 49
-3.174999999999999
 74
     0
  0
LTYPE
  5
37
330
5
100
AcDbSymbolTableRecord
100
AcDbLinetypeTableRecord
  2
BORDERX2
 70
     0
  3
Border (2x) ____  ____  .  ____  ____  .  ___
 72
    65
 73
     6
 40
88.9
 49
25.4
 74
     0
 49
-12.7
 74
     0
 49
25.4
 74
     0
 49
-12.7
 74
     0
 49
0.0
 74
     0
 49
-12.7
 74
     0
  0
LTYPE
  5
38
330
5
100
AcDbSymbolTableRecord
100
AcDbLinetypeTableRecord
  2
CENTER
 70
     0
  3
Center ____ _ ____ _ ____ _ ____ _ ____ _ ____
 72
    65
 73
     4
 40
50.8
 49
31.75
 74
     0
 49
-6.349999999999999
 74
     0
 49
6.349999999999999
 74
     0
 49
-6.349999999999999
 74
     0
  0
LTYPE
  5
39
330
5
100
AcDbSymbolTableRecord
100
AcDbLinetypeTableRecord
  2
CENTER2
 70
     0
  3
Center (.5x) ___ _ ___ _ ___ _ ___ _ ___ _ ___
 72
    65
 73
     4
 40
28.575
 49
19.05
 74
     0
 49
-3.174999999999999
 74
     0
 49
3.174999999999999
 74
     0
 49
-3.174999999999999
 74
     0
  0
LTYPE
  5
3A
330
5
100
AcDbSymbolTableRecord
100
AcDbLinetypeTableRecord
  2
CENTERX2
 70
     0
  3
Center (2x) ________  __  ________  __  _____
 72
    65
 73
     4
 40
101.6
 49
63.5
 74
     0
 49
-12.7
 74
     0
 49
12.7
 74
     0
 49
-12.7
 74
     0
  0
LTYPE
  5
3B
330
5
100
AcDbSymbolTableRecord
100
AcDbLinetypeTableRecord
  2
DASHDOT
 70
     0
  3
Dash dot __ . __ . __ . __ . __ . __ . __ . __
 72
    65
 73
     4
 40
25.4
 49
12.7
 74
     0
 49
-6.349999999999999
 74
     0
 49
0.0
 74
     0
 49
-6.349999999999999
 74
     0
  0
LTYPE
  5
3C
330
5
100
AcDbSymbolTableRecord
100
AcDbLinetypeTableRecord
  2
DASHDOT2
 70
     0
  3
Dash dot (.5x) _._._._._._._._._._._._._._._.
 72
    65
 73
     4
 40
12.7
 49
6.349999999999999
 74
     0
 49
-3.174999999999999
 74
     0
 49
0.0
 74
     0
 49
-3.174999999999999
 74
     0
  0
LTYPE
  5
3D
330
5
100
AcDbSymbolTableRecord
100
AcDbLinetypeTableRecord
  2
DASHDOTX2
 70
     0
  3
Dash dot (2x) ____  .  ____  .  ____  .  ___
 72
    65
 73
     4
 40
50.8
 49
25.4
 74
     0
 49
-12.7
 74
     0
 49
0.0
 74
     0
 49
-12.7
 74
     0
  0
LTYPE
  5
3E
330
5
100
AcDbSymbolTableRecord
100
AcDbLinetypeTableRecord
  2
DASHED
 70
     0
  3
Dashed __ __ __ __ __ __ __ __ __ __ __ __ __ _
 72
    65
 73
     2
 40
19.05
 49
12.7
 74
     0
 49
-6.349999999999999
 74
     0
  0
LTYPE
  5
3F
330
5
100
AcDbSymbolTableRecord
100
AcDbLinetypeTableRecord
  2
DASHED2
 70
     0
  3
Dashed (.5x) _ _ _ _ _ _ _ _ _ _ _ _ _ _ _ _ _
 72
    65
 73
     2
 40
9.525
 49
6.349999999999999
 74
     0
 49
-3.174999999999999
 74
     0
  0
LTYPE
  5
40
330
5
100
AcDbSymbolTableRecord
100
AcDbLinetypeTableRecord
  2
DASHEDX2
 70
     0
  3
Dashed (2x) ____  ____  ____  ____  ____  ___
 72
    65
 73
     2
 40
38.1
 49
25.4
 74
     0
 49
-12.7
 74
     0
  0
LTYPE
  5
41
330
5
100
AcDbSymbolTableRecord
100
AcDbLinetypeTableRecord
  2
DIVIDE
 70
     0
  3
Divide ____ . . ____ . . ____ . . ____ . . ____
 72
    65
 73
     6
 40
31.75
 49
12.7
 74
     0
 49
-6.349999999999999
 74
     0
 49
0.0
 74
     0
 49
-6.349999999999999
 74
     0
 49
0.0
 74
     0
 49
-6.349999999999999
 74
     0
  0
LTYPE
  5
42
330
5
100
AcDbSymbolTableRecord
100
AcDbLinetypeTableRecord
  2
DIVIDE2
 70
     0
  3
Divide (.5x) __..__..__..__..__..__..__..__.._
 72
    65
 73
     6
 40
15.875
 49
6.349999999999999
 74
     0
 49
-3.174999999999999
 74
     0
 49
0.0
 74
     0
 49
-3.174999999999999
 74
     0
 49
0.0
 74
     0
 49
-3.174999999999999
 74
     0
  0
LTYPE
  5
43
330
5
100
AcDbSymbolTableRecord
100
AcDbLinetypeTableRecord
  2
DIVIDEX2
 70
     0
  3
Divide (2x) ________  .  .  ________  .  .  _
 72
    65
 73
     6
 40
63.5
 49
25.4
 74
     0
 49
-12.7
 74
     0
 49
0.0
 74
     0
 49
-12.7
 74
     0
 49
0.0
 74
     0
 49
-12.7
 74
     0
  0
LTYPE
  5
44
330
5
100
AcDbSymbolTableRecord
100
AcDbLinetypeTableRecord
  2
DOT
 70
     0
  3
Dot . . . . . . . . . . . . . . . . . . . . . .
 72
    65
 73
     2
 40
6.349999999999999
 49
0.0
 74
     0
 49
-6.349999999999999
 74
     0
  0
LTYPE
  5
45
330
5
100
AcDbSymbolTableRecord
100
AcDbLinetypeTableRecord
  2
DOT2
 70
     0
  3
Dot (.5x) .....................................
 72
    65
 73
     2
 40
3.174999999999999
 49
0.0
 74
     0
 49
-3.174999999999999
 74
     0
  0
LTYPE
  5
46
330
5
100
AcDbSymbolTableRecord
100
AcDbLinetypeTableRecord
  2
DOTX2
 70
     0
  3
Dot (2x) .  .  .  .  .  .  .  .  .  .  .  .  .
 72
    65
 73
     2
 40
12.7
 49
0.0
 74
     0
 49
-12.7
 74
     0
  0
ENDTAB
  0
TABLE
  2
LAYER
  5
2
102
{ACAD_XDICTIONARY
360
1045E
102
}
330
0
100
AcDbSymbolTable
 70
    10
  0
LAYER
  5
10
102
{ACAD_XDICTIONARY
360
10065
102
}
330
2
100
AcDbSymbolTableRecord
100
AcDbLayerTableRecord
  2
0
 70
     0
 62
   250
  6
CONTINUOUS
370
   100
390
F
  0
LAYER
  5
47
102
{ACAD_XDICTIONARY
360
10067
102
}
330
2
100
AcDbSymbolTableRecord
100
AcDbLayerTableRecord
  2
H
 70
     0
 62
     7
  6
CONTINUOUS
370
   100
390
F
  0
LAYER
  5
48
102
{ACAD_XDICTIONARY
360
10069
102
}
330
2
100
AcDbSymbolTableRecord
100
AcDbLayerTableRecord
  2
P
 70
     0
 62
   250
  6
CONTINUOUS
370
   100
390
F
  0
LAYER
  5
49
102
{ACAD_XDICTIONARY
360
1006B
102
}
330
2
100
AcDbSymbolTableRecord
100
AcDbLayerTableRecord
  2
Text
 70
     0
 62
     7
  6
CONTINUOUS
370
   100
390
F
  0
LAYER
  5
4A
102
{ACAD_XDICTIONARY
360
1006D
102
}
330
2
100
AcDbSymbolTableRecord
100
AcDbLayerTableRecord
  2
Images
 70
     0
 62
   250
  6
CONTINUOUS
370
   100
390
F
  0
LAYER
  5
10057
330
2
100
AcDbSymbolTableRecord
100
AcDbLayerTableRecord
  2
Defpoints
 70
     0
 62
     7
  6
CONTINUOUS
290
     0
370
    -3
390
F
  0
LAYER
  5
10308
330
2
100
AcDbSymbolTableRecord
100
AcDbLayerTableRecord
  2
LAYER01
 70
     0
 62
     7
  6
CONTINUOUS
370
    -3
390
F
  0
LAYER
  5
10309
330
2
100
AcDbSymbolTableRecord
100
AcDbLayerTableRecord
  2
7
 70
     0
 62
     7
  6
CONTINUOUS
370
    -3
390
F
  0
LAYER
  5
1045C
330
2
100
AcDbSymbolTableRecord
100
AcDbLayerTableRecord
  2
ala
 70
     0
 62
     7
  6
CONTINUOUS
290
     0
370
    -3
390
F
1001
AcAecLayerStandard
1000

1000

  0
LAYER
  5
1071F
330
2
100
AcDbSymbolTableRecord
100
AcDbLayerTableRecord
  2
tratteggio
 70
     0
 62
     7
  6
CONTINUOUS
290
     0
370
    -3
390
F
1001
AcAecLayerStandard
1000

1000

  0
ENDTAB
  0
TABLE
  2
STYLE
  5
3
330
0
100
AcDbSymbolTable
 70
     1
  0
STYLE
  5
11
330
3
100
AcDbSymbolTableRecord
100
AcDbTextStyleTableRecord
  2
Standard
 70
     0
 40
0.0
 41
0.75
 50
0.0
 71
     0
 42
2.5
  3
txt
  4

  0
ENDTAB
  0
TABLE
  2
VIEW
  5
6
330
0
100
AcDbSymbolTable
 70
     0
  0
ENDTAB
  0
TABLE
  2
UCS
  5
7
330
0
100
AcDbSymbolTable
 70
     0
  0
ENDTAB
  0
TABLE
  2
APPID
  5
9
330
0
100
AcDbSymbolTable
 70
     4
  0
APPID
  5
12
330
9
100
AcDbSymbolTableRecord
100
AcDbRegAppTableRecord
  2
ACAD
 70
     0
  0
APPID
  5
10052
330
9
100
AcDbSymbolTableRecord
100
AcDbRegAppTableRecord
  2
ACAD_MLEADERVER
 70
     0
  0
APPID
  5
1009C
330
9
100
AcDbSymbolTableRecord
100
AcDbRegAppTableRecord
  2
ACAD_EXEMPT_FROM_CAD_STANDARDS
 70
     0
  0
APPID
  5
1045D
330
9
100
AcDbSymbolTableRecord
100
AcDbRegAppTableRecord
  2
AcAecLayerStandard
 70
     0
  0
ENDTAB
  0
TABLE
  2
DIMSTYLE
  5
A
330
0
100
AcDbSymbolTable
 70
     2
100
AcDbDimStyleTable
 71
     1
340
27
  0
DIMSTYLE
105
27
330
A
100
AcDbSymbolTableRecord
100
AcDbDimStyleTableRecord
  2
Standard
 70
     0
 41
1.0
 42
1.0
 43
3.75
 44
1.0
 73
     0
 74
     0
 77
     1
 78
     8
140
1.0
141
2.5
143
0.03937007874016
147
1.0
171
     3
172
     1
271
     2
272
     2
274
     3
278
    44
283
     0
284
     8
340
11
  0
ENDTAB
  0
TABLE
  2
BLOCK_RECORD
  5
1
330
0
100
AcDbSymbolTable
 70
    19
  0
BLOCK_RECORD
  5
1F
102
{ACAD_XDICTIONARY
360
100BD
102
}
330
1
100
AcDbSymbolTableRecord
100
AcDbBlockTableRecord
  2
*Model_Space
340
22
  0
BLOCK_RECORD
  5
1B
330
1
100
AcDbSymbolTableRecord
100
AcDbBlockTableRecord
  2
*Paper_Space
340
1E
  0
BLOCK_RECORD
  5
23
330
1
100
AcDbSymbolTableRecord
100
AcDbBlockTableRecord
  2
*Paper_Space0
340
26
  0
ENDTAB
  0
ENDSEC
  0
SECTION
  2
BLOCKS
  0
BLOCK
  5
20
330
1F
100
AcDbEntity
  8
0
100
AcDbBlockBegin
  2
*Model_Space
 70
     0
 10
0.0
 20
0.0
 30
0.0
  3
*Model_Space
  1

  0
ENDBLK
  5
21
330
1F
100
AcDbEntity
  8
0
100
AcDbBlockEnd
  0
BLOCK
  5
1C
330
1B
100
AcDbEntity
 67
     1
  8
0
100
AcDbBlockBegin
  2
*Paper_Space
 70
     0
 10
0.0
 20
0.0
 30
0.0
  3
*Paper_Space
  1

  0
ENDBLK
  5
1D
330
1B
100
AcDbEntity
 67
     1
  8
0
100
AcDbBlockEnd
  0
BLOCK
  5
24
330
23
100
AcDbEntity
 67
     1
  8
0
100
AcDbBlockBegin
  2
*Paper_Space0
 70
     0
 10
0.0
 20
0.0
 30
0.0
  3
*Paper_Space0
  1

  0
ENDBLK
  5
25
330
23
100
AcDbEntity
 67
     1
  8
0
100
AcDbBlockEnd
  0
ENDSEC
  0
SECTION
  2
ENTITIES
  0
LWPOLYLINE
  5
C2
330
1F
100
AcDbEntity
  8
P
  6
Continuous
 62
     0
100
AcDbPolyline
 90
        2
 70
     0
 43
0.0
 10
-1387.5
 20
-1126.0
 10
-1403.5
 20
-1086.0
  0
LWPOLYLINE
  5
C3
330
1F
100
AcDbEntity
  8
P
  6
Continuous
 62
     0
100
AcDbPolyline
 90
        2
 70
     0
 43
0.0
 10
-1536.5
 20
-1156.0
 10
-1536.5
 20
-1086.0
  0
LWPOLYLINE
  5
C7
330
1F
100
AcDbEntity
  8
P
  6
Continuous
 62
     0
100
AcDbPolyline
 90
        2
 70
     0
 43
0.0
 10
-1383.0
 20
-1096.5
 10
-1383.0
 20
-1120.0
  0
LWPOLYLINE
  5
C9
330
1F
100
AcDbEntity
  8
P
  6
Continuous
 62
     0
100
AcDbPolyline
 90
        2
 70
     0
 43
0.0
 10
-1423.0
 20
-1591.0
 10
-1423.0
 20
-1734.5
  0
LWPOLYLINE
  5
CA
330
1F
100
AcDbEntity
  8
P
  6
Continuous
 62
     0
100
AcDbPolyline
 90
       11
 70
     0
 43
0.0
 10
-1442.0
 20
-1857.0
 10
-1440.0
 20
-1865.5
 10
-1437.0
 20
-1874.5
 10
-1432.5
 20
-1882.0
 10
-1427.0
 20
-1890.0
 10
-1421.0
 20
-1896.5
 10
-1414.0
 20
-1902.0
 10
-1406.0
 20
-1906.5
 10
-1397.5
 20
-1910.5
 10
-1388.5
 20
-1912.5
 10
-1379.5
 20
-1914.0
  0
LWPOLYLINE
  5
CB
330
1F
100
AcDbEntity
  8
P
  6
Continuous
 62
     0
100
AcDbPolyline
 90
       11
 70
     0
 43
0.0
 10
-1451.0
 20
-1734.5
 10
-1447.5
 20
-1743.5
 10
-1442.0
 20
-1752.0
 10
-1436.0
 20
-1760.0
 10
-1429.0
 20
-1767.0
 10
-1421.5
 20
-1773.0
 10
-1412.5
 20
-1778.0
 10
-1403.5
 20
-1781.5
 10
-1394.0
 20
-1784.5
 10
-1384.0
 20
-1785.5
 10
-1379.0
 20
-1785.5
  0
LWPOLYLINE
  5
CC
330
1F
100
AcDbEntity
  8
P
  6
Continuous
 62
     0
100
AcDbPolyline
 90
       11
 70
     0
 43
0.0
 10
-1452.5
 20
-1734.5
 10
-1450.0
 20
-1744.0
 10
-1445.5
 20
-1753.0
 10
-1440.0
 20
-1761.5
 10
-1433.0
 20
-1769.0
 10
-1425.5
 20
-1775.5
 10
-1417.5
 20
-1781.5
 10
-1408.5
 20
-1786.0
 10
-1399.0
 20
-1789.0
 10
-1389.0
 20
-1791.0
 10
-1379.0
 20
-1792.0
  0
LWPOLYLINE
  5
CD
330
1F
100
AcDbEntity
  8
P
  6
Continuous
 62
     0
100
AcDbPolyline
 90
        2
 70
     0
 43
0.0
 10
-1423.0
 20
-1734.5
 10
-1385.619047619047
 20
-1785.338095238095
  0
LWPOLYLINE
  5
CE
330
1F
100
AcDbEntity
  8
P
  6
Continuous
 62
     0
100
AcDbPolyline
 90
        2
 70
     0
 43
0.0
 10
-1421.631067961165
 20
-1734.5
 10
-1384.0
 20
-1785.5
  0
LWPOLYLINE
  5
CF
330
1F
100
AcDbEntity
  8
P
  6
Continuous
 62
     0
100
AcDbPolyline
 90
        3
 70
     0
 43
0.0
 10
-1452.5
 20
-1734.5
 10
-1452.5
 20
-1792.0
 10
-1442.0
 20
-1857.0
  0
LWPOLYLINE
  5
D4
330
1F
100
AcDbEntity
  8
P
  6
Continuous
 62
     0
100
AcDbPolyline
 90
        7
 70
     0
 43
0.0
 10
-1448.5
 20
-1591.0
 10
-1448.5
 20
-1586.0
 10
-1437.0
 20
-1487.5
 10
-1423.5
 20
-1388.5
 10
-1408.5
 20
-1282.0
 10
-1397.5
 20
-1208.0
 10
-1397.0
 20
-1205.5
  0
LWPOLYLINE
  5
D7
330
1F
100
AcDbEntity
  8
P
  6
Continuous
 62
     0
100
AcDbPolyline
 90
        2
 70
     0
 43
0.0
 10
-1536.5
 20
-1205.5
 10
-1536.5
 20
-1155.0
  0
LWPOLYLINE
  5
DA
330
1F
100
AcDbEntity
  8
P
  6
Continuous
 62
     0
100
AcDbPolyline
 90
        4
 70
     0
 43
0.0
 10
-1382.5
 20
-1345.5
 10
-1381.5
 20
-1347.0
 10
-1380.5
 20
-1348.5
 10
-1379.0
 20
-1348.5
  0
LWPOLYLINE
  5
DD
330
1F
100
AcDbEntity
  8
P
  6
Continuous
 62
     0
100
AcDbPolyline
 90
        2
 70
     0
 43
0.0
 10
-1387.5
 20
-1143.0
 10
-1387.5
 20
-1140.0
  0
LWPOLYLINE
  5
DE
330
1F
100
AcDbEntity
  8
P
  6
Continuous
 62
     0
100
AcDbPolyline
 90
        3
 70
     0
 43
0.0
 10
-1392.0
 20
-1143.5
 10
-1393.0
 20
-1144.0
 10
-1393.5
 20
-1144.5
  0
LWPOLYLINE
  5
DF
330
1F
100
AcDbEntity
  8
P
  6
Continuous
 62
     0
100
AcDbPolyline
 90
        3
 70
     0
 43
0.0
 10
-1392.0
 20
-1143.5
 10
-1393.0
 20
-1144.0
 10
-1393.5
 20
-1144.5
  0
LWPOLYLINE
  5
E0
330
1F
100
AcDbEntity
  8
P
  6
Continuous
 62
     0
100
AcDbPolyline
 90
        3
 70
     0
 43
0.0
 10
-1388.0
 20
-1143.5
 10
-1388.0
 20
-1143.0
 10
-1387.5
 20
-1143.0
  0
LWPOLYLINE
  5
E1
330
1F
100
AcDbEntity
  8
P
  6
Continuous
 62
     0
100
AcDbPolyline
 90
        2
 70
     0
 43
0.0
 10
-1392.0
 20
-1143.5
 10
-1388.0
 20
-1143.5
  0
LWPOLYLINE
  5
E6
330
1F
100
AcDbEntity
  8
P
  6
Continuous
 62
     0
100
AcDbPolyline
 90
        4
 70
     0
 43
0.0
 10
-1383.0
 20
-1120.0
 10
-1383.0
 20
-1122.0
 10
-1381.0
 20
-1123.5
 10
-1379.0
 20
-1124.0
  0
LWPOLYLINE
  5
E8
330
1F
100
AcDbEntity
  8
P
  6
Continuous
 62
     0
100
AcDbPolyline
 90
        2
 70
     0
 43
0.0
 10
-1387.5
 20
-1139.0
 10
-1387.5
 20
-1140.0
  0
LWPOLYLINE
  5
EE
330
1F
100
AcDbEntity
  8
P
  6
Continuous
 62
     0
100
AcDbPolyline
 90
        3
 70
     0
 43
0.0
 10
-1427.25
 20
-649.333333333333
 10
-2087.25
 20
-649.3333333333329
 10
-2046.75
 20
-688.8333333333329
  0
LWPOLYLINE
  5
F0
330
1F
100
AcDbEntity
  8
P
  6
Continuous
 62
     0
100
AcDbPolyline
 90
        2
 70
     0
 43
0.0
 10
-1536.5
 20
-1086.0
 10
-1403.5
 20
-1086.0
  0
LWPOLYLINE
  5
F2
330
1F
100
AcDbEntity
  8
P
  6
Continuous
 62
     0
100
AcDbPolyline
 90
        3
 70
     0
 43
0.0
 10
-1379.0
 20
-1049.5
 10
-1383.0
 20
-1096.5
 10
-1379.0
 20
-1096.5
  0
LWPOLYLINE
  5
F4
330
1F
100
AcDbEntity
  8
P
  6
Continuous
 62
     0
100
AcDbPolyline
 90
        2
 70
     0
 43
0.0
 10
-1393.25
 20
-875.8333333333331
 10
-1393.25
 20
-912.833333333333
  0
LWPOLYLINE
  5
F5
330
1F
100
AcDbEntity
  8
P
  6
Continuous
 62
     0
100
AcDbPolyline
 90
        2
 70
     0
 43
0.0
 10
-1394.25
 20
-875.8333333333331
 10
-1394.25
 20
-912.833333333333
  0
LWPOLYLINE
  5
FA
330
1F
100
AcDbEntity
  8
P
  6
Continuous
 62
     0
100
AcDbPolyline
 90
        4
 70
     0
 43
0.0
 10
-1390.25
 20
-872.8333333333329
 10
-1391.75
 20
-872.8333333333329
 10
-1392.75
 20
-874.333333333333
 10
-1393.25
 20
-875.8333333333331
  0
LWPOLYLINE
  5
FB
330
1F
100
AcDbEntity
  8
P
  6
Continuous
 62
     0
100
AcDbPolyline
 90
        4
 70
     0
 43
0.0
 10
-1390.25
 20
-871.833333333333
 10
-1392.249999999999
 20
-872.333333333333
 10
-1393.75
 20
-873.8333333333329
 10
-1394.25
 20
-875.8333333333331
  0
LWPOLYLINE
  5
103
330
1F
100
AcDbEntity
  8
P
  6
Continuous
 62
     0
100
AcDbPolyline
 90
        5
 70
     0
 43
0.0
 10
-1388.625
 20
-818.2083333333331
 10
-1394.25
 20
-818.833333333333
 10
-1402.75
 20
-820.833333333333
 10
-1410.75
 20
-823.8333333333329
 10
-1418.75
 20
-827.833333333333
  0
LWPOLYLINE
  5
104
330
1F
100
AcDbEntity
  8
P
  6
Continuous
 62
     0
100
AcDbPolyline
 90
        8
 70
     0
 43
0.0
 10
-1435.75
 20
-793.333333333333
 10
-1429.75
 20
-800.8333333333331
 10
-1422.75
 20
-807.333333333333
 10
-1414.25
 20
-812.3333333333331
 10
-1405.25
 20
-815.8333333333329
 10
-1395.75
 20
-817.8333333333331
 10
-1386.249999999999
 20
-818.333333333333
 10
-1379.0
 20
-817.608333333333
  0
LWPOLYLINE
  5
107
330
1F
100
AcDbEntity
  8
P
  6
Continuous
 62
     0
100
AcDbPolyline
 90
        2
 70
     0
 43
0.0
 10
-1437.75
 20
-674.833333333333
 10
-1385.75
 20
-728.833333333333
  0
LWPOLYLINE
  5
108
330
1F
100
AcDbEntity
  8
P
  6
Continuous
 62
     0
100
AcDbPolyline
 90
        2
 70
     0
 43
0.0
 10
-1436.75
 20
-673.333333333333
 10
-1383.75
 20
-728.833333333333
  0
LWPOLYLINE
  5
10A
330
1F
100
AcDbEntity
  8
P
  6
Continuous
 62
     0
100
AcDbPolyline
 90
        2
 70
     0
 43
0.0
 10
-1441.75
 20
-750.833333333333
 10
-1453.25
 20
-710.833333333333
  0
LWPOLYLINE
  5
10B
330
1F
100
AcDbEntity
  8
P
  6
Continuous
 62
     0
100
AcDbPolyline
 90
        2
 70
     0
 43
0.0
 10
-1460.25
 20
-806.8333333333329
 10
-1460.25
 20
-852.3333333333329
  0
LWPOLYLINE
  5
10C
330
1F
100
AcDbEntity
  8
P
  6
Continuous
 62
     0
100
AcDbPolyline
 90
        2
 70
     0
 43
0.0
 10
-1441.75
 20
-750.833333333333
 10
-1441.75
 20
-785.833333333333
  0
LWPOLYLINE
  5
10D
330
1F
100
AcDbEntity
  8
P
  6
Continuous
 62
     0
100
AcDbPolyline
 90
        3
 70
     0
 43
0.0
 10
-1441.75
 20
-802.833333333333
 10
-1460.25
 20
-852.3333333333329
 10
-1418.75
 20
-827.833333333333
  0
LWPOLYLINE
  5
10E
330
1F
100
AcDbEntity
  8
P
  6
Continuous
 62
     0
100
AcDbPolyline
 90
        2
 70
     0
 43
0.0
 10
-1441.75
 20
-750.833333333333
 10
-1460.25
 20
-761.333333333333
  0
LWPOLYLINE
  5
10F
330
1F
100
AcDbEntity
  8
P
  6
Continuous
 62
     0
100
AcDbPolyline
 90
        8
 70
     0
 43
0.0
 10
-1459.25
 20
-689.333333333333
 10
-1452.25
 20
-686.333333333333
 10
-1445.75
 20
-682.333333333333
 10
-1440.25
 20
-677.333333333333
 10
-1435.25
 20
-670.833333333333
 10
-1431.25
 20
-664.333333333333
 10
-1428.75
 20
-657.333333333333
 10
-1427.25
 20
-649.333333333333
  0
LWPOLYLINE
  5
11D
330
1F
100
AcDbEntity
  8
P
  6
Continuous
 62
     0
100
AcDbPolyline
 90
        2
 70
     0
 43
0.0
 10
-541.160775552566
 20
-1251.606539611762
 10
-387.7583755525663
 20
-1252.516939611762
  0
LWPOLYLINE
  5
120
330
1F
100
AcDbEntity
  8
P
  6
Continuous
 62
     0
100
AcDbPolyline
 90
        2
 70
     0
 43
0.0
 10
-807.9079755525663
 20
-1109.584139611762
 10
-710.495175552566
 20
-1224.294539611762
  0
LWPOLYLINE
  5
125
330
1F
100
AcDbEntity
  8
P
  6
Continuous
 62
     0
100
AcDbPolyline
 90
        2
 70
     0
 43
0.0
 10
-882.5607755525664
 20
-1111.860139611762
 10
-883.0159755525665
 20
-1268.448939611762
  0
LWPOLYLINE
  5
129
330
1F
100
AcDbEntity
  8
P
  6
Continuous
 62
     0
100
AcDbPolyline
 90
        2
 70
     0
 43
0.0
 10
-830.667975552566
 20
-1110.039339611762
 10
-807.9079755525663
 20
-1109.584139611762
  0
LWPOLYLINE
  5
12A
330
1F
100
AcDbEntity
  8
P
  6
Continuous
 62
     0
100
AcDbPolyline
 90
        2
 70
     0
 43
0.0
 10
-710.495175552566
 20
-1224.294539611762
 10
-583.9455511051325
 20
-1251.864279223524
  0
LWPOLYLINE
  5
12C
330
1F
100
AcDbEntity
  8
P
  6
Continuous
 62
     0
100
AcDbPolyline
 90
        2
 70
     0
 43
0.0
 10
-767.8503755525662
 20
-1252.972139611762
 10
-541.160775552566
 20
-1251.606539611762
  0
LWPOLYLINE
  5
138
330
1F
100
AcDbEntity
  8
P
  6
Continuous
 62
     0
100
AcDbPolyline
 90
        2
 70
     0
 43
0.0
 10
-92.78877555256622
 20
-1425.492939611762
 10
-104.1687755525663
 20
-1385.435339611762
  0
LWPOLYLINE
  5
139
330
1F
100
AcDbEntity
  8
P
  6
Continuous
 62
     0
100
AcDbPolyline
 90
        2
 70
     0
 43
0.0
 10
-99.61677555256621
 20
-1427.313739611762
 10
-111.4519755525664
 20
-1386.345739611762
  0
LWPOLYLINE
  5
13B
330
1F
100
AcDbEntity
  8
P
  6
Continuous
 62
     0
100
AcDbPolyline
 90
        2
 70
     0
 43
0.0
 10
-283.5175755525663
 20
-1405.008939611762
 10
-283.5175755525663
 20
-1426.858539611762
  0
LWPOLYLINE
  5
13C
330
1F
100
AcDbEntity
  8
P
  6
Continuous
 62
     0
100
AcDbPolyline
 90
        2
 70
     0
 43
0.0
 10
-275.3239755525663
 20
-1376.786539611762
 10
-245.7359755525663
 20
-1386.345739611762
  0
LWPOLYLINE
  5
13D
330
1F
100
AcDbEntity
  8
P
  6
Continuous
 62
     0
100
AcDbPolyline
 90
        2
 70
     0
 43
0.0
 10
-290.3455755525663
 20
-1400.001739611762
 10
-251.1983755525664
 20
-1260.710539611762
  0
LWPOLYLINE
  5
13E
330
1F
100
AcDbEntity
  8
P
  6
Continuous
 62
     0
100
AcDbPolyline
 90
        2
 70
     0
 43
0.0
 10
-283.5175755525663
 20
-1405.008939611762
 10
-242.5495755525663
 20
-1260.255339611762
  0
LWPOLYLINE
  5
13F
330
1F
100
AcDbEntity
  8
P
  6
Continuous
 62
     0
100
AcDbPolyline
 90
        2
 70
     0
 43
0.0
 10
-325.0256490341075
 20
-1266.533797041263
 10
-252.5639755525663
 20
-1265.262539611762
  0
LWPOLYLINE
  5
141
330
1F
100
AcDbEntity
  8
P
  6
Continuous
 62
     0
100
AcDbPolyline
 90
        2
 70
     0
 43
0.0
 10
-213.8719755525662
 20
-1324.893739611762
 10
-260.7575755525663
 20
-1323.983339611762
  0
LWPOLYLINE
  5
142
330
1F
100
AcDbEntity
  8
P
  6
Continuous
 62
     0
100
AcDbPolyline
 90
        2
 70
     0
 43
0.0
 10
-283.5175755525663
 20
-1409.105739611762
 10
-113.2727755525664
 20
-1386.800939611762
  0
LWPOLYLINE
  5
146
330
1F
100
AcDbEntity
  8
P
  6
Continuous
 62
     0
100
AcDbPolyline
 90
        2
 70
     0
 43
0.0
 10
-297.6287755525664
 20
-1420.485739611762
 10
-283.5175755525663
 20
-1420.485739611762
  0
LWPOLYLINE
  5
147
330
1F
100
AcDbEntity
  8
P
  6
Continuous
 62
     0
100
AcDbPolyline
 90
        2
 70
     0
 43
0.0
 10
-297.6287755525664
 20
-1423.216939611762
 10
-283.5175755525663
 20
-1423.216939611762
  0
LWPOLYLINE
  5
148
330
1F
100
AcDbEntity
  8
P
  6
Continuous
 62
     0
100
AcDbPolyline
 90
        2
 70
     0
 43
0.0
 10
-297.8488774547571
 20
-1369.676330697204
 10
-283.5175755525663
 20
-1374.055339611762
  0
LWPOLYLINE
  5
149
330
1F
100
AcDbEntity
  8
P
  6
Continuous
 62
     0
100
AcDbPolyline
 90
        3
 70
     0
 43
0.0
 10
-298.5391755525666
 20
-1405.008939611762
 10
-283.5175755525663
 20
-1405.008939611762
 10
-283.5175755525663
 20
-1409.105739611762
  0
LWPOLYLINE
  5
14A
330
1F
100
AcDbEntity
  8
P
  6
Continuous
 62
     0
100
AcDbPolyline
 90
        2
 70
     0
 43
0.0
 10
-269.4063755525663
 20
-1323.983339611762
 10
-310.0046842291971
 20
-1323.542053647886
  0
LWPOLYLINE
  5
14E
330
1F
100
AcDbEntity
  8
P
  6
Continuous
 62
     0
100
AcDbPolyline
 90
        2
 70
     0
 43
0.0
 10
-146.5023755525662
 20
-1298.036939611762
 10
-200.6711755525662
 20
-1254.337739611762
  0
LWPOLYLINE
  5
14F
330
1F
100
AcDbEntity
  8
P
  6
Continuous
 62
     0
100
AcDbPolyline
 90
        2
 70
     0
 43
0.0
 10
-230.7143755525662
 20
-1259.800139611762
 10
-205.2231755525663
 20
-1320.341739611762
  0
LWPOLYLINE
  5
150
330
1F
100
AcDbEntity
  8
P
  6
Continuous
 62
     0
100
AcDbPolyline
 90
        2
 70
     0
 43
0.0
 10
-137.3983755525662
 20
-1301.678539611762
 10
-197.4847755525663
 20
-1253.427339611762
  0
LWPOLYLINE
  5
151
330
1F
100
AcDbEntity
  8
P
  6
Continuous
 62
     0
100
AcDbPolyline
 90
        2
 70
     0
 43
0.0
 10
-230.7143755525662
 20
-1265.262539611762
 10
-207.4991755525664
 20
-1320.341739611762
  0
LWPOLYLINE
  5
152
330
1F
100
AcDbEntity
  8
P
  6
Continuous
 62
     0
100
AcDbPolyline
 90
        2
 70
     0
 43
0.0
 10
-227.0727755525663
 20
-1278.008139611762
 10
-208.8647755525662
 20
-1320.796939611762
  0
LWPOLYLINE
  5
153
330
1F
100
AcDbEntity
  8
P
  6
Continuous
 62
     0
100
AcDbPolyline
 90
        2
 70
     0
 43
0.0
 10
-206.1335755525663
 20
-1317.610539611762
 10
-143.3159755525662
 20
-1298.036939611762
  0
LWPOLYLINE
  5
154
330
1F
100
AcDbEntity
  8
P
  6
Continuous
 62
     0
100
AcDbPolyline
 90
        2
 70
     0
 43
0.0
 10
-137.3983755525662
 20
-1301.678539611762
 10
-205.2231755525663
 20
-1320.341739611762
  0
LWPOLYLINE
  5
155
330
1F
100
AcDbEntity
  8
P
  6
Continuous
 62
     0
100
AcDbPolyline
 90
        2
 70
     0
 43
0.0
 10
-192.4775755525663
 20
-1349.929739611762
 10
-187.4703755525663
 20
-1362.220139611762
  0
LWPOLYLINE
  5
157
330
1F
100
AcDbEntity
  8
P
  6
Continuous
 62
     0
100
AcDbPolyline
 90
        3
 70
     0
 43
0.0
 10
-201.5815755525664
 20
-1380.883339611762
 10
-207.4991755525664
 20
-1382.248939611762
 10
-238.4527755525662
 20
-1386.800939611762
  0
LWPOLYLINE
  5
158
330
1F
100
AcDbEntity
  8
P
  6
Continuous
 62
     0
100
AcDbPolyline
 90
        3
 70
     0
 43
0.0
 10
-245.7359755525663
 20
-1386.345739611762
 10
-242.0943755525664
 20
-1386.800939611762
 10
-238.4527755525662
 20
-1386.800939611762
  0
LWPOLYLINE
  5
15C
330
1F
100
AcDbEntity
  8
P
  6
Continuous
 62
     0
100
AcDbPolyline
 90
        2
 70
     0
 43
0.0
 10
-205.2231755525663
 20
-1320.341739611762
 10
-192.4775755525663
 20
-1349.929739611762
  0
LWPOLYLINE
  5
15E
330
1F
100
AcDbEntity
  8
P
  6
Continuous
 62
     0
100
AcDbPolyline
 90
        2
 70
     0
 43
0.0
 10
-113.2727755525664
 20
-1386.800939611762
 10
-137.3983755525662
 20
-1301.678539611762
  0
LWPOLYLINE
  5
15F
330
1F
100
AcDbEntity
  8
P
  6
Continuous
 62
     0
100
AcDbPolyline
 90
        2
 70
     0
 43
0.0
 10
-233.9007755525663
 20
-1259.800139611762
 10
-231.6247755525662
 20
-1265.262539611762
  0
LWPOLYLINE
  5
162
330
1F
100
AcDbEntity
  8
P
  6
Continuous
 62
     0
100
AcDbPolyline
 90
        2
 70
     0
 43
0.0
 10
-243.9151755525663
 20
-1265.262539611762
 10
-230.7143755525662
 20
-1265.262539611762
  0
LWPOLYLINE
  5
16E
330
1F
100
AcDbEntity
  8
P
  6
Continuous
 62
     0
100
AcDbPolyline
 90
        7
 70
     0
 43
0.0
 10
-2081.0
 20
-1711.0
 10
-2080.0
 20
-1717.0
 10
-2077.5
 20
-1722.5
 10
-2073.5
 20
-1727.0
 10
-2069.0
 20
-1731.0
 10
-2064.0
 20
-1733.5
 10
-2058.0
 20
-1734.5
  0
LWPOLYLINE
  5
171
330
1F
100
AcDbEntity
  8
P
  6
Continuous
 62
     0
100
AcDbPolyline
 90
        7
 70
     0
 43
0.0
 10
-305.8223755525662
 20
-1465.095339611762
 10
-303.0911755525663
 20
-1467.826539611762
 10
-299.4495755525663
 20
-1470.102539611762
 10
-295.3527755525663
 20
-1471.012939611762
 10
-291.2559755525663
 20
-1470.557739611762
 10
-286.7039755525663
 20
-1469.192139611762
 10
-283.5175755525663
 20
-1466.916139611762
  0
LWPOLYLINE
  5
172
330
1F
100
AcDbEntity
  8
P
  6
Continuous
 62
     0
100
AcDbPolyline
 90
        4
 70
     0
 43
0.0
 10
-297.6287755525664
 20
-1426.858539611762
 10
-297.6287755525664
 20
-1425.492939611762
 10
-283.5175755525663
 20
-1425.492939611762
 10
-283.5175755525663
 20
-1429.134539611762
  0
LWPOLYLINE
  5
173
330
1F
100
AcDbEntity
  8
P
  6
Continuous
 62
     0
100
AcDbPolyline
 90
        2
 70
     0
 43
0.0
 10
-88.23677555256631
 20
-1431.410539611762
 10
-88.23677555256631
 20
-1429.134539611762
  0
LWPOLYLINE
  5
174
330
1F
100
AcDbEntity
  8
P
  6
Continuous
 62
     0
100
AcDbPolyline
 90
        4
 70
     0
 43
0.0
 10
-102.3479755525663
 20
-1431.865739611762
 10
-103.2583755525663
 20
-1428.224139611762
 10
-89.6023755525664
 20
-1424.582539611762
 10
-88.23677555256631
 20
-1429.134539611762
  0
LWPOLYLINE
  5
177
330
1F
100
AcDbEntity
  8
P
  6
Continuous
 62
     0
100
AcDbPolyline
 90
        3
 70
     0
 43
0.0
 10
-213.8719755525662
 20
-1324.893739611762
 10
-208.8647755525662
 20
-1320.796939611762
 10
-205.2231755525663
 20
-1320.341739611762
  0
LWPOLYLINE
  5
178
330
1F
100
AcDbEntity
  8
P
  6
Continuous
 62
     0
100
AcDbPolyline
 90
        2
 70
     0
 43
0.0
 10
-4.479975552566202
 20
-1337.639339611762
 10
-7.211175552566373
 20
-1329.445739611762
  0
LWPOLYLINE
  5
179
330
1F
100
AcDbEntity
  8
P
  6
Continuous
 62
     0
100
AcDbPolyline
 90
        2
 70
     0
 43
0.0
 10
-9.031975552566336
 20
-1328.990539611762
 10
-11.3079755525664
 20
-1433.686539611762
  0
LWPOLYLINE
  5
17A
330
1F
100
AcDbEntity
  8
P
  6
Continuous
 62
     0
100
AcDbPolyline
 90
        2
 70
     0
 43
0.0
 10
-10.8527755525663
 20
-1433.686539611762
 10
-4.479975552566202
 20
-1337.639339611762
  0
LWPOLYLINE
  5
17B
330
1F
100
AcDbEntity
  8
P
  6
Continuous
 62
     0
100
AcDbPolyline
 90
        4
 70
     0
 43
0.0
 10
-11.3079755525664
 20
-1433.686539611762
 10
-11.3079755525664
 20
-1433.686539611762
 10
-10.8527755525663
 20
-1433.686539611762
 10
-10.8527755525663
 20
-1433.686539611762
  0
LWPOLYLINE
  5
17C
330
1F
100
AcDbEntity
  8
P
  6
Continuous
 62
     0
100
AcDbPolyline
 90
        2
 70
     0
 43
0.0
 10
-4.024775552566325
 20
-1329.445739611762
 10
-15.40477555256621
 20
-1328.990539611762
  0
LWPOLYLINE
  5
17D
330
1F
100
AcDbEntity
  8
P
  6
Continuous
 62
     0
100
AcDbPolyline
 90
        2
 70
     0
 43
0.0
 10
-15.40477555256621
 20
-1311.692939611762
 10
-3.56957555256622
 20
-1312.148139611762
  0
LWPOLYLINE
  5
17E
330
1F
100
AcDbEntity
  8
P
  6
Continuous
 62
     0
100
AcDbPolyline
 90
        9
 70
     0
 43
0.0
 10
-4.024775552566325
 20
-1329.445739611762
 10
-1.29357555256638
 20
-1328.535339611762
 10
1.43762444743379
 20
-1326.259339611762
 10
3.258424447433753
 20
-1323.528139611762
 10
3.71362444743363
 20
-1320.796939611762
 10
3.258424447433753
 20
-1317.610539611762
 10
1.892824447433667
 20
-1314.879339611762
 10
-0.8383755525662763
 20
-1313.058539611762
 10
-3.56957555256622
 20
-1312.148139611762
  0
LWPOLYLINE
  5
17F
330
1F
100
AcDbEntity
  8
P
  6
Continuous
 62
     0
100
AcDbPolyline
 90
        2
 70
     0
 43
0.0
 10
-15.40477555256621
 20
-1311.692939611762
 10
-15.40477555256621
 20
-1328.990539611762
  0
LWPOLYLINE
  5
180
330
1F
100
AcDbEntity
  8
P
  6
Continuous
 62
     0
100
AcDbPolyline
 90
        2
 70
     0
 43
0.0
 10
-15.40477555256621
 20
-1313.968939611762
 10
-19.04637555256636
 20
-1313.968939611762
  0
LWPOLYLINE
  5
187
330
1F
100
AcDbEntity
  8
P
  6
Continuous
 62
     0
100
AcDbPolyline
 90
        3
 70
     0
 43
0.0
 10
-1394.25
 20
-768.833333333333
 10
-1385.75
 20
-770.333333333333
 10
-1379.0
 20
-769.9780701754384
  0
LWPOLYLINE
  5
18A
330
1F
100
AcDbEntity
  8
P
  6
Continuous
 62
     0
100
AcDbPolyline
 90
        4
 70
     0
 43
0.0
 10
-1410.75
 20
-756.333333333333
 10
-1410.75
 20
-759.333333333333
 10
-1408.75
 20
-761.333333333333
 10
-1406.75
 20
-763.333333333333
  0
LWPOLYLINE
  5
18C
330
1F
100
AcDbEntity
  8
P
  6
Continuous
 62
     0
100
AcDbPolyline
 90
        2
 70
     0
 43
0.0
 10
-1383.25
 20
-871.833333333333
 10
-1390.25
 20
-871.833333333333
  0
LWPOLYLINE
  5
18D
330
1F
100
AcDbEntity
  8
P
  6
Continuous
 62
     0
100
AcDbPolyline
 90
        2
 70
     0
 43
0.0
 10
-1383.25
 20
-872.8333333333329
 10
-1390.25
 20
-872.8333333333329
  0
LWPOLYLINE
  5
190
330
1F
100
AcDbEntity
  8
P
  6
Continuous
 62
     0
100
AcDbPolyline
 90
        4
 70
     0
 43
0.0
 10
-1414.75
 20
-740.833333333333
 10
-1424.25
 20
-744.833333333333
 10
-1433.25
 20
-749.833333333333
 10
-1441.75
 20
-755.833333333333
  0
LWPOLYLINE
  5
191
330
1F
100
AcDbEntity
  8
P
  6
Continuous
 62
     0
100
AcDbPolyline
 90
        3
 70
     0
 43
0.0
 10
-1421.25
 20
-737.833333333333
 10
-1431.75
 20
-743.333333333333
 10
-1441.75
 20
-750.833333333333
  0
LWPOLYLINE
  5
194
330
1F
100
AcDbEntity
  8
P
  6
Continuous
 62
     0
100
AcDbPolyline
 90
        2
 70
     0
 43
0.0
 10
-1453.25
 20
-710.833333333333
 10
-1459.25
 20
-689.333333333333
  0
LWPOLYLINE
  5
195
330
1F
100
AcDbEntity
  8
P
  6
Continuous
 62
     0
100
AcDbPolyline
 90
        2
 70
     0
 43
0.0
 10
-1460.25
 20
-798.333333333333
 10
-1460.25
 20
-689.333333333333
  0
LWPOLYLINE
  5
196
330
1F
100
AcDbEntity
  8
P
  6
Continuous
 62
     0
100
AcDbPolyline
 90
        2
 70
     0
 43
0.0
 10
-1382.0
 20
-1926.5
 10
-1449.0
 20
-1926.5
  0
LWPOLYLINE
  5
197
330
1F
100
AcDbEntity
  8
P
  6
Continuous
 62
     0
100
AcDbPolyline
 90
        2
 70
     0
 43
0.0
 10
-1449.0
 20
-1927.0
 10
-1389.0
 20
-1932.0
  0
LWPOLYLINE
  5
198
330
1F
100
AcDbEntity
  8
P
  6
Continuous
 62
     0
100
AcDbPolyline
 90
        4
 70
     0
 43
0.0
 10
-1449.0
 20
-1926.5
 10
-1449.5
 20
-1926.5
 10
-1449.5
 20
-1927.0
 10
-1449.0
 20
-1927.0
  0
LWPOLYLINE
  5
19A
330
1F
100
AcDbEntity
  8
P
  6
Continuous
 62
     0
100
AcDbPolyline
 90
        2
 70
     0
 43
0.0
 10
-1389.0
 20
-1932.0
 10
-1381.5
 20
-1930.0
  0
LWPOLYLINE
  5
19B
330
1F
100
AcDbEntity
  8
P
  6
Continuous
 62
     0
100
AcDbPolyline
 90
        5
 70
     0
 43
0.0
 10
-1387.5
 20
-1932.0
 10
-1386.5
 20
-1935.0
 10
-1384.5
 20
-1938.0
 10
-1381.5
 20
-1940.0
 10
-1379.0
 20
-1940.357142857143
  0
LWPOLYLINE
  5
19D
330
1F
100
AcDbEntity
  8
P
  6
Continuous
 62
     0
100
AcDbPolyline
 90
        5
 70
     0
 43
0.0
 10
-1381.5
 20
-1930.0
 10
-1381.0
 20
-1929.0
 10
-1380.5
 20
-1928.0
 10
-1381.0
 20
-1927.0
 10
-1382.0
 20
-1926.5
  0
LWPOLYLINE
  5
1A0
330
1F
100
AcDbEntity
  8
P
  6
Continuous
 62
     0
100
AcDbPolyline
 90
        2
 70
     0
 43
0.0
 10
-1387.5
 20
-1918.0
 10
-1387.5
 20
-1926.5
  0
LWPOLYLINE
  5
1B6
330
1F
100
AcDbEntity
  8
P
  6
Continuous
 62
     0
100
AcDbPolyline
 90
       12
 70
     0
 43
0.0
 10
-382.2204398059016
 20
-1264.450463431525
 10
-343.0732398059015
 20
-1264.450463431525
 10
-340.3420398059016
 20
-1263.540063431525
 10
-338.9764398059015
 20
-1261.264063431525
 10
-338.9764398059015
 20
-1258.532863431524
 10
-339.8868398059017
 20
-1256.256863431525
 10
-342.1628398059013
 20
-1254.436063431525
 10
-344.8940398059012
 20
-1254.436063431525
 10
-354.4532398059014
 20
-1255.346463431525
 10
-364.0124398059013
 20
-1257.622463431525
 10
-373.1164398059016
 20
-1260.808863431525
 10
-382.2204398059016
 20
-1264.450463431525
  0
LWPOLYLINE
  5
1BB
330
1F
100
AcDbEntity
  8
P
  6
Continuous
 62
     0
100
AcDbPolyline
 90
        5
 70
     0
 43
0.0
 10
-2056.5
 20
-1749.0
 10
-2056.5
 20
-1721.5
 10
-1454.0
 20
-1721.5
 10
-1454.0
 20
-1749.0
 10
-2056.5
 20
-1749.0
  0
LWPOLYLINE
  5
1BC
330
1F
100
AcDbEntity
  8
P
  6
Continuous
 62
     0
100
AcDbPolyline
 90
        4
 70
     0
 43
0.0
 10
-2058.0
 20
-1591.0
 10
-2056.0
 20
-1567.5
 10
-1454.0
 20
-1567.5
 10
-1454.0
 20
-1591.0
  0
LWPOLYLINE
  5
1BD
330
1F
100
AcDbEntity
  8
P
  6
Continuous
 62
     0
100
AcDbPolyline
 90
        2
 70
     0
 43
0.0
 10
-113.2727755525664
 20
-1386.800939611762
 10
-60.92477555256619
 20
-1374.510539611762
  0
LWPOLYLINE
  5
1BE
330
1F
100
AcDbEntity
  8
P
  6
Continuous
 62
     0
100
AcDbPolyline
 90
        5
 70
     0
 43
0.0
 10
-19.04637555256636
 20
-1310.327339611762
 10
-25.87437555256633
 20
-1306.685739611762
 10
-43.17197555256621
 20
-1303.044139611762
 10
-66.84237555256641
 20
-1301.223339611762
 10
-137.3983755525662
 20
-1301.678539611762
  0
LWPOLYLINE
  5
1BF
330
1F
100
AcDbEntity
  8
P
  6
Continuous
 62
     0
100
AcDbPolyline
 90
        8
 70
     0
 43
0.0
 10
-60.92477555256619
 20
-1374.510539611762
 10
-52.27597555256625
 20
-1371.779339611762
 10
-44.53757555256629
 20
-1368.137739611762
 10
-37.25437555256622
 20
-1363.130539611762
 10
-30.42637555256624
 20
-1356.757739611762
 10
-25.87437555256633
 20
-1349.474539611762
 10
-21.3223755525662
 20
-1341.736139611762
 10
-19.04637555256636
 20
-1333.087339611762
  0
LWPOLYLINE
  5
1C2
330
1F
100
AcDbEntity
  8
P
  6
Continuous
 62
     0
100
AcDbPolyline
 90
        2
 70
     0
 43
0.0
 10
-1384.0
 20
-1913.0
 10
-1384.0
 20
-1913.25
  0
LWPOLYLINE
  5
1CA
330
1F
100
AcDbEntity
  8
P
  6
Continuous
 62
     0
100
AcDbPolyline
 90
        2
 70
     0
 43
0.0
 10
-1387.75
 20
-782.333333333333
 10
-1399.25
 20
-782.333333333333
  0
LWPOLYLINE
  5
1CB
330
1F
100
AcDbEntity
  8
P
  6
Continuous
 62
     0
100
AcDbPolyline
 90
        2
 70
     0
 43
0.0
 10
-1399.25
 20
-803.833333333333
 10
-1379.0
 20
-803.833333333333
  0
LWPOLYLINE
  5
1CC
330
1F
100
AcDbEntity
  8
P
  6
Continuous
 62
     0
100
AcDbPolyline
 90
        2
 70
     0
 43
0.0
 10
-1387.75
 20
-782.333333333333
 10
-1379.0
 20
-782.333333333333
  0
LWPOLYLINE
  5
1D0
330
1F
100
AcDbEntity
  8
P
  6
Continuous
 62
     0
100
AcDbPolyline
 90
        3
 70
     0
 43
0.0
 10
-1463.25
 20
-688.833333333333
 10
-2046.75
 20
-688.8333333333329
 10
-2046.75
 20
-655.3333333333329
  0
LWPOLYLINE
  5
1D1
330
1F
100
AcDbEntity
  8
P
  6
Continuous
 62
     0
100
AcDbPolyline
 90
        2
 70
     0
 43
0.0
 10
-1463.25
 20
-688.833333333333
 10
-1463.25
 20
-655.333333333333
  0
LWPOLYLINE
  5
1D2
330
1F
100
AcDbEntity
  8
P
  6
Continuous
 62
     0
100
AcDbPolyline
 90
        2
 70
     0
 43
0.0
 10
-1463.25
 20
-655.333333333333
 10
-2046.75
 20
-655.3333333333329
  0
LWPOLYLINE
  5
1D3
330
1F
100
AcDbEntity
  8
P
  6
Continuous
 62
     0
100
AcDbPolyline
 90
        2
 70
     0
 43
0.0
 10
-1463.25
 20
-661.333333333333
 10
-1430.25
 20
-661.333333333333
  0
LWPOLYLINE
  5
1D4
330
1F
100
AcDbEntity
  8
P
  6
Continuous
 62
     0
100
AcDbPolyline
 90
        2
 70
     0
 43
0.0
 10
-2072.895569620254
 20
-663.3333333333329
 10
-2046.75
 20
-663.3333333333329
  0
LWPOLYLINE
  5
1D6
330
1F
100
AcDbEntity
  8
P
  6
Continuous
 62
     0
100
AcDbPolyline
 90
        2
 70
     0
 43
0.0
 10
-1459.25
 20
-689.333333333333
 10
-1463.25
 20
-688.833333333333
  0
LWPOLYLINE
  5
261
330
1F
100
AcDbEntity
  8
P
  6
Continuous
 62
     0
100
AcDbPolyline
 90
        2
 70
     0
 43
0.0
 10
-1379.0
 20
-1799.5
 10
-1451.208017593132
 20
-1799.997986328228
  0
LWPOLYLINE
  5
264
330
1F
100
AcDbEntity
  8
P
  6
Continuous
 62
     0
100
AcDbPolyline
 90
       33
 70
     0
 43
0.0
 10
-264.8543755525663
 20
-1455.991339611762
 10
-265.7647755525663
 20
-1450.073739611762
 10
-267.1303755525662
 20
-1444.611339611762
 10
-269.8615755525664
 20
-1439.604139611762
 10
-273.5031755525663
 20
-1435.052139611762
 10
-277.5999755525663
 20
-1431.410539611762
 10
-282.6071755525664
 20
-1429.134539611762
 10
-288.0695755525662
 20
-1427.313739611762
 10
-293.9871755525662
 20
-1426.858539611762
 10
-299.9047755525664
 20
-1427.313739611762
 10
-304.9119755525662
 20
-1429.134539611762
 10
-309.9191755525662
 20
-1431.410539611762
 10
-314.4711755525662
 20
-1435.052139611762
 10
-318.1127755525663
 20
-1439.604139611762
 10
-320.8439755525662
 20
-1444.611339611762
 10
-322.2095755525663
 20
-1450.073739611762
 10
-323.1199755525665
 20
-1455.991339611762
 10
-322.2095755525663
 20
-1461.453739611762
 10
-320.8439755525662
 20
-1466.916139611762
 10
-318.1127755525663
 20
-1471.923339611762
 10
-314.4711755525662
 20
-1476.020139611762
 10
-309.9191755525662
 20
-1479.661739611762
 10
-304.9119755525662
 20
-1482.848139611762
 10
-299.9047755525664
 20
-1484.213739611762
 10
-293.9871755525662
 20
-1484.668939611762
 10
-288.0695755525662
 20
-1484.213739611762
 10
-282.6071755525664
 20
-1482.848139611762
 10
-277.5999755525663
 20
-1479.661739611762
 10
-273.5031755525663
 20
-1476.020139611762
 10
-269.8615755525664
 20
-1471.923339611762
 10
-267.1303755525662
 20
-1466.916139611762
 10
-265.7647755525663
 20
-1461.453739611762
 10
-264.8543755525663
 20
-1455.991339611762
  0
LWPOLYLINE
  5
265
330
1F
100
AcDbEntity
  8
P
  6
Continuous
 62
     0
100
AcDbPolyline
 90
       25
 70
     0
 43
0.0
 10
-278.5103755525663
 20
-1455.536139611762
 10
-278.9655755525664
 20
-1451.439339611762
 10
-280.7863755525664
 20
-1447.797739611762
 10
-283.0623755525662
 20
-1444.156139611762
 10
-286.2487755525663
 20
-1441.880139611762
 10
-289.8903755525662
 20
-1440.514539611762
 10
-293.9871755525662
 20
-1439.604139611762
 10
-298.0839755525662
 20
-1440.514539611762
 10
-301.7255755525664
 20
-1441.880139611762
 10
-304.9119755525662
 20
-1444.156139611762
 10
-307.6431755525664
 20
-1447.797739611762
 10
-309.0087755525662
 20
-1451.439339611762
 10
-309.4639755525666
 20
-1455.536139611762
 10
-309.0087755525662
 20
-1459.632939611762
 10
-307.6431755525664
 20
-1462.819339611762
 10
-304.9119755525662
 20
-1466.460939611762
 10
-301.7255755525664
 20
-1468.736939611762
 10
-298.0839755525662
 20
-1470.557739611762
 10
-293.9871755525662
 20
-1471.012939611762
 10
-289.8903755525662
 20
-1470.557739611762
 10
-286.2487755525663
 20
-1468.736939611762
 10
-283.0623755525662
 20
-1466.460939611762
 10
-280.7863755525664
 20
-1462.819339611762
 10
-278.9655755525664
 20
-1459.632939611762
 10
-278.5103755525663
 20
-1455.536139611762
  0
LWPOLYLINE
  5
266
330
1F
100
AcDbEntity
  8
P
  6
Continuous
 62
     0
100
AcDbPolyline
 90
        4
 70
     0
 43
0.0
 10
-102.3479755525663
 20
-1431.865739611762
 10
-93.24397555256632
 20
-1461.453739611762
 10
-87.32637555256633
 20
-1459.177739611762
 10
-88.23677555256631
 20
-1431.410539611762
  0
LWPOLYLINE
  5
267
330
1F
100
AcDbEntity
  8
P
  6
Continuous
 62
     0
100
AcDbPolyline
 90
       30
 70
     0
 43
0.0
 10
-103.2583755525663
 20
-1430.044939611762
 10
-107.8103755525662
 20
-1433.231339611762
 10
-112.3623755525664
 20
-1436.872939611762
 10
-115.5487755525662
 20
-1441.424939611762
 10
-118.2799755525664
 20
-1446.432139611762
 10
-119.6455755525662
 20
-1451.894539611762
 10
-119.6455755525662
 20
-1457.812139611762
 10
-118.7351755525662
 20
-1463.274539611762
 10
-116.9143755525663
 20
-1468.736939611762
 10
-113.7279755525662
 20
-1473.744139611762
 10
-110.0863755525663
 20
-1477.840939611762
 10
-105.5343755525662
 20
-1481.027339611762
 10
-100.0719755525663
 20
-1483.303339611762
 10
-94.60957555256618
 20
-1484.668939611762
 10
-89.14717555256629
 20
-1484.668939611762
 10
-83.2295755525663
 20
-1483.758539611762
 10
-78.22237555256629
 20
-1481.937739611762
 10
-73.21517555256628
 20
-1478.296139611762
 10
-69.11837555256624
 20
-1474.654539611762
 10
-65.9319755525662
 20
-1470.102539611762
 10
-63.65597555256636
 20
-1464.640139611762
 10
-62.74557555256638
 20
-1459.177739611762
 10
-62.74557555256638
 20
-1453.715339611762
 10
-63.65597555256636
 20
-1447.797739611762
 10
-65.9319755525662
 20
-1442.790539611762
 10
-69.11837555256624
 20
-1437.783339611762
 10
-73.21517555256628
 20
-1433.686539611762
 10
-78.22237555256629
 20
-1430.955339611762
 10
-83.2295755525663
 20
-1428.679339611762
 10
-89.14717555256629
 20
-1427.768939611762
  0
LWPOLYLINE
  5
268
330
1F
100
AcDbEntity
  8
P
  6
Continuous
 62
     0
100
AcDbPolyline
 90
       22
 70
     0
 43
0.0
 10
-99.16157555256631
 20
-1442.790539611762
 10
-102.3479755525663
 20
-1445.521739611762
 10
-104.6239755525662
 20
-1448.708139611762
 10
-106.4447755525664
 20
-1452.349739611762
 10
-106.4447755525664
 20
-1456.446539611762
 10
-105.9895755525663
 20
-1460.543339611762
 10
-104.1687755525663
 20
-1464.184939611762
 10
-101.8927755525662
 20
-1467.826539611762
 10
-98.25117555256634
 20
-1470.102539611762
 10
-94.60957555256618
 20
-1471.012939611762
 10
-90.51277555256637
 20
-1471.468139611762
 10
-86.87117555256623
 20
-1471.012939611762
 10
-82.7743755525662
 20
-1469.192139611762
 10
-79.58797555256637
 20
-1466.460939611762
 10
-77.31197555256631
 20
-1463.274539611762
 10
-75.94637555256622
 20
-1459.632939611762
 10
-75.49117555256635
 20
-1455.536139611762
 10
-76.40157555256632
 20
-1451.439339611762
 10
-78.22237555256629
 20
-1447.797739611762
 10
-80.95357555256624
 20
-1444.611339611762
 10
-84.13997555256628
 20
-1442.335339611762
 10
-87.78157555256621
 20
-1440.969739611762
  0
LWPOLYLINE
  5
269
330
1F
100
AcDbEntity
  8
P
  6
Continuous
 62
     0
100
AcDbPolyline
 90
        2
 70
     0
 43
0.0
 10
-1394.25
 20
-912.833333333333
 10
-1393.25
 20
-912.833333333333
  0
LWPOLYLINE
  5
26B
330
1F
100
AcDbEntity
  8
P
  6
Continuous
 62
     0
100
AcDbPolyline
 90
        2
 70
     0
 43
0.0
 10
-1493.25
 20
-889.8333333333329
 10
-1467.25
 20
-855.833333333333
  0
LWPOLYLINE
  5
26C
330
1F
100
AcDbEntity
  8
P
  6
Continuous
 62
     0
100
AcDbPolyline
 90
        2
 70
     0
 43
0.0
 10
-1491.25
 20
-891.8333333333331
 10
-1464.75
 20
-857.333333333333
  0
LWPOLYLINE
  5
26D
330
1F
100
AcDbEntity
  8
P
  6
Continuous
 62
     0
100
AcDbPolyline
 90
        3
 70
     0
 43
0.0
 10
-1493.25
 20
-889.8333333333329
 10
-1495.75
 20
-894.833333333333
 10
-1496.75
 20
-899.333333333333
  0
LWPOLYLINE
  5
26E
330
1F
100
AcDbEntity
  8
P
  6
Continuous
 62
     0
100
AcDbPolyline
 90
        3
 70
     0
 43
0.0
 10
-1491.25
 20
-891.8333333333331
 10
-1493.25
 20
-895.3333333333331
 10
-1493.25
 20
-899.333333333333
  0
LWPOLYLINE
  5
26F
330
1F
100
AcDbEntity
  8
P
  6
Continuous
 62
     0
100
AcDbPolyline
 90
        2
 70
     0
 43
0.0
 10
-1496.75
 20
-899.333333333333
 10
-1496.25
 20
-910.3333333333329
  0
LWPOLYLINE
  5
270
330
1F
100
AcDbEntity
  8
P
  6
Continuous
 62
     0
100
AcDbPolyline
 90
        3
 70
     0
 43
0.0
 10
-1493.25
 20
-899.333333333333
 10
-1493.25
 20
-910.3333333333329
 10
-1496.25
 20
-910.3333333333329
  0
LWPOLYLINE
  5
271
330
1F
100
AcDbEntity
  8
P
  6
Continuous
 62
     0
100
AcDbPolyline
 90
        3
 70
     0
 43
0.0
 10
-1461.75
 20
-851.333333333333
 10
-1464.75
 20
-853.3333333333329
 10
-1467.25
 20
-855.833333333333
  0
LWPOLYLINE
  5
272
330
1F
100
AcDbEntity
  8
P
  6
Continuous
 62
     0
100
AcDbPolyline
 90
        4
 70
     0
 43
0.0
 10
-1455.75
 20
-852.833333333333
 10
-1459.25
 20
-853.3333333333329
 10
-1462.25
 20
-854.833333333333
 10
-1464.75
 20
-857.333333333333
  0
LWPOLYLINE
  5
283
330
1F
100
AcDbEntity
  8
P
  6
Continuous
 62
     0
100
AcDbPolyline
 90
        2
 70
     0
 43
0.0
 10
-1497.25
 20
-883.8333333333331
 10
-1497.25
 20
-918.333333333333
  0
LWPOLYLINE
  5
284
330
1F
100
AcDbEntity
  8
P
  6
Continuous
 62
     0
100
AcDbPolyline
 90
        6
 70
     0
 43
0.0
 10
-1505.25
 20
-934.333333333333
 10
-1502.25
 20
-934.333333333333
 10
-1499.75
 20
-933.333333333333
 10
-1498.25
 20
-930.833333333333
 10
-1497.25
 20
-928.3333333333329
 10
-1497.25
 20
-918.333333333333
  0
LWPOLYLINE
  5
285
330
1F
100
AcDbEntity
  8
P
  6
Continuous
 62
     0
100
AcDbPolyline
 90
        2
 70
     0
 43
0.0
 10
-1519.75
 20
-877.3333333333329
 10
-1503.75
 20
-877.3333333333329
  0
LWPOLYLINE
  5
286
330
1F
100
AcDbEntity
  8
P
  6
Continuous
 62
     0
100
AcDbPolyline
 90
        5
 70
     0
 43
0.0
 10
-1497.25
 20
-883.8333333333331
 10
-1498.25
 20
-881.8333333333329
 10
-1499.25
 20
-879.3333333333331
 10
-1501.25
 20
-877.833333333333
 10
-1503.75
 20
-877.3333333333329
  0
LWPOLYLINE
  5
289
330
1F
100
AcDbEntity
  8
P
  6
Continuous
 62
     0
100
AcDbPolyline
 90
        2
 70
     0
 43
0.0
 10
-1525.75
 20
-883.8333333333331
 10
-1525.75
 20
-918.333333333333
  0
LWPOLYLINE
  5
28A
330
1F
100
AcDbEntity
  8
P
  6
Continuous
 62
     0
100
AcDbPolyline
 90
        5
 70
     0
 43
0.0
 10
-1525.75
 20
-928.3333333333329
 10
-1525.25
 20
-930.833333333333
 10
-1523.25
 20
-933.333333333333
 10
-1520.75
 20
-934.333333333333
 10
-1517.75
 20
-934.333333333333
  0
LWPOLYLINE
  5
28B
330
1F
100
AcDbEntity
  8
P
  6
Continuous
 62
     0
100
AcDbPolyline
 90
        2
 70
     0
 43
0.0
 10
-1525.75
 20
-928.3333333333329
 10
-1525.75
 20
-918.333333333333
  0
LWPOLYLINE
  5
28C
330
1F
100
AcDbEntity
  8
P
  6
Continuous
 62
     0
100
AcDbPolyline
 90
        5
 70
     0
 43
0.0
 10
-1519.75
 20
-877.3333333333329
 10
-1521.75
 20
-877.833333333333
 10
-1524.25
 20
-879.3333333333331
 10
-1525.25
 20
-881.8333333333329
 10
-1525.75
 20
-883.8333333333331
  0
LWPOLYLINE
  5
28E
330
1F
100
AcDbEntity
  8
P
  6
Continuous
 62
     0
100
AcDbPolyline
 90
        2
 70
     0
 43
0.0
 10
-1392.249999999999
 20
-883.8333333333331
 10
-1392.249999999999
 20
-918.833333333333
  0
LWPOLYLINE
  5
28F
330
1F
100
AcDbEntity
  8
P
  6
Continuous
 62
     0
100
AcDbPolyline
 90
        5
 70
     0
 43
0.0
 10
-1392.249999999999
 20
-928.3333333333329
 10
-1391.25
 20
-930.833333333333
 10
-1389.25
 20
-933.333333333333
 10
-1386.75
 20
-934.333333333333
 10
-1384.25
 20
-934.333333333333
  0
LWPOLYLINE
  5
290
330
1F
100
AcDbEntity
  8
P
  6
Continuous
 62
     0
100
AcDbPolyline
 90
        2
 70
     0
 43
0.0
 10
-1392.249999999999
 20
-928.3333333333329
 10
-1392.249999999999
 20
-918.833333333333
  0
LWPOLYLINE
  5
292
330
1F
100
AcDbEntity
  8
P
  6
Continuous
 62
     0
100
AcDbPolyline
 90
        4
 70
     0
 43
0.0
 10
-1386.249999999999
 20
-877.833333333333
 10
-1389.25
 20
-878.833333333333
 10
-1391.25
 20
-880.833333333333
 10
-1392.249999999999
 20
-883.8333333333331
  0
LWPOLYLINE
  5
293
330
1F
100
AcDbEntity
  8
P
  6
Continuous
 62
     0
100
AcDbPolyline
 90
        2
 70
     0
 43
0.0
 10
-1386.249999999999
 20
-877.833333333333
 10
-1382.25
 20
-877.833333333333
  0
LWPOLYLINE
  5
29A
330
1F
100
AcDbEntity
  8
P
  6
Continuous
 62
     0
100
AcDbPolyline
 90
        4
 70
     0
 43
0.0
 10
-1383.25
 20
-871.833333333333
 10
-1383.25
 20
-826.833333333333
 10
-1381.75
 20
-824.333333333333
 10
-1379.0
 20
-824.333333333333
  0
LWPOLYLINE
  5
29B
330
1F
100
AcDbEntity
  8
P
  6
Continuous
 62
     0
100
AcDbPolyline
 90
        2
 70
     0
 43
0.0
 10
-1441.75
 20
-795.833333333333
 10
-1441.75
 20
-802.833333333333
  0
LWPOLYLINE
  5
29C
330
1F
100
AcDbEntity
  8
P
  6
Continuous
 62
     0
100
AcDbPolyline
 90
        2
 70
     0
 43
0.0
 10
-19.04637555256636
 20
-1310.327339611762
 10
-19.04637555256636
 20
-1333.087339611762
  0
LWPOLYLINE
  5
29D
330
1F
100
AcDbEntity
  8
P
  6
Continuous
 62
     0
100
AcDbPolyline
 90
        2
 70
     0
 43
0.0
 10
-19.04637555256636
 20
-1326.714539611762
 10
-15.40477555256621
 20
-1326.714539611762
  0
LWPOLYLINE
  5
29E
330
1F
100
AcDbEntity
  8
P
  6
Continuous
 62
     0
100
AcDbPolyline
 90
        2
 70
     0
 43
0.0
 10
-1404.75
 20
-798.333333333333
 10
-1404.75
 20
-788.333333333333
  0
LWPOLYLINE
  5
2A0
330
1F
100
AcDbEntity
  8
P
  6
Continuous
 62
     0
100
AcDbPolyline
 90
        4
 70
     0
 43
0.0
 10
-1404.75
 20
-798.333333333333
 10
-1404.25
 20
-800.8333333333331
 10
-1401.75
 20
-803.3333333333329
 10
-1399.25
 20
-803.833333333333
  0
LWPOLYLINE
  5
2A1
330
1F
100
AcDbEntity
  8
P
  6
Continuous
 62
     0
100
AcDbPolyline
 90
        4
 70
     0
 43
0.0
 10
-1399.25
 20
-782.333333333333
 10
-1401.75
 20
-782.833333333333
 10
-1404.25
 20
-785.333333333333
 10
-1404.75
 20
-788.333333333333
  0
LWPOLYLINE
  5
2A4
330
1F
100
AcDbEntity
  8
P
  6
Continuous
 62
     0
100
AcDbPolyline
 90
        2
 70
     0
 43
0.0
 10
-10.8527755525663
 20
-1206.996939611762
 10
-4.479975552566202
 20
-1302.588939611762
  0
LWPOLYLINE
  5
2A5
330
1F
100
AcDbEntity
  8
P
  6
Continuous
 62
     0
100
AcDbPolyline
 90
        2
 70
     0
 43
0.0
 10
-9.031975552566336
 20
-1311.692939611762
 10
-11.3079755525664
 20
-1206.996939611762
  0
LWPOLYLINE
  5
2A6
330
1F
100
AcDbEntity
  8
P
  6
Continuous
 62
     0
100
AcDbPolyline
 90
        4
 70
     0
 43
0.0
 10
-10.8527755525663
 20
-1206.996939611762
 10
-10.8527755525663
 20
-1206.541739611762
 10
-11.3079755525664
 20
-1206.541739611762
 10
-11.3079755525664
 20
-1206.996939611762
  0
LWPOLYLINE
  5
2A7
330
1F
100
AcDbEntity
  8
P
  6
Continuous
 62
     0
100
AcDbPolyline
 90
        2
 70
     0
 43
0.0
 10
-4.479975552566202
 20
-1302.588939611762
 10
-7.211175552566373
 20
-1311.692939611762
  0
LWPOLYLINE
  5
100C0
330
1F
100
AcDbEntity
  8
P
  6
Continuous
 62
     0
100
AcDbPolyline
 90
        2
 70
     0
 43
0.0
 10
-1379.0
 20
-1734.5
 10
-1454.0
 20
-1734.5
  0
LWPOLYLINE
  5
100C4
330
1F
100
AcDbEntity
  8
P
  6
Continuous
 62
     0
100
AcDbPolyline
 90
        2
 70
     0
 43
0.0
 10
-1379.0
 20
-877.670833333333
 10
-1382.25
 20
-877.833333333333
  0
LWPOLYLINE
  5
100C7
330
1F
100
AcDbEntity
  8
P
  6
Continuous
 62
     0
100
AcDbPolyline
 90
       13
 70
     0
 43
0.0
 10
-1379.0
 20
-745.3690476190472
 10
-1379.25
 20
-745.333333333333
 10
-1382.75
 20
-745.833333333333
 10
-1385.75
 20
-747.833333333333
 10
-1387.75
 20
-749.833333333333
 10
-1389.75
 20
-753.333333333333
 10
-1390.25
 20
-756.333333333333
 10
-1389.75
 20
-759.833333333333
 10
-1387.75
 20
-762.833333333333
 10
-1385.75
 20
-765.333333333333
 10
-1382.75
 20
-766.833333333333
 10
-1379.25
 20
-767.333333333333
 10
-1379.0
 20
-767.2976190476187
  0
LWPOLYLINE
  5
100C8
330
1F
100
AcDbEntity
  8
P
  6
Continuous
 62
     0
100
AcDbPolyline
 90
        8
 70
     0
 43
0.0
 10
-1379.0
 20
-742.833333333333
 10
-1382.75
 20
-742.833333333333
 10
-1393.25
 20
-744.333333333333
 10
-1403.25
 20
-747.333333333333
 10
-1406.25
 20
-748.833333333333
 10
-1408.25
 20
-750.833333333333
 10
-1410.25
 20
-753.333333333333
 10
-1410.75
 20
-756.333333333333
  0
LWPOLYLINE
  5
100C9
330
1F
100
AcDbEntity
  8
P
  6
Continuous
 62
     0
100
AcDbPolyline
 90
        4
 70
     0
 43
0.0
 10
-1379.0
 20
-734.4198717948715
 10
-1389.75
 20
-734.833333333333
 10
-1402.75
 20
-736.833333333333
 10
-1414.75
 20
-740.833333333333
  0
LWPOLYLINE
  5
100CA
330
1F
100
AcDbEntity
  8
P
  6
Continuous
 62
     0
100
AcDbPolyline
 90
        5
 70
     0
 43
0.0
 10
-1379.0
 20
-728.833333333333
 10
-1383.25
 20
-728.833333333333
 10
-1396.25
 20
-730.333333333333
 10
-1408.75
 20
-732.833333333333
 10
-1421.25
 20
-737.833333333333
  0
LWPOLYLINE
  5
100CB
330
1F
100
AcDbEntity
  8
P
  6
Continuous
 62
     0
100
AcDbPolyline
 90
        2
 70
     0
 43
0.0
 10
-1379.0
 20
-649.333333333333
 10
-1427.25
 20
-649.333333333333
  0
LWPOLYLINE
  5
100CC
330
1F
100
AcDbEntity
  8
P
  6
Continuous
 62
     0
100
AcDbPolyline
 90
        2
 70
     0
 43
0.0
 10
-1379.0
 20
-1591.0
 10
-1448.5
 20
-1591.0
  0
LWPOLYLINE
  5
100CD
330
1F
100
AcDbEntity
  8
P
  6
Continuous
 62
     0
100
AcDbPolyline
 90
        2
 70
     0
 43
0.0
 10
-1379.0
 20
-1591.0
 10
-2058.0
 20
-1591.0
  0
LINE
  5
1014F
330
1F
100
AcDbEntity
  8
Defpoints
  6
ByBlock
 62
     0
100
AcDbLine
 10
-1406.75
 20
-763.333333333333
 30
0.0
 11
-1394.25
 21
-768.833333333333
 31
0.0
  0
LINE
  5
10154
330
1F
100
AcDbEntity
  8
Defpoints
  6
ByBlock
 62
     0
100
AcDbLine
 10
-1435.75
 20
-793.333333333333
 30
0.0
 11
-1441.75
 21
-785.833333333333
 31
0.0
  0
LINE
  5
10156
330
1F
100
AcDbEntity
  8
Defpoints
  6
ByBlock
 62
     0
100
AcDbLine
 10
-1460.25
 20
-806.8333333333329
 30
0.0
 11
-1460.25
 21
-798.333333333333
 31
0.0
  0
LINE
  5
10157
330
1F
100
AcDbEntity
  8
Defpoints
  6
ByBlock
 62
     0
100
AcDbLine
 10
-1441.75
 20
-795.833333333333
 30
0.0
 11
-1441.75
 21
-785.833333333333
 31
0.0
  0
LINE
  5
101A2
330
1F
100
AcDbEntity
  8
Defpoints
  6
ByBlock
 62
     0
100
AcDbLine
 10
3.71362444743363
 20
-1320.796939611762
 30
0.0
 11
-987.0291755525663
 21
-1320.796939611762
 31
0.0
  0
LINE
  5
101FB
330
1F
100
AcDbEntity
  8
Defpoints
  6
ByBlock
 62
     0
100
AcDbLine
 10
-1379.0
 20
-2069.0
 30
0.0
 11
-1379.0
 21
-391.5
 31
0.0
  0
LINE
  5
10208
330
1F
100
AcDbEntity
  8
Defpoints
  6
ByBlock
 62
     0
100
AcDbLine
 10
-1379.5
 20
-1914.0
 30
0.0
 11
-1379.0
 21
-1914.0
 31
0.0
  0
LINE
  5
1020A
330
1F
100
AcDbEntity
  8
Defpoints
  6
ByBlock
 62
     0
100
AcDbLine
 10
-1384.0
 20
-1913.25
 30
0.0
 11
-1384.0
 21
-1918.0
 31
0.0
  0
LINE
  5
1020B
330
1F
100
AcDbEntity
  8
Defpoints
  6
ByBlock
 62
     0
100
AcDbLine
 10
-1387.5
 20
-1918.0
 30
0.0
 11
-1384.0
 21
-1918.0
 31
0.0
  0
LINE
  5
1020C
330
1F
100
AcDbEntity
  8
Defpoints
  6
ByBlock
 62
     0
100
AcDbLine
 10
-1384.0
 20
-1918.0
 30
0.0
 11
-1379.0
 21
-1918.0
 31
0.0
  0
LINE
  5
1020D
330
1F
100
AcDbEntity
  8
Defpoints
  6
ByBlock
 62
     0
100
AcDbLine
 10
-2058.0
 20
-1734.5
 30
0.0
 11
-2056.5
 21
-1734.75
 31
0.0
  0
LINE
  5
1020E
330
1F
100
AcDbEntity
  8
Defpoints
  6
ByBlock
 62
     0
100
AcDbLine
 10
-2081.0
 20
-1694.5
 30
0.0
 11
-2081.0
 21
-1711.0
 31
0.0
  0
LINE
  5
1020F
330
1F
100
AcDbEntity
  8
Defpoints
  6
ByBlock
 62
     0
100
AcDbLine
 10
-2081.0
 20
-1694.5
 30
0.0
 11
-2058.0
 21
-1591.0
 31
0.0
  0
LINE
  5
1021F
330
1F
100
AcDbEntity
  8
Defpoints
  6
ByBlock
 62
     0
100
AcDbLine
 10
-1379.0
 20
-1221.5
 30
0.0
 11
-1383.99995473928
 21
-1221.478725481187
 31
0.0
  0
LINE
  5
10220
330
1F
100
AcDbEntity
  8
Defpoints
  6
ByBlock
 62
     0
100
AcDbLine
 10
-1382.5
 20
-1345.5
 30
0.0
 11
-1383.99995473928
 21
-1221.478725481187
 31
0.0
  0
LINE
  5
10221
330
1F
100
AcDbEntity
  8
Defpoints
  6
ByBlock
 62
     0
100
AcDbLine
 10
-1383.99995473928
 20
-1221.478725481187
 30
0.0
 11
-1383.0
 21
-1122.0
 31
0.0
  0
LINE
  5
10222
330
1F
100
AcDbEntity
  8
Defpoints
  6
ByBlock
 62
     0
100
AcDbLine
 10
-1387.5
 20
-1126.0
 30
0.0
 11
-1383.040207782496
 21
-1126.0
 31
0.0
  0
LINE
  5
10224
330
1F
100
AcDbEntity
  8
Defpoints
  6
ByBlock
 62
     0
100
AcDbLine
 10
-1387.5
 20
-1139.0
 30
0.0
 11
-1383.170883075607
 21
-1139.0
 31
0.0
  0
LINE
  5
10226
330
1F
100
AcDbEntity
  8
Defpoints
  6
ByBlock
 62
     0
100
AcDbLine
 10
-1536.5
 20
-1205.5
 30
0.0
 11
-1383.839337459603
 21
-1205.5
 31
0.0
  0
LINE
  5
10227
330
1F
100
AcDbEntity
  8
Defpoints
  6
ByBlock
 62
     0
100
AcDbLine
 10
-1536.5
 20
-1156.0
 30
0.0
 11
-1383.341766151215
 21
-1156.0
 31
0.0
  0
LINE
  5
10228
330
1F
100
AcDbEntity
  8
Defpoints
  6
ByBlock
 62
     0
100
AcDbLine
 10
-1393.5
 20
-1144.5
 30
0.0
 11
-1393.5
 21
-1156.0
 31
0.0
  0
LINE
  5
10229
330
1F
100
AcDbEntity
  8
Defpoints
  6
ByBlock
 62
     0
100
AcDbLine
 10
-1517.75
 20
-934.333333333333
 30
0.0
 11
-1505.25
 21
-934.333333333333
 31
0.0
  0
LINE
  5
1022A
330
1F
100
AcDbEntity
  8
Defpoints
  6
ByBlock
 62
     0
100
AcDbLine
 10
-1384.25
 20
-934.333333333333
 30
0.0
 11
-1379.0
 21
-934.3333333333331
 31
0.0
  0
LINE
  5
1022B
330
1F
100
AcDbEntity
  8
Defpoints
  6
ByBlock
 62
     0
100
AcDbLine
 10
-1460.25
 20
-852.3333333333329
 30
0.0
 11
-1383.25
 21
-852.3333333333329
 31
0.0
  0
LINE
  5
1022C
330
1F
100
AcDbEntity
  8
Defpoints
  6
ByBlock
 62
     0
100
AcDbLine
 10
-1455.75
 20
-852.833333333333
 30
0.0
 11
-1383.25
 21
-852.8333333333332
 31
0.0
  0
LINE
  5
1022D
330
1F
100
AcDbEntity
  8
Defpoints
  6
ByBlock
 62
     0
100
AcDbLine
 10
-1437.75
 20
-674.833333333333
 30
0.0
 11
-1438.07072368421
 21
-674.5002741228066
 31
0.0
  0
LINE
  5
1022E
330
1F
100
AcDbEntity
  8
Defpoints
  6
ByBlock
 62
     0
100
AcDbLine
 10
-1436.75
 20
-673.333333333333
 30
0.0
 11
-1436.984324758842
 21
-673.0879555198282
 31
0.0
  0
LINE
  5
1022F
330
1F
100
AcDbEntity
  8
Defpoints
  6
ByBlock
 62
     0
100
AcDbLine
 10
-1430.25
 20
-661.333333333333
 30
0.0
 11
-1429.163270395169
 21
-661.333333333333
 31
0.0
  0
LINE
  5
10231
330
1F
100
AcDbEntity
  8
Defpoints
  6
ByBlock
 62
     0
100
AcDbLine
 10
-1383.25
 20
-871.833333333333
 30
0.0
 11
-1383.25
 21
-872.8333333333329
 31
0.0
  0
LINE
  5
10233
330
1F
100
AcDbEntity
  8
Defpoints
  6
ByBlock
 62
     0
100
AcDbLine
 10
-1379.0
 20
-526.8333333333329
 30
0.0
 11
-1384.0
 21
-526.8333333333329
 31
0.0
  0
LINE
  5
10234
330
1F
100
AcDbEntity
  8
Defpoints
  6
ByBlock
 62
     0
100
AcDbLine
 10
-1384.0
 20
-526.8333333333329
 30
0.0
 11
-1384.0
 21
-649.333333333333
 31
0.0
  0
LINE
  5
102A1
330
1F
100
AcDbEntity
  8
Defpoints
  6
ByBlock
 62
     0
100
AcDbLine
 10
-1379.0
 20
-2069.0
 30
0.0
 11
-1379.0
 21
-391.5
 31
0.0
  0
LINE
  5
102BB
330
1F
100
AcDbEntity
  8
Defpoints
  6
ByBlock
 62
     0
100
AcDbLine
 10
-882.5607755525664
 20
-1111.860139611762
 30
0.0
 11
-830.667975552566
 21
-1110.039339611762
 31
0.0
  0
LINE
  5
102BC
330
1F
100
AcDbEntity
  8
Defpoints
  6
ByBlock
 62
     0
100
AcDbLine
 10
-883.0159755525665
 20
-1268.448939611762
 30
0.0
 11
-792.4311755525661
 21
-1294.850539611762
 31
0.0
  0
LINE
  5
102DE
330
1F
100
AcDbEntity
  8
Defpoints
  6
ByBlock
 62
     0
100
AcDbLine
 10
-770.7719755525663
 20
-1239.323339611762
 30
0.0
 11
-726.2719755525663
 21
-1239.323339611762
 31
0.0
  0
LINE
  5
102F0
330
1F
100
AcDbEntity
  8
Defpoints
  6
ByBlock
 62
     0
100
AcDbLine
 10
-770.7719755525663
 20
-1239.323339611762
 30
0.0
 11
-770.7719755525663
 21
-1249.323339611762
 31
0.0
  0
LINE
  5
102F5
330
1F
100
AcDbEntity
  8
Defpoints
  6
ByBlock
 62
     0
100
AcDbLine
 10
-839.7719755525663
 20
-1244.323339611762
 30
0.0
 11
-770.7719755525663
 21
-1239.323339611762
 31
0.0
  0
LINE
  5
102F6
330
1F
100
AcDbEntity
  8
Defpoints
  6
ByBlock
 62
     0
100
AcDbLine
 10
-839.7719755525663
 20
-1244.323339611762
 30
0.0
 11
-770.7719755525663
 21
-1249.323339611762
 31
0.0
  0
ARC
  5
102F9
330
1F
100
AcDbEntity
  8
Defpoints
  6
ByBlock
 62
     0
100
AcDbCircle
 10
-726.2719755525663
 20
-1244.323339611762
 30
0.0
 40
5.0
100
AcDbArc
 50
270.0
 51
90.0
  0
LINE
  5
102FB
330
1F
100
AcDbEntity
  8
Defpoints
  6
ByBlock
 62
     0
100
AcDbLine
 10
-770.7719755525663
 20
-1249.323339611762
 30
0.0
 11
-726.2719755525663
 21
-1249.323339611762
 31
0.0
  0
LINE
  5
102FE
330
1F
100
AcDbEntity
  8
Defpoints
  6
ByBlock
 62
     0
100
AcDbLine
 10
-710.495175552566
 20
-1224.294539611762
 30
0.0
 11
-730.0326155525659
 21
-1239.323339611762
 31
0.0
  0
LINE
  5
102FF
330
1F
100
AcDbEntity
  8
Defpoints
  6
ByBlock
 62
     0
100
AcDbLine
 10
-830.667975552566
 20
-1110.039339611762
 30
0.0
 11
-803.4299371478395
 21
-1241.689858567941
 31
0.0
  0
LINE
  5
10300
330
1F
100
AcDbEntity
  8
Defpoints
  6
ByBlock
 62
     0
100
AcDbLine
 10
-802.3236346088827
 20
-1247.036987506231
 30
0.0
 11
-792.4311755525661
 21
-1294.850539611762
 31
0.0
  0
LINE
  5
10301
330
1F
100
AcDbEntity
  8
Defpoints
  6
ByBlock
 62
     0
100
AcDbLine
 10
-767.8503755525662
 20
-1252.972139611762
 30
0.0
 11
-801.0618612575926
 21
-1253.135558704133
 31
0.0
  0
LWPOLYLINE
  5
10311
330
1F
100
AcDbEntity
  8
ala
  6
Continuous
100
AcDbPolyline
 90
        2
 70
     0
 43
0.0
 10
-1870.561869327868
 20
-441.3049733461397
 10
-1907.920645193387
 20
-441.3049733461397
  0
LWPOLYLINE
  5
10320
330
1F
100
AcDbEntity
  8
7
  6
Continuous
100
AcDbPolyline
 90
        2
 70
     0
 43
0.0
 10
-197.4847755525663
 20
-1253.427339611762
 10
-341.4847755525664
 20
-1253.427339611762
  0
LWPOLYLINE
  5
10322
330
1F
100
AcDbEntity
  8
7
  6
Continuous
100
AcDbPolyline
 90
      242
 70
     0
 43
0.0
 10
-341.4847755525664
 20
-1253.341339611762
 10
-340.7647755525664
 20
-1253.170339611762
 10
-340.0447755525664
 20
-1253.000339611762
 10
-339.3247755525663
 20
-1252.829339611762
 10
-338.6047755525664
 20
-1252.659339611762
 10
-337.8847755525664
 20
-1252.490339611762
 10
-337.1647755525664
 20
-1252.320339611762
 10
-336.4447755525663
 20
-1252.152339611762
 10
-335.7247755525664
 20
-1251.984339611762
 10
-334.2847755525664
 20
-1251.651339611762
 10
-332.8447755525664
 20
-1251.321339611762
 10
-331.4047755525664
 20
-1250.996339611762
 10
-329.9647755525663
 20
-1250.675339611762
 10
-328.5247755525664
 20
-1250.357339611762
 10
-327.0847755525663
 20
-1250.043339611762
 10
-325.6447755525664
 20
-1249.733339611762
 10
-324.2047755525663
 20
-1249.426339611762
 10
-322.7647755525664
 20
-1249.123339611762
 10
-321.3247755525663
 20
-1248.823339611762
 10
-319.8847755525664
 20
-1248.527339611762
 10
-318.4447755525663
 20
-1248.236339611762
 10
-317.0047755525664
 20
-1247.948339611762
 10
-315.5647755525663
 20
-1247.664339611762
 10
-314.1247755525664
 20
-1247.384339611762
 10
-312.6847755525663
 20
-1247.108339611762
 10
-311.2447755525664
 20
-1246.836339611762
 10
-309.8047755525664
 20
-1246.569339611762
 10
-308.3647755525664
 20
-1246.306339611762
 10
-306.9247755525664
 20
-1246.046339611762
 10
-305.4847755525664
 20
-1245.791339611762
 10
-304.0447755525664
 20
-1245.541339611762
 10
-302.6047755525663
 20
-1245.294339611762
 10
-301.1647755525664
 20
-1245.052339611762
 10
-299.7247755525664
 20
-1244.814339611762
 10
-298.2847755525664
 20
-1244.581339611762
 10
-296.8447755525664
 20
-1244.352339611763
 10
-295.4047755525664
 20
-1244.127339611762
 10
-293.9647755525663
 20
-1243.907339611762
 10
-292.5247755525664
 20
-1243.692339611762
 10
-291.0847755525663
 20
-1243.482339611762
 10
-289.6447755525664
 20
-1243.278339611762
 10
-288.2047755525663
 20
-1243.079339611762
 10
-286.7647755525664
 20
-1242.886339611762
 10
-285.3247755525663
 20
-1242.698339611762
 10
-283.8847755525664
 20
-1242.517339611762
 10
-282.4447755525664
 20
-1242.343339611762
 10
-281.0047755525664
 20
-1242.174339611762
 10
-279.5647755525664
 20
-1242.013339611762
 10
-278.1247755525663
 20
-1241.857339611762
 10
-276.6847755525664
 20
-1241.708339611762
 10
-275.2447755525663
 20
-1241.566339611762
 10
-273.8047755525664
 20
-1241.430339611762
 10
-272.3647755525663
 20
-1241.300339611762
 10
-270.9247755525664
 20
-1241.177339611762
 10
-269.4847755525664
 20
-1241.061339611762
 10
-268.0447755525664
 20
-1240.951339611762
 10
-266.6047755525664
 20
-1240.848339611762
 10
-265.1647755525664
 20
-1240.752339611762
 10
-263.7247755525664
 20
-1240.663339611762
 10
-262.2847755525664
 20
-1240.581339611762
 10
-260.8447755525664
 20
-1240.508339611762
 10
-259.4047755525664
 20
-1240.443339611762
 10
-257.9647755525663
 20
-1240.386339611762
 10
-256.5247755525664
 20
-1240.338339611762
 10
-255.0847755525663
 20
-1240.299339611762
 10
-253.6447755525664
 20
-1240.269339611762
 10
-252.2047755525663
 20
-1240.248339611762
 10
-250.7647755525664
 20
-1240.236339611762
 10
-249.3247755525664
 20
-1240.233339611762
 10
-247.8847755525664
 20
-1240.238339611762
 10
-246.4447755525664
 20
-1240.250339611762
 10
-245.0047755525663
 20
-1240.270339611762
 10
-243.5647755525664
 20
-1240.297339611762
 10
-242.1247755525663
 20
-1240.330339611762
 10
-240.6847755525664
 20
-1240.369339611762
 10
-239.2447755525664
 20
-1240.415339611762
 10
-237.8047755525663
 20
-1240.467339611762
 10
-236.3647755525664
 20
-1240.528339611762
 10
-234.9247755525663
 20
-1240.599339611762
 10
-233.4847755525664
 20
-1240.682339611762
 10
-232.0447755525663
 20
-1240.780339611762
 10
-230.6037755525663
 20
-1240.892339611762
 10
-229.1647755525664
 20
-1241.023339611762
 10
-227.7237755525663
 20
-1241.172339611762
 10
-226.2847755525664
 20
-1241.343339611762
 10
-224.8427755525664
 20
-1241.537339611762
 10
-223.4047755525664
 20
-1241.753339611762
 10
-221.9627755525664
 20
-1241.994339611762
 10
-220.5247755525664
 20
-1242.257339611762
 10
-219.0827755525664
 20
-1242.544339611762
 10
-217.6447755525664
 20
-1242.852339611763
 10
-216.2017755525664
 20
-1243.187339611762
 10
-214.7647755525664
 20
-1243.546339611762
 10
-213.3207755525664
 20
-1243.936339611762
 10
-211.8847755525664
 20
-1244.356339611762
 10
-210.4397755525663
 20
-1244.813339611762
 10
-209.0047755525664
 20
-1245.301339611762
 10
-207.5567755525664
 20
-1245.832339611762
 10
-206.1247755525664
 20
-1246.406339611762
 10
-205.4007755525664
 20
-1246.721339611762
 10
-204.6847755525663
 20
-1247.052339611762
 10
-203.9587755525663
 20
-1247.411339611762
 10
-203.2447755525664
 20
-1247.793339611762
 10
-202.5147755525664
 20
-1248.217339611762
 10
-201.8047755525663
 20
-1248.672339611762
 10
-201.0687755525664
 20
-1249.202339611762
 10
-200.3647755525664
 20
-1249.773339611762
 10
-199.7787755525663
 20
-1250.304339611762
 10
-199.2127755525664
 20
-1250.856339611762
 10
-198.9217755525664
 20
-1251.149339611762
 10
-198.6367755525663
 20
-1251.449339611762
 10
-198.3387755525663
 20
-1251.787339611762
 10
-198.0607755525664
 20
-1252.142339611763
 10
-197.9097755525663
 20
-1252.363339611762
 10
-197.7727755525664
 20
-1252.592339611762
 10
-197.6967755525663
 20
-1252.739339611762
 10
-197.6287755525664
 20
-1252.891339611762
 10
-197.5907755525663
 20
-1252.990339611762
 10
-197.5567755525663
 20
-1253.090339611762
 10
-197.5127755525664
 20
-1253.257339611762
 10
-197.4847755525663
 20
-1253.427339611762
 10
-197.4847755525663
 20
-1253.767339611762
 10
-197.5567755525663
 20
-1254.100339611762
 10
-197.5907755525663
 20
-1254.192339611762
 10
-197.6287755525664
 20
-1254.283339611762
 10
-197.6967755525663
 20
-1254.420339611762
 10
-197.7727755525664
 20
-1254.552339611762
 10
-197.9087755525663
 20
-1254.752339611762
 10
-198.0607755525664
 20
-1254.941339611762
 10
-198.3357755525663
 20
-1255.226339611762
 10
-198.6367755525663
 20
-1255.484339611762
 10
-198.9177755525663
 20
-1255.689339611762
 10
-199.2127755525664
 20
-1255.871339611762
 10
-199.7747755525664
 20
-1256.141339611762
 10
-200.3647755525664
 20
-1256.346339611762
 10
-201.0807755525664
 20
-1256.531339611762
 10
-201.8047755525663
 20
-1256.682339611762
 10
-202.5237755525663
 20
-1256.825339611763
 10
-203.2447755525664
 20
-1256.958339611762
 10
-203.9637755525663
 20
-1257.076339611762
 10
-204.6847755525663
 20
-1257.178339611762
 10
-205.4037755525663
 20
-1257.263339611762
 10
-206.1247755525664
 20
-1257.334339611762
 10
-207.5637755525664
 20
-1257.443339611762
 10
-209.0047755525664
 20
-1257.525339611762
 10
-210.4447755525663
 20
-1257.597339611762
 10
-211.8847755525664
 20
-1257.658339611762
 10
-213.3247755525663
 20
-1257.706339611762
 10
-214.7647755525664
 20
-1257.742339611762
 10
-216.2047755525663
 20
-1257.767339611762
 10
-217.6447755525664
 20
-1257.782339611762
 10
-219.0847755525663
 20
-1257.787339611762
 10
-220.5247755525664
 20
-1257.784339611762
 10
-221.9647755525664
 20
-1257.773339611762
 10
-223.4047755525664
 20
-1257.754339611762
 10
-224.8447755525664
 20
-1257.730339611762
 10
-226.2847755525664
 20
-1257.699339611762
 10
-227.7247755525664
 20
-1257.664339611762
 10
-229.1647755525664
 20
-1257.624339611762
 10
-230.6047755525664
 20
-1257.581339611762
 10
-232.0447755525663
 20
-1257.534339611762
 10
-233.4847755525664
 20
-1257.484339611762
 10
-234.9247755525663
 20
-1257.433339611762
 10
-236.3647755525664
 20
-1257.380339611762
 10
-237.8047755525663
 20
-1257.325339611762
 10
-239.2447755525664
 20
-1257.270339611762
 10
-240.6847755525664
 20
-1257.216339611762
 10
-242.1247755525663
 20
-1257.161339611762
 10
-243.5647755525664
 20
-1257.107339611762
 10
-245.0047755525663
 20
-1257.054339611762
 10
-246.4447755525664
 20
-1257.001339611762
 10
-247.8847755525664
 20
-1256.948339611762
 10
-249.3247755525664
 20
-1256.896339611762
 10
-250.7647755525664
 20
-1256.843339611762
 10
-252.2047755525663
 20
-1256.791339611762
 10
-253.6447755525664
 20
-1256.739339611762
 10
-255.0847755525663
 20
-1256.687339611762
 10
-256.5247755525664
 20
-1256.634339611762
 10
-257.9647755525663
 20
-1256.581339611762
 10
-259.4047755525664
 20
-1256.529339611762
 10
-260.8447755525664
 20
-1256.476339611762
 10
-262.2847755525664
 20
-1256.423339611762
 10
-263.7247755525664
 20
-1256.370339611762
 10
-265.1647755525664
 20
-1256.317339611762
 10
-266.6047755525664
 20
-1256.264339611762
 10
-268.0447755525664
 20
-1256.211339611762
 10
-269.4847755525664
 20
-1256.158339611762
 10
-270.9247755525664
 20
-1256.105339611762
 10
-272.3647755525663
 20
-1256.052339611762
 10
-273.8047755525664
 20
-1255.999339611762
 10
-275.2447755525663
 20
-1255.946339611762
 10
-276.6847755525664
 20
-1255.893339611762
 10
-278.1247755525663
 20
-1255.840339611762
 10
-279.5647755525664
 20
-1255.787339611762
 10
-281.0047755525664
 20
-1255.735339611762
 10
-282.4447755525664
 20
-1255.682339611762
 10
-283.8847755525664
 20
-1255.629339611762
 10
-285.3247755525663
 20
-1255.576339611762
 10
-286.7647755525664
 20
-1255.523339611762
 10
-288.2047755525663
 20
-1255.470339611762
 10
-289.6447755525664
 20
-1255.417339611762
 10
-291.0847755525663
 20
-1255.365339611762
 10
-292.5247755525664
 20
-1255.312339611762
 10
-293.9647755525663
 20
-1255.259339611762
 10
-295.4047755525664
 20
-1255.206339611762
 10
-296.8447755525664
 20
-1255.153339611762
 10
-298.2847755525664
 20
-1255.100339611762
 10
-299.7247755525664
 20
-1255.047339611762
 10
-301.1647755525664
 20
-1254.994339611762
 10
-302.6047755525663
 20
-1254.941339611762
 10
-304.0447755525664
 20
-1254.889339611762
 10
-305.4847755525664
 20
-1254.836339611762
 10
-306.9247755525664
 20
-1254.783339611762
 10
-308.3647755525664
 20
-1254.730339611762
 10
-309.8047755525664
 20
-1254.677339611762
 10
-311.2447755525664
 20
-1254.624339611762
 10
-312.6847755525663
 20
-1254.571339611762
 10
-314.1247755525664
 20
-1254.518339611762
 10
-315.5647755525663
 20
-1254.465339611762
 10
-317.0047755525664
 20
-1254.413339611762
 10
-318.4447755525663
 20
-1254.360339611762
 10
-319.8847755525664
 20
-1254.307339611762
 10
-321.3247755525663
 20
-1254.254339611762
 10
-322.7647755525664
 20
-1254.201339611762
 10
-324.2047755525663
 20
-1254.148339611762
 10
-325.6447755525664
 20
-1254.095339611762
 10
-327.0847755525663
 20
-1254.042339611762
 10
-328.5247755525664
 20
-1253.990339611762
 10
-329.9647755525663
 20
-1253.937339611762
 10
-331.4047755525664
 20
-1253.884339611762
 10
-332.8447755525664
 20
-1253.831339611762
 10
-334.2847755525664
 20
-1253.778339611762
 10
-335.7247755525664
 20
-1253.725339611762
 10
-336.4447755525663
 20
-1253.699339611762
 10
-337.1647755525664
 20
-1253.672339611762
 10
-337.8847755525664
 20
-1253.646339611762
 10
-338.6047755525664
 20
-1253.619339611762
 10
-339.3247755525663
 20
-1253.593339611762
 10
-340.0447755525664
 20
-1253.566339611762
 10
-340.7647755525664
 20
-1253.540339611762
 10
-341.4847755525664
 20
-1253.514339611762
 10
-341.4847755525664
 20
-1253.341339611762
  0
LINE
  5
10329
330
1F
100
AcDbEntity
  8
Defpoints
  6
ByBlock
 62
     0
100
AcDbLine
 10
-341.4847755525664
 20
-1253.341339611762
 30
0.0
 11
-387.7583755525663
 21
-1252.516939611762
 31
0.0
  0
LINE
  5
10339
330
1F
100
AcDbEntity
  8
Defpoints
  6
ByBlock
 62
     0
100
AcDbLine
 10
-298.5391755525666
 20
-1405.008939611762
 30
0.0
 11
-288.5391755525666
 21
-1405.008939611762
 31
0.0
  0
LINE
  5
1033D
330
1F
100
AcDbEntity
  8
Defpoints
  6
ByBlock
 62
     0
100
AcDbLine
 10
-338.4311401179886
 20
-1253.625850940559
 30
0.0
 11
-298.5391755525666
 21
-1405.008939611762
 31
0.0
  0
LINE
  5
1033E
330
1F
100
AcDbEntity
  8
Defpoints
  6
ByBlock
 62
     0
100
AcDbLine
 10
-288.5391755525666
 20
-1405.008939611762
 30
0.0
 11
-328.3288292728592
 21
-1253.997415449641
 31
0.0
  0
LINE
  5
10340
330
1F
100
AcDbEntity
  8
Defpoints
  6
ByBlock
 62
     0
100
AcDbLine
 10
-283.5175755525663
 20
-1409.105739611762
 30
0.0
 11
-298.5391755525666
 21
-1409.105739611762
 31
0.0
  0
LINE
  5
10341
330
1F
100
AcDbEntity
  8
Defpoints
  6
ByBlock
 62
     0
100
AcDbLine
 10
-298.5391755525666
 20
-1405.008939611762
 30
0.0
 11
-298.5391755525666
 21
-1432.483349344794
 31
0.0
  0
LINE
  5
10342
330
1F
100
AcDbEntity
  8
Defpoints
  6
ByBlock
 62
     0
100
AcDbLine
 10
-792.4311755525661
 20
-1294.850539611762
 30
0.0
 11
-298.5391755525666
 21
-1409.105739611762
 31
0.0
  0
LINE
  5
10352
330
1F
100
AcDbEntity
  8
Defpoints
  6
ByBlock
 62
     0
100
AcDbLine
 10
-251.1983755525664
 20
-1260.710539611762
 30
0.0
 11
-250.1182035913267
 21
-1256.867137052002
 31
0.0
  0
LINE
  5
10353
330
1F
100
AcDbEntity
  8
Defpoints
  6
ByBlock
 62
     0
100
AcDbLine
 10
-242.5495755525663
 20
-1260.255339611762
 30
0.0
 11
-241.6787367425332
 21
-1257.178375816312
 31
0.0
  0
ARC
  5
10357
330
1F
100
AcDbEntity
  8
Defpoints
  6
ByBlock
 62
     0
100
AcDbCircle
 10
-199.9182842030853
 20
-1367.474628193076
 30
0.0
 40
13.51147956453469
100
AcDbArc
 50
309.7391771490123
 51
22.88549235383794
  0
LINE
  5
10358
330
1F
100
AcDbEntity
  8
Defpoints
  6
ByBlock
 62
     0
100
AcDbLine
 10
-201.5815755525665
 20
-1380.883339611762
 30
0.0
 11
-191.2804796200702
 21
-1377.864450713624
 31
0.0
  0
LWPOLYLINE
  5
1037A
330
1F
100
AcDbEntity
  8
ala
  6
Continuous
100
AcDbPolyline
 90
        2
 70
     0
 43
0.0
 10
-1870.561869327868
 20
-441.3049733461397
 10
-1907.920645193387
 20
-441.3049733461397
  0
LWPOLYLINE
  5
1037B
330
1F
100
AcDbEntity
  8
ala
  6
Continuous
100
AcDbPolyline
 90
       22
 70
     0
 43
0.0
 10
-2003.903869327868
 20
-440.2819733461397
 10
-2002.716869327867
 20
-440.0169733461397
 10
-2001.280869327867
 20
-439.6999733461397
 10
-1999.843869327867
 20
-439.3869733461396
 10
-1998.407869327867
 20
-439.0769733461397
 10
-1996.970869327867
 20
-438.7709733461397
 10
-1995.534869327867
 20
-438.4689733461397
 10
-1994.097869327868
 20
-438.1699733461397
 10
-1992.662869327867
 20
-437.8749733461397
 10
-1991.225869327868
 20
-437.5839733461397
 10
-1989.789869327868
 20
-437.2969733461397
 10
-1988.353869327867
 20
-437.0139733461396
 10
-1986.917869327868
 20
-436.7349733461396
 10
-1985.481869327868
 20
-436.4599733461396
 10
-1984.045869327867
 20
-436.1889733461397
 10
-1982.609869327868
 20
-435.9219733461397
 10
-1981.174869327867
 20
-435.6589733461396
 10
-1979.737869327867
 20
-435.4009733461396
 10
-1978.302869327867
 20
-435.1469733461397
 10
-1976.866869327867
 20
-434.8969733461396
 10
-1975.431869327867
 20
-434.6509733461397
 10
-1974.561869327867
 20
-434.5050652041773
  0
LINE
  5
10380
330
1F
100
AcDbEntity
  8
ala
  6
ByBlock
 62
     0
100
AcDbLine
 10
-1904.711869327868
 20
-428.6898401053347
 30
0.0
 11
-1904.711869327868
 21
-430.1944291045668
 31
0.0
  0
LWPOLYLINE
  5
10381
330
1F
100
AcDbEntity
  8
ala
  6
Continuous
100
AcDbPolyline
 90
       47
 70
     0
 43
0.0
 10
-1909.441869327867
 20
-445.2579733461397
 10
-1910.881869327867
 20
-445.2029733461397
 10
-1912.321869327868
 20
-445.1479733461396
 10
-1913.761869327867
 20
-445.0939733461397
 10
-1915.201869327867
 20
-445.0389733461397
 10
-1916.641869327867
 20
-444.9849733461396
 10
-1918.081869327867
 20
-444.9319733461398
 10
-1919.521869327867
 20
-444.8789733461397
 10
-1920.961869327868
 20
-444.8259733461397
 10
-1922.401869327867
 20
-444.7739733461396
 10
-1923.841869327867
 20
-444.7209733461398
 10
-1925.281869327867
 20
-444.6689733461397
 10
-1926.721869327867
 20
-444.6169733461397
 10
-1928.161869327867
 20
-444.5649733461396
 10
-1929.601869327867
 20
-444.5119733461397
 10
-1931.041869327867
 20
-444.4589733461397
 10
-1932.481869327867
 20
-444.4069733461397
 10
-1933.921869327867
 20
-444.3539733461396
 10
-1935.361869327867
 20
-444.3009733461397
 10
-1936.801869327867
 20
-444.2479733461397
 10
-1938.241869327867
 20
-444.1949733461397
 10
-1939.681869327867
 20
-444.1419733461397
 10
-1941.121869327867
 20
-444.0889733461396
 10
-1942.561869327867
 20
-444.0359733461397
 10
-1944.001869327868
 20
-443.9829733461396
 10
-1945.441869327867
 20
-443.9299733461397
 10
-1946.881869327867
 20
-443.8769733461397
 10
-1948.321869327867
 20
-443.8239733461397
 10
-1949.761869327867
 20
-443.7709733461397
 10
-1951.201869327867
 20
-443.7179733461397
 10
-1952.641869327867
 20
-443.6649733461397
 10
-1954.081869327868
 20
-443.6129733461397
 10
-1955.521869327867
 20
-443.5599733461397
 10
-1956.961869327868
 20
-443.5069733461396
 10
-1958.401869327867
 20
-443.4539733461397
 10
-1959.841869327867
 20
-443.4009733461397
 10
-1961.281869327867
 20
-443.3479733461397
 10
-1962.721869327867
 20
-443.2949733461397
 10
-1964.161869327867
 20
-443.2429733461397
 10
-1965.601869327867
 20
-443.1899733461396
 10
-1967.041869327868
 20
-443.1369733461397
 10
-1968.481869327867
 20
-443.0839733461397
 10
-1969.921869327867
 20
-443.0309733461397
 10
-1971.361869327867
 20
-442.9779733461397
 10
-1972.801869327867
 20
-442.9249733461396
 10
-1974.241869327867
 20
-442.8719733461397
 10
-1974.561869327867
 20
-442.8601955683619
  0
LINE
  5
1038A
330
1F
100
AcDbEntity
  8
ala
  6
ByBlock
 62
     0
100
AcDbLine
 10
-1909.441869327867
 20
-445.2579733461397
 30
0.0
 11
-1908.060869327867
 21
-445.3089733461397
 31
0.0
  0
LINE
  5
1038B
330
1F
100
AcDbEntity
  8
ala
  6
ByBlock
 62
     0
100
AcDbLine
 10
-1908.060869327867
 20
-445.3089733461397
 30
0.0
 11
-1907.710869327867
 21
-435.3149733461397
 31
0.0
  0
LINE
  5
1038C
330
1F
100
AcDbEntity
  8
ala
  6
ByBlock
 62
     0
100
AcDbLine
 10
-1907.710869327867
 20
-435.3149733461397
 30
0.0
 11
-1904.711869327868
 21
-435.4199733461397
 31
0.0
  0
LINE
  5
1038E
330
1F
100
AcDbEntity
  8
ala
  6
ByBlock
 62
     0
100
AcDbLine
 10
-1904.711869327868
 20
-435.4199733461397
 30
0.0
 11
-1905.010221905891
 21
-443.9149467500443
 31
0.0
  0
LINE
  5
103A2
330
1F
100
AcDbEntity
  8
ala
  6
ByBlock
 62
     0
100
AcDbLine
 10
-1875.561869327867
 20
-437.9078866495777
 30
0.0
 11
-1875.561869327867
 21
-443.1658707820371
 31
0.0
  0
LWPOLYLINE
  5
103A5
330
1F
100
AcDbEntity
  8
ala
  6
Continuous
100
AcDbPolyline
 90
       25
 70
     0
 43
0.0
 10
-1875.561869327867
 20
-443.1658707820371
 10
-1875.882869327867
 20
-443.2289733461397
 10
-1876.579869327867
 20
-443.3589733461396
 10
-1877.266869327867
 20
-443.4709733461398
 10
-1877.954869327868
 20
-443.5679733461397
 10
-1878.642869327867
 20
-443.6489733461396
 10
-1879.326869327867
 20
-443.7169733461397
 10
-1880.740869327867
 20
-443.8239733461397
 10
-1882.161869327867
 20
-443.9059733461397
 10
-1883.590869327867
 20
-443.9759733461396
 10
-1885.018869327867
 20
-444.0369733461396
 10
-1886.445869327867
 20
-444.0849733461397
 10
-1887.873869327867
 20
-444.1199733461396
 10
-1889.302869327867
 20
-444.1449733461397
 10
-1890.732869327867
 20
-444.1599733461397
 10
-1892.162869327867
 20
-444.1649733461397
 10
-1893.593869327867
 20
-444.1619733461396
 10
-1895.026869327867
 20
-444.1509733461397
 10
-1896.459869327867
 20
-444.1319733461397
 10
-1897.892869327867
 20
-444.1079733461397
 10
-1899.327869327867
 20
-444.0769733461397
 10
-1900.762869327867
 20
-444.0419733461396
 10
-1902.198869327867
 20
-444.0029733461397
 10
-1903.634869327867
 20
-443.9589733461397
 10
-1905.010221905891
 20
-443.9149467500443
  0
LINE
  5
103A9
330
1F
100
AcDbEntity
  8
ala
  6
ByBlock
 62
     0
100
AcDbLine
 10
-1974.561869327867
 20
-432.9837511239174
 30
0.0
 11
-1974.561869327867
 21
-442.8601955683619
 31
0.0
  0
LWPOLYLINE
  5
103AB
330
1F
100
AcDbEntity
  8
ala
  6
Continuous
100
AcDbPolyline
 90
       51
 70
     0
 43
0.0
 10
-1974.561869327867
 20
-432.9837511239174
 10
-1974.241869327867
 20
-432.9299733461397
 10
-1972.801869327867
 20
-432.6919733461397
 10
-1971.361869327867
 20
-432.4589733461396
 10
-1969.921869327867
 20
-432.2299733461398
 10
-1968.481869327867
 20
-432.0049733461396
 10
-1967.041869327868
 20
-431.7849733461397
 10
-1965.601869327867
 20
-431.5699733461396
 10
-1964.161869327867
 20
-431.3599733461396
 10
-1962.721869327867
 20
-431.1559733461397
 10
-1961.281869327867
 20
-430.9569733461398
 10
-1959.841869327867
 20
-430.7639733461396
 10
-1958.401869327867
 20
-430.5759733461398
 10
-1956.961869327868
 20
-430.3949733461397
 10
-1955.521869327867
 20
-430.2209733461397
 10
-1954.081869327868
 20
-430.0519733461396
 10
-1952.641869327867
 20
-429.8909733461397
 10
-1951.201869327867
 20
-429.7349733461397
 10
-1949.761869327867
 20
-429.5859733461397
 10
-1948.321869327867
 20
-429.4439733461397
 10
-1946.881869327867
 20
-429.3079733461397
 10
-1945.441869327867
 20
-429.1779733461397
 10
-1944.001869327868
 20
-429.0549733461396
 10
-1942.561869327867
 20
-428.9389733461397
 10
-1941.121869327867
 20
-428.8289733461397
 10
-1939.681869327867
 20
-428.7259733461396
 10
-1938.241869327867
 20
-428.6299733461397
 10
-1936.801869327867
 20
-428.5409733461396
 10
-1935.361869327867
 20
-428.4589733461396
 10
-1933.921869327867
 20
-428.3859733461397
 10
-1932.481869327867
 20
-428.3209733461396
 10
-1931.041869327867
 20
-428.2639733461397
 10
-1929.601869327867
 20
-428.2159733461396
 10
-1928.161869327867
 20
-428.1769733461397
 10
-1926.721869327867
 20
-428.1469733461396
 10
-1925.281869327867
 20
-428.1259733461397
 10
-1923.841869327867
 20
-428.1139733461396
 10
-1922.401869327867
 20
-428.1109733461398
 10
-1920.961869327868
 20
-428.1159733461397
 10
-1919.521869327867
 20
-428.1279733461397
 10
-1918.081869327867
 20
-428.1479733461396
 10
-1916.641869327867
 20
-428.1749733461396
 10
-1915.201869327867
 20
-428.2079733461397
 10
-1913.761869327867
 20
-428.2469733461397
 10
-1912.321869327868
 20
-428.2929733461396
 10
-1910.881869327867
 20
-428.3449733461396
 10
-1909.441869327867
 20
-428.4059733461397
 10
-1908.001869327867
 20
-428.4769733461397
 10
-1906.561869327867
 20
-428.5599733461396
 10
-1905.121869327867
 20
-428.6579733461397
 10
-1904.711869327868
 20
-428.6898401053347
  0
LWPOLYLINE
  5
103AC
330
1F
100
AcDbEntity
  8
ala
  6
Continuous
100
AcDbPolyline
 90
       26
 70
     0
 43
0.0
 10
-1904.711869327868
 20
-430.1944291045668
 10
-1903.806869327867
 20
-430.2649733461398
 10
-1902.386869327867
 20
-430.3939733461398
 10
-1900.966869327868
 20
-430.5409733461397
 10
-1899.549869327867
 20
-430.7089733461396
 10
-1898.131869327867
 20
-430.8999733461397
 10
-1896.716869327867
 20
-431.1129733461397
 10
-1895.297869327867
 20
-431.3499733461396
 10
-1893.882869327867
 20
-431.6079733461397
 10
-1892.462869327867
 20
-431.8909733461397
 10
-1891.048869327867
 20
-432.1939733461397
 10
-1889.629869327867
 20
-432.5229733461396
 10
-1888.218869327867
 20
-432.8759733461397
 10
-1886.803869327867
 20
-433.2579733461397
 10
-1885.398869327867
 20
-433.6689733461397
 10
-1883.984869327867
 20
-434.1159733461397
 10
-1882.581869327867
 20
-434.5929733461397
 10
-1881.170869327867
 20
-435.1109733461397
 10
-1879.773869327867
 20
-435.6709733461396
 10
-1879.091869327868
 20
-435.9669733461397
 10
-1878.409869327867
 20
-436.2819733461397
 10
-1877.722869327867
 20
-436.6229733461397
 10
-1877.052869327867
 20
-436.9809733461397
 10
-1876.373869327867
 20
-437.3749733461397
 10
-1875.725869327867
 20
-437.7899733461397
 10
-1875.561869327867
 20
-437.9078866495777
  0
LWPOLYLINE
  5
103AE
330
1F
100
AcDbEntity
  8
ala
  6
Continuous
100
AcDbPolyline
 90
        2
 70
     0
 43
0.0
 10
-1974.561869327867
 20
-441.3049733461397
 10
-2014.561869327867
 20
-441.3049733461397
  0
LWPOLYLINE
  5
103AF
330
1F
100
AcDbEntity
  8
ala
  6
Continuous
100
AcDbPolyline
 90
        2
 70
     0
 43
0.0
 10
-1974.561869327867
 20
-441.3049733461397
 10
-2014.561869327867
 20
-441.3049733461397
  0
LWPOLYLINE
  5
103B0
330
1F
100
AcDbEntity
  8
ala
  6
Continuous
100
AcDbPolyline
 90
       22
 70
     0
 43
0.0
 10
-1974.561869327867
 20
-441.3591712628064
 10
-1975.626869327868
 20
-441.3199733461397
 10
-1977.066869327867
 20
-441.2679733461398
 10
-1978.506869327867
 20
-441.2149733461396
 10
-1979.946869327867
 20
-441.1619733461397
 10
-1981.386869327867
 20
-441.1089733461396
 10
-1982.826869327867
 20
-441.0559733461396
 10
-1984.266869327867
 20
-441.0029733461397
 10
-1985.706869327867
 20
-440.9499733461396
 10
-1987.146869327867
 20
-440.8969733461397
 10
-1988.586869327868
 20
-440.8439733461396
 10
-1990.026869327867
 20
-440.7919733461397
 10
-1991.466869327867
 20
-440.7389733461396
 10
-1992.906869327867
 20
-440.6859733461397
 10
-1994.346869327867
 20
-440.6329733461396
 10
-1995.786869327867
 20
-440.5799733461397
 10
-1997.226869327867
 20
-440.5269733461397
 10
-1998.666869327868
 20
-440.4739733461396
 10
-2000.106869327868
 20
-440.4209733461397
 10
-2001.546869327867
 20
-440.3689733461397
 10
-2002.986869327868
 20
-440.3159733461396
 10
-2003.903869327868
 20
-440.2819733461397
  0
LINE
  5
103B1
330
1F
100
AcDbEntity
  8
ala
  6
ByBlock
 62
     0
100
AcDbLine
 10
-1974.561869327867
 20
-441.3049733461397
 30
0.0
 11
-1907.920645193387
 21
-441.3049733461397
 31
0.0
  0
LINE
  5
103B2
330
1F
100
AcDbEntity
  8
ala
  6
ByBlock
 62
     0
100
AcDbLine
 10
-1964.561869327867
 20
-445.3089733461397
 30
0.0
 11
-1974.561869327867
 21
-445.3089733461397
 31
0.0
  0
LINE
  5
103B3
330
1F
100
AcDbEntity
  8
ala
  6
ByBlock
 62
     0
100
AcDbLine
 10
-1974.561869327867
 20
-442.8601955683619
 30
0.0
 11
-1974.561869327867
 21
-445.3089733461397
 31
0.0
  0
LINE
  5
103B5
330
1F
100
AcDbEntity
  8
ala
  6
ByBlock
 62
     0
100
AcDbLine
 10
-1964.561869327867
 20
-445.3089733461398
 30
0.0
 11
-1964.561869327867
 21
-443.2282511239175
 31
0.0
  0
LINE
  5
103E5
102
{ACAD_REACTORS
330
10738
102
}
330
1F
100
AcDbEntity
  8
ala
  6
ByBlock
 62
     0
100
AcDbLine
 10
-2047.0
 20
-105.2938635082482
 30
0.0
 11
-2047.0
 21
38.70613649175175
 31
0.0
  0
LINE
  5
103E9
330
1F
100
AcDbEntity
  8
ala
  6
ByBlock
 62
     0
100
AcDbLine
 10
-1379.0
 20
18.70613649175175
 30
0.0
 11
-1379.0
 21
-105.2938635082482
 31
0.0
  0
LINE
  5
103EB
102
{ACAD_REACTORS
330
10738
102
}
330
1F
100
AcDbEntity
  8
ala
  6
ByBlock
 62
     0
100
AcDbLine
 10
-2047.0
 20
-105.2938635082482
 30
0.0
 11
-1379.0
 21
-105.2938635082482
 31
0.0
  0
LINE
  5
10407
330
1F
100
AcDbEntity
  8
Defpoints
  6
ByBlock
 62
     0
100
AcDbLine
 10
-1739.0
 20
-688.833333333333
 30
0.0
 11
-1460.25
 21
-852.3333333333329
 31
0.0
  0
LINE
  5
10417
330
1F
100
AcDbEntity
  8
Defpoints
  6
ByBlock
 62
     0
100
AcDbLine
 10
-1729.0
 20
-688.833333333333
 30
0.0
 11
-1460.25
 21
-845.833333333333
 31
0.0
  0
LINE
  5
10426
102
{ACAD_REACTORS
330
10738
102
}
330
1F
100
AcDbEntity
  8
ala
  6
ByBlock
 62
     0
100
AcDbLine
 10
-2047.0
 20
38.70613649175175
 30
0.0
 11
-1452.5
 21
38.70613649175174
 31
0.0
  0
LINE
  5
10438
330
1F
100
AcDbEntity
  8
ala
  6
ByBlock
 62
     0
100
AcDbLine
 10
-1499.0
 20
-105.2938635082482
 30
0.0
 11
-1499.0
 21
38.70613649175175
 31
0.0
  0
LINE
  5
1043A
330
1F
100
AcDbEntity
  8
ala
  6
ByBlock
 62
     0
100
AcDbLine
 10
-1559.0
 20
38.70613649175175
 30
0.0
 11
-1559.0
 21
-105.2938635082482
 31
0.0
  0
LINE
  5
1043D
330
1F
100
AcDbEntity
  8
ala
  6
ByBlock
 62
     0
100
AcDbLine
 10
-1619.0
 20
-105.2938635082482
 30
0.0
 11
-1619.0
 21
38.70613649175175
 31
0.0
  0
LINE
  5
1043F
330
1F
100
AcDbEntity
  8
ala
  6
ByBlock
 62
     0
100
AcDbLine
 10
-1679.0
 20
38.70613649175175
 30
0.0
 11
-1679.0
 21
-105.2938635082482
 31
0.0
  0
LINE
  5
10441
330
1F
100
AcDbEntity
  8
ala
  6
ByBlock
 62
     0
100
AcDbLine
 10
-1739.0
 20
-105.2938635082482
 30
0.0
 11
-1739.0
 21
38.70613649175176
 31
0.0
  0
LINE
  5
10443
330
1F
100
AcDbEntity
  8
ala
  6
ByBlock
 62
     0
100
AcDbLine
 10
-1799.0
 20
38.70613649175176
 30
0.0
 11
-1799.0
 21
-105.2938635082482
 31
0.0
  0
LINE
  5
10445
330
1F
100
AcDbEntity
  8
ala
  6
ByBlock
 62
     0
100
AcDbLine
 10
-1859.0
 20
-105.2938635082482
 30
0.0
 11
-1859.0
 21
38.70613649175175
 31
0.0
  0
LINE
  5
10447
330
1F
100
AcDbEntity
  8
ala
  6
ByBlock
 62
     0
100
AcDbLine
 10
-1919.0
 20
38.70613649175175
 30
0.0
 11
-1919.0
 21
-105.2938635082482
 31
0.0
  0
LINE
  5
10449
102
{ACAD_REACTORS
330
10738
102
}
330
1F
100
AcDbEntity
  8
ala
  6
ByBlock
 62
     0
100
AcDbLine
 10
-1979.0
 20
-65.29386350824826
 30
0.0
 11
-1979.0
 21
4.706136491751749
 31
0.0
  0
LINE
  5
1045B
102
{ACAD_REACTORS
330
10738
102
}
330
1F
100
AcDbEntity
  8
ala
  6
ByBlock
 62
     0
100
AcDbLine
 10
-1979.0
 20
4.706136491751749
 30
0.0
 11
-1501.0
 21
4.706136491751749
 31
0.0
  0
LINE
  5
10470
102
{ACAD_REACTORS
330
10738
102
}
330
1F
100
AcDbEntity
  8
ala
  6
ByBlock
 62
     0
100
AcDbLine
 10
-1979.0
 20
-65.29386350824826
 30
0.0
 11
-1501.0
 21
-65.29386350824825
 31
0.0
  0
LINE
  5
10482
330
1F
100
AcDbEntity
  8
ala
  6
ByBlock
 62
     0
100
AcDbLine
 10
-1414.0
 20
16.70613649175171
 30
0.0
 11
-1414.0
 21
-105.2938635082482
 31
0.0
  0
LINE
  5
10484
330
1F
100
AcDbEntity
  8
ala
  6
ByBlock
 62
     0
100
AcDbLine
 10
-1379.0
 20
18.70613649175175
 30
0.0
 11
-1452.5
 21
18.70613649175163
 31
0.0
  0
LINE
  5
10487
330
1F
100
AcDbEntity
  8
ala
  6
ByBlock
 62
     0
100
AcDbLine
 10
-1381.0
 20
16.70613649175175
 30
0.0
 11
-1381.0
 21
-105.2938635082482
 31
0.0
  0
LINE
  5
10488
330
1F
100
AcDbEntity
  8
ala
  6
ByBlock
 62
     0
100
AcDbLine
 10
-1414.0
 20
18.70613649175169
 30
0.0
 11
-1416.0
 21
18.70613649175169
 31
0.0
  0
LINE
  5
10489
330
1F
100
AcDbEntity
  8
ala
  6
ByBlock
 62
     0
100
AcDbLine
 10
-1416.0
 20
16.70613649175171
 30
0.0
 11
-1416.0
 21
-105.2938635082482
 31
0.0
  0
LINE
  5
1048D
102
{ACAD_REACTORS
330
10738
102
}
330
1F
100
AcDbEntity
  8
ala
  6
ByBlock
 62
     0
100
AcDbLine
 10
-1501.0
 20
4.706136491751749
 30
0.0
 11
-1501.0
 21
-65.29386350824826
 31
0.0
  0
LINE
  5
1048E
330
1F
100
AcDbEntity
  8
ala
  6
ByBlock
 62
     0
100
AcDbLine
 10
-1452.5
 20
-105.2938635082482
 30
0.0
 11
-1454.5
 21
-105.2938635082482
 31
0.0
  0
LINE
  5
1048F
330
1F
100
AcDbEntity
  8
ala
  6
ByBlock
 62
     0
100
AcDbLine
 10
-1454.5
 20
-105.2938635082482
 30
0.0
 11
-1454.5
 21
38.70613649175172
 31
0.0
  0
LINE
  5
10490
330
1F
100
AcDbEntity
  8
ala
  6
ByBlock
 62
     0
100
AcDbLine
 10
-1501.0
 20
4.706136491751749
 30
0.0
 11
-1379.0
 21
4.706136491751749
 31
0.0
  0
LINE
  5
10492
330
1F
100
AcDbEntity
  8
ala
  6
ByBlock
 62
     0
100
AcDbLine
 10
-1379.0
 20
1.706136491751749
 30
0.0
 11
-2047.0
 21
1.706136491751749
 31
0.0
  0
LINE
  5
104A2
330
1F
100
AcDbEntity
  8
ala
  6
ByBlock
 62
     0
100
AcDbLine
 10
-1379.0
 20
1.706136491751749
 30
0.0
 11
-1379.0
 21
-0.2938635082482506
 31
0.0
  0
LINE
  5
104A3
330
1F
100
AcDbEntity
  8
ala
  6
ByBlock
 62
     0
100
AcDbLine
 10
-1379.0
 20
-0.2938635082482506
 30
0.0
 11
-1501.0
 21
-0.2938635082484353
 31
0.0
  0
LINE
  5
104C1
330
1F
100
AcDbEntity
  8
ala
  6
ByBlock
 62
     0
100
AcDbLine
 10
-1561.0
 20
38.70613649175174
 30
0.0
 11
-1561.0
 21
-105.2938635082482
 31
0.0
  0
LINE
  5
104C3
330
1F
100
AcDbEntity
  8
ala
  6
ByBlock
 62
     0
100
AcDbLine
 10
-1621.0
 20
-105.2938635082482
 30
0.0
 11
-1621.0
 21
38.70613649175174
 31
0.0
  0
LINE
  5
104C5
330
1F
100
AcDbEntity
  8
ala
  6
ByBlock
 62
     0
100
AcDbLine
 10
-1681.0
 20
38.70613649175174
 30
0.0
 11
-1681.0
 21
-105.2938635082482
 31
0.0
  0
LINE
  5
104C7
330
1F
100
AcDbEntity
  8
ala
  6
ByBlock
 62
     0
100
AcDbLine
 10
-1741.0
 20
38.70613649175176
 30
0.0
 11
-1741.0
 21
-105.2938635082482
 31
0.0
  0
LINE
  5
104C9
330
1F
100
AcDbEntity
  8
ala
  6
ByBlock
 62
     0
100
AcDbLine
 10
-1801.000000000001
 20
38.70613649175175
 30
0.0
 11
-1801.000000000001
 21
-105.2938635082482
 31
0.0
  0
LINE
  5
104CB
330
1F
100
AcDbEntity
  8
ala
  6
ByBlock
 62
     0
100
AcDbLine
 10
-1861.0
 20
38.70613649175175
 30
0.0
 11
-1861.0
 21
-105.2938635082482
 31
0.0
  0
LINE
  5
104CD
330
1F
100
AcDbEntity
  8
ala
  6
ByBlock
 62
     0
100
AcDbLine
 10
-1921.0
 20
38.70613649175175
 30
0.0
 11
-1921.0
 21
-105.2938635082482
 31
0.0
  0
LINE
  5
104CF
330
1F
100
AcDbEntity
  8
ala
  6
ByBlock
 62
     0
100
AcDbLine
 10
-1981.0
 20
38.70613649175175
 30
0.0
 11
-1981.0
 21
-105.2938635082482
 31
0.0
  0
LINE
  5
104D1
330
1F
100
AcDbEntity
  8
ala
  6
ByBlock
 62
     0
100
AcDbLine
 10
-2045.0
 20
38.70613649175175
 30
0.0
 11
-2045.0
 21
-105.2938635082482
 31
0.0
  0
LINE
  5
104D3
330
1F
100
AcDbEntity
  8
ala
  6
ByBlock
 62
     0
100
AcDbLine
 10
-2047.0
 20
130.4658484995634
 30
0.0
 11
-1379.0
 21
130.4658484995634
 31
0.0
  0
LINE
  5
104E2
330
1F
100
AcDbEntity
  8
ala
  6
ByBlock
 62
     0
100
AcDbLine
 10
-2047.0
 20
130.4658484995634
 30
0.0
 11
-2047.0
 21
140.4658484995634
 31
0.0
  0
LINE
  5
104E3
330
1F
100
AcDbEntity
  8
ala
  6
ByBlock
 62
     0
100
AcDbLine
 10
-2045.0
 20
140.4658484995634
 30
0.0
 11
-2045.0
 21
145.4658484995634
 31
0.0
  0
LINE
  5
104E5
330
1F
100
AcDbEntity
  8
ala
  6
ByBlock
 62
     0
100
AcDbLine
 10
-2045.000000000001
 20
145.4658484995634
 30
0.0
 11
-1981.0
 21
145.4658484995634
 31
0.0
  0
LINE
  5
104E6
330
1F
100
AcDbEntity
  8
ala
  6
ByBlock
 62
     0
100
AcDbLine
 10
-1981.0
 20
140.4658484995634
 30
0.0
 11
-1981.0
 21
145.4658484995634
 31
0.0
  0
LINE
  5
104E7
330
1F
100
AcDbEntity
  8
ala
  6
ByBlock
 62
     0
100
AcDbLine
 10
-1979.0
 20
140.4658484995634
 30
0.0
 11
-1979.0
 21
145.4658484995634
 31
0.0
  0
LINE
  5
104EE
330
1F
100
AcDbEntity
  8
ala
  6
ByBlock
 62
     0
100
AcDbLine
 10
-1741.0
 20
140.4658484995634
 30
0.0
 11
-1741.0
 21
145.4658484995634
 31
0.0
  0
LINE
  5
104EF
330
1F
100
AcDbEntity
  8
ala
  6
ByBlock
 62
     0
100
AcDbLine
 10
-1739.0
 20
140.4658484995634
 30
0.0
 11
-1739.0
 21
145.4658484995634
 31
0.0
  0
LINE
  5
104F0
330
1F
100
AcDbEntity
  8
ala
  6
ByBlock
 62
     0
100
AcDbLine
 10
-1681.0
 20
140.4658484995634
 30
0.0
 11
-1681.0
 21
145.4658484995634
 31
0.0
  0
LINE
  5
104F1
330
1F
100
AcDbEntity
  8
ala
  6
ByBlock
 62
     0
100
AcDbLine
 10
-1679.0
 20
140.4658484995634
 30
0.0
 11
-1679.0
 21
145.4658484995634
 31
0.0
  0
LINE
  5
104F2
330
1F
100
AcDbEntity
  8
ala
  6
ByBlock
 62
     0
100
AcDbLine
 10
-1621.0
 20
140.4658484995634
 30
0.0
 11
-1621.0
 21
145.4658484995634
 31
0.0
  0
LINE
  5
104F3
330
1F
100
AcDbEntity
  8
ala
  6
ByBlock
 62
     0
100
AcDbLine
 10
-1619.0
 20
140.4658484995634
 30
0.0
 11
-1619.0
 21
145.4658484995634
 31
0.0
  0
LINE
  5
104F4
330
1F
100
AcDbEntity
  8
ala
  6
ByBlock
 62
     0
100
AcDbLine
 10
-1561.0
 20
140.4658484995634
 30
0.0
 11
-1561.0
 21
145.4658484995634
 31
0.0
  0
LINE
  5
104F5
330
1F
100
AcDbEntity
  8
ala
  6
ByBlock
 62
     0
100
AcDbLine
 10
-1559.000000000001
 20
140.4658484995634
 30
0.0
 11
-1559.0
 21
145.4658484995634
 31
0.0
  0
LINE
  5
104F6
330
1F
100
AcDbEntity
  8
ala
  6
ByBlock
 62
     0
100
AcDbLine
 10
-1501.0
 20
140.4658484995634
 30
0.0
 11
-1501.0
 21
145.4658484995634
 31
0.0
  0
LINE
  5
104F7
330
1F
100
AcDbEntity
  8
ala
  6
ByBlock
 62
     0
100
AcDbLine
 10
-1499.0
 20
140.4658484995634
 30
0.0
 11
-1499.0
 21
145.4658484995634
 31
0.0
  0
LINE
  5
104F8
330
1F
100
AcDbEntity
  8
ala
  6
ByBlock
 62
     0
100
AcDbLine
 10
-1454.5
 20
140.4658484995634
 30
0.0
 11
-1454.5
 21
145.4658484995634
 31
0.0
  0
LINE
  5
104F9
330
1F
100
AcDbEntity
  8
ala
  6
ByBlock
 62
     0
100
AcDbLine
 10
-1452.5
 20
140.4658484995634
 30
0.0
 11
-1452.5
 21
145.4658484995634
 31
0.0
  0
LINE
  5
104FC
330
1F
100
AcDbEntity
  8
ala
  6
ByBlock
 62
     0
100
AcDbLine
 10
-1381.0
 20
140.4658484995634
 30
0.0
 11
-1381.0
 21
145.4658484995634
 31
0.0
  0
LINE
  5
104FD
330
1F
100
AcDbEntity
  8
ala
  6
ByBlock
 62
     0
100
AcDbLine
 10
-1379.0
 20
130.4658484995634
 30
0.0
 11
-1379.0
 21
140.4658484995634
 31
0.0
  0
LINE
  5
104FE
330
1F
100
AcDbEntity
  8
ala
  6
ByBlock
 62
     0
100
AcDbLine
 10
-2047.0
 20
130.4658484995634
 30
0.0
 11
-2047.0
 21
140.4658484995634
 31
0.0
  0
LINE
  5
104FF
330
1F
100
AcDbEntity
  8
ala
  6
ByBlock
 62
     0
100
AcDbLine
 10
-2047.0
 20
140.4658484995634
 30
0.0
 11
-2045.0
 21
140.4658484995634
 31
0.0
  0
LINE
  5
10500
330
1F
100
AcDbEntity
  8
ala
  6
ByBlock
 62
     0
100
AcDbLine
 10
-1979.0
 20
145.4658484995634
 30
0.0
 11
-1921.0
 21
145.4658484995634
 31
0.0
  0
LINE
  5
10501
330
1F
100
AcDbEntity
  8
ala
  6
ByBlock
 62
     0
100
AcDbLine
 10
-1981.0
 20
140.4658484995634
 30
0.0
 11
-1979.0
 21
140.4658484995634
 31
0.0
  0
LINE
  5
10502
330
1F
100
AcDbEntity
  8
ala
  6
ByBlock
 62
     0
100
AcDbLine
 10
-1921.0
 20
140.4658484995634
 30
0.0
 11
-1919.0
 21
140.4658484995634
 31
0.0
  0
LINE
  5
10503
330
1F
100
AcDbEntity
  8
ala
  6
ByBlock
 62
     0
100
AcDbLine
 10
-1919.0
 20
145.4658484995634
 30
0.0
 11
-1861.0
 21
145.4658484995634
 31
0.0
  0
LINE
  5
10504
330
1F
100
AcDbEntity
  8
ala
  6
ByBlock
 62
     0
100
AcDbLine
 10
-1919.0
 20
140.4658484995634
 30
0.0
 11
-1919.0
 21
145.4658484995634
 31
0.0
  0
LINE
  5
10505
330
1F
100
AcDbEntity
  8
ala
  6
ByBlock
 62
     0
100
AcDbLine
 10
-1921.0
 20
140.4658484995634
 30
0.0
 11
-1921.0
 21
145.4658484995634
 31
0.0
  0
LINE
  5
10506
330
1F
100
AcDbEntity
  8
ala
  6
ByBlock
 62
     0
100
AcDbLine
 10
-1861.0
 20
140.4658484995634
 30
0.0
 11
-1859.0
 21
140.4658484995634
 31
0.0
  0
LINE
  5
10507
330
1F
100
AcDbEntity
  8
ala
  6
ByBlock
 62
     0
100
AcDbLine
 10
-1861.0
 20
140.4658484995634
 30
0.0
 11
-1861.0
 21
145.4658484995634
 31
0.0
  0
LINE
  5
10508
330
1F
100
AcDbEntity
  8
ala
  6
ByBlock
 62
     0
100
AcDbLine
 10
-1858.999999999999
 20
140.4658484995634
 30
0.0
 11
-1859.0
 21
145.4658484995634
 31
0.0
  0
LINE
  5
10509
330
1F
100
AcDbEntity
  8
ala
  6
ByBlock
 62
     0
100
AcDbLine
 10
-1859.0
 20
145.4658484995634
 30
0.0
 11
-1801.0
 21
145.4658484995634
 31
0.0
  0
LINE
  5
1050A
330
1F
100
AcDbEntity
  8
ala
  6
ByBlock
 62
     0
100
AcDbLine
 10
-1801.000000000001
 20
140.4658484995634
 30
0.0
 11
-1799.0
 21
140.4658484995634
 31
0.0
  0
LINE
  5
1050B
330
1F
100
AcDbEntity
  8
ala
  6
ByBlock
 62
     0
100
AcDbLine
 10
-1801.0
 20
140.4658484995634
 30
0.0
 11
-1801.000000000001
 21
145.4658484995634
 31
0.0
  0
LINE
  5
1050C
330
1F
100
AcDbEntity
  8
ala
  6
ByBlock
 62
     0
100
AcDbLine
 10
-1799.0
 20
140.4658484995634
 30
0.0
 11
-1799.0
 21
145.4658484995634
 31
0.0
  0
LINE
  5
1050D
330
1F
100
AcDbEntity
  8
ala
  6
ByBlock
 62
     0
100
AcDbLine
 10
-1741.0
 20
140.4658484995634
 30
0.0
 11
-1739.0
 21
140.4658484995633
 31
0.0
  0
LINE
  5
1050E
330
1F
100
AcDbEntity
  8
ala
  6
ByBlock
 62
     0
100
AcDbLine
 10
-1799.0
 20
145.4658484995634
 30
0.0
 11
-1741.0
 21
145.4658484995634
 31
0.0
  0
LINE
  5
1050F
330
1F
100
AcDbEntity
  8
ala
  6
ByBlock
 62
     0
100
AcDbLine
 10
-1739.0
 20
145.4658484995634
 30
0.0
 11
-1681.0
 21
145.4658484995634
 31
0.0
  0
LINE
  5
10510
330
1F
100
AcDbEntity
  8
ala
  6
ByBlock
 62
     0
100
AcDbLine
 10
-1681.0
 20
140.4658484995634
 30
0.0
 11
-1679.0
 21
140.4658484995634
 31
0.0
  0
LINE
  5
10511
330
1F
100
AcDbEntity
  8
ala
  6
ByBlock
 62
     0
100
AcDbLine
 10
-1679.0
 20
145.4658484995634
 30
0.0
 11
-1621.0
 21
145.4658484995634
 31
0.0
  0
LINE
  5
10512
330
1F
100
AcDbEntity
  8
ala
  6
ByBlock
 62
     0
100
AcDbLine
 10
-1621.0
 20
140.4658484995634
 30
0.0
 11
-1619.0
 21
140.4658484995634
 31
0.0
  0
LINE
  5
10513
330
1F
100
AcDbEntity
  8
ala
  6
ByBlock
 62
     0
100
AcDbLine
 10
-1619.0
 20
145.4658484995634
 30
0.0
 11
-1561.0
 21
145.4658484995634
 31
0.0
  0
LINE
  5
10514
330
1F
100
AcDbEntity
  8
ala
  6
ByBlock
 62
     0
100
AcDbLine
 10
-1561.0
 20
140.4658484995633
 30
0.0
 11
-1559.0
 21
140.4658484995633
 31
0.0
  0
LINE
  5
10515
330
1F
100
AcDbEntity
  8
ala
  6
ByBlock
 62
     0
100
AcDbLine
 10
-1559.0
 20
145.4658484995634
 30
0.0
 11
-1501.0
 21
145.4658484995634
 31
0.0
  0
LINE
  5
10516
330
1F
100
AcDbEntity
  8
ala
  6
ByBlock
 62
     0
100
AcDbLine
 10
-1501.000000000001
 20
140.4658484995634
 30
0.0
 11
-1499.0
 21
140.4658484995634
 31
0.0
  0
LINE
  5
10517
330
1F
100
AcDbEntity
  8
ala
  6
ByBlock
 62
     0
100
AcDbLine
 10
-1499.0
 20
145.4658484995634
 30
0.0
 11
-1454.5
 21
145.4658484995634
 31
0.0
  0
LINE
  5
10518
330
1F
100
AcDbEntity
  8
ala
  6
ByBlock
 62
     0
100
AcDbLine
 10
-1454.5
 20
140.4658484995634
 30
0.0
 11
-1452.5
 21
140.4658484995633
 31
0.0
  0
LINE
  5
10519
330
1F
100
AcDbEntity
  8
ala
  6
ByBlock
 62
     0
100
AcDbLine
 10
-1452.5
 20
145.4658484995634
 30
0.0
 11
-1416.0
 21
145.4658484995634
 31
0.0
  0
LINE
  5
1051A
330
1F
100
AcDbEntity
  8
ala
  6
ByBlock
 62
     0
100
AcDbLine
 10
-1416.0
 20
140.4658484995634
 30
0.0
 11
-1414.0
 21
140.4658484995634
 31
0.0
  0
LINE
  5
1051B
330
1F
100
AcDbEntity
  8
ala
  6
ByBlock
 62
     0
100
AcDbLine
 10
-1416.0
 20
140.4658484995634
 30
0.0
 11
-1416.0
 21
145.4658484995634
 31
0.0
  0
LINE
  5
1051C
330
1F
100
AcDbEntity
  8
ala
  6
ByBlock
 62
     0
100
AcDbLine
 10
-1414.0
 20
140.4658484995634
 30
0.0
 11
-1414.0
 21
145.4658484995634
 31
0.0
  0
LINE
  5
1051D
330
1F
100
AcDbEntity
  8
ala
  6
ByBlock
 62
     0
100
AcDbLine
 10
-1414.0
 20
145.4658484995634
 30
0.0
 11
-1381.0
 21
145.4658484995634
 31
0.0
  0
LINE
  5
1051E
330
1F
100
AcDbEntity
  8
ala
  6
ByBlock
 62
     0
100
AcDbLine
 10
-1381.0
 20
140.4658484995634
 30
0.0
 11
-1379.0
 21
140.4658484995633
 31
0.0
  0
LWPOLYLINE
  5
1052E
330
1F
100
AcDbEntity
  8
ala
  6
Continuous
100
AcDbPolyline
 90
        2
 70
     0
 43
0.0
 10
-1870.561869327868
 20
-328.8590056378544
 10
-1907.920645193387
 20
-328.8590056378544
  0
LWPOLYLINE
  5
1052F
330
1F
100
AcDbEntity
  8
ala
  6
Continuous
100
AcDbPolyline
 90
        2
 70
     0
 43
0.0
 10
-1974.561869327867
 20
-328.8590056378544
 10
-2014.561869327867
 20
-328.8590056378544
  0
LWPOLYLINE
  5
10530
330
1F
100
AcDbEntity
  8
ala
  6
Continuous
100
AcDbPolyline
 90
        2
 70
     0
 43
0.0
 10
-1870.561869327868
 20
-328.8590056378544
 10
-1907.920645193387
 20
-328.8590056378544
  0
LWPOLYLINE
  5
10531
330
1F
100
AcDbEntity
  8
ala
  6
Continuous
100
AcDbPolyline
 90
        2
 70
     0
 43
0.0
 10
-1974.561869327867
 20
-328.8590056378544
 10
-2014.561869327867
 20
-328.8590056378544
  0
LWPOLYLINE
  5
10532
330
1F
100
AcDbEntity
  8
ala
  6
Continuous
100
AcDbPolyline
 90
       22
 70
     0
 43
0.0
 10
-2003.903869327868
 20
-327.8360056378543
 10
-2002.716869327867
 20
-327.5710056378543
 10
-2001.280869327867
 20
-327.2540056378543
 10
-1999.843869327867
 20
-326.9410056378543
 10
-1998.407869327867
 20
-326.6310056378544
 10
-1996.970869327867
 20
-326.3250056378544
 10
-1995.534869327867
 20
-326.0230056378544
 10
-1994.097869327868
 20
-325.7240056378543
 10
-1992.662869327867
 20
-325.4290056378544
 10
-1991.225869327868
 20
-325.1380056378544
 10
-1989.789869327868
 20
-324.8510056378544
 10
-1988.353869327867
 20
-324.5680056378543
 10
-1986.917869327868
 20
-324.2890056378543
 10
-1985.481869327868
 20
-324.0140056378543
 10
-1984.045869327867
 20
-323.7430056378544
 10
-1982.609869327868
 20
-323.4760056378544
 10
-1981.174869327867
 20
-323.2130056378543
 10
-1979.737869327867
 20
-322.9550056378544
 10
-1978.302869327867
 20
-322.7010056378543
 10
-1976.866869327867
 20
-322.4510056378544
 10
-1975.431869327867
 20
-322.2050056378543
 10
-1974.561869327867
 20
-322.0590974958919
  0
LWPOLYLINE
  5
10533
330
1F
100
AcDbEntity
  8
ala
  6
Continuous
100
AcDbPolyline
 90
        7
 70
     0
 43
0.0
 10
-1904.711869327868
 20
-317.7484613962814
 10
-1903.806869327867
 20
-317.8190056378544
 10
-1902.386869327867
 20
-317.9480056378544
 10
-1900.966869327868
 20
-318.0950056378543
 10
-1899.549869327867
 20
-318.2630056378544
 10
-1898.131869327867
 20
-318.4540056378544
 10
-1897.561869327867
 20
-318.5398077579957
  0
LWPOLYLINE
  5
10535
330
1F
100
AcDbEntity
  8
ala
  6
Continuous
100
AcDbPolyline
 90
       22
 70
     0
 43
0.0
 10
-1974.561869327867
 20
-328.913203554521
 10
-1975.626869327868
 20
-328.8740056378543
 10
-1977.066869327867
 20
-328.8220056378544
 10
-1978.506869327867
 20
-328.7690056378543
 10
-1979.946869327867
 20
-328.7160056378543
 10
-1981.386869327867
 20
-328.6630056378543
 10
-1982.826869327867
 20
-328.6100056378543
 10
-1984.266869327867
 20
-328.5570056378543
 10
-1985.706869327867
 20
-328.5040056378544
 10
-1987.146869327867
 20
-328.4510056378544
 10
-1988.586869327868
 20
-328.3980056378543
 10
-1990.026869327867
 20
-328.3460056378543
 10
-1991.466869327867
 20
-328.2930056378543
 10
-1992.906869327867
 20
-328.2400056378543
 10
-1994.346869327867
 20
-328.1870056378543
 10
-1995.786869327867
 20
-328.1340056378543
 10
-1997.226869327867
 20
-328.0810056378543
 10
-1998.666869327868
 20
-328.0280056378543
 10
-2000.106869327868
 20
-327.9750056378543
 10
-2001.546869327867
 20
-327.9230056378543
 10
-2002.986869327868
 20
-327.8700056378543
 10
-2003.903869327868
 20
-327.8360056378543
  0
LINE
  5
10537
330
1F
100
AcDbEntity
  8
ala
  6
ByBlock
 62
     0
100
AcDbLine
 10
-1907.710869327867
 20
-322.8690056378543
 30
0.0
 11
-1904.711869327868
 21
-322.9740056378544
 31
0.0
  0
LINE
  5
10538
330
1F
100
AcDbEntity
  8
ala
  6
ByBlock
 62
     0
100
AcDbLine
 10
-1904.711869327868
 20
-322.9740056378544
 30
0.0
 11
-1905.010221905891
 21
-331.468979041759
 31
0.0
  0
LINE
  5
1053A
330
1F
100
AcDbEntity
  8
ala
  6
ByBlock
 62
     0
100
AcDbLine
 10
-1974.561869327867
 20
-322.0590974958919
 30
0.0
 11
-1974.561869327867
 21
-330.4142278600766
 31
0.0
  0
LINE
  5
1053B
330
1F
100
AcDbEntity
  8
ala
  6
ByBlock
 62
     0
100
AcDbLine
 10
-1974.561869327867
 20
-328.8590056378544
 30
0.0
 11
-1907.920645193387
 21
-328.8590056378544
 31
0.0
  0
LINE
  5
1053C
330
1F
100
AcDbEntity
  8
ala
  6
ByBlock
 62
     0
100
AcDbLine
 10
-1964.561869327867
 20
-332.8630056378544
 30
0.0
 11
-1974.561869327867
 21
-332.8630056378544
 31
0.0
  0
LINE
  5
1053D
330
1F
100
AcDbEntity
  8
ala
  6
ByBlock
 62
     0
100
AcDbLine
 10
-1974.561869327867
 20
-330.4142278600766
 30
0.0
 11
-1974.561869327867
 21
-332.8630056378544
 31
0.0
  0
LINE
  5
1053E
330
1F
100
AcDbEntity
  8
ala
  6
ByBlock
 62
     0
100
AcDbLine
 10
-1964.561869327867
 20
-332.8630056378545
 30
0.0
 11
-1964.561869327867
 21
-330.7822834156322
 31
0.0
  0
LWPOLYLINE
  5
1053F
330
1F
100
AcDbEntity
  8
ala
  6
Continuous
100
AcDbPolyline
 90
        2
 70
     0
 43
0.0
 10
-1870.561869327868
 20
-328.8590056378544
 10
-2014.561869327867
 20
-328.8590056378544
  0
LWPOLYLINE
  5
10540
330
1F
100
AcDbEntity
  8
ala
  6
Continuous
100
AcDbPolyline
 90
       76
 70
     0
 43
0.0
 10
-2003.903869327868
 20
-327.8360056378543
 10
-2002.716869327867
 20
-327.5710056378543
 10
-2001.280869327867
 20
-327.2540056378543
 10
-1999.843869327867
 20
-326.9410056378543
 10
-1998.407869327867
 20
-326.6310056378544
 10
-1996.970869327867
 20
-326.3250056378544
 10
-1995.534869327867
 20
-326.0230056378544
 10
-1994.097869327868
 20
-325.7240056378543
 10
-1992.662869327867
 20
-325.4290056378544
 10
-1991.225869327868
 20
-325.1380056378544
 10
-1989.789869327868
 20
-324.8510056378544
 10
-1988.353869327867
 20
-324.5680056378543
 10
-1986.917869327868
 20
-324.2890056378543
 10
-1985.481869327868
 20
-324.0140056378543
 10
-1984.045869327867
 20
-323.7430056378544
 10
-1982.609869327868
 20
-323.4760056378544
 10
-1981.174869327867
 20
-323.2130056378543
 10
-1979.737869327867
 20
-322.9550056378544
 10
-1978.302869327867
 20
-322.7010056378543
 10
-1976.866869327867
 20
-322.4510056378544
 10
-1975.431869327867
 20
-322.2050056378543
 10
-1973.994869327867
 20
-321.9640056378544
 10
-1972.559869327868
 20
-321.7270056378544
 10
-1971.123869327867
 20
-321.4940056378543
 10
-1969.688869327868
 20
-321.2660056378544
 10
-1968.252869327867
 20
-321.0420056378544
 10
-1966.817869327867
 20
-320.8220056378544
 10
-1965.382869327867
 20
-320.6080056378544
 10
-1963.948869327867
 20
-320.3990056378543
 10
-1962.513869327867
 20
-320.1950056378544
 10
-1961.079869327867
 20
-319.9970056378544
 10
-1959.645869327867
 20
-319.8050056378544
 10
-1958.211869327868
 20
-319.6180056378544
 10
-1956.777869327867
 20
-319.4380056378544
 10
-1955.344869327867
 20
-319.2640056378543
 10
-1953.910869327867
 20
-319.0970056378543
 10
-1952.477869327867
 20
-318.9360056378543
 10
-1951.043869327867
 20
-318.7810056378544
 10
-1949.610869327867
 20
-318.6330056378543
 10
-1948.177869327867
 20
-318.4910056378543
 10
-1946.744869327867
 20
-318.3560056378543
 10
-1945.310869327867
 20
-318.2270056378544
 10
-1943.877869327867
 20
-318.1040056378543
 10
-1942.443869327868
 20
-317.9880056378544
 10
-1941.011869327867
 20
-317.8790056378543
 10
-1939.577869327867
 20
-317.7760056378544
 10
-1938.145869327867
 20
-317.6810056378544
 10
-1936.712869327867
 20
-317.5920056378544
 10
-1935.281869327867
 20
-317.5110056378544
 10
-1933.849869327868
 20
-317.4380056378544
 10
-1932.418869327867
 20
-317.3730056378543
 10
-1930.986869327867
 20
-317.3170056378543
 10
-1929.556869327867
 20
-317.2690056378543
 10
-1928.125869327867
 20
-317.2300056378543
 10
-1926.695869327867
 20
-317.2010056378543
 10
-1925.264869327867
 20
-317.1800056378544
 10
-1923.833869327867
 20
-317.1680056378543
 10
-1922.402869327867
 20
-317.1650056378544
 10
-1920.970869327867
 20
-317.1700056378544
 10
-1919.538869327867
 20
-317.1820056378543
 10
-1918.105869327867
 20
-317.2020056378543
 10
-1916.672869327867
 20
-317.2280056378544
 10
-1915.239869327867
 20
-317.2610056378544
 10
-1913.805869327867
 20
-317.3010056378544
 10
-1912.372869327867
 20
-317.3460056378543
 10
-1910.940869327867
 20
-317.3980056378543
 10
-1909.510869327867
 20
-317.4580056378544
 10
-1908.081869327867
 20
-317.5290056378543
 10
-1906.654869327867
 20
-317.6120056378544
 10
-1905.230869327867
 20
-317.7080056378544
 10
-1903.806869327867
 20
-317.8190056378544
 10
-1902.386869327867
 20
-317.9480056378544
 10
-1900.966869327868
 20
-318.0950056378543
 10
-1899.549869327867
 20
-318.2630056378544
 10
-1898.131869327867
 20
-318.4540056378544
 10
-1897.561869327867
 20
-318.5398077579957
  0
LINE
  5
10543
330
1F
100
AcDbEntity
  8
ala
  6
ByBlock
 62
     0
100
AcDbLine
 10
-1964.561869327867
 20
-330.7822834156322
 30
0.0
 11
-1964.561869327867
 21
-329.2812591100766
 31
0.0
  0
LINE
  5
1055C
330
1F
100
AcDbEntity
  8
ala
  6
ByBlock
 62
     0
100
AcDbLine
 10
-1907.710869327867
 20
-322.8690056378543
 30
0.0
 11
-1909.710869327867
 21
-322.8690056378543
 31
0.0
  0
LINE
  5
1055D
330
1F
100
AcDbEntity
  8
ala
  6
ByBlock
 62
     0
100
AcDbLine
 10
-1909.710869327867
 20
-322.8690056378543
 30
0.0
 11
-1910.021009824026
 21
-331.2896126939376
 31
0.0
  0
LWPOLYLINE
  5
1055E
330
1F
100
AcDbEntity
  8
ala
  6
Continuous
100
AcDbPolyline
 90
       67
 70
     0
 43
0.0
 10
-1910.020977356952
 20
-331.2887311822604
 10
-1910.824869327867
 20
-331.2580056378544
 10
-1912.264869327867
 20
-331.2040056378544
 10
-1913.704869327867
 20
-331.1490056378543
 10
-1915.145869327867
 20
-331.0940056378544
 10
-1916.585869327867
 20
-331.0400056378544
 10
-1918.026869327867
 20
-330.9870056378544
 10
-1919.466869327867
 20
-330.9340056378543
 10
-1920.906869327867
 20
-330.8810056378544
 10
-1922.346869327867
 20
-330.8290056378544
 10
-1923.787869327867
 20
-330.7760056378544
 10
-1925.227869327867
 20
-330.7240056378544
 10
-1926.667869327867
 20
-330.6720056378543
 10
-1928.106869327868
 20
-330.6200056378543
 10
-1929.546869327867
 20
-330.5670056378543
 10
-1930.986869327867
 20
-330.5140056378543
 10
-1932.426869327867
 20
-330.4620056378543
 10
-1933.866869327867
 20
-330.4090056378544
 10
-1935.306869327867
 20
-330.3560056378543
 10
-1936.746869327867
 20
-330.3030056378543
 10
-1938.186869327867
 20
-330.2500056378543
 10
-1939.626869327867
 20
-330.1970056378544
 10
-1941.066869327867
 20
-330.1440056378543
 10
-1942.506869327867
 20
-330.0910056378543
 10
-1943.946869327868
 20
-330.0380056378543
 10
-1945.386869327867
 20
-329.9850056378543
 10
-1946.826869327867
 20
-329.9320056378543
 10
-1948.266869327867
 20
-329.8790056378543
 10
-1949.706869327867
 20
-329.8260056378544
 10
-1951.146869327867
 20
-329.7730056378544
 10
-1952.586869327868
 20
-329.7200056378543
 10
-1954.026869327867
 20
-329.6680056378543
 10
-1955.466869327867
 20
-329.6150056378543
 10
-1956.906869327867
 20
-329.5620056378543
 10
-1958.346869327867
 20
-329.5090056378543
 10
-1959.786869327867
 20
-329.4560056378543
 10
-1961.226869327867
 20
-329.4030056378543
 10
-1962.666869327867
 20
-329.3500056378543
 10
-1964.106869327867
 20
-329.2980056378543
 10
-1965.546869327867
 20
-329.2450056378543
 10
-1966.986869327867
 20
-329.1920056378543
 10
-1968.426869327867
 20
-329.1390056378543
 10
-1969.866869327867
 20
-329.0860056378543
 10
-1971.306869327867
 20
-329.0330056378544
 10
-1972.746869327867
 20
-328.9800056378543
 10
-1974.186869327867
 20
-328.9270056378543
 10
-1975.626869327868
 20
-328.8740056378543
 10
-1977.066869327867
 20
-328.8220056378544
 10
-1978.506869327867
 20
-328.7690056378543
 10
-1979.946869327867
 20
-328.7160056378543
 10
-1981.386869327867
 20
-328.6630056378543
 10
-1982.826869327867
 20
-328.6100056378543
 10
-1984.266869327867
 20
-328.5570056378543
 10
-1985.706869327867
 20
-328.5040056378544
 10
-1987.146869327867
 20
-328.4510056378544
 10
-1988.586869327868
 20
-328.3980056378543
 10
-1990.026869327867
 20
-328.3460056378543
 10
-1991.466869327867
 20
-328.2930056378543
 10
-1992.906869327867
 20
-328.2400056378543
 10
-1994.346869327867
 20
-328.1870056378543
 10
-1995.786869327867
 20
-328.1340056378543
 10
-1997.226869327867
 20
-328.0810056378543
 10
-1998.666869327868
 20
-328.0280056378543
 10
-2000.106869327868
 20
-327.9750056378543
 10
-2001.546869327867
 20
-327.9230056378543
 10
-2002.986869327868
 20
-327.8700056378543
 10
-2003.903869327868
 20
-327.8360056378543
  0
LWPOLYLINE
  5
1055F
330
1F
100
AcDbEntity
  8
ala
  6
Continuous
100
AcDbPolyline
 90
        2
 70
     0
 43
0.0
 10
-1892.093474208695
 20
-385.1937489214543
 10
-1929.452250074215
 20
-385.1937489214543
  0
LWPOLYLINE
  5
10560
330
1F
100
AcDbEntity
  8
ala
  6
Continuous
100
AcDbPolyline
 90
        2
 70
     0
 43
0.0
 10
-1996.093474208695
 20
-385.1937489214543
 10
-2036.093474208696
 20
-385.1937489214543
  0
LWPOLYLINE
  5
10561
330
1F
100
AcDbEntity
  8
ala
  6
Continuous
100
AcDbPolyline
 90
        2
 70
     0
 43
0.0
 10
-1892.093474208695
 20
-385.1937489214543
 10
-1929.452250074215
 20
-385.1937489214543
  0
LWPOLYLINE
  5
10562
330
1F
100
AcDbEntity
  8
ala
  6
Continuous
100
AcDbPolyline
 90
        2
 70
     0
 43
0.0
 10
-1996.093474208695
 20
-385.1937489214543
 10
-2036.093474208696
 20
-385.1937489214543
  0
LWPOLYLINE
  5
10563
330
1F
100
AcDbEntity
  8
ala
  6
Continuous
100
AcDbPolyline
 90
       22
 70
     0
 43
0.0
 10
-2025.435474208696
 20
-384.1707489214542
 10
-2024.248474208695
 20
-383.9057489214543
 10
-2022.812474208696
 20
-383.5887489214542
 10
-2021.375474208696
 20
-383.2757489214543
 10
-2019.939474208696
 20
-382.9657489214543
 10
-2018.502474208696
 20
-382.6597489214543
 10
-2017.066474208696
 20
-382.3577489214542
 10
-2015.629474208695
 20
-382.0587489214542
 10
-2014.194474208696
 20
-381.7637489214543
 10
-2012.757474208695
 20
-381.4727489214543
 10
-2011.321474208696
 20
-381.1857489214543
 10
-2009.885474208696
 20
-380.9027489214542
 10
-2008.449474208696
 20
-380.6237489214542
 10
-2007.013474208696
 20
-380.3487489214542
 10
-2005.577474208696
 20
-380.0777489214543
 10
-2004.141474208696
 20
-379.8107489214543
 10
-2002.706474208696
 20
-379.5477489214542
 10
-2001.269474208696
 20
-379.2897489214543
 10
-1999.834474208696
 20
-379.0357489214542
 10
-1998.398474208696
 20
-378.7857489214542
 10
-1996.963474208695
 20
-378.5397489214542
 10
-1996.093474208695
 20
-378.3938407794918
  0
LWPOLYLINE
  5
10564
330
1F
100
AcDbEntity
  8
ala
  6
Continuous
100
AcDbPolyline
 90
       26
 70
     0
 43
0.0
 10
-1926.243474208695
 20
-374.0832046798813
 10
-1925.338474208695
 20
-374.1537489214543
 10
-1923.918474208695
 20
-374.2827489214543
 10
-1922.498474208695
 20
-374.4297489214542
 10
-1921.081474208695
 20
-374.5977489214542
 10
-1919.663474208696
 20
-374.7887489214543
 10
-1918.248474208695
 20
-375.0017489214542
 10
-1916.829474208696
 20
-375.2387489214542
 10
-1915.414474208695
 20
-375.4967489214542
 10
-1913.994474208695
 20
-375.7797489214543
 10
-1912.580474208695
 20
-376.0827489214543
 10
-1911.161474208696
 20
-376.4117489214542
 10
-1909.750474208695
 20
-376.7647489214543
 10
-1908.335474208696
 20
-377.1467489214542
 10
-1906.930474208695
 20
-377.5577489214543
 10
-1905.516474208695
 20
-378.0047489214543
 10
-1904.113474208696
 20
-378.4817489214542
 10
-1902.702474208695
 20
-378.9997489214543
 10
-1901.305474208696
 20
-379.5597489214542
 10
-1900.623474208695
 20
-379.8557489214543
 10
-1899.941474208695
 20
-380.1707489214542
 10
-1899.254474208695
 20
-380.5117489214542
 10
-1898.584474208696
 20
-380.8697489214543
 10
-1897.905474208695
 20
-381.2637489214543
 10
-1897.257474208695
 20
-381.6787489214543
 10
-1897.093474208696
 20
-381.7966622248922
  0
LWPOLYLINE
  5
10565
330
1F
100
AcDbEntity
  8
ala
  6
Continuous
100
AcDbPolyline
 90
       25
 70
     0
 43
0.0
 10
-1897.093474208696
 20
-387.0546463573516
 10
-1897.414474208695
 20
-387.1177489214542
 10
-1898.111474208695
 20
-387.2477489214542
 10
-1898.798474208695
 20
-387.3597489214543
 10
-1899.486474208696
 20
-387.4567489214543
 10
-1900.174474208695
 20
-387.5377489214542
 10
-1900.858474208695
 20
-387.6057489214543
 10
-1902.272474208696
 20
-387.7127489214542
 10
-1903.693474208695
 20
-387.7947489214542
 10
-1905.122474208695
 20
-387.8647489214542
 10
-1906.550474208695
 20
-387.9257489214542
 10
-1907.977474208696
 20
-387.9737489214542
 10
-1909.405474208696
 20
-388.0087489214542
 10
-1910.834474208695
 20
-388.0337489214543
 10
-1912.264474208695
 20
-388.0487489214543
 10
-1913.694474208696
 20
-388.0537489214543
 10
-1915.125474208695
 20
-388.0507489214542
 10
-1916.558474208695
 20
-388.0397489214542
 10
-1917.991474208696
 20
-388.0207489214543
 10
-1919.424474208695
 20
-387.9967489214542
 10
-1920.859474208696
 20
-387.9657489214543
 10
-1922.294474208695
 20
-387.9307489214542
 10
-1923.730474208695
 20
-387.8917489214542
 10
-1925.166474208695
 20
-387.8477489214542
 10
-1926.541826786719
 20
-387.8037223253589
  0
LWPOLYLINE
  5
10566
330
1F
100
AcDbEntity
  8
ala
  6
Continuous
100
AcDbPolyline
 90
       22
 70
     0
 43
0.0
 10
-1996.093474208695
 20
-385.2479468381209
 10
-1997.158474208696
 20
-385.2087489214542
 10
-1998.598474208695
 20
-385.1567489214543
 10
-2000.038474208696
 20
-385.1037489214542
 10
-2001.478474208695
 20
-385.0507489214542
 10
-2002.918474208696
 20
-384.9977489214542
 10
-2004.358474208696
 20
-384.9447489214542
 10
-2005.798474208695
 20
-384.8917489214542
 10
-2007.238474208696
 20
-384.8387489214542
 10
-2008.678474208696
 20
-384.7857489214542
 10
-2010.118474208696
 20
-384.7327489214542
 10
-2011.558474208696
 20
-384.6807489214542
 10
-2012.998474208696
 20
-384.6277489214542
 10
-2014.438474208696
 20
-384.5747489214542
 10
-2015.878474208696
 20
-384.5217489214542
 10
-2017.318474208696
 20
-384.4687489214542
 10
-2018.758474208695
 20
-384.4157489214542
 10
-2020.198474208696
 20
-384.3627489214542
 10
-2021.638474208696
 20
-384.3097489214542
 10
-2023.078474208696
 20
-384.2577489214542
 10
-2024.518474208695
 20
-384.2047489214542
 10
-2025.435474208696
 20
-384.1707489214542
  0
LINE
  5
10568
330
1F
100
AcDbEntity
  8
ala
  6
ByBlock
 62
     0
100
AcDbLine
 10
-1929.242474208695
 20
-379.2037489214542
 30
0.0
 11
-1926.243474208695
 21
-379.3087489214542
 31
0.0
  0
LINE
  5
10569
330
1F
100
AcDbEntity
  8
ala
  6
ByBlock
 62
     0
100
AcDbLine
 10
-1926.243474208695
 20
-379.3087489214542
 30
0.0
 11
-1926.541826786719
 21
-387.8037223253589
 31
0.0
  0
LINE
  5
1056A
330
1F
100
AcDbEntity
  8
ala
  6
ByBlock
 62
     0
100
AcDbLine
 10
-1897.093474208696
 20
-381.7966622248922
 30
0.0
 11
-1897.093474208696
 21
-387.0546463573516
 31
0.0
  0
LINE
  5
1056B
330
1F
100
AcDbEntity
  8
ala
  6
ByBlock
 62
     0
100
AcDbLine
 10
-1996.093474208695
 20
-378.3938407794918
 30
0.0
 11
-1996.093474208695
 21
-386.7489711436765
 31
0.0
  0
LINE
  5
1056C
330
1F
100
AcDbEntity
  8
ala
  6
ByBlock
 62
     0
100
AcDbLine
 10
-1996.093474208695
 20
-385.1937489214543
 30
0.0
 11
-1929.452250074215
 21
-385.1937489214543
 31
0.0
  0
LINE
  5
1056D
330
1F
100
AcDbEntity
  8
ala
  6
ByBlock
 62
     0
100
AcDbLine
 10
-1986.093474208695
 20
-389.1977489214543
 30
0.0
 11
-1996.093474208695
 21
-389.1977489214543
 31
0.0
  0
LINE
  5
1056E
330
1F
100
AcDbEntity
  8
ala
  6
ByBlock
 62
     0
100
AcDbLine
 10
-1996.093474208695
 20
-386.7489711436765
 30
0.0
 11
-1996.093474208695
 21
-389.1977489214543
 31
0.0
  0
LINE
  5
1056F
330
1F
100
AcDbEntity
  8
ala
  6
ByBlock
 62
     0
100
AcDbLine
 10
-1986.093474208695
 20
-389.1977489214544
 30
0.0
 11
-1986.093474208695
 21
-387.117026699232
 31
0.0
  0
LWPOLYLINE
  5
10570
330
1F
100
AcDbEntity
  8
ala
  6
Continuous
100
AcDbPolyline
 90
        2
 70
     0
 43
0.0
 10
-1892.093474208695
 20
-385.1937489214543
 10
-2036.093474208696
 20
-385.1937489214543
  0
LWPOLYLINE
  5
10571
330
1F
100
AcDbEntity
  8
ala
  6
Continuous
100
AcDbPolyline
 90
       95
 70
     0
 43
0.0
 10
-2025.435474208696
 20
-384.1707489214542
 10
-2024.248474208695
 20
-383.9057489214543
 10
-2022.812474208696
 20
-383.5887489214542
 10
-2021.375474208696
 20
-383.2757489214543
 10
-2019.939474208696
 20
-382.9657489214543
 10
-2018.502474208696
 20
-382.6597489214543
 10
-2017.066474208696
 20
-382.3577489214542
 10
-2015.629474208695
 20
-382.0587489214542
 10
-2014.194474208696
 20
-381.7637489214543
 10
-2012.757474208695
 20
-381.4727489214543
 10
-2011.321474208696
 20
-381.1857489214543
 10
-2009.885474208696
 20
-380.9027489214542
 10
-2008.449474208696
 20
-380.6237489214542
 10
-2007.013474208696
 20
-380.3487489214542
 10
-2005.577474208696
 20
-380.0777489214543
 10
-2004.141474208696
 20
-379.8107489214543
 10
-2002.706474208696
 20
-379.5477489214542
 10
-2001.269474208696
 20
-379.2897489214543
 10
-1999.834474208696
 20
-379.0357489214542
 10
-1998.398474208696
 20
-378.7857489214542
 10
-1996.963474208695
 20
-378.5397489214542
 10
-1995.526474208696
 20
-378.2987489214542
 10
-1994.091474208696
 20
-378.0617489214543
 10
-1992.655474208696
 20
-377.8287489214542
 10
-1991.220474208695
 20
-377.6007489214543
 10
-1989.784474208695
 20
-377.3767489214542
 10
-1988.349474208695
 20
-377.1567489214543
 10
-1986.914474208695
 20
-376.9427489214543
 10
-1985.480474208695
 20
-376.7337489214542
 10
-1984.045474208696
 20
-376.5297489214542
 10
-1982.611474208695
 20
-376.3317489214543
 10
-1981.177474208695
 20
-376.1397489214543
 10
-1979.743474208695
 20
-375.9527489214542
 10
-1978.309474208695
 20
-375.7727489214543
 10
-1976.876474208695
 20
-375.5987489214542
 10
-1975.442474208696
 20
-375.4317489214542
 10
-1974.009474208695
 20
-375.2707489214543
 10
-1972.575474208695
 20
-375.1157489214543
 10
-1971.142474208695
 20
-374.9677489214542
 10
-1969.709474208696
 20
-374.8257489214542
 10
-1968.276474208695
 20
-374.6907489214542
 10
-1966.842474208695
 20
-374.5617489214543
 10
-1965.409474208695
 20
-374.4387489214542
 10
-1963.975474208696
 20
-374.3227489214543
 10
-1962.543474208695
 20
-374.2137489214542
 10
-1961.109474208696
 20
-374.1107489214543
 10
-1959.677474208695
 20
-374.0157489214543
 10
-1958.244474208695
 20
-373.9267489214543
 10
-1956.813474208695
 20
-373.8457489214543
 10
-1955.381474208695
 20
-373.7727489214543
 10
-1953.950474208696
 20
-373.7077489214542
 10
-1952.518474208696
 20
-373.6517489214542
 10
-1951.088474208695
 20
-373.6037489214542
 10
-1949.657474208695
 20
-373.5647489214542
 10
-1948.227474208696
 20
-373.5357489214542
 10
-1946.796474208695
 20
-373.5147489214543
 10
-1945.365474208696
 20
-373.5027489214542
 10
-1943.934474208695
 20
-373.4997489214543
 10
-1942.502474208695
 20
-373.5047489214543
 10
-1941.070474208695
 20
-373.5167489214542
 10
-1939.637474208695
 20
-373.5367489214542
 10
-1938.204474208695
 20
-373.5627489214543
 10
-1936.771474208695
 20
-373.5957489214543
 10
-1935.337474208695
 20
-373.6357489214543
 10
-1933.904474208695
 20
-373.6807489214542
 10
-1932.472474208696
 20
-373.7327489214542
 10
-1931.042474208696
 20
-373.7927489214543
 10
-1929.613474208695
 20
-373.8637489214542
 10
-1928.186474208695
 20
-373.9467489214543
 10
-1926.762474208695
 20
-374.0427489214543
 10
-1925.338474208695
 20
-374.1537489214543
 10
-1923.918474208695
 20
-374.2827489214543
 10
-1922.498474208695
 20
-374.4297489214542
 10
-1921.081474208695
 20
-374.5977489214542
 10
-1919.663474208696
 20
-374.7887489214543
 10
-1918.248474208695
 20
-375.0017489214542
 10
-1916.829474208696
 20
-375.2387489214542
 10
-1915.414474208695
 20
-375.4967489214542
 10
-1913.994474208695
 20
-375.7797489214543
 10
-1912.580474208695
 20
-376.0827489214543
 10
-1911.161474208696
 20
-376.4117489214542
 10
-1909.750474208695
 20
-376.7647489214543
 10
-1908.335474208696
 20
-377.1467489214542
 10
-1906.930474208695
 20
-377.5577489214543
 10
-1905.516474208695
 20
-378.0047489214543
 10
-1904.113474208696
 20
-378.4817489214542
 10
-1902.702474208695
 20
-378.9997489214543
 10
-1901.305474208696
 20
-379.5597489214542
 10
-1900.623474208695
 20
-379.8557489214543
 10
-1899.941474208695
 20
-380.1707489214542
 10
-1899.254474208695
 20
-380.5117489214542
 10
-1898.584474208696
 20
-380.8697489214543
 10
-1897.905474208695
 20
-381.2637489214543
 10
-1897.257474208695
 20
-381.6787489214543
 10
-1897.093474208696
 20
-381.7966622248922
  0
LWPOLYLINE
  5
10572
330
1F
100
AcDbEntity
  8
ala
  6
Continuous
100
AcDbPolyline
 90
       25
 70
     0
 43
0.0
 10
-1897.093474208696
 20
-387.0546463573516
 10
-1897.414474208695
 20
-387.1177489214542
 10
-1898.111474208695
 20
-387.2477489214542
 10
-1898.798474208695
 20
-387.3597489214543
 10
-1899.486474208696
 20
-387.4567489214543
 10
-1900.174474208695
 20
-387.5377489214542
 10
-1900.858474208695
 20
-387.6057489214543
 10
-1902.272474208696
 20
-387.7127489214542
 10
-1903.693474208695
 20
-387.7947489214542
 10
-1905.122474208695
 20
-387.8647489214542
 10
-1906.550474208695
 20
-387.9257489214542
 10
-1907.977474208696
 20
-387.9737489214542
 10
-1909.405474208696
 20
-388.0087489214542
 10
-1910.834474208695
 20
-388.0337489214543
 10
-1912.264474208695
 20
-388.0487489214543
 10
-1913.694474208696
 20
-388.0537489214543
 10
-1915.125474208695
 20
-388.0507489214542
 10
-1916.558474208695
 20
-388.0397489214542
 10
-1917.991474208696
 20
-388.0207489214543
 10
-1919.424474208695
 20
-387.9967489214542
 10
-1920.859474208696
 20
-387.9657489214543
 10
-1922.294474208695
 20
-387.9307489214542
 10
-1923.730474208695
 20
-387.8917489214542
 10
-1925.166474208695
 20
-387.8477489214542
 10
-1926.541826786719
 20
-387.8037223253589
  0
LINE
  5
10574
330
1F
100
AcDbEntity
  8
ala
  6
ByBlock
 62
     0
100
AcDbLine
 10
-1986.093474208695
 20
-387.117026699232
 30
0.0
 11
-1986.093474208695
 21
-385.6160023936764
 31
0.0
  0
LINE
  5
1058A
330
1F
100
AcDbEntity
  8
ala
  6
ByBlock
 62
     0
100
AcDbLine
 10
-1929.242474208695
 20
-379.2037489214542
 30
0.0
 11
-1931.242474208696
 21
-379.2037489214542
 31
0.0
  0
LINE
  5
1058C
330
1F
100
AcDbEntity
  8
ala
  6
ByBlock
 62
     0
100
AcDbLine
 10
-1931.537361896139
 20
-387.6240562023373
 30
0.0
 11
-1931.242474208696
 21
-379.2037489214542
 31
0.0
  0
LWPOLYLINE
  5
1058D
330
1F
100
AcDbEntity
  8
ala
  6
Continuous
100
AcDbPolyline
 90
       67
 70
     0
 43
0.0
 10
-1931.537361896139
 20
-387.6240562023373
 10
-1932.356474208695
 20
-387.5927489214543
 10
-1933.796474208696
 20
-387.5387489214543
 10
-1935.236474208696
 20
-387.4837489214542
 10
-1936.677474208696
 20
-387.4287489214543
 10
-1938.117474208695
 20
-387.3747489214543
 10
-1939.558474208696
 20
-387.3217489214543
 10
-1940.998474208695
 20
-387.2687489214542
 10
-1942.438474208695
 20
-387.2157489214543
 10
-1943.878474208695
 20
-387.1637489214543
 10
-1945.319474208696
 20
-387.1107489214543
 10
-1946.759474208695
 20
-387.0587489214543
 10
-1948.199474208696
 20
-387.0067489214542
 10
-1949.638474208695
 20
-386.9547489214542
 10
-1951.078474208695
 20
-386.9017489214542
 10
-1952.518474208696
 20
-386.8487489214542
 10
-1953.958474208695
 20
-386.7967489214542
 10
-1955.398474208695
 20
-386.7437489214543
 10
-1956.838474208695
 20
-386.6907489214542
 10
-1958.278474208696
 20
-386.6377489214542
 10
-1959.718474208695
 20
-386.5847489214542
 10
-1961.158474208696
 20
-386.5317489214543
 10
-1962.598474208695
 20
-386.4787489214542
 10
-1964.038474208695
 20
-386.4257489214542
 10
-1965.478474208696
 20
-386.3727489214542
 10
-1966.918474208695
 20
-386.3197489214542
 10
-1968.358474208695
 20
-386.2667489214542
 10
-1969.798474208695
 20
-386.2137489214542
 10
-1971.238474208696
 20
-386.1607489214542
 10
-1972.678474208695
 20
-386.1077489214542
 10
-1974.118474208696
 20
-386.0547489214543
 10
-1975.558474208695
 20
-386.0027489214542
 10
-1976.998474208696
 20
-385.9497489214542
 10
-1978.438474208695
 20
-385.8967489214542
 10
-1979.878474208695
 20
-385.8437489214542
 10
-1981.318474208696
 20
-385.7907489214542
 10
-1982.758474208695
 20
-385.7377489214542
 10
-1984.198474208696
 20
-385.6847489214542
 10
-1985.638474208695
 20
-385.6327489214542
 10
-1987.078474208695
 20
-385.5797489214542
 10
-1988.518474208695
 20
-385.5267489214542
 10
-1989.958474208696
 20
-385.4737489214542
 10
-1991.398474208695
 20
-385.4207489214542
 10
-1992.838474208695
 20
-385.3677489214542
 10
-1994.278474208696
 20
-385.3147489214542
 10
-1995.718474208695
 20
-385.2617489214542
 10
-1997.158474208696
 20
-385.2087489214542
 10
-1998.598474208695
 20
-385.1567489214543
 10
-2000.038474208696
 20
-385.1037489214542
 10
-2001.478474208695
 20
-385.0507489214542
 10
-2002.918474208696
 20
-384.9977489214542
 10
-2004.358474208696
 20
-384.9447489214542
 10
-2005.798474208695
 20
-384.8917489214542
 10
-2007.238474208696
 20
-384.8387489214542
 10
-2008.678474208696
 20
-384.7857489214542
 10
-2010.118474208696
 20
-384.7327489214542
 10
-2011.558474208696
 20
-384.6807489214542
 10
-2012.998474208696
 20
-384.6277489214542
 10
-2014.438474208696
 20
-384.5747489214542
 10
-2015.878474208696
 20
-384.5217489214542
 10
-2017.318474208696
 20
-384.4687489214542
 10
-2018.758474208695
 20
-384.4157489214542
 10
-2020.198474208696
 20
-384.3627489214542
 10
-2021.638474208696
 20
-384.3097489214542
 10
-2023.078474208696
 20
-384.2577489214542
 10
-2024.518474208695
 20
-384.2047489214542
 10
-2025.435474208696
 20
-384.1707489214542
  0
LINE
  5
10593
330
1F
100
AcDbEntity
  8
ala
  6
ByBlock
 62
     0
100
AcDbLine
 10
-1501.0
 20
162.0330115766501
 30
0.0
 11
-1379.0
 21
162.0330115766501
 31
0.0
  0
LINE
  5
10595
330
1F
100
AcDbEntity
  8
ala
  6
ByBlock
 62
     0
100
AcDbLine
 10
-1499.0
 20
177.0330115766501
 30
0.0
 11
-1454.5
 21
177.0330115766501
 31
0.0
  0
LINE
  5
10596
330
1F
100
AcDbEntity
  8
ala
  6
ByBlock
 62
     0
100
AcDbLine
 10
-1452.5
 20
177.0330115766501
 30
0.0
 11
-1416.0
 21
177.0330115766501
 31
0.0
  0
LINE
  5
10597
330
1F
100
AcDbEntity
  8
ala
  6
ByBlock
 62
     0
100
AcDbLine
 10
-1414.0
 20
177.0330115766501
 30
0.0
 11
-1381.0
 21
177.0330115766501
 31
0.0
  0
LINE
  5
10599
330
1F
100
AcDbEntity
  8
ala
  6
ByBlock
 62
     0
100
AcDbLine
 10
-1499.0
 20
172.0330115766501
 30
0.0
 11
-1499.0
 21
177.0330115766501
 31
0.0
  0
LINE
  5
1059A
330
1F
100
AcDbEntity
  8
ala
  6
ByBlock
 62
     0
100
AcDbLine
 10
-1454.5
 20
172.03301157665
 30
0.0
 11
-1454.5
 21
177.0330115766501
 31
0.0
  0
LINE
  5
1059B
330
1F
100
AcDbEntity
  8
ala
  6
ByBlock
 62
     0
100
AcDbLine
 10
-1452.5
 20
172.03301157665
 30
0.0
 11
-1452.5
 21
177.0330115766501
 31
0.0
  0
LINE
  5
1059C
330
1F
100
AcDbEntity
  8
ala
  6
ByBlock
 62
     0
100
AcDbLine
 10
-1416.0
 20
172.0330115766501
 30
0.0
 11
-1416.0
 21
177.0330115766501
 31
0.0
  0
LINE
  5
1059D
330
1F
100
AcDbEntity
  8
ala
  6
ByBlock
 62
     0
100
AcDbLine
 10
-1414.0
 20
172.0330115766501
 30
0.0
 11
-1414.0
 21
177.0330115766501
 31
0.0
  0
LINE
  5
1059E
330
1F
100
AcDbEntity
  8
ala
  6
ByBlock
 62
     0
100
AcDbLine
 10
-1381.0
 20
172.03301157665
 30
0.0
 11
-1381.0
 21
177.0330115766501
 31
0.0
  0
LINE
  5
1059F
330
1F
100
AcDbEntity
  8
ala
  6
ByBlock
 62
     0
100
AcDbLine
 10
-1379.0
 20
162.0330115766501
 30
0.0
 11
-1379.0
 21
172.03301157665
 31
0.0
  0
LINE
  5
105A0
330
1F
100
AcDbEntity
  8
ala
  6
ByBlock
 62
     0
100
AcDbLine
 10
-1501.000000000001
 20
172.03301157665
 30
0.0
 11
-1499.0
 21
172.03301157665
 31
0.0
  0
LINE
  5
105A1
330
1F
100
AcDbEntity
  8
ala
  6
ByBlock
 62
     0
100
AcDbLine
 10
-1454.5
 20
172.03301157665
 30
0.0
 11
-1452.5
 21
172.03301157665
 31
0.0
  0
LINE
  5
105A2
330
1F
100
AcDbEntity
  8
ala
  6
ByBlock
 62
     0
100
AcDbLine
 10
-1416.0
 20
172.03301157665
 30
0.0
 11
-1414.0
 21
172.03301157665
 31
0.0
  0
LINE
  5
105A3
330
1F
100
AcDbEntity
  8
ala
  6
ByBlock
 62
     0
100
AcDbLine
 10
-1381.0
 20
172.03301157665
 30
0.0
 11
-1379.0
 21
172.03301157665
 31
0.0
  0
LINE
  5
105A4
330
1F
100
AcDbEntity
  8
ala
  6
ByBlock
 62
     0
100
AcDbLine
 10
-1501.0
 20
172.03301157665
 30
0.0
 11
-1501.0
 21
162.0330115766501
 31
0.0
  0
LINE
  5
105B9
330
1F
100
AcDbEntity
  8
ala
  6
ByBlock
 62
     0
100
AcDbLine
 10
-1897.561869327867
 20
-318.5398077579957
 30
0.0
 11
-1897.561869327867
 21
-331.6675492526485
 31
0.0
  0
LWPOLYLINE
  5
105BA
330
1F
100
AcDbEntity
  8
ala
  6
Continuous
100
AcDbPolyline
 90
        7
 70
     0
 43
0.0
 10
-1897.561869327867
 20
-331.6675492526485
 10
-1897.892869327867
 20
-331.6620056378543
 10
-1899.327869327867
 20
-331.6310056378544
 10
-1900.762869327867
 20
-331.5960056378543
 10
-1902.198869327867
 20
-331.5570056378543
 10
-1903.634869327867
 20
-331.5130056378543
 10
-1905.010221905891
 20
-331.468979041759
  0
LWPOLYLINE
  5
105BD
330
1F
100
AcDbEntity
  8
ala
  6
Continuous
100
AcDbPolyline
 90
        7
 70
     0
 43
0.0
 10
-1897.561869327867
 20
-331.6675492526485
 10
-1897.892869327867
 20
-331.6620056378543
 10
-1899.327869327867
 20
-331.6310056378544
 10
-1900.762869327867
 20
-331.5960056378543
 10
-1902.198869327867
 20
-331.5570056378543
 10
-1903.634869327867
 20
-331.5130056378543
 10
-1905.010221905891
 20
-331.468979041759
  0
LINE
  5
105BE
330
1F
100
AcDbEntity
  8
ala
  6
ByBlock
 62
     0
100
AcDbLine
 10
-1379.0
 20
18.70613649175175
 30
0.0
 11
-1379.0
 21
16.70613649175175
 31
0.0
  0
LINE
  5
105BF
102
{ACAD_REACTORS
330
10738
102
}
330
1F
100
AcDbEntity
  8
ala
  6
ByBlock
 62
     0
100
AcDbLine
 10
-1379.0
 20
16.70613649175175
 30
0.0
 11
-1452.5
 21
16.70613649175163
 31
0.0
  0
LINE
  5
105C0
330
1F
100
AcDbEntity
  8
ala
  6
ByBlock
 62
     0
100
AcDbLine
 10
-711.0000000000002
 20
130.4658484995415
 30
0.0
 11
-1379.0
 21
130.4658484995634
 31
0.0
  0
LINE
  5
105C1
330
1F
100
AcDbEntity
  8
ala
  6
ByBlock
 62
     0
100
AcDbLine
 10
-711.0000000000002
 20
130.4658484995415
 30
0.0
 11
-711.0000000000002
 21
140.4658484995414
 31
0.0
  0
LINE
  5
105C2
330
1F
100
AcDbEntity
  8
ala
  6
ByBlock
 62
     0
100
AcDbLine
 10
-713.0000000000002
 20
140.4658484995415
 30
0.0
 11
-712.9999999999998
 21
145.4658484995416
 31
0.0
  0
LINE
  5
105C3
330
1F
100
AcDbEntity
  8
ala
  6
ByBlock
 62
     0
100
AcDbLine
 10
-712.9999999999993
 20
145.4658484995416
 30
0.0
 11
-776.9999999999997
 21
145.4658484995437
 31
0.0
  0
LINE
  5
105C4
330
1F
100
AcDbEntity
  8
ala
  6
ByBlock
 62
     0
100
AcDbLine
 10
-778.9999999999998
 20
145.4658484995437
 30
0.0
 11
-836.9999999999995
 21
145.4658484995456
 31
0.0
  0
LINE
  5
105C5
330
1F
100
AcDbEntity
  8
ala
  6
ByBlock
 62
     0
100
AcDbLine
 10
-838.9999999999997
 20
145.4658484995457
 30
0.0
 11
-897.0
 21
145.4658484995476
 31
0.0
  0
LINE
  5
105C6
330
1F
100
AcDbEntity
  8
ala
  6
ByBlock
 62
     0
100
AcDbLine
 10
-899.0
 20
145.4658484995477
 30
0.0
 11
-956.9999999999994
 21
145.4658484995496
 31
0.0
  0
LINE
  5
105C7
330
1F
100
AcDbEntity
  8
ala
  6
ByBlock
 62
     0
100
AcDbLine
 10
-958.9999999999992
 20
145.4658484995497
 30
0.0
 11
-1016.999999999999
 21
145.4658484995515
 31
0.0
  0
LINE
  5
105C8
330
1F
100
AcDbEntity
  8
ala
  6
ByBlock
 62
     0
100
AcDbLine
 10
-1018.999999999999
 20
145.4658484995516
 30
0.0
 11
-1076.999999999999
 21
145.4658484995535
 31
0.0
  0
LINE
  5
105C9
330
1F
100
AcDbEntity
  8
ala
  6
ByBlock
 62
     0
100
AcDbLine
 10
-1078.999999999999
 20
145.4658484995536
 30
0.0
 11
-1137.0
 21
145.4658484995555
 31
0.0
  0
LINE
  5
105CA
330
1F
100
AcDbEntity
  8
ala
  6
ByBlock
 62
     0
100
AcDbLine
 10
-1139.0
 20
145.4658484995555
 30
0.0
 11
-1196.999999999999
 21
145.4658484995574
 31
0.0
  0
LINE
  5
105CB
330
1F
100
AcDbEntity
  8
ala
  6
ByBlock
 62
     0
100
AcDbLine
 10
-1198.999999999999
 20
145.4658484995575
 30
0.0
 11
-1256.999999999999
 21
145.4658484995594
 31
0.0
  0
LINE
  5
105CC
330
1F
100
AcDbEntity
  8
ala
  6
ByBlock
 62
     0
100
AcDbLine
 10
-1258.999999999999
 20
145.4658484995595
 30
0.0
 11
-1303.5
 21
145.4658484995609
 31
0.0
  0
LINE
  5
105CD
330
1F
100
AcDbEntity
  8
ala
  6
ByBlock
 62
     0
100
AcDbLine
 10
-1305.5
 20
145.465848499561
 30
0.0
 11
-1342.0
 21
145.4658484995622
 31
0.0
  0
LINE
  5
105CE
330
1F
100
AcDbEntity
  8
ala
  6
ByBlock
 62
     0
100
AcDbLine
 10
-1344.0
 20
145.4658484995623
 30
0.0
 11
-1377.0
 21
145.4658484995633
 31
0.0
  0
LINE
  5
105CF
330
1F
100
AcDbEntity
  8
ala
  6
ByBlock
 62
     0
100
AcDbLine
 10
-777.0000000000006
 20
140.4658484995436
 30
0.0
 11
-776.9999999999997
 21
145.4658484995437
 31
0.0
  0
LINE
  5
105D0
330
1F
100
AcDbEntity
  8
ala
  6
ByBlock
 62
     0
100
AcDbLine
 10
-779.0000000000002
 20
140.4658484995437
 30
0.0
 11
-778.9999999999998
 21
145.4658484995437
 31
0.0
  0
LINE
  5
105D1
330
1F
100
AcDbEntity
  8
ala
  6
ByBlock
 62
     0
100
AcDbLine
 10
-837.0000000000002
 20
140.4658484995456
 30
0.0
 11
-837.0
 21
145.4658484995456
 31
0.0
  0
LINE
  5
105D2
330
1F
100
AcDbEntity
  8
ala
  6
ByBlock
 62
     0
100
AcDbLine
 10
-839.0
 20
140.4658484995457
 30
0.0
 11
-838.9999999999997
 21
145.4658484995457
 31
0.0
  0
LINE
  5
105D3
330
1F
100
AcDbEntity
  8
ala
  6
ByBlock
 62
     0
100
AcDbLine
 10
-897.0000000000004
 20
140.4658484995476
 30
0.0
 11
-897.0000000000002
 21
145.4658484995476
 31
0.0
  0
LINE
  5
105D4
330
1F
100
AcDbEntity
  8
ala
  6
ByBlock
 62
     0
100
AcDbLine
 10
-899.0000000000007
 20
140.4658484995476
 30
0.0
 11
-899.0
 21
145.4658484995476
 31
0.0
  0
LINE
  5
105D5
330
1F
100
AcDbEntity
  8
ala
  6
ByBlock
 62
     0
100
AcDbLine
 10
-956.9999999999998
 20
140.4658484995495
 30
0.0
 11
-956.9999999999993
 21
145.4658484995495
 31
0.0
  0
LINE
  5
105D6
330
1F
100
AcDbEntity
  8
ala
  6
ByBlock
 62
     0
100
AcDbLine
 10
-958.9999999999996
 20
140.4658484995496
 30
0.0
 11
-958.9999999999992
 21
145.4658484995496
 31
0.0
  0
LINE
  5
105D7
330
1F
100
AcDbEntity
  8
ala
  6
ByBlock
 62
     0
100
AcDbLine
 10
-1017.0
 20
140.4658484995515
 30
0.0
 11
-1016.999999999999
 21
145.4658484995515
 31
0.0
  0
LINE
  5
105D8
330
1F
100
AcDbEntity
  8
ala
  6
ByBlock
 62
     0
100
AcDbLine
 10
-1019.0
 20
140.4658484995516
 30
0.0
 11
-1019.0
 21
145.4658484995516
 31
0.0
  0
LINE
  5
105D9
330
1F
100
AcDbEntity
  8
ala
  6
ByBlock
 62
     0
100
AcDbLine
 10
-1077.0
 20
140.4658484995534
 30
0.0
 11
-1077.0
 21
145.4658484995535
 31
0.0
  0
LINE
  5
105DA
330
1F
100
AcDbEntity
  8
ala
  6
ByBlock
 62
     0
100
AcDbLine
 10
-1078.999999999999
 20
140.4658484995535
 30
0.0
 11
-1078.999999999999
 21
145.4658484995535
 31
0.0
  0
LINE
  5
105DB
330
1F
100
AcDbEntity
  8
ala
  6
ByBlock
 62
     0
100
AcDbLine
 10
-1137.0
 20
140.4658484995554
 30
0.0
 11
-1136.999999999999
 21
145.4658484995555
 31
0.0
  0
LINE
  5
105DC
330
1F
100
AcDbEntity
  8
ala
  6
ByBlock
 62
     0
100
AcDbLine
 10
-1139.0
 20
140.4658484995555
 30
0.0
 11
-1139.0
 21
145.4658484995555
 31
0.0
  0
LINE
  5
105DD
330
1F
100
AcDbEntity
  8
ala
  6
ByBlock
 62
     0
100
AcDbLine
 10
-1197.0
 20
140.4658484995574
 30
0.0
 11
-1196.999999999999
 21
145.4658484995574
 31
0.0
  0
LINE
  5
105DE
330
1F
100
AcDbEntity
  8
ala
  6
ByBlock
 62
     0
100
AcDbLine
 10
-1198.999999999999
 20
140.4658484995575
 30
0.0
 11
-1198.999999999999
 21
145.4658484995575
 31
0.0
  0
LINE
  5
105DF
330
1F
100
AcDbEntity
  8
ala
  6
ByBlock
 62
     0
100
AcDbLine
 10
-1257.0
 20
140.4658484995594
 30
0.0
 11
-1257.0
 21
145.4658484995594
 31
0.0
  0
LINE
  5
105E0
330
1F
100
AcDbEntity
  8
ala
  6
ByBlock
 62
     0
100
AcDbLine
 10
-1258.999999999999
 20
140.4658484995595
 30
0.0
 11
-1258.999999999999
 21
145.4658484995595
 31
0.0
  0
LINE
  5
105E1
330
1F
100
AcDbEntity
  8
ala
  6
ByBlock
 62
     0
100
AcDbLine
 10
-1303.5
 20
140.4658484995609
 30
0.0
 11
-1303.5
 21
145.4658484995609
 31
0.0
  0
LINE
  5
105E2
330
1F
100
AcDbEntity
  8
ala
  6
ByBlock
 62
     0
100
AcDbLine
 10
-1305.5
 20
140.465848499561
 30
0.0
 11
-1305.5
 21
145.465848499561
 31
0.0
  0
LINE
  5
105E3
330
1F
100
AcDbEntity
  8
ala
  6
ByBlock
 62
     0
100
AcDbLine
 10
-1342.0
 20
140.4658484995622
 30
0.0
 11
-1342.0
 21
145.4658484995622
 31
0.0
  0
LINE
  5
105E4
330
1F
100
AcDbEntity
  8
ala
  6
ByBlock
 62
     0
100
AcDbLine
 10
-1344.0
 20
140.4658484995622
 30
0.0
 11
-1344.0
 21
145.4658484995623
 31
0.0
  0
LINE
  5
105E5
330
1F
100
AcDbEntity
  8
ala
  6
ByBlock
 62
     0
100
AcDbLine
 10
-1377.0
 20
140.4658484995633
 30
0.0
 11
-1377.0
 21
145.4658484995633
 31
0.0
  0
LINE
  5
105E6
330
1F
100
AcDbEntity
  8
ala
  6
ByBlock
 62
     0
100
AcDbLine
 10
-1379.0
 20
130.4658484995634
 30
0.0
 11
-1379.0
 21
140.4658484995634
 31
0.0
  0
LINE
  5
105E7
330
1F
100
AcDbEntity
  8
ala
  6
ByBlock
 62
     0
100
AcDbLine
 10
-711.0000000000002
 20
130.4658484995415
 30
0.0
 11
-711.0000000000002
 21
140.4658484995415
 31
0.0
  0
LINE
  5
105E8
330
1F
100
AcDbEntity
  8
ala
  6
ByBlock
 62
     0
100
AcDbLine
 10
-711.0000000000002
 20
140.4658484995415
 30
0.0
 11
-713.0000000000002
 21
140.4658484995415
 31
0.0
  0
LINE
  5
105E9
330
1F
100
AcDbEntity
  8
ala
  6
ByBlock
 62
     0
100
AcDbLine
 10
-777.0000000000006
 20
140.4658484995436
 30
0.0
 11
-779.0000000000002
 21
140.4658484995437
 31
0.0
  0
LINE
  5
105EA
330
1F
100
AcDbEntity
  8
ala
  6
ByBlock
 62
     0
100
AcDbLine
 10
-837.0000000000002
 20
140.4658484995456
 30
0.0
 11
-838.9999999999997
 21
140.4658484995456
 31
0.0
  0
LINE
  5
105EB
330
1F
100
AcDbEntity
  8
ala
  6
ByBlock
 62
     0
100
AcDbLine
 10
-897.0000000000002
 20
140.4658484995475
 30
0.0
 11
-899.0000000000001
 21
140.4658484995476
 31
0.0
  0
LINE
  5
105EC
330
1F
100
AcDbEntity
  8
ala
  6
ByBlock
 62
     0
100
AcDbLine
 10
-956.9999999999994
 20
140.4658484995495
 30
0.0
 11
-958.9999999999996
 21
140.4658484995496
 31
0.0
  0
LINE
  5
105ED
330
1F
100
AcDbEntity
  8
ala
  6
ByBlock
 62
     0
100
AcDbLine
 10
-1017.0
 20
140.4658484995515
 30
0.0
 11
-1019.0
 21
140.4658484995515
 31
0.0
  0
LINE
  5
105EE
330
1F
100
AcDbEntity
  8
ala
  6
ByBlock
 62
     0
100
AcDbLine
 10
-1076.999999999999
 20
140.4658484995534
 30
0.0
 11
-1078.999999999999
 21
140.4658484995535
 31
0.0
  0
LINE
  5
105EF
330
1F
100
AcDbEntity
  8
ala
  6
ByBlock
 62
     0
100
AcDbLine
 10
-1137.0
 20
140.4658484995554
 30
0.0
 11
-1139.0
 21
140.4658484995555
 31
0.0
  0
LINE
  5
105F0
330
1F
100
AcDbEntity
  8
ala
  6
ByBlock
 62
     0
100
AcDbLine
 10
-1197.0
 20
140.4658484995574
 30
0.0
 11
-1199.0
 21
140.4658484995574
 31
0.0
  0
LINE
  5
105F1
330
1F
100
AcDbEntity
  8
ala
  6
ByBlock
 62
     0
100
AcDbLine
 10
-1256.999999999999
 20
140.4658484995593
 30
0.0
 11
-1259.0
 21
140.4658484995594
 31
0.0
  0
LINE
  5
105F2
330
1F
100
AcDbEntity
  8
ala
  6
ByBlock
 62
     0
100
AcDbLine
 10
-1303.5
 20
140.4658484995609
 30
0.0
 11
-1305.5
 21
140.4658484995609
 31
0.0
  0
LINE
  5
105F3
330
1F
100
AcDbEntity
  8
ala
  6
ByBlock
 62
     0
100
AcDbLine
 10
-1342.0
 20
140.4658484995621
 30
0.0
 11
-1344.0
 21
140.4658484995622
 31
0.0
  0
LINE
  5
105F4
330
1F
100
AcDbEntity
  8
ala
  6
ByBlock
 62
     0
100
AcDbLine
 10
-1377.0
 20
140.4658484995633
 30
0.0
 11
-1379.0
 21
140.4658484995633
 31
0.0
  0
LINE
  5
105F5
330
1F
100
AcDbEntity
  8
ala
  6
ByBlock
 62
     0
100
AcDbLine
 10
-1256.999999999999
 20
162.0330115766461
 30
0.0
 11
-1378.999999999999
 21
162.0330115766501
 31
0.0
  0
LINE
  5
105F6
330
1F
100
AcDbEntity
  8
ala
  6
ByBlock
 62
     0
100
AcDbLine
 10
-1258.999999999999
 20
177.0330115766461
 30
0.0
 11
-1303.499999999999
 21
177.0330115766476
 31
0.0
  0
LINE
  5
105F7
330
1F
100
AcDbEntity
  8
ala
  6
ByBlock
 62
     0
100
AcDbLine
 10
-1305.499999999999
 20
177.0330115766476
 30
0.0
 11
-1341.999999999999
 21
177.0330115766489
 31
0.0
  0
LINE
  5
105F8
330
1F
100
AcDbEntity
  8
ala
  6
ByBlock
 62
     0
100
AcDbLine
 10
-1343.999999999999
 20
177.0330115766489
 30
0.0
 11
-1376.999999999999
 21
177.03301157665
 31
0.0
  0
LINE
  5
105F9
330
1F
100
AcDbEntity
  8
ala
  6
ByBlock
 62
     0
100
AcDbLine
 10
-1258.999999999999
 20
172.0330115766461
 30
0.0
 11
-1258.999999999998
 21
177.0330115766461
 31
0.0
  0
LINE
  5
105FA
330
1F
100
AcDbEntity
  8
ala
  6
ByBlock
 62
     0
100
AcDbLine
 10
-1303.499999999999
 20
172.0330115766476
 30
0.0
 11
-1303.499999999999
 21
177.0330115766476
 31
0.0
  0
LINE
  5
105FB
330
1F
100
AcDbEntity
  8
ala
  6
ByBlock
 62
     0
100
AcDbLine
 10
-1305.499999999999
 20
172.0330115766476
 30
0.0
 11
-1305.499999999999
 21
177.0330115766476
 31
0.0
  0
LINE
  5
105FC
330
1F
100
AcDbEntity
  8
ala
  6
ByBlock
 62
     0
100
AcDbLine
 10
-1341.999999999999
 20
172.0330115766488
 30
0.0
 11
-1341.999999999999
 21
177.0330115766489
 31
0.0
  0
LINE
  5
105FD
330
1F
100
AcDbEntity
  8
ala
  6
ByBlock
 62
     0
100
AcDbLine
 10
-1343.999999999999
 20
172.0330115766489
 30
0.0
 11
-1343.999999999999
 21
177.0330115766489
 31
0.0
  0
LINE
  5
105FE
330
1F
100
AcDbEntity
  8
ala
  6
ByBlock
 62
     0
100
AcDbLine
 10
-1376.999999999999
 20
172.03301157665
 30
0.0
 11
-1376.999999999999
 21
177.03301157665
 31
0.0
  0
LINE
  5
105FF
330
1F
100
AcDbEntity
  8
ala
  6
ByBlock
 62
     0
100
AcDbLine
 10
-1378.999999999999
 20
162.0330115766501
 30
0.0
 11
-1378.999999999999
 21
172.03301157665
 31
0.0
  0
LINE
  5
10600
330
1F
100
AcDbEntity
  8
ala
  6
ByBlock
 62
     0
100
AcDbLine
 10
-1256.999999999999
 20
172.033011576646
 30
0.0
 11
-1258.999999999999
 21
172.0330115766461
 31
0.0
  0
LINE
  5
10601
330
1F
100
AcDbEntity
  8
ala
  6
ByBlock
 62
     0
100
AcDbLine
 10
-1303.499999999999
 20
172.0330115766475
 30
0.0
 11
-1305.499999999999
 21
172.0330115766476
 31
0.0
  0
LINE
  5
10602
330
1F
100
AcDbEntity
  8
ala
  6
ByBlock
 62
     0
100
AcDbLine
 10
-1341.999999999999
 20
172.0330115766488
 30
0.0
 11
-1343.999999999999
 21
172.0330115766488
 31
0.0
  0
LINE
  5
10603
330
1F
100
AcDbEntity
  8
ala
  6
ByBlock
 62
     0
100
AcDbLine
 10
-1376.999999999999
 20
172.0330115766499
 30
0.0
 11
-1378.999999999999
 21
172.03301157665
 31
0.0
  0
LINE
  5
10604
330
1F
100
AcDbEntity
  8
ala
  6
ByBlock
 62
     0
100
AcDbLine
 10
-1256.999999999999
 20
172.033011576646
 30
0.0
 11
-1256.999999999999
 21
162.0330115766461
 31
0.0
  0
MTEXT
  5
10683
330
1F
100
AcDbEntity
  8
Text
  6
ByBlock
 62
     0
100
AcDbMText
 10
-1955.894652767803
 20
-332.7816932251262
 30
0.0
 40
5.0
 41
41.88258411469542
 71
     1
 72
     5
  1
    C1\PCompensato\P2mm
 73
     1
 44
1.0
  0
MTEXT
  5
10684
330
1F
100
AcDbEntity
  8
Text
  6
ByBlock
 62
     0
100
AcDbMText
 10
-1383.391939919573
 20
37.40956341218043
 30
0.0
 40
5.0
 41
7.10126079440306
 71
     1
 72
     5
  1
C1
 73
     1
 44
1.0
  0
MTEXT
  5
10685
330
1F
100
AcDbEntity
  8
Text
  6
ByBlock
 62
     0
100
AcDbMText
 10
-1417.122955747807
 20
37.40956341218043
 30
0.0
 40
5.0
 41
7.10126079440306
 71
     1
 72
     5
  1
C1
 73
     1
 44
1.0
  0
MTEXT
  5
10686
330
1F
100
AcDbEntity
  8
Text
  6
ByBlock
 62
     0
100
AcDbMText
 10
-1981.824643603435
 20
-390.181914371384
 30
0.0
 40
5.0
 41
78.69855784717947
 71
     1
 72
     5
  1
^I    C2\PCompensato 2mm
 73
     1
 44
1.0
  0
MTEXT
  5
10694
330
1F
100
AcDbEntity
  8
Text
  6
ByBlock
 62
     0
100
AcDbMText
 10
-1463.492940966929
 20
59.02764693415974
 30
0.0
 40
5.0
 41
19.33652306985459
 71
     1
 72
     5
  1
C2
 73
     1
 44
1.0
  0
MTEXT
  5
10695
330
1F
100
AcDbEntity
  8
Text
  6
ByBlock
 62
     0
100
AcDbMText
 10
-1504.509800333561
 20
59.02764693415974
 30
0.0
 40
5.0
 41
19.33652306985459
 71
     1
 72
     5
  1
C2
 73
     1
 44
1.0
  0
MTEXT
  5
10696
330
1F
100
AcDbEntity
  8
Text
  6
ByBlock
 62
     0
100
AcDbMText
 10
-1961.650226456801
 20
-450.1381059276027
 30
0.0
 40
5.0
 41
64.96577681254894
 71
     1
 72
     5
  1
       C3\Pbalsa 2 mm
 73
     1
 44
1.0
  0
LWPOLYLINE
  5
10698
330
1F
100
AcDbEntity
  8
ala
  6
Continuous
100
AcDbPolyline
 90
        2
 70
     0
 43
0.0
 10
-1870.871051689293
 20
-489.1539965752526
 10
-1908.229827554812
 20
-489.1539965752526
  0
LWPOLYLINE
  5
10699
330
1F
100
AcDbEntity
  8
ala
  6
Continuous
100
AcDbPolyline
 90
        2
 70
     0
 43
0.0
 10
-1974.871051689293
 20
-489.1539965752526
 10
-2014.871051689294
 20
-489.1539965752526
  0
LWPOLYLINE
  5
1069A
330
1F
100
AcDbEntity
  8
ala
  6
Continuous
100
AcDbPolyline
 90
       51
 70
     0
 43
0.0
 10
-1974.871051689293
 20
-480.8327743530305
 10
-1974.551051689293
 20
-480.7789965752526
 10
-1973.111051689293
 20
-480.5409965752527
 10
-1971.671051689293
 20
-480.3079965752527
 10
-1970.231051689293
 20
-480.0789965752527
 10
-1968.791051689293
 20
-479.8539965752525
 10
-1967.351051689293
 20
-479.6339965752527
 10
-1965.911051689293
 20
-479.4189965752527
 10
-1964.471051689293
 20
-479.2089965752526
 10
-1963.031051689293
 20
-479.0049965752526
 10
-1961.591051689293
 20
-478.8059965752527
 10
-1960.151051689293
 20
-478.6129965752526
 10
-1958.711051689293
 20
-478.4249965752527
 10
-1957.271051689293
 20
-478.2439965752526
 10
-1955.831051689293
 20
-478.0699965752527
 10
-1954.391051689293
 20
-477.9009965752526
 10
-1952.951051689293
 20
-477.7399965752526
 10
-1951.511051689293
 20
-477.5839965752526
 10
-1950.071051689293
 20
-477.4349965752527
 10
-1948.631051689293
 20
-477.2929965752527
 10
-1947.191051689293
 20
-477.1569965752527
 10
-1945.751051689293
 20
-477.0269965752527
 10
-1944.311051689293
 20
-476.9039965752527
 10
-1942.871051689293
 20
-476.7879965752526
 10
-1941.431051689293
 20
-476.6779965752526
 10
-1939.991051689293
 20
-476.5749965752526
 10
-1938.551051689293
 20
-476.4789965752526
 10
-1937.111051689293
 20
-476.3899965752527
 10
-1935.671051689293
 20
-476.3079965752527
 10
-1934.231051689293
 20
-476.2349965752527
 10
-1932.791051689293
 20
-476.1699965752526
 10
-1931.351051689293
 20
-476.1129965752526
 10
-1929.911051689293
 20
-476.0649965752526
 10
-1928.471051689293
 20
-476.0259965752526
 10
-1927.031051689293
 20
-475.9959965752527
 10
-1925.591051689293
 20
-475.9749965752527
 10
-1924.151051689293
 20
-475.9629965752526
 10
-1922.711051689293
 20
-475.9599965752527
 10
-1921.271051689293
 20
-475.9649965752527
 10
-1919.831051689293
 20
-475.9769965752526
 10
-1918.391051689293
 20
-475.9969965752526
 10
-1916.951051689293
 20
-476.0239965752527
 10
-1915.511051689293
 20
-476.0569965752527
 10
-1914.071051689293
 20
-476.0959965752526
 10
-1912.631051689293
 20
-476.1419965752526
 10
-1911.191051689293
 20
-476.1939965752526
 10
-1909.751051689293
 20
-476.2549965752526
 10
-1908.311051689293
 20
-476.3259965752527
 10
-1906.871051689293
 20
-476.4089965752527
 10
-1905.431051689293
 20
-476.5069965752526
 10
-1905.021051689293
 20
-476.5388633344477
  0
LWPOLYLINE
  5
1069B
330
1F
100
AcDbEntity
  8
ala
  6
Continuous
100
AcDbPolyline
 90
       47
 70
     0
 43
0.0
 10
-1909.751051689293
 20
-493.1069965752526
 10
-1911.191051689293
 20
-493.0519965752527
 10
-1912.631051689293
 20
-492.9969965752526
 10
-1914.071051689293
 20
-492.9429965752526
 10
-1915.511051689293
 20
-492.8879965752527
 10
-1916.951051689293
 20
-492.8339965752526
 10
-1918.391051689293
 20
-492.7809965752527
 10
-1919.831051689293
 20
-492.7279965752526
 10
-1921.271051689293
 20
-492.6749965752527
 10
-1922.711051689293
 20
-492.6229965752526
 10
-1924.151051689293
 20
-492.5699965752527
 10
-1925.591051689293
 20
-492.5179965752526
 10
-1927.031051689293
 20
-492.4659965752526
 10
-1928.471051689293
 20
-492.4139965752527
 10
-1929.911051689293
 20
-492.3609965752526
 10
-1931.351051689293
 20
-492.3079965752527
 10
-1932.791051689293
 20
-492.2559965752526
 10
-1934.231051689293
 20
-492.2029965752527
 10
-1935.671051689293
 20
-492.1499965752526
 10
-1937.111051689293
 20
-492.0969965752526
 10
-1938.551051689293
 20
-492.0439965752526
 10
-1939.991051689293
 20
-491.9909965752526
 10
-1941.431051689293
 20
-491.9379965752527
 10
-1942.871051689293
 20
-491.8849965752526
 10
-1944.311051689293
 20
-491.8319965752527
 10
-1945.751051689293
 20
-491.7789965752526
 10
-1947.191051689293
 20
-491.7259965752527
 10
-1948.631051689293
 20
-491.6729965752526
 10
-1950.071051689293
 20
-491.6199965752526
 10
-1951.511051689293
 20
-491.5669965752527
 10
-1952.951051689293
 20
-491.5139965752526
 10
-1954.391051689293
 20
-491.4619965752526
 10
-1955.831051689293
 20
-491.4089965752526
 10
-1957.271051689293
 20
-491.3559965752527
 10
-1958.711051689293
 20
-491.3029965752526
 10
-1960.151051689293
 20
-491.2499965752527
 10
-1961.591051689293
 20
-491.1969965752526
 10
-1963.031051689293
 20
-491.1439965752527
 10
-1964.471051689293
 20
-491.0919965752526
 10
-1965.911051689293
 20
-491.0389965752527
 10
-1967.351051689293
 20
-490.9859965752526
 10
-1968.791051689293
 20
-490.9329965752526
 10
-1970.231051689293
 20
-490.8799965752526
 10
-1971.671051689293
 20
-490.8269965752526
 10
-1973.111051689293
 20
-490.7739965752527
 10
-1974.551051689293
 20
-490.7209965752526
 10
-1974.871051689293
 20
-490.7092187974749
  0
LWPOLYLINE
  5
1069C
330
1F
100
AcDbEntity
  8
ala
  6
Continuous
100
AcDbPolyline
 90
        2
 70
     0
 43
0.0
 10
-1870.871051689293
 20
-489.1539965752526
 10
-1908.229827554812
 20
-489.1539965752526
  0
LWPOLYLINE
  5
1069D
330
1F
100
AcDbEntity
  8
ala
  6
Continuous
100
AcDbPolyline
 90
        2
 70
     0
 43
0.0
 10
-1974.871051689293
 20
-489.1539965752526
 10
-2014.871051689294
 20
-489.1539965752526
  0
LWPOLYLINE
  5
1069E
330
1F
100
AcDbEntity
  8
ala
  6
Continuous
100
AcDbPolyline
 90
       22
 70
     0
 43
0.0
 10
-2004.213051689294
 20
-488.1309965752526
 10
-2003.026051689293
 20
-487.8659965752526
 10
-2001.590051689293
 20
-487.5489965752526
 10
-2000.153051689293
 20
-487.2359965752527
 10
-1998.717051689293
 20
-486.9259965752527
 10
-1997.280051689293
 20
-486.6199965752526
 10
-1995.844051689293
 20
-486.3179965752526
 10
-1994.407051689293
 20
-486.0189965752526
 10
-1992.972051689293
 20
-485.7239965752527
 10
-1991.535051689293
 20
-485.4329965752526
 10
-1990.099051689293
 20
-485.1459965752527
 10
-1988.663051689293
 20
-484.8629965752526
 10
-1987.227051689293
 20
-484.5839965752526
 10
-1985.791051689293
 20
-484.3089965752526
 10
-1984.355051689293
 20
-484.0379965752527
 10
-1982.919051689293
 20
-483.7709965752527
 10
-1981.484051689293
 20
-483.5079965752526
 10
-1980.047051689293
 20
-483.2499965752527
 10
-1978.612051689293
 20
-482.9959965752526
 10
-1977.176051689293
 20
-482.7459965752527
 10
-1975.741051689293
 20
-482.4999965752526
 10
-1974.871051689293
 20
-482.3540884332902
  0
LWPOLYLINE
  5
1069F
330
1F
100
AcDbEntity
  8
ala
  6
Continuous
100
AcDbPolyline
 90
       26
 70
     0
 43
0.0
 10
-1905.021051689293
 20
-478.0434523336797
 10
-1904.116051689293
 20
-478.1139965752527
 10
-1902.696051689293
 20
-478.2429965752527
 10
-1901.276051689293
 20
-478.3899965752526
 10
-1899.859051689293
 20
-478.5579965752527
 10
-1898.441051689293
 20
-478.7489965752526
 10
-1897.026051689293
 20
-478.9619965752526
 10
-1895.607051689293
 20
-479.1989965752526
 10
-1894.192051689293
 20
-479.4569965752526
 10
-1892.772051689293
 20
-479.7399965752527
 10
-1891.358051689293
 20
-480.0429965752527
 10
-1889.939051689293
 20
-480.3719965752526
 10
-1888.528051689293
 20
-480.7249965752527
 10
-1887.113051689293
 20
-481.1069965752526
 10
-1885.708051689293
 20
-481.5179965752527
 10
-1884.294051689293
 20
-481.9649965752526
 10
-1882.891051689293
 20
-482.4419965752526
 10
-1881.480051689293
 20
-482.9599965752527
 10
-1880.083051689293
 20
-483.5199965752527
 10
-1879.401051689293
 20
-483.8159965752526
 10
-1878.719051689293
 20
-484.1309965752526
 10
-1878.032051689293
 20
-484.4719965752526
 10
-1877.362051689293
 20
-484.8299965752527
 10
-1876.683051689293
 20
-485.2239965752527
 10
-1876.035051689293
 20
-485.6389965752526
 10
-1875.871051689293
 20
-485.7569098786906
  0
LWPOLYLINE
  5
106A0
330
1F
100
AcDbEntity
  8
ala
  6
Continuous
100
AcDbPolyline
 90
       25
 70
     0
 43
0.0
 10
-1875.871051689293
 20
-491.0148940111501
 10
-1876.192051689293
 20
-491.0779965752526
 10
-1876.889051689293
 20
-491.2079965752526
 10
-1877.576051689293
 20
-491.3199965752527
 10
-1878.264051689293
 20
-491.4169965752527
 10
-1878.952051689293
 20
-491.4979965752526
 10
-1879.636051689293
 20
-491.5659965752527
 10
-1881.050051689294
 20
-491.6729965752526
 10
-1882.471051689293
 20
-491.7549965752527
 10
-1883.900051689293
 20
-491.8249965752526
 10
-1885.328051689293
 20
-491.8859965752526
 10
-1886.755051689293
 20
-491.9339965752526
 10
-1888.183051689293
 20
-491.9689965752525
 10
-1889.612051689293
 20
-491.9939965752527
 10
-1891.042051689293
 20
-492.0089965752526
 10
-1892.472051689293
 20
-492.0139965752526
 10
-1893.903051689293
 20
-492.0109965752526
 10
-1895.336051689293
 20
-491.9999965752526
 10
-1896.769051689293
 20
-491.9809965752526
 10
-1898.202051689293
 20
-491.9569965752526
 10
-1899.637051689293
 20
-491.9259965752527
 10
-1901.072051689293
 20
-491.8909965752526
 10
-1902.508051689293
 20
-491.8519965752526
 10
-1903.944051689293
 20
-491.8079965752526
 10
-1905.319404267317
 20
-491.7639699791573
  0
LWPOLYLINE
  5
106A1
330
1F
100
AcDbEntity
  8
ala
  6
Continuous
100
AcDbPolyline
 90
       22
 70
     0
 43
0.0
 10
-1974.871051689293
 20
-489.2081944919193
 10
-1975.936051689293
 20
-489.1689965752526
 10
-1977.376051689293
 20
-489.1169965752527
 10
-1978.816051689293
 20
-489.0639965752526
 10
-1980.256051689293
 20
-489.0109965752526
 10
-1981.696051689293
 20
-488.9579965752526
 10
-1983.136051689293
 20
-488.9049965752526
 10
-1984.576051689293
 20
-488.8519965752526
 10
-1986.016051689293
 20
-488.7989965752526
 10
-1987.456051689293
 20
-488.7459965752526
 10
-1988.896051689293
 20
-488.6929965752527
 10
-1990.336051689293
 20
-488.6409965752526
 10
-1991.776051689293
 20
-488.5879965752526
 10
-1993.216051689293
 20
-488.5349965752526
 10
-1994.656051689293
 20
-488.4819965752526
 10
-1996.096051689293
 20
-488.4289965752526
 10
-1997.536051689293
 20
-488.3759965752526
 10
-1998.976051689293
 20
-488.3229965752526
 10
-2000.416051689294
 20
-488.2699965752526
 10
-2001.856051689293
 20
-488.2179965752526
 10
-2003.296051689293
 20
-488.1649965752526
 10
-2004.213051689294
 20
-488.1309965752526
  0
LINE
  5
106A2
330
1F
100
AcDbEntity
  8
ala
  6
ByBlock
 62
     0
100
AcDbLine
 10
-1905.021051689293
 20
-476.5388633344477
 30
0.0
 11
-1905.021051689293
 21
-478.0434523336797
 31
0.0
  0
LINE
  5
106A3
330
1F
100
AcDbEntity
  8
ala
  6
ByBlock
 62
     0
100
AcDbLine
 10
-1909.751051689293
 20
-493.1069965752526
 30
0.0
 11
-1908.370051689293
 21
-493.1579965752526
 31
0.0
  0
LINE
  5
106A4
330
1F
100
AcDbEntity
  8
ala
  6
ByBlock
 62
     0
100
AcDbLine
 10
-1908.370051689293
 20
-493.1579965752526
 30
0.0
 11
-1908.020051689293
 21
-483.1639965752526
 31
0.0
  0
LINE
  5
106A5
330
1F
100
AcDbEntity
  8
ala
  6
ByBlock
 62
     0
100
AcDbLine
 10
-1908.020051689293
 20
-483.1639965752526
 30
0.0
 11
-1905.021051689293
 21
-483.2689965752527
 31
0.0
  0
LINE
  5
106A6
330
1F
100
AcDbEntity
  8
ala
  6
ByBlock
 62
     0
100
AcDbLine
 10
-1905.021051689293
 20
-483.2689965752527
 30
0.0
 11
-1905.319404267317
 21
-491.7639699791573
 31
0.0
  0
LINE
  5
106A7
330
1F
100
AcDbEntity
  8
ala
  6
ByBlock
 62
     0
100
AcDbLine
 10
-1875.871051689293
 20
-485.7569098786906
 30
0.0
 11
-1875.871051689293
 21
-491.0148940111501
 31
0.0
  0
LINE
  5
106A8
330
1F
100
AcDbEntity
  8
ala
  6
ByBlock
 62
     0
100
AcDbLine
 10
-1974.871051689293
 20
-480.8327743530305
 30
0.0
 11
-1974.871051689293
 21
-490.7092187974749
 31
0.0
  0
LINE
  5
106A9
330
1F
100
AcDbEntity
  8
ala
  6
ByBlock
 62
     0
100
AcDbLine
 10
-1974.871051689293
 20
-489.1539965752526
 30
0.0
 11
-1908.229827554812
 21
-489.1539965752526
 31
0.0
  0
LINE
  5
106AA
330
1F
100
AcDbEntity
  8
ala
  6
ByBlock
 62
     0
100
AcDbLine
 10
-1964.871051689293
 20
-493.1579965752526
 30
0.0
 11
-1974.871051689293
 21
-493.1579965752526
 31
0.0
  0
LINE
  5
106AB
330
1F
100
AcDbEntity
  8
ala
  6
ByBlock
 62
     0
100
AcDbLine
 10
-1974.871051689293
 20
-490.7092187974749
 30
0.0
 11
-1974.871051689293
 21
-493.1579965752526
 31
0.0
  0
LINE
  5
106AC
330
1F
100
AcDbEntity
  8
ala
  6
ByBlock
 62
     0
100
AcDbLine
 10
-1964.871051689293
 20
-493.1579965752527
 30
0.0
 11
-1964.871051689293
 21
-491.0772743530304
 31
0.0
  0
MTEXT
  5
106AE
330
1F
100
AcDbEntity
  8
Text
  6
ByBlock
 62
     0
100
AcDbMText
 10
-1955.117067706524
 20
-498.030234297561
 30
0.0
 40
5.0
 41
56.99005502252475
 71
     1
 72
     5
  1
      C4\PCompensato 2 mm
 73
     1
 44
1.0
  0
MTEXT
  5
106AF
330
1F
100
AcDbEntity
  8
Text
  6
ByBlock
 62
     0
100
AcDbMText
 10
-1744.410827868722
 20
61.447246259454
 30
0.0
 40
5.0
 41
0.0
 71
     1
 72
     5
  1
C4
 73
     1
 44
1.0
  0
MTEXT
  5
106B0
330
1F
100
AcDbEntity
  8
Text
  6
ByBlock
 62
     0
100
AcDbMText
 10
-1565.994477638107
 20
61.05908909509707
 30
0.0
 40
5.0
 41
12.81741315010913
 71
     1
 72
     5
  1
C3
 73
     1
 44
1.0
  0
MTEXT
  5
106B1
330
1F
100
AcDbEntity
  8
Text
  6
ByBlock
 62
     0
100
AcDbMText
 10
-1622.070689684186
 20
59.4582397996719
 30
0.0
 40
5.0
 41
12.81741315010913
 71
     1
 72
     5
  1
C3
 73
     1
 44
1.0
  0
MTEXT
  5
106B2
330
1F
100
AcDbEntity
  8
Text
  6
ByBlock
 62
     0
100
AcDbMText
 10
-1682.95342182344
 20
59.4582397996719
 30
0.0
 40
5.0
 41
12.81741315010913
 71
     1
 72
     5
  1
C3
 73
     1
 44
1.0
  0
MTEXT
  5
106B3
330
1F
100
AcDbEntity
  8
Text
  6
ByBlock
 62
     0
100
AcDbMText
 10
-1802.579567967056
 20
59.06857591222069
 30
0.0
 40
5.0
 41
12.81741315010913
 71
     1
 72
     5
  1
C3
 73
     1
 44
1.0
  0
MTEXT
  5
106B4
330
1F
100
AcDbEntity
  8
Text
  6
ByBlock
 62
     0
100
AcDbMText
 10
-1863.462300106309
 20
59.46878686133004
 30
0.0
 40
5.0
 41
12.81741315010913
 71
     1
 72
     5
  1
C3
 73
     1
 44
1.0
  0
MTEXT
  5
106B5
330
1F
100
AcDbEntity
  8
Text
  6
ByBlock
 62
     0
100
AcDbMText
 10
-1924.081941330955
 20
58.66383929484072
 30
0.0
 40
5.0
 41
12.81741315010913
 71
     1
 72
     5
  1
C3
 73
     1
 44
1.0
  0
LINE
  5
106C6
330
1F
100
AcDbEntity
  8
ala
  6
ByBlock
 62
     0
100
AcDbLine
 10
-2047.0
 20
38.70613649175175
 30
0.0
 11
-2047.0
 21
43.70613649175175
 31
0.0
  0
LINE
  5
106C7
330
1F
100
AcDbEntity
  8
ala
  6
ByBlock
 62
     0
100
AcDbLine
 10
-2047.0
 20
43.70613649175175
 30
0.0
 11
-1452.5
 21
43.70613649175175
 31
0.0
  0
LINE
  5
106C8
330
1F
100
AcDbEntity
  8
ala
  6
ByBlock
 62
     0
100
AcDbLine
 10
-1452.5
 20
38.70613649175174
 30
0.0
 11
-1452.5
 21
43.70613649175175
 31
0.0
  0
LINE
  5
106CA
102
{ACAD_REACTORS
330
10738
102
}
330
1F
100
AcDbEntity
  8
ala
  6
ByBlock
 62
     0
100
AcDbLine
 10
-1379.0
 20
18.70613649175175
 30
0.0
 11
-1379.0
 21
-105.2938635082482
 31
0.0
  0
LINE
  5
106E3
330
1F
100
AcDbEntity
  8
ala
  6
ByBlock
 62
     0
100
AcDbLine
 10
-1379.0
 20
1.706136491751749
 30
0.0
 11
-1379.0
 21
-0.2938635082482506
 31
0.0
  0
LINE
  5
106EE
330
1F
100
AcDbEntity
  8
ala
  6
ByBlock
 62
     0
100
AcDbLine
 10
-1379.0
 20
18.70613649175175
 30
0.0
 11
-1379.0
 21
16.70613649175175
 31
0.0
  0
LINE
  5
10714
330
1F
100
AcDbEntity
  8
ala
  6
ByBlock
 62
     0
100
AcDbLine
 10
-222.4847755525664
 20
-1241.907098280278
 30
0.0
 11
-222.4847755525664
 21
-1257.766478500651
 31
0.0
  0
MTEXT
  5
1071D
330
1F
100
AcDbEntity
  8
Text
  6
ByBlock
 62
     0
100
AcDbMText
 10
-2047.543731798441
 20
60.55431755842801
 30
0.0
 40
5.0
 41
13.00231253666789
 71
     1
 72
     5
  1
C2
 73
     1
 44
1.0
  0
MTEXT
  5
1071E
330
1F
100
AcDbEntity
  8
Text
  6
ByBlock
 62
     0
100
AcDbMText
 10
-1983.774036585412
 20
60.55431755842801
 30
0.0
 40
5.0
 41
13.00231253666789
 71
     1
 72
     5
  1
C2
 73
     1
 44
1.0
  0
LINE
  5
10729
102
{ACAD_REACTORS
330
10738
102
}
330
1F
100
AcDbEntity
  8
ala
  6
ByBlock
 62
     0
100
AcDbLine
 10
-1452.5
 20
38.70613649175174
 30
0.0
 11
-1452.5
 21
16.70613649175163
 31
0.0
  0
LINE
  5
1072A
330
1F
100
AcDbEntity
  8
ala
  6
ByBlock
 62
     0
100
AcDbLine
 10
-1452.5
 20
16.70613649175163
 30
0.0
 11
-1452.5
 21
-105.2938635082482
 31
0.0
  0
LINE
  5
1072B
330
1F
100
AcDbEntity
  8
ala
  6
ByBlock
 62
     0
100
AcDbLine
 10
-1501.0
 20
4.706136491751749
 30
0.0
 11
-1501.0
 21
38.70613649175174
 31
0.0
  0
LINE
  5
1072C
330
1F
100
AcDbEntity
  8
ala
  6
ByBlock
 62
     0
100
AcDbLine
 10
-1501.0
 20
-65.29386350824825
 30
0.0
 11
-1501.0
 21
-105.2938635082482
 31
0.0
  0
LINE
  5
1072D
330
1F
100
AcDbEntity
  8
ala
  6
ByBlock
 62
     0
100
AcDbLine
 10
-1979.0
 20
4.706136491751749
 30
0.0
 11
-2047.000000000001
 21
4.706136491751749
 31
0.0
  0
LINE
  5
1072E
330
1F
100
AcDbEntity
  8
ala
  6
ByBlock
 62
     0
100
AcDbLine
 10
-1979.0
 20
-65.29386350824826
 30
0.0
 11
-2047.000000000001
 21
-65.29386350824826
 31
0.0
  0
LINE
  5
1072F
330
1F
100
AcDbEntity
  8
ala
  6
ByBlock
 62
     0
100
AcDbLine
 10
-1979.0
 20
4.706136491751749
 30
0.0
 11
-1979.0
 21
38.70613649175175
 31
0.0
  0
LINE
  5
10730
330
1F
100
AcDbEntity
  8
ala
  6
ByBlock
 62
     0
100
AcDbLine
 10
-1979.0
 20
-65.29386350824826
 30
0.0
 11
-1979.0
 21
-105.2938635082482
 31
0.0
  0
HATCH
  5
10738
330
1F
100
AcDbEntity
  8
tratteggio
  6
ByBlock
 62
     0
100
AcDbHatch
 10
0.0
 20
0.0
 30
0.0
210
0.0
220
0.0
230
1.0
  2
_USER
 70
     0
 71
     1
 91
        2
 92
       16
 93
        4
 72
     1
 10
-1979.0
 20
-65.29386350824826
 11
-1979.0
 21
4.706136491751749
 72
     1
 10
-1979.0
 20
4.706136491751749
 11
-1501.0
 21
4.706136491751749
 72
     1
 10
-1501.0
 20
4.706136491751749
 11
-1501.0
 21
-65.29386350824826
 72
     1
 10
-1501.0
 20
-65.29386350824825
 11
-1979.0
 21
-65.29386350824826
 97
        4
330
10449
330
1045B
330
1048D
330
10470
 92
       33
 93
        6
 72
     1
 10
-2047.0
 20
38.70613649175175
 11
-1452.5
 21
38.70613649175174
 72
     1
 10
-2047.0
 20
-105.2938635082482
 11
-2047.0
 21
38.70613649175175
 72
     1
 10
-2047.0
 20
-105.2938635082482
 11
-1379.0
 21
-105.2938635082482
 72
     1
 10
-1379.0
 20
18.70613649175175
 11
-1379.0
 21
-105.2938635082482
 72
     1
 10
-1379.0
 20
16.70613649175175
 11
-1452.5
 21
16.70613649175163
 72
     1
 10
-1452.5
 20
38.70613649175174
 11
-1452.5
 21
16.70613649175163
 97
       10
330
10449
330
1045B
330
1048D
330
10470
330
10426
330
103E5
330
103EB
330
106CA
330
105BF
330
10729
 75
     0
 76
     0
 52
45.0
 41
10.0
 77
     0
 78
     1
 53
45.0
 43
-1713.0
 44
-33.29386350824825
 45
-7.071067811865474
 46
7.071067811865475
 79
     0
 98
        1
 10
0.0
 20
0.0
1001
ACAD
1010
-1713.0
1020
-33.29386350824825
1030
0.0
  0
MTEXT
  5
10739
330
1F
100
AcDbEntity
  8
Text
  6
ByBlock
 62
     0
100
AcDbMText
 10
-2064.566309554027
 20
-120.2456711639797
 30
0.0
 40
5.0
 41
105.573143325184
 71
     1
 72
     5
  1
Copertura balsa 1,5 mm
 73
     1
 44
1.0
  0
LINE
  5
1073A
330
1F
100
AcDbEntity
  8
Text
  6
ByBlock
 62
     0
100
AcDbLine
 10
-1981.605931591599
 20
-123.6744246877842
 30
0.0
 11
-1967.039835693809
 21
-97.05123138480395
 31
0.0
  0
MTEXT
  5
1073B
330
1F
100
AcDbEntity
  8
Text
  6
ByBlock
 62
     0
100
AcDbMText
 10
-1924.105746690002
 20
172.7002844363014
 30
0.0
 40
5.0
 41
123.1057466900013
 71
     1
 72
     5
  1
L1 compensato 3mm
 73
     1
 44
1.0
  0
LINE
  5
1073D
330
1F
100
AcDbEntity
  8
Text
  6
ByBlock
 62
     0
100
AcDbLine
 10
-1857.644408151012
 20
168.7276111207566
 30
0.0
 11
-1840.134591028802
 21
136.861167107987
 31
0.0
  0
MTEXT
  5
10748
330
1F
100
AcDbEntity
  8
Text
  6
ByBlock
 62
     0
100
AcDbMText
 10
-1482.928466048279
 20
199.2500517934932
 30
0.0
 40
5.0
 41
80.42699560756956
 71
     1
 72
     5
  1
L2 Compensato 2mm
 73
     1
 44
1.0
  0
LINE
  5
10749
330
1F
100
AcDbEntity
  8
Text
  6
ByBlock
 62
     0
100
AcDbLine
 10
-1412.279009745267
 20
196.1606601102048
 30
0.0
 11
-1394.762707291835
 21
169.5579554498699
 31
0.0
  0
ENDSEC
  0
SECTION
  2
OBJECTS
  0
DICTIONARY
  5
C
330
0
100
AcDbDictionary
281
     1
  3
ACAD_COLOR
350
1004F
  3
ACAD_GROUP
350
D
  3
ACAD_LAYOUT
350
1A
  3
ACAD_MATERIAL
350
10025
  3
ACAD_MLEADERSTYLE
350
10023
  3
ACAD_MLINESTYLE
350
17
  3
ACAD_PLOTSETTINGS
350
19
  3
ACAD_PLOTSTYLENAME
350
E
  3
ACAD_SCALELIST
350
FFFF
  3
ACAD_TABLESTYLE
350
10022
  3
ACAD_VISUALSTYLE
350
1003E
  3
ACDB_RECOMPOSE_DATA
350
10071
  3
AcDbVariableDictionary
350
2A8
  0
DICTIONARY
  5
1045E
330
2
100
AcDbDictionary
280
     1
281
     1
  3
ACAD_LAYERFILTERS
360
10747
  3
ACLYDICTIONARY
360
10746
  0
DICTIONARY
  5
10065
330
10
100
AcDbDictionary
280
     1
281
     1
  3
ADSK_XREC_LAYER_RECONCILED
360
10066
  0
DICTIONARY
  5
10067
330
47
100
AcDbDictionary
280
     1
281
     1
  3
ADSK_XREC_LAYER_RECONCILED
360
10068
  0
DICTIONARY
  5
10069
330
48
100
AcDbDictionary
280
     1
281
     1
  3
ADSK_XREC_LAYER_RECONCILED
360
1006A
  0
DICTIONARY
  5
1006B
330
49
100
AcDbDictionary
280
     1
281
     1
  3
ADSK_XREC_LAYER_RECONCILED
360
1006C
  0
DICTIONARY
  5
1006D
330
4A
100
AcDbDictionary
280
     1
281
     1
  3
ADSK_XREC_LAYER_RECONCILED
360
1006E
  0
DICTIONARY
  5
100BD
330
1F
100
AcDbDictionary
280
     1
281
     1
  3
ACAD_SORTENTS
360
100BE
  0
DICTIONARY
  5
1004F
102
{ACAD_REACTORS
330
C
102
}
330
C
100
AcDbDictionary
281
     1
  0
DICTIONARY
  5
D
330
C
100
AcDbDictionary
281
     1
  0
DICTIONARY
  5
1A
330
C
100
AcDbDictionary
281
     1
  3
Layout1
350
1E
  3
Layout2
350
26
  3
Model
350
22
  0
DICTIONARY
  5
10025
102
{ACAD_REACTORS
330
C
102
}
330
C
100
AcDbDictionary
281
     1
  3
ByBlock
350
1002E
  3
ByLayer
350
10026
  3
Global
350
10036
  0
DICTIONARY
  5
10023
102
{ACAD_REACTORS
330
C
102
}
330
C
100
AcDbDictionary
281
     1
  3
Standard
350
10051
  0
DICTIONARY
  5
17
330
C
100
AcDbDictionary
281
     1
  3
Standard
350
18
  0
DICTIONARY
  5
19
330
C
100
AcDbDictionary
281
     1
  0
ACDBDICTIONARYWDFLT
  5
E
330
C
100
AcDbDictionary
281
     1
  3
Normal
350
F
100
AcDbDictionaryWithDefault
340
F
  0
DICTIONARY
  5
FFFF
102
{ACAD_REACTORS
330
C
102
}
330
C
100
AcDbDictionary
281
     1
  3
A0
350
10000
  3
A1
350
10001
  3
A2
350
10002
  3
A3
350
10003
  3
A4
350
10004
  3
A5
350
10005
  3
A6
350
10006
  3
A7
350
10007
  3
A8
350
10008
  3
A9
350
10009
  3
B0
350
1000A
  3
B1
350
1000B
  3
B2
350
1000C
  3
B3
350
1000D
  3
B4
350
1000E
  3
B5
350
1000F
  3
B6
350
10010
  3
B7
350
10011
  3
B8
350
10012
  3
B9
350
10013
  3
C0
350
10014
  3
C1
350
10015
  3
C2
350
10016
  3
C3
350
10017
  3
C4
350
10018
  3
C5
350
10019
  3
C6
350
1001A
  3
C7
350
1001B
  3
C8
350
1001C
  3
C9
350
1001D
  3
D0
350
1001E
  3
D1
350
1001F
  3
D2
350
10020
  0
DICTIONARY
  5
10022
102
{ACAD_REACTORS
330
C
102
}
330
C
100
AcDbDictionary
281
     1
  3
Standard
350
10050
  0
DICTIONARY
  5
1003E
102
{ACAD_REACTORS
330
C
102
}
330
C
100
AcDbDictionary
281
     1
  3
2dWireframe
350
10044
  3
3D Hidden
350
10046
  3
3dWireframe
350
10045
  3
Basic
350
10043
  3
Brighten
350
1004A
  3
ColorChange
350
1004E
  3
Conceptual
350
10047
  3
Dim
350
10049
  3
Facepattern
350
1004D
  3
Flat
350
1003F
  3
FlatWithEdges
350
10040
  3
Gouraud
350
10041
  3
GouraudWithEdges
350
10042
  3
Linepattern
350
1004C
  3
Realistic
350
10048
  3
Thicken
350
1004B
  0
XRECORD
  5
10071
102
{ACAD_REACTORS
330
C
102
}
330
C
100
AcDbXrecord
280
     1
 90
        1
330
10050
  0
DICTIONARY
  5
2A8
330
C
100
AcDbDictionary
281
     1
  3
CANNOSCALE
350
10021
  3
CMLEADERSTYLE
350
10073
  3
CTABLESTYLE
350
10072
  3
DIMASSOC
350
2AA
  3
HIDETEXT
350
2A9
  3
LIGHTINGUNITS
350
10075
  3
MSLTSCALE
350
10074
  0
DICTIONARY
  5
10747
102
{ACAD_REACTORS
330
1045E
102
}
330
1045E
100
AcDbDictionary
281
     1
  0
DICTIONARY
  5
10746
102
{ACAD_REACTORS
330
1045E
102
}
330
1045E
100
AcDbDictionary
281
     1
1001
ACAD
1000
<All
  0
XRECORD
  5
10066
102
{ACAD_REACTORS
330
10065
102
}
330
10065
100
AcDbXrecord
280
     1
290
     1
  0
XRECORD
  5
10068
102
{ACAD_REACTORS
330
10067
102
}
330
10067
100
AcDbXrecord
280
     1
290
     1
  0
XRECORD
  5
1006A
102
{ACAD_REACTORS
330
10069
102
}
330
10069
100
AcDbXrecord
280
     1
290
     1
  0
XRECORD
  5
1006C
102
{ACAD_REACTORS
330
1006B
102
}
330
1006B
100
AcDbXrecord
280
     1
290
     1
  0
XRECORD
  5
1006E
102
{ACAD_REACTORS
330
1006D
102
}
330
1006D
100
AcDbXrecord
280
     1
290
     1
  0
SORTENTSTABLE
  5
100BE
102
{ACAD_REACTORS
330
100BD
102
}
330
100BD
100
AcDbSortentsTable
330
1F
331
DD
  5
E2
331
269
  5
279
331
19A
  5
1A7
331
101FB
  5
101FB
331
271
  5
290
331
10540
  5
10563
331
10509
  5
104EE
331
1020B
  5
1020B
331
173
  5
17C
331
12C
  5
135
331
10685
  5
10699
331
105DE
  5
105E4
331
10597
  5
105A2
331
10511
  5
104F1
331
10320
  5
10342
331
13C
  5
145
331
10695
  5
1069C
331
105E6
  5
105EC
331
1059F
  5
105BD
331
10519
  5
104F8
331
104A3
  5
104CB
331
100C4
  5
2A4
331
1069D
  5
106A3
331
105EE
  5
105F4
331
104E2
  5
104E9
331
105F6
  5
105FC
331
106A3
  5
106A9
331
10729
  5
1072F
331
106AB
  5
106B2
331
106B3
  5
106CA
331
1C2
  5
1D1
331
17B
  5
184
331
F5
  5
FF
331
289
  5
298
331
100CC
  5
DA
331
CE
  5
D2
331
1CA
  5
263
331
10560
  5
1056B
331
10340
  5
1037A
331
1022B
  5
1022B
331
1D2
  5
26B
331
154
  5
15D
331
105FE
  5
10604
331
105BF
  5
105C5
331
10568
  5
10572
331
104F2
  5
10509
331
1043D
  5
1045B
331
102F9
  5
102F9
331
10233
  5
10233
331
10154
  5
10154
331
2A1
  5
100C6
331
15C
  5
167
331
10D
  5
116
331
105C7
  5
105CD
331
10570
  5
10595
331
10531
  5
1053D
331
10484
  5
1048F
331
10445
  5
10485
331
10358
  5
10381
331
10301
  5
10301
331
105CF
  5
105D5
331
10502
  5
1051A
331
104C3
  5
104CF
331
103AF
  5
1033D
331
105D7
  5
105DD
331
DE
  5
E3
331
19B
  5
1A8
331
E6
  5
EC
331
11D
  5
126
331
272
  5
291
331
EE
  5
F6
331
125
  5
12E
331
1050A
  5
1051C
331
104CB
  5
104E3
331
10380
  5
103A9
331
10311
  5
10311
331
1020C
  5
1020C
331
174
  5
17D
331
10686
  5
1069A
331
105DF
  5
105E5
331
10512
  5
1052E
331
104D3
  5
104E8
331
1BB
  5
1C9
331
13D
  5
146
331
10696
  5
1069D
331
105E7
  5
105ED
331
105A0
  5
105BE
331
1051A
  5
10532
331
10329
  5
10357
331
1069E
  5
106A4
331
105EF
  5
105F5
331
104E3
  5
104EA
331
105F7
  5
105FD
331
106E3
  5
1072A
331
106A4
  5
106AA
331
1072A
  5
10730
331
106AC
  5
106B3
331
106B4
  5
106E3
331
28A
  5
299
331
C7
  5
C9
331
17C
  5
185
331
10339
  5
10358
331
10224
  5
10224
331
100CD
  5
BF
331
292
  5
2A2
331
CF
  5
D3
331
1CB
  5
267
331
10561
  5
1056C
331
10426
  5
10445
331
10341
  5
1037B
331
1022C
  5
1022C
331
1D3
  5
26D
331
D7
  5
DD
331
155
  5
15E
331
18C
  5
19B
331
29A
  5
100BB
331
105FF
  5
10683
331
105C0
  5
105C6
331
10569
  5
10574
331
104F3
  5
1050A
331
194
  5
1A1
331
10E
  5
122
331
10234
  5
10234
331
105C8
  5
105CE
331
10571
  5
10599
331
10532
  5
1053E
331
105D0
  5
105D6
331
1053A
  5
1055D
331
10503
  5
104ED
331
1048D
  5
104A3
331
10407
  5
10441
331
DF
  5
E4
331
26B
  5
27A
331
103B0
  5
103A8
331
105D8
  5
105DE
331
1050B
  5
10503
331
10381
  5
10341
331
1020D
  5
1020D
331
283
  5
292
331
105E0
  5
105E6
331
10599
  5
105A3
331
10513
  5
104F2
331
10417
  5
10443
331
102BB
  5
102BB
331
1BC
  5
1CA
331
13E
  5
147
331
10322
  5
10354
331
105E8
  5
105EE
331
105A1
  5
105BF
331
1051B
  5
10513
331
1069F
  5
106A5
331
105F0
  5
105F6
331
106A5
  5
106AB
331
1072B
  5
10732
331
106B5
  5
106EE
331
28B
  5
29B
331
146
  5
14F
331
17D
  5
186
331
293
  5
2A3
331
1CC
  5
268
331
14E
  5
157
331
105F8
  5
105FE
331
105B9
  5
105C3
331
10562
  5
1056D
331
1022D
  5
1022D
331
29B
  5
100BC
331
1D4
  5
26E
331
18D
  5
19C
331
107
  5
110
331
10342
  5
1037C
331
10600
  5
10684
331
105C1
  5
105C7
331
1056A
  5
10575
331
104F4
  5
1050C
331
1043F
  5
10470
331
102FB
  5
102FB
331
10156
  5
10156
331
264
  5
273
331
15E
  5
169
331
10F
  5
123
331
195
  5
1A2
331
10352
  5
1037D
331
105C9
  5
105CF
331
10572
  5
1059A
331
10533
  5
1053F
331
104FC
  5
10515
331
10447
  5
10487
331
103A9
  5
103B0
331
105D1
  5
105D7
331
1058A
  5
1059D
331
1053B
  5
1055E
331
10504
  5
10500
331
104C5
  5
104D1
331
1048E
  5
104C1
331
10714
  5
1072C
331
E0
  5
E5
331
26C
  5
27B
331
19D
  5
1AB
331
E8
  5
F0
331
103B1
  5
103B1
331
1037A
  5
1038C
331
16E
  5
177
331
105D9
  5
105DF
331
10543
  5
10566
331
1050C
  5
10504
331
104CD
  5
104E5
331
1020E
  5
1020E
331
284
  5
293
331
105E1
  5
105E7
331
1059A
  5
105A4
331
10514
  5
1052F
331
102BC
  5
102BC
331
1BD
  5
1CB
331
13F
  5
148
331
1038A
  5
103AB
331
10698
  5
1069E
331
105E9
  5
105EF
331
105A2
  5
105C0
331
1051C
  5
10514
331
100C7
  5
191
331
105F1
  5
105F7
331
104E5
  5
104EB
331
106A6
  5
106AC
331
1072C
  5
10733
331
106AE
  5
106B4
331
F0
  5
F8
331
28C
  5
29C
331
17E
  5
187
331
147
  5
150
331
C9
  5
CB
331
103E9
  5
1043D
331
10226
  5
10226
331
14F
  5
158
331
105F9
  5
105FF
331
10563
  5
1056E
331
105BA
  5
10564
331
10438
  5
10447
331
1022E
  5
1022E
331
1014F
  5
1014F
331
29C
  5
100BF
331
157
  5
160
331
108
  5
111
331
10601
  5
10685
331
105C2
  5
105C8
331
1056B
  5
10576
331
104F5
  5
1050E
331
10353
  5
1037E
331
10157
  5
10157
331
2A4
  5
100C7
331
265
  5
274
331
15F
  5
16A
331
196
  5
1A3
331
103A2
  5
103AF
331
105CA
  5
105D0
331
104FD
  5
10516
331
10487
  5
10490
331
105D2
  5
105D8
331
1053C
  5
1055F
331
10505
  5
104FF
331
1048F
  5
104C3
331
106C6
  5
10714
331
1071D
  5
1072D
331
E1
  5
E9
331
26D
  5
27C
331
120
  5
129
331
1037B
  5
1039D
331
103B2
  5
103B2
331
105DA
  5
105E0
331
10593
  5
1059F
331
1050D
  5
1051D
331
285
  5
294
331
177
  5
180
331
138
  5
141
331
1B6
  5
1C4
331
1020F
  5
1020F
331
105E2
  5
105E8
331
1059B
  5
105B9
331
10515
  5
104F4
331
1021F
  5
1021F
331
100C0
  5
C3
331
1BE
  5
1CC
331
1038B
  5
103AC
331
10699
  5
1069F
331
105EA
  5
105F0
331
105A3
  5
105C1
331
1051D
  5
104FA
331
105F2
  5
105F8
331
1055C
  5
10568
331
104E6
  5
104FC
331
106A7
  5
106AE
331
1072D
  5
10734
331
106EE
  5
1072B
331
106AF
  5
106B5
331
C2
  5
C4
331
100C8
  5
195
331
148
  5
151
331
CA
  5
CC
331
17F
  5
189
331
10470
  5
1048D
331
10227
  5
10227
331
150
  5
159
331
187
  5
197
331
105FA
  5
10600
331
10564
  5
1056F
331
104EE
  5
10505
331
1022F
  5
1022F
331
29D
  5
100C1
331
1D6
  5
271
331
158
  5
161
331
102F5
  5
102F5
331
10602
  5
10686
331
105C3
  5
105C9
331
1056C
  5
10577
331
104F6
  5
1050F
331
10441
  5
10480
331
266
  5
275
331
197
  5
1A4
331
2A5
  5
100C8
331
105CB
  5
105D1
331
10574
  5
1059C
331
10535
  5
10543
331
104FE
  5
10517
331
10488
  5
10492
331
10449
  5
10488
331
103AB
  5
1033E
331
105D3
  5
105D9
331
1058C
  5
1059E
331
1053D
  5
10560
331
10506
  5
1051B
331
104C7
  5
104D3
331
106C7
  5
1071D
331
1071E
  5
1072E
331
DA
  5
E0
331
26E
  5
27D
331
10490
  5
104C5
331
10208
  5
10208
331
129
  5
132
331
103B3
  5
103B3
331
105DB
  5
105E1
331
1050E
  5
104EF
331
104CF
  5
104E6
331
286
  5
296
331
139
  5
142
331
105E3
  5
105E9
331
1059C
  5
105BA
331
10516
  5
10530
331
1BF
  5
1CD
331
1038C
  5
103AD
331
1069A
  5
106A0
331
105EB
  5
105F1
331
105A4
  5
105C2
331
1051E
  5
10533
331
105F3
  5
105F9
331
1055D
  5
10569
331
104E7
  5
104FE
331
106A0
  5
106A6
331
106A8
  5
106AF
331
1072E
  5
10736
331
106B0
  5
106C6
331
178
  5
181
331
141
  5
14A
331
F2
  5
F9
331
C3
  5
C6
331
10220
  5
10220
331
100C9
  5
10E
331
28E
  5
29D
331
180
  5
190
331
149
  5
152
331
FA
  5
104
331
CB
  5
CD
331
103EB
  5
1043F
331
1033D
  5
10377
331
102DE
  5
102DE
331
10228
  5
10228
331
151
  5
15A
331
105FB
  5
10601
331
10565
  5
10570
331
104EF
  5
10506
331
1043A
  5
10449
331
29E
  5
100C2
331
190
  5
19F
331
10A
  5
113
331
102F6
  5
102F6
331
10603
  5
10694
331
105C4
  5
105CA
331
1056D
  5
10578
331
1052E
  5
10539
331
104F7
  5
10510
331
2A6
  5
100C9
331
267
  5
276
331
102FE
  5
102FE
331
105CC
  5
105D2
331
104FF
  5
10518
331
10489
  5
104A2
331
103AC
  5
103A3
331
105D4
  5
105DA
331
1058D
  5
1059B
331
1053E
  5
10561
331
10507
  5
10501
331
106C8
  5
1071E
331
198
  5
1A5
331
26F
  5
27E
331
1A0
  5
1AE
331
171
  5
17A
331
12A
  5
133
331
10683
  5
10696
331
105DC
  5
105E2
331
10595
  5
105A0
331
1050F
  5
104F0
331
105E4
  5
105EA
331
1059D
  5
105BB
331
10517
  5
104F6
331
1069B
  5
106A1
331
105EC
  5
105F2
331
105F4
  5
105FA
331
1055E
  5
10565
331
106A1
  5
106A7
331
106A9
  5
106B0
331
1072F
  5
10737
331
106B1
  5
106C7
331
142
  5
14B
331
179
  5
182
331
10221
  5
10221
331
100CA
  5
10D
331
28F
  5
29F
331
14A
  5
153
331
CC
  5
CF
331
FB
  5
106
331
10229
  5
10229
331
1D0
  5
269
331
152
  5
15B
331
D4
  5
D8
331
103
  5
10A
331
1033E
  5
10379
331
105FC
  5
10602
331
10566
  5
10571
331
105BD
  5
10540
331
104F0
  5
10507
331
10231
  5
10231
331
191
  5
1A0
331
10B
  5
114
331
10604
  5
10695
331
105C5
  5
105CB
331
1056E
  5
10579
331
1052F
  5
1053A
331
104F8
  5
10511
331
10482
  5
1048E
331
10443
  5
10484
331
103A5
  5
103A4
331
101A2
  5
101A2
331
2A7
  5
100CA
331
102FF
  5
102FF
331
105CD
  5
105D3
331
10537
  5
10547
331
10500
  5
104EC
331
104C1
  5
104CD
331
105D5
  5
105DB
331
1053F
  5
10562
331
268
  5
278
331
162
  5
16D
331
270
  5
27F
331
10508
  5
10502
331
104C9
  5
104E2
331
10492
  5
104C7
331
103B5
  5
103B5
331
1020A
  5
1020A
331
172
  5
17B
331
10684
  5
10698
331
105DD
  5
105E3
331
10596
  5
105A1
331
10510
  5
1051E
331
104D1
  5
104E7
331
1045B
  5
10489
331
13B
  5
144
331
10694
  5
1069B
331
105E5
  5
105EB
331
1059E
  5
105BC
331
10518
  5
10531
331
104A2
  5
104C9
331
1038E
  5
103AE
331
1069C
  5
106A2
331
105ED
  5
105F3
331
103E5
  5
1043A
331
105F5
  5
105FB
331
1055F
  5
1056A
331
106A2
  5
106A8
331
106AA
  5
106B1
331
10730
  5
10738
331
106B2
  5
106C8
331
10738
  5
10426
331
17A
  5
183
331
F4
  5
FE
331
10222
  5
10222
331
100CB
  5
112
331
CD
  5
D1
331
290
  5
2A0
331
1022A
  5
1022A
331
153
  5
15C
331
104
  5
10C
331
18A
  5
198
331
1D1
  5
26A
331
102F0
  5
102F0
331
105FD
  5
10603
331
105BE
  5
105C4
331
104F1
  5
10508
331
261
  5
272
331
10C
  5
115
331
2A0
  5
100C5
331
105C6
  5
105CC
331
1056F
  5
10593
331
10530
  5
1053C
331
104F9
  5
10512
331
10357
  5
10380
331
10300
  5
10300
331
102A1
  5
102A1
331
105CE
  5
105D4
331
10538
  5
1054D
331
10501
  5
10519
331
103AE
  5
1038E
331
105D6
  5
105DC
331
106CA
  5
10729
  0
LAYOUT
  5
1E
330
1A
100
AcDbPlotSettings
  1

  2
C:\Program Files\AutoCAD 2002\plotters\DWF ePlot (optimized for plotting).pc3
  4

  6

 40
0.0
 41
0.0
 42
0.0
 43
0.0
 44
0.0
 45
0.0
 46
0.0
 47
0.0
 48
0.0
 49
0.0
140
0.0
141
0.0
142
1.0
143
1.0
 70
   688
 72
     0
 73
     0
 74
     5
  7

 75
    16
147
1.0
 76
     0
 77
     2
 78
   300
148
0.0
149
0.0
100
AcDbLayout
  1
Layout1
 70
     1
 71
     1
 10
0.0
 20
0.0
 11
12.0
 21
9.0
 12
0.0
 22
0.0
 32
0.0
 14
1.000000000000000E+20
 24
1.000000000000000E+20
 34
1.000000000000000E+20
 15
-1.000000000000000E+20
 25
-1.000000000000000E+20
 35
-1.000000000000000E+20
146
0.0
 13
0.0
 23
0.0
 33
0.0
 16
1.0
 26
0.0
 36
0.0
 17
0.0
 27
1.0
 37
0.0
 76
     0
330
1B
  0
LAYOUT
  5
26
330
1A
100
AcDbPlotSettings
  1

  2
C:\Program Files\AutoCAD 2002\plotters\DWF ePlot (optimized for plotting).pc3
  4

  6

 40
0.0
 41
0.0
 42
0.0
 43
0.0
 44
0.0
 45
0.0
 46
0.0
 47
0.0
 48
0.0
 49
0.0
140
0.0
141
0.0
142
1.0
143
1.0
 70
   688
 72
     0
 73
     0
 74
     5
  7

 75
    16
147
1.0
 76
     0
 77
     2
 78
   300
148
0.0
149
0.0
100
AcDbLayout
  1
Layout2
 70
     1
 71
     2
 10
0.0
 20
0.0
 11
12.0
 21
9.0
 12
0.0
 22
0.0
 32
0.0
 14
0.0
 24
0.0
 34
0.0
 15
0.0
 25
0.0
 35
0.0
146
0.0
 13
0.0
 23
0.0
 33
0.0
 16
1.0
 26
0.0
 36
0.0
 17
0.0
 27
1.0
 37
0.0
 76
     0
330
23
  0
LAYOUT
  5
22
330
1A
100
AcDbPlotSettings
  1

  2
C:\Program Files\AutoCAD 2002\plotters\DWF ePlot (optimized for plotting).pc3
  4

  6

 40
0.0
 41
0.0
 42
0.0
 43
0.0
 44
0.0
 45
0.0
 46
0.0
 47
0.0
 48
0.0
 49
0.0
140
0.0
141
0.0
142
1.0
143
1.0
 70
  1712
 72
     0
 73
     0
 74
     0
  7

 75
     0
147
1.0
 76
     0
 77
     2
 78
   300
148
0.0
149
0.0
100
AcDbLayout
  1
Model
 70
     1
 71
     0
 10
0.0
 20
0.0
 11
12.0
 21
9.0
 12
0.0
 22
0.0
 32
0.0
 14
0.0
 24
0.0
 34
0.0
 15
0.0
 25
0.0
 35
0.0
146
0.0
 13
0.0
 23
0.0
 33
0.0
 16
1.0
 26
0.0
 36
0.0
 17
0.0
 27
1.0
 37
0.0
 76
     0
330
1F
331
30
  0
MATERIAL
  5
1002E
102
{ACAD_XDICTIONARY
360
1002F
102
}
102
{ACAD_REACTORS
330
10025
102
}
330
10025
100
AcDbMaterial
  1
ByBlock
 72
     0
 43
0.0208333333333333
 43
0.0
 43
0.0
 43
0.0
 43
0.0
 43
0.0208333333333333
 43
0.0
 43
0.0
 43
0.0
 43
0.0
 43
1.0
 43
0.0
 43
0.0
 43
0.0
 43
0.0
 43
1.0
 77
     0
 47
0.0208333333333333
 47
0.0
 47
0.0
 47
0.0
 47
0.0
 47
0.0208333333333333
 47
0.0
 47
0.0
 47
0.0
 47
0.0
 47
1.0
 47
0.0
 47
0.0
 47
0.0
 47
0.0
 47
1.0
171
     0
 49
0.0208333333333333
 49
0.0
 49
0.0
 49
0.0
 49
0.0
 49
0.0208333333333333
 49
0.0
 49
0.0
 49
0.0
 49
0.0
 49
1.0
 49
0.0
 49
0.0
 49
0.0
 49
0.0
 49
1.0
175
     0
142
0.0208333333333333
142
0.0
142
0.0
142
0.0
142
0.0
142
0.0208333333333333
142
0.0
142
0.0
142
0.0
142
0.0
142
1.0
142
0.0
142
0.0
142
0.0
142
0.0
142
1.0
179
     0
144
0.0208333333333333
144
0.0
144
0.0
144
0.0
144
0.0
144
0.0208333333333333
144
0.0
144
0.0
144
0.0
144
0.0
144
1.0
144
0.0
144
0.0
144
0.0
144
0.0
144
1.0
147
0.0208333333333333
147
0.0
147
0.0
147
0.0
147
0.0
147
0.0208333333333333
147
0.0
147
0.0
147
0.0
147
0.0
147
1.0
147
0.0
147
0.0
147
0.0
147
0.0
147
1.0
  0
MATERIAL
  5
10026
102
{ACAD_XDICTIONARY
360
10027
102
}
102
{ACAD_REACTORS
330
10025
102
}
330
10025
100
AcDbMaterial
  1
ByLayer
 72
     0
 43
0.0208333333333333
 43
0.0
 43
0.0
 43
0.0
 43
0.0
 43
0.0208333333333333
 43
0.0
 43
0.0
 43
0.0
 43
0.0
 43
1.0
 43
0.0
 43
0.0
 43
0.0
 43
0.0
 43
1.0
 77
     0
 47
0.0208333333333333
 47
0.0
 47
0.0
 47
0.0
 47
0.0
 47
0.0208333333333333
 47
0.0
 47
0.0
 47
0.0
 47
0.0
 47
1.0
 47
0.0
 47
0.0
 47
0.0
 47
0.0
 47
1.0
171
     0
 49
0.0208333333333333
 49
0.0
 49
0.0
 49
0.0
 49
0.0
 49
0.0208333333333333
 49
0.0
 49
0.0
 49
0.0
 49
0.0
 49
1.0
 49
0.0
 49
0.0
 49
0.0
 49
0.0
 49
1.0
175
     0
142
0.0208333333333333
142
0.0
142
0.0
142
0.0
142
0.0
142
0.0208333333333333
142
0.0
142
0.0
142
0.0
142
0.0
142
1.0
142
0.0
142
0.0
142
0.0
142
0.0
142
1.0
179
     0
144
0.0208333333333333
144
0.0
144
0.0
144
0.0
144
0.0
144
0.0208333333333333
144
0.0
144
0.0
144
0.0
144
0.0
144
1.0
144
0.0
144
0.0
144
0.0
144
0.0
144
1.0
147
0.0208333333333333
147
0.0
147
0.0
147
0.0
147
0.0
147
0.0208333333333333
147
0.0
147
0.0
147
0.0
147
0.0
147
1.0
147
0.0
147
0.0
147
0.0
147
0.0
147
1.0
  0
MATERIAL
  5
10036
102
{ACAD_XDICTIONARY
360
10037
102
}
102
{ACAD_REACTORS
330
10025
102
}
330
10025
100
AcDbMaterial
  1
Global
 72
     0
 43
0.0208333333333333
 43
0.0
 43
0.0
 43
0.0
 43
0.0
 43
0.0208333333333333
 43
0.0
 43
0.0
 43
0.0
 43
0.0
 43
1.0
 43
0.0
 43
0.0
 43
0.0
 43
0.0
 43
1.0
 77
     0
 47
0.0208333333333333
 47
0.0
 47
0.0
 47
0.0
 47
0.0
 47
0.0208333333333333
 47
0.0
 47
0.0
 47
0.0
 47
0.0
 47
1.0
 47
0.0
 47
0.0
 47
0.0
 47
0.0
 47
1.0
171
     0
 49
0.0208333333333333
 49
0.0
 49
0.0
 49
0.0
 49
0.0
 49
0.0208333333333333
 49
0.0
 49
0.0
 49
0.0
 49
0.0
 49
1.0
 49
0.0
 49
0.0
 49
0.0
 49
0.0
 49
1.0
175
     0
142
0.0208333333333333
142
0.0
142
0.0
142
0.0
142
0.0
142
0.0208333333333333
142
0.0
142
0.0
142
0.0
142
0.0
142
1.0
142
0.0
142
0.0
142
0.0
142
0.0
142
1.0
179
     0
144
0.0208333333333333
144
0.0
144
0.0
144
0.0
144
0.0
144
0.0208333333333333
144
0.0
144
0.0
144
0.0
144
0.0
144
1.0
144
0.0
144
0.0
144
0.0
144
0.0
144
1.0
147
0.0208333333333333
147
0.0
147
0.0
147
0.0
147
0.0
147
0.0208333333333333
147
0.0
147
0.0
147
0.0
147
0.0
147
1.0
147
0.0
147
0.0
147
0.0
147
0.0
147
1.0
  0
MLEADERSTYLE
  5
10051
102
{ACAD_REACTORS
330
10023
102
}
330
10023
100
AcDbMLeaderStyle
170
     2
171
     1
172
     0
 90
        2
 40
0.0
 41
0.0
173
     1
 91
-1056964608
340
14
 92
       -2
290
     1
 42
0.09
291
     1
 43
0.36
  3
Standard
 44
0.18
300

342
11
174
     1
178
     6
175
     1
176
     0
 93
-1056964608
 45
0.18
292
     0
297
     0
 46
0.18
 94
-1056964608
 47
1.0
 49
1.0
140
1.0
293
     1
141
0.0
294
     1
177
     0
142
1.0
295
     0
296
     0
143
0.125
1001
ACAD_MLEADERVER
1070
     2
  0
MLINESTYLE
  5
18
330
17
100
AcDbMlineStyle
  2
STANDARD
 70
     0
  3

 62
   256
 51
90.0
 52
90.0
 71
     2
 49
0.5
 62
   256
  6
BYLAYER
 49
-0.5
 62
   256
  6
BYLAYER
  0
ACDBPLACEHOLDER
  5
F
330
E
  0
SCALE
  5
10000
102
{ACAD_REACTORS
330
FFFF
102
}
330
FFFF
100
AcDbScale
 70
     0
300
1:1
140
1.0
141
1.0
290
     1
  0
SCALE
  5
10001
102
{ACAD_REACTORS
330
FFFF
102
}
330
FFFF
100
AcDbScale
 70
     0
300
1:2
140
1.0
141
2.0
290
     0
  0
SCALE
  5
10002
102
{ACAD_REACTORS
330
FFFF
102
}
330
FFFF
100
AcDbScale
 70
     0
300
1:4
140
1.0
141
4.0
290
     0
  0
SCALE
  5
10003
102
{ACAD_REACTORS
330
FFFF
102
}
330
FFFF
100
AcDbScale
 70
     0
300
1:5
140
1.0
141
5.0
290
     0
  0
SCALE
  5
10004
102
{ACAD_REACTORS
330
FFFF
102
}
330
FFFF
100
AcDbScale
 70
     0
300
1:8
140
1.0
141
8.0
290
     0
  0
SCALE
  5
10005
102
{ACAD_REACTORS
330
FFFF
102
}
330
FFFF
100
AcDbScale
 70
     0
300
1:10
140
1.0
141
10.0
290
     0
  0
SCALE
  5
10006
102
{ACAD_REACTORS
330
FFFF
102
}
330
FFFF
100
AcDbScale
 70
     0
300
1:16
140
1.0
141
16.0
290
     0
  0
SCALE
  5
10007
102
{ACAD_REACTORS
330
FFFF
102
}
330
FFFF
100
AcDbScale
 70
     0
300
1:20
140
1.0
141
20.0
290
     0
  0
SCALE
  5
10008
102
{ACAD_REACTORS
330
FFFF
102
}
330
FFFF
100
AcDbScale
 70
     0
300
1:30
140
1.0
141
30.0
290
     0
  0
SCALE
  5
10009
102
{ACAD_REACTORS
330
FFFF
102
}
330
FFFF
100
AcDbScale
 70
     0
300
1:40
140
1.0
141
40.0
290
     0
  0
SCALE
  5
1000A
102
{ACAD_REACTORS
330
FFFF
102
}
330
FFFF
100
AcDbScale
 70
     0
300
1:50
140
1.0
141
50.0
290
     0
  0
SCALE
  5
1000B
102
{ACAD_REACTORS
330
FFFF
102
}
330
FFFF
100
AcDbScale
 70
     0
300
1:100
140
1.0
141
100.0
290
     0
  0
SCALE
  5
1000C
102
{ACAD_REACTORS
330
FFFF
102
}
330
FFFF
100
AcDbScale
 70
     0
300
2:1
140
2.0
141
1.0
290
     0
  0
SCALE
  5
1000D
102
{ACAD_REACTORS
330
FFFF
102
}
330
FFFF
100
AcDbScale
 70
     0
300
4:1
140
4.0
141
1.0
290
     0
  0
SCALE
  5
1000E
102
{ACAD_REACTORS
330
FFFF
102
}
330
FFFF
100
AcDbScale
 70
     0
300
8:1
140
8.0
141
1.0
290
     0
  0
SCALE
  5
1000F
102
{ACAD_REACTORS
330
FFFF
102
}
330
FFFF
100
AcDbScale
 70
     0
300
10:1
140
10.0
141
1.0
290
     0
  0
SCALE
  5
10010
102
{ACAD_REACTORS
330
FFFF
102
}
330
FFFF
100
AcDbScale
 70
     0
300
100:1
140
100.0
141
1.0
290
     0
  0
SCALE
  5
10011
102
{ACAD_REACTORS
330
FFFF
102
}
330
FFFF
100
AcDbScale
 70
     0
300
1/128" = 1'-0"
140
0.0078125
141
12.0
290
     0
  0
SCALE
  5
10012
102
{ACAD_REACTORS
330
FFFF
102
}
330
FFFF
100
AcDbScale
 70
     0
300
1/64" = 1'-0"
140
0.015625
141
12.0
290
     0
  0
SCALE
  5
10013
102
{ACAD_REACTORS
330
FFFF
102
}
330
FFFF
100
AcDbScale
 70
     0
300
1/32" = 1'-0"
140
0.03125
141
12.0
290
     0
  0
SCALE
  5
10014
102
{ACAD_REACTORS
330
FFFF
102
}
330
FFFF
100
AcDbScale
 70
     0
300
1/16" = 1'-0"
140
0.0625
141
12.0
290
     0
  0
SCALE
  5
10015
102
{ACAD_REACTORS
330
FFFF
102
}
330
FFFF
100
AcDbScale
 70
     0
300
3/32" = 1'-0"
140
0.09375
141
12.0
290
     0
  0
SCALE
  5
10016
102
{ACAD_REACTORS
330
FFFF
102
}
330
FFFF
100
AcDbScale
 70
     0
300
1/8" = 1'-0"
140
0.125
141
12.0
290
     0
  0
SCALE
  5
10017
102
{ACAD_REACTORS
330
FFFF
102
}
330
FFFF
100
AcDbScale
 70
     0
300
3/16" = 1'-0"
140
0.1875
141
12.0
290
     0
  0
SCALE
  5
10018
102
{ACAD_REACTORS
330
FFFF
102
}
330
FFFF
100
AcDbScale
 70
     0
300
1/4" = 1'-0"
140
0.25
141
12.0
290
     0
  0
SCALE
  5
10019
102
{ACAD_REACTORS
330
FFFF
102
}
330
FFFF
100
AcDbScale
 70
     0
300
3/8" = 1'-0"
140
0.375
141
12.0
290
     0
  0
SCALE
  5
1001A
102
{ACAD_REACTORS
330
FFFF
102
}
330
FFFF
100
AcDbScale
 70
     0
300
1/2" = 1'-0"
140
0.5
141
12.0
290
     0
  0
SCALE
  5
1001B
102
{ACAD_REACTORS
330
FFFF
102
}
330
FFFF
100
AcDbScale
 70
     0
300
3/4" = 1'-0"
140
0.75
141
12.0
290
     0
  0
SCALE
  5
1001C
102
{ACAD_REACTORS
330
FFFF
102
}
330
FFFF
100
AcDbScale
 70
     0
300
1" = 1'-0"
140
1.0
141
12.0
290
     0
  0
SCALE
  5
1001D
102
{ACAD_REACTORS
330
FFFF
102
}
330
FFFF
100
AcDbScale
 70
     0
300
1-1/2" = 1'-0"
140
1.5
141
12.0
290
     0
  0
SCALE
  5
1001E
102
{ACAD_REACTORS
330
FFFF
102
}
330
FFFF
100
AcDbScale
 70
     0
300
3" = 1'-0"
140
3.0
141
12.0
290
     0
  0
SCALE
  5
1001F
102
{ACAD_REACTORS
330
FFFF
102
}
330
FFFF
100
AcDbScale
 70
     0
300
6" = 1'-0"
140
6.0
141
12.0
290
     0
  0
SCALE
  5
10020
102
{ACAD_REACTORS
330
FFFF
102
}
330
FFFF
100
AcDbScale
 70
     0
300
1'-0" = 1'-0"
140
12.0
141
12.0
290
     0
  0
TABLESTYLE
  5
10050
102
{ACAD_XDICTIONARY
360
1006F
102
}
102
{ACAD_REACTORS
330
10022
102
}
330
10022
100
AcDbTableStyle
  3
Standard
 70
     0
 71
     0
 40
0.06
 41
0.06
280
     0
281
     0
  7
Standard
140
0.18
170
     2
 62
     0
 63
     7
283
     0
274
    -2
284
     1
 64
     0
275
    -2
285
     1
 65
     0
276
    -2
286
     1
 66
     0
277
    -2
287
     1
 67
     0
278
    -2
288
     1
 68
     0
279
    -2
289
     1
 69
     0
  7
Standard
140
0.25
170
     5
 62
     0
 63
     7
283
     0
274
    -2
284
     1
 64
     0
275
    -2
285
     1
 65
     0
276
    -2
286
     1
 66
     0
277
    -2
287
     1
 67
     0
278
    -2
288
     1
 68
     0
279
    -2
289
     1
 69
     0
  7
Standard
140
0.18
170
     5
 62
     0
 63
     7
283
     0
274
    -2
284
     1
 64
     0
275
    -2
285
     1
 65
     0
276
    -2
286
     1
 66
     0
277
    -2
287
     1
 67
     0
278
    -2
288
     1
 68
     0
279
    -2
289
     1
 69
     0
  0
VISUALSTYLE
  5
10044
102
{ACAD_REACTORS
330
1003E
102
}
330
1003E
100
AcDbVisualStyle
  2
2dWireframe
 70
     4
 71
     0
 72
     2
 73
     0
 90
        0
 40
-0.6
 41
-30.0
 62
     5
 63
     7
421
 16777215
 74
     1
 91
        4
 64
     7
 65
   257
 75
     1
175
     1
 42
1.0
 92
        0
 66
   257
 43
1.0
 76
     1
 77
     6
 78
     2
 67
     7
 79
     5
170
     0
171
     0
290
     0
174
     0
 93
        1
 44
0.0
173
     0
291
     0
 45
0.0
1001
ACAD
1000
AcDbSavedByObjectVersion
1070
     0
  0
VISUALSTYLE
  5
10046
102
{ACAD_REACTORS
330
1003E
102
}
330
1003E
100
AcDbVisualStyle
  2
3D Hidden
 70
     6
 71
     1
 72
     2
 73
     2
 90
        0
 40
-0.6
 41
-30.0
 62
     5
 63
     7
421
 16777215
 74
     2
 91
        2
 64
     7
 65
   257
 75
     2
175
     1
 42
40.0
 92
        0
 66
   257
 43
1.0
 76
     1
 77
     6
 78
     2
 67
     7
 79
     3
170
     0
171
     0
290
     0
174
     0
 93
        1
 44
0.0
173
     0
291
     0
 45
0.0
1001
ACAD
1000
AcDbSavedByObjectVersion
1070
     0
  0
VISUALSTYLE
  5
10045
102
{ACAD_REACTORS
330
1003E
102
}
330
1003E
100
AcDbVisualStyle
  2
3dWireframe
 70
     5
 71
     0
 72
     2
 73
     0
 90
        0
 40
-0.6
 41
-30.0
 62
     5
 63
     7
421
 16777215
 74
     1
 91
        4
 64
     7
 65
   257
 75
     1
175
     1
 42
1.0
 92
        0
 66
   257
 43
1.0
 76
     1
 77
     6
 78
     2
 67
     7
 79
     5
170
     0
171
     0
290
     0
174
     0
 93
        1
 44
0.0
173
     0
291
     0
 45
0.0
1001
ACAD
1000
AcDbSavedByObjectVersion
1070
     0
  0
VISUALSTYLE
  5
10043
102
{ACAD_REACTORS
330
1003E
102
}
330
1003E
100
AcDbVisualStyle
  2
Basic
 70
     7
 71
     1
 72
     0
 73
     1
 90
        0
 40
-0.6
 41
-30.0
 62
     5
 63
     7
421
 16777215
 74
     0
 91
        4
 64
     7
 65
   257
 75
     1
175
     1
 42
1.0
 92
        8
 66
     7
 43
1.0
 76
     1
 77
     6
 78
     2
 67
     7
 79
     5
170
     0
171
     0
290
     0
174
     0
 93
        1
 44
0.0
173
     0
291
     1
 45
0.0
1001
ACAD
1000
AcDbSavedByObjectVersion
1070
     0
  0
VISUALSTYLE
  5
1004A
102
{ACAD_REACTORS
330
1003E
102
}
330
1003E
100
AcDbVisualStyle
  2
Brighten
 70
    12
 71
     2
 72
     2
 73
     0
 90
        0
 40
-0.6
 41
-30.0
 62
     5
 63
     7
421
 16777215
 74
     1
 91
        4
 64
     7
 65
   257
 75
     1
175
     1
 42
1.0
 92
        8
 66
     7
 43
1.0
 76
     1
 77
     6
 78
     2
 67
     7
 79
     5
170
     0
171
     0
290
     0
174
     0
 93
        1
 44
50.0
173
     0
291
     1
 45
0.0
1001
ACAD
1000
AcDbSavedByObjectVersion
1070
     0
  0
VISUALSTYLE
  5
1004E
102
{ACAD_REACTORS
330
1003E
102
}
330
1003E
100
AcDbVisualStyle
  2
ColorChange
 70
    16
 71
     2
 72
     2
 73
     3
 90
        0
 40
-0.6
 41
-30.0
 62
     5
 63
     8
421
  8421504
 74
     1
 91
        4
 64
     7
 65
   257
 75
     1
175
     1
 42
1.0
 92
        8
 66
     8
424
  8421504
 43
1.0
 76
     1
 77
     6
 78
     2
 67
     7
 79
     5
170
     0
171
     0
290
     0
174
     0
 93
        1
 44
0.0
173
     0
291
     1
 45
0.0
1001
ACAD
1000
AcDbSavedByObjectVersion
1070
     0
  0
VISUALSTYLE
  5
10047
102
{ACAD_REACTORS
330
1003E
102
}
330
1003E
100
AcDbVisualStyle
  2
Conceptual
 70
     9
 71
     3
 72
     2
 73
     0
 90
        0
 40
-0.6
 41
-30.0
 62
     5
 63
     7
421
 16777215
 74
     2
 91
        2
 64
     7
 65
   257
 75
     1
175
     1
 42
40.0
 92
        8
 66
     7
 43
1.0
 76
     1
 77
     6
 78
     2
 67
     7
 79
     3
170
     0
171
     0
290
     0
174
     0
 93
        1
 44
0.0
173
     0
291
     0
 45
0.0
1001
ACAD
1000
AcDbSavedByObjectVersion
1070
     0
  0
VISUALSTYLE
  5
10049
102
{ACAD_REACTORS
330
1003E
102
}
330
1003E
100
AcDbVisualStyle
  2
Dim
 70
    11
 71
     2
 72
     2
 73
     0
 90
        0
 40
-0.6
 41
-30.0
 62
     5
 63
     7
421
 16777215
 74
     1
 91
        4
 64
     7
 65
   257
 75
     1
175
     1
 42
1.0
 92
        8
 66
     7
 43
1.0
 76
     1
 77
     6
 78
     2
 67
     7
 79
     5
170
     0
171
     0
290
     0
174
     0
 93
        1
 44
-50.0
173
     0
291
     1
 45
0.0
1001
ACAD
1000
AcDbSavedByObjectVersion
1070
     0
  0
VISUALSTYLE
  5
1004D
102
{ACAD_REACTORS
330
1003E
102
}
330
1003E
100
AcDbVisualStyle
  2
Facepattern
 70
    15
 71
     2
 72
     2
 73
     0
 90
        0
 40
-0.6
 41
-30.0
 62
     5
 63
     7
421
 16777215
 74
     1
 91
        4
 64
     7
 65
   257
 75
     1
175
     1
 42
1.0
 92
        8
 66
     7
 43
1.0
 76
     1
 77
     6
 78
     2
 67
     7
 79
     5
170
     0
171
     0
290
     0
174
     0
 93
        1
 44
0.0
173
     0
291
     1
 45
0.0
1001
ACAD
1000
AcDbSavedByObjectVersion
1070
     0
  0
VISUALSTYLE
  5
1003F
102
{ACAD_REACTORS
330
1003E
102
}
330
1003E
100
AcDbVisualStyle
  2
Flat
 70
     0
 71
     2
 72
     1
 73
     1
 90
        2
 40
-0.6
 41
30.0
 62
     5
 63
     7
421
 16777215
 74
     0
 91
        4
 64
     7
 65
   257
 75
     1
175
     1
 42
1.0
 92
        8
 66
     7
 43
1.0
 76
     1
 77
     6
 78
     2
 67
     7
 79
     5
170
     0
171
     0
290
     0
174
     0
 93
       13
 44
0.0
173
     0
291
     1
 45
0.0
1001
ACAD
1000
AcDbSavedByObjectVersion
1070
     0
  0
VISUALSTYLE
  5
10040
102
{ACAD_REACTORS
330
1003E
102
}
330
1003E
100
AcDbVisualStyle
  2
FlatWithEdges
 70
     1
 71
     2
 72
     1
 73
     1
 90
        2
 40
-0.6
 41
30.0
 62
     5
 63
     7
421
 16777215
 74
     1
 91
        4
 64
     7
 65
   257
 75
     1
175
     1
 42
1.0
 92
        0
 66
   257
 43
1.0
 76
     1
 77
     6
 78
     2
 67
     7
 79
     5
170
     0
171
     0
290
     0
174
     0
 93
       13
 44
0.0
173
     0
291
     1
 45
0.0
1001
ACAD
1000
AcDbSavedByObjectVersion
1070
     0
  0
VISUALSTYLE
  5
10041
102
{ACAD_REACTORS
330
1003E
102
}
330
1003E
100
AcDbVisualStyle
  2
Gouraud
 70
     2
 71
     2
 72
     2
 73
     1
 90
        2
 40
-0.6
 41
30.0
 62
     5
 63
     7
421
 16777215
 74
     0
 91
        4
 64
     7
 65
   257
 75
     1
175
     1
 42
1.0
 92
        0
 66
     7
 43
1.0
 76
     1
 77
     6
 78
     2
 67
     7
 79
     5
170
     0
171
     0
290
     0
174
     0
 93
       13
 44
0.0
173
     0
291
     1
 45
0.0
1001
ACAD
1000
AcDbSavedByObjectVersion
1070
     0
  0
VISUALSTYLE
  5
10042
102
{ACAD_REACTORS
330
1003E
102
}
330
1003E
100
AcDbVisualStyle
  2
GouraudWithEdges
 70
     3
 71
     2
 72
     2
 73
     1
 90
        2
 40
-0.6
 41
30.0
 62
     5
 63
     7
421
 16777215
 74
     1
 91
        4
 64
     7
 65
   257
 75
     1
175
     1
 42
1.0
 92
        0
 66
   257
 43
1.0
 76
     1
 77
     6
 78
     2
 67
     7
 79
     5
170
     0
171
     0
290
     0
174
     0
 93
       13
 44
0.0
173
     0
291
     1
 45
0.0
1001
ACAD
1000
AcDbSavedByObjectVersion
1070
     0
  0
VISUALSTYLE
  5
1004C
102
{ACAD_REACTORS
330
1003E
102
}
330
1003E
100
AcDbVisualStyle
  2
Linepattern
 70
    14
 71
     2
 72
     2
 73
     0
 90
        0
 40
-0.6
 41
-30.0
 62
     5
 63
     7
421
 16777215
 74
     1
 91
        4
 64
     7
 65
   257
 75
     7
175
     7
 42
1.0
 92
        8
 66
     7
 43
1.0
 76
     1
 77
     6
 78
     2
 67
     7
 79
     5
170
     0
171
     0
290
     0
174
     0
 93
        1
 44
0.0
173
     0
291
     1
 45
0.0
1001
ACAD
1000
AcDbSavedByObjectVersion
1070
     0
  0
VISUALSTYLE
  5
10048
102
{ACAD_REACTORS
330
1003E
102
}
330
1003E
100
AcDbVisualStyle
  2
Realistic
 70
     8
 71
     2
 72
     2
 73
     0
 90
        0
 40
-0.6
 41
-30.0
 62
     5
 63
     7
421
 16777215
 74
     1
 91
        0
 64
     7
 65
   257
 75
     1
175
     1
 42
1.0
 92
        8
 66
     8
424
  7895160
 43
1.0
 76
     1
 77
     6
 78
     2
 67
     7
 79
     5
170
     0
171
     0
290
     0
174
     0
 93
       13
 44
0.0
173
     0
291
     0
 45
0.0
1001
ACAD
1000
AcDbSavedByObjectVersion
1070
     0
  0
VISUALSTYLE
  5
1004B
102
{ACAD_REACTORS
330
1003E
102
}
330
1003E
100
AcDbVisualStyle
  2
Thicken
 70
    13
 71
     2
 72
     2
 73
     0
 90
        0
 40
-0.6
 41
-30.0
 62
     5
 63
     7
421
 16777215
 74
     1
 91
        4
 64
     7
 65
   257
 75
     1
175
     1
 42
1.0
 92
       12
 66
     7
 43
1.0
 76
     1
 77
     6
 78
     2
 67
     7
 79
     5
170
     0
171
     0
290
     0
174
     0
 93
        1
 44
0.0
173
     0
291
     1
 45
0.0
1001
ACAD
1000
AcDbSavedByObjectVersion
1070
     0
  0
DICTIONARYVAR
  5
10021
102
{ACAD_REACTORS
330
2A8
102
}
330
2A8
100
DictionaryVariables
280
     0
  1
1:1
  0
DICTIONARYVAR
  5
10073
102
{ACAD_REACTORS
330
2A8
102
}
330
2A8
100
DictionaryVariables
280
     0
  1
STANDARD
  0
DICTIONARYVAR
  5
10072
102
{ACAD_REACTORS
330
2A8
102
}
330
2A8
100
DictionaryVariables
280
     0
  1
STANDARD
  0
DICTIONARYVAR
  5
2AA
330
2A8
100
DictionaryVariables
280
     0
  1
1
  0
DICTIONARYVAR
  5
2A9
330
2A8
100
DictionaryVariables
280
     0
  1
2
  0
DICTIONARYVAR
  5
10075
102
{ACAD_REACTORS
330
2A8
102
}
330
2A8
100
DictionaryVariables
280
     0
  1
0
  0
DICTIONARYVAR
  5
10074
102
{ACAD_REACTORS
330
2A8
102
}
330
2A8
100
DictionaryVariables
280
     0
  1
0
  0
DICTIONARY
  5
1002F
330
1002E
100
AcDbDictionary
280
     1
281
     1
  3
ACAD_XREC_ROUNDTRIP
360
1074D
  3
BUMPTILE
360
10031
  3
DIFFUSETILE
360
10030
  3
OPACITYTILE
360
10034
  3
REFLECTIONTILE
360
10033
  3
REFRACTIONTILE
360
10035
  3
SPECULARTILE
360
10032
  0
DICTIONARY
  5
10027
330
10026
100
AcDbDictionary
280
     1
281
     1
  3
ACAD_XREC_ROUNDTRIP
360
1074C
  3
BUMPTILE
360
10029
  3
DIFFUSETILE
360
10028
  3
OPACITYTILE
360
1002C
  3
REFLECTIONTILE
360
1002B
  3
REFRACTIONTILE
360
1002D
  3
SPECULARTILE
360
1002A
  0
DICTIONARY
  5
10037
330
10036
100
AcDbDictionary
280
     1
281
     1
  3
ACAD_XREC_ROUNDTRIP
360
1074E
  3
BUMPTILE
360
10039
  3
DIFFUSETILE
360
10038
  3
OPACITYTILE
360
1003C
  3
REFLECTIONTILE
360
1003B
  3
REFRACTIONTILE
360
1003D
  3
SPECULARTILE
360
1003A
  0
DICTIONARY
  5
1006F
330
10050
100
AcDbDictionary
280
     1
281
     1
  3
ACAD_ROUNDTRIP_2008_TABLESTYLE_CELLSTYLEMAP
360
1074B
  3
ACAD_XREC_ROUNDTRIP
360
1074F
  0
XRECORD
  5
1074D
102
{ACAD_REACTORS
330
1002F
102
}
330
1002F
100
AcDbXrecord
280
     1
102
MATERIAL
148
0.0
149
0.0
149
0.0
 93
        0
 94
      127
282
     0
 72
     0
 77
     0
171
     0
175
     0
179
     0
273
     0
  0
XRECORD
  5
10031
102
{ACAD_REACTORS
330
1002F
102
}
330
1002F
100
AcDbXrecord
280
     1
270
     1
271
     1
  0
XRECORD
  5
10030
102
{ACAD_REACTORS
330
1002F
102
}
330
1002F
100
AcDbXrecord
280
     1
270
     1
271
     1
  0
XRECORD
  5
10034
102
{ACAD_REACTORS
330
1002F
102
}
330
1002F
100
AcDbXrecord
280
     1
270
     1
271
     1
  0
XRECORD
  5
10033
102
{ACAD_REACTORS
330
1002F
102
}
330
1002F
100
AcDbXrecord
280
     1
270
     1
271
     1
  0
XRECORD
  5
10035
102
{ACAD_REACTORS
330
1002F
102
}
330
1002F
100
AcDbXrecord
280
     1
270
     1
271
     1
  0
XRECORD
  5
10032
102
{ACAD_REACTORS
330
1002F
102
}
330
1002F
100
AcDbXrecord
280
     1
270
     1
271
     1
  0
XRECORD
  5
1074C
102
{ACAD_REACTORS
330
10027
102
}
330
10027
100
AcDbXrecord
280
     1
102
MATERIAL
148
0.0
149
0.0
149
0.0
 93
        0
 94
      127
282
     0
 72
     0
 77
     0
171
     0
175
     0
179
     0
273
     0
  0
XRECORD
  5
10029
102
{ACAD_REACTORS
330
10027
102
}
330
10027
100
AcDbXrecord
280
     1
270
     1
271
     1
  0
XRECORD
  5
10028
102
{ACAD_REACTORS
330
10027
102
}
330
10027
100
AcDbXrecord
280
     1
270
     1
271
     1
  0
XRECORD
  5
1002C
102
{ACAD_REACTORS
330
10027
102
}
330
10027
100
AcDbXrecord
280
     1
270
     1
271
     1
  0
XRECORD
  5
1002B
102
{ACAD_REACTORS
330
10027
102
}
330
10027
100
AcDbXrecord
280
     1
270
     1
271
     1
  0
XRECORD
  5
1002D
102
{ACAD_REACTORS
330
10027
102
}
330
10027
100
AcDbXrecord
280
     1
270
     1
271
     1
  0
XRECORD
  5
1002A
102
{ACAD_REACTORS
330
10027
102
}
330
10027
100
AcDbXrecord
280
     1
270
     1
271
     1
  0
XRECORD
  5
1074E
102
{ACAD_REACTORS
330
10037
102
}
330
10037
100
AcDbXrecord
280
     1
102
MATERIAL
148
0.0
149
0.0
149
0.0
 93
        0
 94
      127
282
     0
 72
     0
 77
     0
171
     0
175
     0
179
     0
273
     0
  0
XRECORD
  5
10039
102
{ACAD_REACTORS
330
10037
102
}
330
10037
100
AcDbXrecord
280
     1
270
     1
271
     1
  0
XRECORD
  5
10038
102
{ACAD_REACTORS
330
10037
102
}
330
10037
100
AcDbXrecord
280
     1
270
     1
271
     1
  0
XRECORD
  5
1003C
102
{ACAD_REACTORS
330
10037
102
}
330
10037
100
AcDbXrecord
280
     1
270
     1
271
     1
  0
XRECORD
  5
1003B
102
{ACAD_REACTORS
330
10037
102
}
330
10037
100
AcDbXrecord
280
     1
270
     1
271
     1
  0
XRECORD
  5
1003D
102
{ACAD_REACTORS
330
10037
102
}
330
10037
100
AcDbXrecord
280
     1
270
     1
271
     1
  0
XRECORD
  5
1003A
102
{ACAD_REACTORS
330
10037
102
}
330
10037
100
AcDbXrecord
280
     1
270
     1
271
     1
  0
CELLSTYLEMAP
  5
1074B
102
{ACAD_REACTORS
330
1006F
102
}
330
1006F
100
AcDbCellStyleMap
 90
        3
300
CELLSTYLE
  1
TABLEFORMAT_BEGIN
 90
        5
170
     1
 91
        0
 92
    32768
 62
   257
 93
        1
300
CONTENTFORMAT
  1
CONTENTFORMAT_BEGIN
 90
        0
 91
        0
 92
      512
 93
        0
300

 40
0.0
140
1.0
 94
        5
 62
     0
340
11
144
0.25
309
CONTENTFORMAT_END
171
     0
 94
        0
309
TABLEFORMAT_END
  1
CELLSTYLE_BEGIN
 90
        1
 91
        1
300
_TITLE
309
CELLSTYLE_END
300
CELLSTYLE
  1
TABLEFORMAT_BEGIN
 90
        5
170
     1
 91
        0
 92
        0
 62
   257
 93
        1
300
CONTENTFORMAT
  1
CONTENTFORMAT_BEGIN
 90
        0
 91
        0
 92
      512
 93
        0
300

 40
0.0
140
1.0
 94
        5
 62
     0
340
11
144
0.18
309
CONTENTFORMAT_END
171
     0
 94
        0
309
TABLEFORMAT_END
  1
CELLSTYLE_BEGIN
 90
        2
 91
        1
300
_HEADER
309
CELLSTYLE_END
300
CELLSTYLE
  1
TABLEFORMAT_BEGIN
 90
        5
170
     1
 91
        0
 92
        0
 62
   257
 93
        1
300
CONTENTFORMAT
  1
CONTENTFORMAT_BEGIN
 90
        0
 91
        0
 92
      512
 93
        0
300

 40
0.0
140
1.0
 94
        2
 62
     0
340
11
144
0.18
309
CONTENTFORMAT_END
171
     0
 94
        0
309
TABLEFORMAT_END
  1
CELLSTYLE_BEGIN
 90
        3
 91
        2
300
_DATA
309
CELLSTYLE_END
  0
XRECORD
  5
1074F
102
{ACAD_REACTORS
330
1006F
102
}
330
1006F
100
AcDbXrecord
280
     1
102
ACAD_ROUNDTRIP_PRE2007_TABLESTYLE
 90
      512
 91
        0
  1

 92
      512
 93
        0
  2

 94
      512
 95
        0
  3

  0
ENDSEC
  0
EOF
