  0
SECTION
  2
HEADER
  9
$ACADVER
  1
AC1015
  9
$ACADMAINTVER
 70
    20
  9
$DWGCODEPAGE
  3
ANSI_1252
  9
$INSBASE
 10
0.0
 20
0.0
 30
0.0
  9
$EXTMIN
 10
171.3021592802781
 20
117.1052534895417
 30
0.0
  9
$EXTMAX
 10
518.1139063655876
 20
263.5172466758807
 30
0.0
  9
$LIMMIN
 10
0.0
 20
0.0
  9
$LIMMAX
 10
420.0
 20
297.0
  9
$ORTHOMODE
 70
     0
  9
$REGENMODE
 70
     1
  9
$FILLMODE
 70
     1
  9
$QTEXTMODE
 70
     0
  9
$MIRRTEXT
 70
     1
  9
$LTSCALE
 40
1.0
  9
$ATTMODE
 70
     1
  9
$TEXTSIZE
 40
2.5
  9
$TRACEWID
 40
1.0
  9
$TEXTSTYLE
  7
STANDARD
  9
$CLAYER
  8
0
  9
$CELTYPE
  6
ByLayer
  9
$CECOLOR
 62
   256
  9
$CELTSCALE
 40
1.0
  9
$DISPSILH
 70
     0
  9
$DIMSCALE
 40
1.0
  9
$DIMASZ
 40
2.5
  9
$DIMEXO
 40
0.625
  9
$DIMDLI
 40
3.75
  9
$DIMRND
 40
0.0
  9
$DIMDLE
 40
0.0
  9
$DIMEXE
 40
1.25
  9
$DIMTP
 40
0.0
  9
$DIMTM
 40
0.0
  9
$DIMTXT
 40
2.5
  9
$DIMCEN
 40
2.5
  9
$DIMTSZ
 40
0.0
  9
$DIMTOL
 70
     0
  9
$DIMLIM
 70
     0
  9
$DIMTIH
 70
     0
  9
$DIMTOH
 70
     0
  9
$DIMSE1
 70
     0
  9
$DIMSE2
 70
     0
  9
$DIMTAD
 70
     1
  9
$DIMZIN
 70
     8
  9
$DIMBLK
  1

  9
$DIMASO
 70
     1
  9
$DIMSHO
 70
     1
  9
$DIMPOST
  1

  9
$DIMAPOST
  1

  9
$DIMALT
 70
     0
  9
$DIMALTD
 70
     3
  9
$DIMALTF
 40
0.03937007874016
  9
$DIMLFAC
 40
1.0
  9
$DIMTOFL
 70
     1
  9
$DIMTVP
 40
0.0
  9
$DIMTIX
 70
     0
  9
$DIMSOXD
 70
     0
  9
$DIMSAH
 70
     0
  9
$DIMBLK1
  1

  9
$DIMBLK2
  1

  9
$DIMSTYLE
  2
ISO-25
  9
$DIMCLRD
 70
     0
  9
$DIMCLRE
 70
     0
  9
$DIMCLRT
 70
     0
  9
$DIMTFAC
 40
1.0
  9
$DIMGAP
 40
0.625
  9
$DIMJUST
 70
     0
  9
$DIMSD1
 70
     0
  9
$DIMSD2
 70
     0
  9
$DIMTOLJ
 70
     1
  9
$DIMTZIN
 70
     0
  9
$DIMALTZ
 70
     0
  9
$DIMALTTZ
 70
     0
  9
$DIMUPT
 70
     0
  9
$DIMDEC
 70
     4
  9
$DIMTDEC
 70
     4
  9
$DIMALTU
 70
     2
  9
$DIMALTTD
 70
     2
  9
$DIMTXSTY
  7
STANDARD
  9
$DIMAUNIT
 70
     0
  9
$DIMADEC
 70
     0
  9
$DIMALTRND
 40
0.0
  9
$DIMAZIN
 70
     0
  9
$DIMDSEP
 70
    46
  9
$DIMATFIT
 70
     3
  9
$DIMFRAC
 70
     0
  9
$DIMLDRBLK
  1

  9
$DIMLUNIT
 70
     2
  9
$DIMLWD
 70
    -2
  9
$DIMLWE
 70
    -2
  9
$DIMTMOVE
 70
     0
  9
$LUNITS
 70
     2
  9
$LUPREC
 70
     4
  9
$SKETCHINC
 40
1.0
  9
$FILLETRAD
 40
10.0
  9
$AUNITS
 70
     0
  9
$AUPREC
 70
     0
  9
$MENU
  1
.
  9
$ELEVATION
 40
0.0
  9
$PELEVATION
 40
0.0
  9
$THICKNESS
 40
0.0
  9
$LIMCHECK
 70
     0
  9
$CHAMFERA
 40
10.0
  9
$CHAMFERB
 40
10.0
  9
$CHAMFERC
 40
0.0
  9
$CHAMFERD
 40
0.0
  9
$SKPOLY
 70
     0
  9
$TDCREATE
 40
2452626.855309375
  9
$TDUCREATE
 40
2452626.813642708
  9
$TDUPDATE
 40
2451545.053494143
  9
$TDUUPDATE
 40
2451545.011827477
  9
$TDINDWG
 40
0.0164877199
  9
$TDUSRTIMER
 40
0.0164858681
  9
$USRTIMER
 70
     1
  9
$ANGBASE
 50
0.0
  9
$ANGDIR
 70
     0
  9
$PDMODE
 70
     0
  9
$PDSIZE
 40
0.0
  9
$PLINEWID
 40
0.0
  9
$SPLFRAME
 70
     0
  9
$SPLINETYPE
 70
     6
  9
$SPLINESEGS
 70
     8
  9
$HANDSEED
  5
41B
  9
$SURFTAB1
 70
     6
  9
$SURFTAB2
 70
     6
  9
$SURFTYPE
 70
     6
  9
$SURFU
 70
     6
  9
$SURFV
 70
     6
  9
$UCSBASE
  2

  9
$UCSNAME
  2

  9
$UCSORG
 10
0.0
 20
0.0
 30
0.0
  9
$UCSXDIR
 10
1.0
 20
0.0
 30
0.0
  9
$UCSYDIR
 10
0.0
 20
1.0
 30
0.0
  9
$UCSORTHOREF
  2

  9
$UCSORTHOVIEW
 70
     0
  9
$UCSORGTOP
 10
0.0
 20
0.0
 30
0.0
  9
$UCSORGBOTTOM
 10
0.0
 20
0.0
 30
0.0
  9
$UCSORGLEFT
 10
0.0
 20
0.0
 30
0.0
  9
$UCSORGRIGHT
 10
0.0
 20
0.0
 30
0.0
  9
$UCSORGFRONT
 10
0.0
 20
0.0
 30
0.0
  9
$UCSORGBACK
 10
0.0
 20
0.0
 30
0.0
  9
$PUCSBASE
  2

  9
$PUCSNAME
  2

  9
$PUCSORG
 10
0.0
 20
0.0
 30
0.0
  9
$PUCSXDIR
 10
1.0
 20
0.0
 30
0.0
  9
$PUCSYDIR
 10
0.0
 20
1.0
 30
0.0
  9
$PUCSORTHOREF
  2

  9
$PUCSORTHOVIEW
 70
     0
  9
$PUCSORGTOP
 10
0.0
 20
0.0
 30
0.0
  9
$PUCSORGBOTTOM
 10
0.0
 20
0.0
 30
0.0
  9
$PUCSORGLEFT
 10
0.0
 20
0.0
 30
0.0
  9
$PUCSORGRIGHT
 10
0.0
 20
0.0
 30
0.0
  9
$PUCSORGFRONT
 10
0.0
 20
0.0
 30
0.0
  9
$PUCSORGBACK
 10
0.0
 20
0.0
 30
0.0
  9
$USERI1
 70
     0
  9
$USERI2
 70
     0
  9
$USERI3
 70
     0
  9
$USERI4
 70
     0
  9
$USERI5
 70
     0
  9
$USERR1
 40
0.0
  9
$USERR2
 40
0.0
  9
$USERR3
 40
0.0
  9
$USERR4
 40
0.0
  9
$USERR5
 40
0.0
  9
$WORLDVIEW
 70
     1
  9
$SHADEDGE
 70
     3
  9
$SHADEDIF
 70
    70
  9
$TILEMODE
 70
     1
  9
$MAXACTVP
 70
    64
  9
$PINSBASE
 10
0.0
 20
0.0
 30
0.0
  9
$PLIMCHECK
 70
     0
  9
$PEXTMIN
 10
1.000000000000000E+20
 20
1.000000000000000E+20
 30
1.000000000000000E+20
  9
$PEXTMAX
 10
-1.000000000000000E+20
 20
-1.000000000000000E+20
 30
-1.000000000000000E+20
  9
$PLIMMIN
 10
0.0
 20
0.0
  9
$PLIMMAX
 10
420.0
 20
297.0
  9
$UNITMODE
 70
     0
  9
$VISRETAIN
 70
     1
  9
$PLINEGEN
 70
     0
  9
$PSLTSCALE
 70
     1
  9
$TREEDEPTH
 70
  3020
  9
$CMLSTYLE
  2
Standard
  9
$CMLJUST
 70
     0
  9
$CMLSCALE
 40
1.0
  9
$PROXYGRAPHICS
 70
     1
  9
$MEASUREMENT
 70
     0
  9
$CELWEIGHT
370
    -1
  9
$ENDCAPS
280
     0
  9
$JOINSTYLE
280
     0
  9
$LWDISPLAY
290
     0
  9
$INSUNITS
 70
     0
  9
$HYPERLINKBASE
  1

  9
$STYLESHEET
  1

  9
$XEDIT
290
     1
  9
$CEPSNTYPE
380
     0
  9
$PSTYLEMODE
290
     1
  9
$FINGERPRINTGUID
  2
{AC8F252C-B3A9-42AA-B2A3-13C04F7BAA19}
  9
$VERSIONGUID
  2
{578D243F-6E97-40B2-A35C-E3DCA2DE7838}
  9
$EXTNAMES
290
     1
  9
$PSVPSCALE
 40
0.0
  9
$OLESTARTUP
290
     0
  0
ENDSEC
  0
SECTION
  2
CLASSES
  0
CLASS
  1
ACDBDICTIONARYWDFLT
  2
AcDbDictionaryWithDefault
  3
ObjectDBX Classes
 90
        0
280
     0
281
     0
  0
CLASS
  1
DICTIONARYVAR
  2
AcDbDictionaryVar
  3
ObjectDBX Classes
 90
        0
280
     0
281
     0
  0
CLASS
  1
ACDBPLACEHOLDER
  2
AcDbPlaceHolder
  3
ObjectDBX Classes
 90
        0
280
     0
281
     0
  0
CLASS
  1
LAYOUT
  2
AcDbLayout
  3
ObjectDBX Classes
 90
        0
280
     0
281
     0
  0
ENDSEC
  0
SECTION
  2
TABLES
  0
TABLE
  2
VPORT
  5
2F1
330
0
100
AcDbSymbolTable
 70
     2
  0
VPORT
  5
413
330
2F1
100
AcDbSymbolTableRecord
100
AcDbViewportTableRecord
  2
*Active
 70
     0
 10
0.0
 20
0.0
 11
1.0
 21
1.0
 12
359.9257817862504
 22
159.8967193681113
 13
0.0
 23
0.0
 14
10.0
 24
10.0
 15
10.0
 25
10.0
 16
0.0
 26
0.0
 36
1.0
 17
0.0
 27
0.0
 37
0.0
 40
219.5853957179113
 41
1.767657992565055
 42
50.0
 43
0.0
 44
0.0
 50
0.0
 51
0.0
 71
     0
 72
   100
 73
     1
 74
     3
 75
     0
 76
     0
 77
     0
 78
     0
281
     0
 65
     1
110
0.0
120
0.0
130
0.0
111
1.0
121
0.0
131
0.0
112
0.0
122
1.0
132
0.0
 79
     0
146
0.0
  0
ENDTAB
  0
TABLE
  2
LTYPE
  5
2EE
330
0
100
AcDbSymbolTable
 70
     1
  0
LTYPE
  5
2FC
330
2EE
100
AcDbSymbolTableRecord
100
AcDbLinetypeTableRecord
  2
ByBlock
 70
     0
  3

 72
    65
 73
     0
 40
0.0
  0
LTYPE
  5
2FD
330
2EE
100
AcDbSymbolTableRecord
100
AcDbLinetypeTableRecord
  2
ByLayer
 70
     0
  3

 72
    65
 73
     0
 40
0.0
  0
LTYPE
  5
2FE
330
2EE
100
AcDbSymbolTableRecord
100
AcDbLinetypeTableRecord
  2
CONTINUOUS
 70
     0
  3
Solid line
 72
    65
 73
     0
 40
0.0
  0
ENDTAB
  0
TABLE
  2
LAYER
  5
2EB
330
0
100
AcDbSymbolTable
 70
     2
  0
LAYER
  5
2F9
330
2EB
100
AcDbSymbolTableRecord
100
AcDbLayerTableRecord
  2
0
 70
     0
 62
     7
  6
CONTINUOUS
370
    -3
390
2F8
  0
LAYER
  5
30E
330
2EB
100
AcDbSymbolTableRecord
100
AcDbLayerTableRecord
  2
DEFPOINTS
 70
     0
 62
     7
  6
CONTINUOUS
290
     0
370
    -3
390
2F8
  0
ENDTAB
  0
TABLE
  2
STYLE
  5
2EC
330
0
100
AcDbSymbolTable
 70
     1
  0
STYLE
  5
2FA
330
2EC
100
AcDbSymbolTableRecord
100
AcDbTextStyleTableRecord
  2
STANDARD
 70
     0
 40
0.0
 41
1.0
 50
0.0
 71
     0
 42
2.5
  3
txt
  4

  0
ENDTAB
  0
TABLE
  2
VIEW
  5
2EF
330
0
100
AcDbSymbolTable
 70
     0
  0
ENDTAB
  0
TABLE
  2
UCS
  5
2F0
330
0
100
AcDbSymbolTable
 70
     0
  0
ENDTAB
  0
TABLE
  2
APPID
  5
2F2
330
0
100
AcDbSymbolTable
 70
     1
  0
APPID
  5
2FB
330
2F2
100
AcDbSymbolTableRecord
100
AcDbRegAppTableRecord
  2
ACAD
 70
     0
  0
ENDTAB
  0
TABLE
  2
DIMSTYLE
  5
2F3
330
0
100
AcDbSymbolTable
 70
     1
100
AcDbDimStyleTable
 71
     0
  0
DIMSTYLE
105
30F
330
2F3
100
AcDbSymbolTableRecord
100
AcDbDimStyleTableRecord
  2
ISO-25
 70
     0
 41
2.5
 42
0.625
 43
3.75
 44
1.25
 73
     0
 74
     0
 77
     1
 78
     8
140
2.5
141
2.5
143
0.03937007874016
147
0.625
171
     3
172
     1
274
     3
279
     2
284
     8
285
     8
286
     8
340
2FA
  0
ENDTAB
  0
TABLE
  2
BLOCK_RECORD
  5
2EA
330
0
100
AcDbSymbolTable
 70
     6
  0
BLOCK_RECORD
  5
309
330
2EA
100
AcDbSymbolTableRecord
100
AcDbBlockTableRecord
  2
*Model_Space
340
30C
  0
BLOCK_RECORD
  5
305
330
2EA
100
AcDbSymbolTableRecord
100
AcDbBlockTableRecord
  2
*Paper_Space
340
308
  0
BLOCK_RECORD
  5
311
330
2EA
100
AcDbSymbolTableRecord
100
AcDbBlockTableRecord
  2
$MODEL_SPACE
340
0
  0
BLOCK_RECORD
  5
313
330
2EA
100
AcDbSymbolTableRecord
100
AcDbBlockTableRecord
  2
$PAPER_SPACE
340
0
  0
ENDTAB
  0
ENDSEC
  0
SECTION
  2
BLOCKS
  0
BLOCK
  5
30A
330
309
100
AcDbEntity
  8
0
100
AcDbBlockBegin
  2
*Model_Space
 70
     0
 10
0.0
 20
0.0
 30
0.0
  3
*Model_Space
  1

  0
ENDBLK
  5
30B
330
309
100
AcDbEntity
  8
0
100
AcDbBlockEnd
  0
BLOCK
  5
306
330
305
100
AcDbEntity
 67
     1
  8
0
100
AcDbBlockBegin
  2
*Paper_Space
 70
     0
 10
0.0
 20
0.0
 30
0.0
  3
*Paper_Space
  1

  0
ENDBLK
  5
307
330
305
100
AcDbEntity
 67
     1
  8
0
100
AcDbBlockEnd
  0
BLOCK
  5
312
330
311
100
AcDbEntity
  8
0
100
AcDbBlockBegin
  2
$MODEL_SPACE
 70
     0
 10
0.0
 20
0.0
 30
0.0
  3
$MODEL_SPACE
  1

  0
ENDBLK
  5
1B6
330
311
100
AcDbEntity
  8
0
100
AcDbBlockEnd
  0
BLOCK
  5
314
330
313
100
AcDbEntity
  8
0
100
AcDbBlockBegin
  2
$PAPER_SPACE
 70
     0
 10
0.0
 20
0.0
 30
0.0
  3
$PAPER_SPACE
  1

  0
ENDBLK
  5
1B2
330
313
100
AcDbEntity
  8
0
100
AcDbBlockEnd
  0
ENDSEC
  0
SECTION
  2
ENTITIES
  0
LINE
  5
1C2
330
309
100
AcDbEntity
  8
0
100
AcDbLine
 10
238.8902299447406
 20
118.4848931163644
 30
0.0
 11
306.1870754812273
 21
118.4848931163644
 31
0.0
  0
LINE
  5
1C3
330
309
100
AcDbEntity
  8
0
100
AcDbLine
 10
238.8902299447406
 20
208.4848931163644
 30
0.0
 11
306.1870754812273
 21
208.4848931163644
 31
0.0
  0
ARC
  5
1C4
330
309
100
AcDbEntity
  8
0
100
AcDbCircle
 10
238.8902299447406
 20
198.4848931163645
 30
0.0
 40
10.0
100
AcDbArc
 50
90.0
 51
141.2980773751465
  0
ARC
  5
1C5
330
309
100
AcDbEntity
  8
0
100
AcDbCircle
 10
176.5538494069764
 20
150.4848931163647
 30
0.0
 40
5.251690126698304
100
AcDbArc
 50
88.54635163937548
 51
271.4536483606245
  0
ARC
  5
1C6
330
309
100
AcDbEntity
  8
0
100
AcDbCircle
 10
176.5538494069764
 20
176.4848931163645
 30
0.0
 40
5.251690126698304
100
AcDbArc
 50
88.54635163937548
 51
271.4536483606245
  0
LINE
  5
1C8
330
309
100
AcDbEntity
  8
0
100
AcDbLine
 10
197.3147892545978
 20
160.3553701607468
 30
0.0
 11
201.437075481227
 21
156.4848931163647
 31
0.0
  0
LINE
  5
1C9
330
309
100
AcDbEntity
  8
0
100
AcDbLine
 10
176.6870754812269
 20
155.7348931163645
 30
0.0
 11
176.6870754812269
 21
163.4848931163647
 31
0.0
  0
LINE
  5
1CA
330
309
100
AcDbEntity
  8
0
100
AcDbLine
 10
201.437075481227
 20
156.4848931163647
 30
0.0
 11
207.0620754812269
 21
157.4848931163648
 31
0.0
  0
LINE
  5
1CB
330
309
100
AcDbEntity
  8
0
100
AcDbLine
 10
202.1870754812268
 20
140.6782091275292
 30
0.0
 11
207.1856774269656
 21
144.5434482857296
 31
0.0
  0
ARC
  5
1CC
330
309
100
AcDbEntity
  8
0
100
AcDbCircle
 10
178.8581841796866
 20
121.7437443846985
 30
0.0
 40
23.59126494518225
100
AcDbArc
 50
52.59961190145497
 51
95.28041348422373
  0
CIRCLE
  5
1CD
330
309
100
AcDbEntity
  8
0
100
AcDbCircle
 10
176.6870754812269
 20
150.4848931163649
 30
0.0
 40
0.5
  0
CIRCLE
  5
1CE
330
309
100
AcDbEntity
  8
0
100
AcDbCircle
 10
188.437075481227
 20
153.4848931163648
 30
0.0
 40
0.5
  0
ARC
  5
1CF
330
309
100
AcDbEntity
  8
0
100
AcDbCircle
 10
197.691414509112
 20
140.3795437934715
 30
0.0
 40
4.505570835972243
100
AcDbArc
 50
178.66018714678
 51
3.800810322309814
  0
CIRCLE
  5
1D0
330
309
100
AcDbEntity
  8
0
100
AcDbCircle
 10
197.6870754812268
 20
140.4848931163645
 30
0.0
 40
0.5
  0
LINE
  5
1D1
330
309
100
AcDbEntity
  8
0
100
AcDbLine
 10
213.2102297316026
 20
144.5434482857296
 30
0.0
 11
231.0861356830144
 21
122.2322046742544
 31
0.0
  0
ARC
  5
1D2
330
309
100
AcDbEntity
  8
0
100
AcDbCircle
 10
238.8902299447406
 20
128.4848931163645
 30
0.0
 40
10.0
100
AcDbArc
 50
218.7019226248526
 51
270.0
  0
LINE
  5
1D3
330
309
100
AcDbEntity
  8
0
100
AcDbLine
 10
207.1856774269656
 20
144.5434482857296
 30
0.0
 11
213.2102297316026
 21
144.5434482857296
 31
0.0
  0
LINE
  5
1D4
330
309
100
AcDbEntity
  8
0
100
AcDbLine
 10
201.437075481227
 20
170.4848931163647
 30
0.0
 11
207.0620754812269
 21
169.4848931163648
 31
0.0
  0
LINE
  5
1D5
330
309
100
AcDbEntity
  8
0
100
AcDbLine
 10
202.1870754812268
 20
186.4848931163645
 30
0.0
 11
207.1856774269656
 21
182.4263379469998
 31
0.0
  0
ARC
  5
1D6
330
309
100
AcDbEntity
  8
0
100
AcDbCircle
 10
178.8581841796866
 20
205.2260418480309
 30
0.0
 40
23.59126494518244
100
AcDbArc
 50
264.719586515776
 51
307.4003880985445
  0
LINE
  5
1D7
330
309
100
AcDbEntity
  8
0
100
AcDbLine
 10
176.6870754812269
 20
171.2348931163647
 30
0.0
 11
176.6870754812269
 21
163.4848931163647
 31
0.0
  0
CIRCLE
  5
1D8
330
309
100
AcDbEntity
  8
0
100
AcDbCircle
 10
176.6870754812269
 20
176.4848931163645
 30
0.0
 40
0.5
  0
CIRCLE
  5
1D9
330
309
100
AcDbEntity
  8
0
100
AcDbCircle
 10
188.437075481227
 20
173.4848931163645
 30
0.0
 40
0.5
  0
LINE
  5
1DA
330
309
100
AcDbEntity
  8
0
100
AcDbLine
 10
197.3147892545978
 20
166.6144160719827
 30
0.0
 11
201.437075481227
 21
170.4848931163647
 31
0.0
  0
ARC
  5
1DB
330
309
100
AcDbEntity
  8
0
100
AcDbCircle
 10
204.8330010326249
 20
163.4848931163648
 30
0.0
 40
8.143550961896453
100
AcDbArc
 50
157.4000425924855
 51
202.5999574075171
  0
CIRCLE
  5
1DC
330
309
100
AcDbEntity
  8
0
100
AcDbCircle
 10
195.187075481227
 20
176.4848931163645
 30
0.0
 40
0.5
  0
ARC
  5
1DD
330
309
100
AcDbEntity
  8
0
100
AcDbCircle
 10
197.6870754812268
 20
186.5416399374924
 30
0.0
 40
4.500357785966368
100
AcDbArc
 50
359.2775153284549
 51
180.722484671545
  0
CIRCLE
  5
1DE
330
309
100
AcDbEntity
  8
0
100
AcDbCircle
 10
197.6870754812268
 20
186.4848931163645
 30
0.0
 40
0.5
  0
LINE
  5
1DF
330
309
100
AcDbEntity
  8
0
100
AcDbLine
 10
213.2102297316026
 20
182.4263379469998
 30
0.0
 11
231.0861356830144
 21
204.7375815584742
 31
0.0
  0
LINE
  5
1E0
330
309
100
AcDbEntity
  8
0
100
AcDbLine
 10
207.1856774269656
 20
182.4263379469998
 30
0.0
 11
213.2102297316026
 21
182.4263379469998
 31
0.0
  0
ARC
  5
1E1
330
309
100
AcDbEntity
  8
0
100
AcDbCircle
 10
305.5072303909158
 20
202.5148057715377
 30
0.0
 40
6.008671421510729
100
AcDbArc
 50
9.290947138980719
 51
83.50341491561351
  0
LINE
  5
1E2
330
309
100
AcDbEntity
  8
0
100
AcDbLine
 10
307.2898965987083
 20
144.4784557928505
 30
0.0
 11
302.3892313540955
 21
148.0159083556189
 31
0.0
  0
LINE
  5
1E3
330
309
100
AcDbEntity
  8
0
100
AcDbLine
 10
307.2898965987083
 20
182.4913304398787
 30
0.0
 11
302.3892313540955
 21
178.9538778771104
 31
0.0
  0
ARC
  5
1E4
330
309
100
AcDbEntity
  8
0
100
AcDbCircle
 10
305.6045583360316
 20
157.4848931163647
 30
0.0
 40
10.0
100
AcDbArc
 50
224.7523010620408
 51
270.0
  0
ARC
  5
1E5
330
309
100
AcDbEntity
  8
0
100
AcDbCircle
 10
305.6045583360315
 20
169.4848931163645
 30
0.0
 40
10.0
100
AcDbArc
 50
90.0
 51
135.2476989379584
  0
CIRCLE
  5
1E6
330
309
100
AcDbEntity
  8
0
100
AcDbCircle
 10
299.6870754812271
 20
133.4848931163647
 30
0.0
 40
0.5
  0
LINE
  5
1E7
330
309
100
AcDbEntity
  8
0
100
AcDbLine
 10
291.3212475797489
 20
153.4848931163647
 30
0.0
 11
288.7230408334128
 21
153.4848931163647
 31
0.0
  0
ARC
  5
1E8
330
309
100
AcDbEntity
  8
0
100
AcDbCircle
 10
291.3212475797489
 20
143.4848931163647
 30
0.0
 40
10.0
100
AcDbArc
 50
44.75230106204096
 51
90.0
  0
LINE
  5
1E9
330
309
100
AcDbEntity
  8
0
100
AcDbLine
 10
298.5029873256463
 20
150.4444606591603
 30
0.0
 11
298.4228185901342
 21
150.525325573569
 31
0.0
  0
LINE
  5
1EA
330
309
100
AcDbEntity
  8
0
100
AcDbLine
 10
291.3212475797489
 20
173.4848931163645
 30
0.0
 11
288.7230408334128
 21
173.4848931163645
 31
0.0
  0
ARC
  5
1EB
330
309
100
AcDbEntity
  8
0
100
AcDbCircle
 10
291.3212475797489
 20
183.4848931163648
 30
0.0
 40
10.0
100
AcDbArc
 50
270.0
 51
315.2476989379583
  0
LINE
  5
1EC
330
309
100
AcDbEntity
  8
0
100
AcDbLine
 10
298.5029873256463
 20
176.5253255735691
 30
0.0
 11
298.4228185901342
 21
176.4444606591604
 31
0.0
  0
CIRCLE
  5
1ED
330
309
100
AcDbEntity
  8
0
100
AcDbCircle
 10
300.1872218703831
 20
193.4848931163645
 30
0.0
 40
0.5
  0
LINE
  5
1EE
330
309
100
AcDbEntity
  8
0
100
AcDbLine
 10
338.1856076903212
 20
153.484893369917
 30
0.0
 11
338.1856076903209
 21
170.5772589510333
 31
0.0
  0
LINE
  5
1EF
330
309
100
AcDbEntity
  8
0
100
AcDbLine
 10
324.8439329923519
 20
157.4848931163647
 30
0.0
 11
324.8439329923519
 21
169.4848931163645
 31
0.0
  0
LINE
  5
1F0
330
309
100
AcDbEntity
  8
0
100
AcDbLine
 10
306.1870754812271
 20
157.4848931163647
 30
0.0
 11
306.1870754812271
 21
169.4848931163645
 31
0.0
  0
ARC
  5
1F1
330
309
100
AcDbEntity
  8
0
100
AcDbCircle
 10
330.4705308093177
 20
154.9387103258061
 30
0.0
 40
7.850859508424823
100
AcDbArc
 50
288.2997403599117
 51
10.67158829151176
  0
LINE
  5
1F2
330
309
100
AcDbEntity
  8
0
100
AcDbLine
 10
311.437075481227
 20
128.4848931163647
 30
0.0
 11
311.437075481227
 21
136.3701585013864
 31
0.0
  0
LINE
  5
1F3
330
309
100
AcDbEntity
  8
0
100
AcDbLine
 10
311.437075481227
 20
128.4848931163645
 30
0.0
 11
311.437075481227
 21
123.4848931163645
 31
0.0
  0
ARC
  5
1F4
330
309
100
AcDbEntity
  8
0
100
AcDbCircle
 10
307.0907082615216
 20
122.7923286970552
 30
0.0
 40
4.401199096090006
100
AcDbArc
 50
258.1520527142956
 51
9.053585231112124
  0
CIRCLE
  5
1F5
330
309
100
AcDbEntity
  8
0
100
AcDbCircle
 10
305.6870754812271
 20
128.4848931163647
 30
0.0
 40
0.5
  0
ARC
  5
1F6
330
309
100
AcDbEntity
  8
0
100
AcDbCircle
 10
321.2166303682662
 20
157.1227731615838
 30
0.0
 40
3.64533334392706
100
AcDbArc
 50
266.3354783281038
 51
5.701048191028283
  0
LINE
  5
1F7
330
309
100
AcDbEntity
  8
0
100
AcDbLine
 10
311.437075481227
 20
147.4848931163647
 30
0.0
 11
332.9356076903212
 21
147.4848931163647
 31
0.0
  0
ARC
  5
1F8
330
309
100
AcDbEntity
  8
0
100
AcDbCircle
 10
301.4370754812271
 20
136.3701585013864
 30
0.0
 40
10.0
100
AcDbArc
 50
0.0
 51
54.17707758700505
  0
CIRCLE
  5
1F9
330
309
100
AcDbEntity
  8
0
100
AcDbCircle
 10
305.6870754812271
 20
138.4848931163647
 30
0.0
 40
0.5
  0
LINE
  5
1FA
330
309
100
AcDbEntity
  8
0
100
AcDbLine
 10
320.9836411733596
 20
153.4848931163647
 30
0.0
 11
309.7704136188545
 21
153.4848931163647
 31
0.0
  0
ARC
  5
1FB
330
309
100
AcDbEntity
  8
0
100
AcDbCircle
 10
309.3030870331828
 20
156.6712848481456
 30
0.0
 40
3.220479219935583
100
AcDbArc
 50
165.3664611548543
 51
278.343700271632
  0
LINE
  5
1FC
330
309
100
AcDbEntity
  8
0
100
AcDbLine
 10
311.437075481227
 20
147.4848931163647
 30
0.0
 11
305.6045583360316
 21
147.4848931163647
 31
0.0
  0
CIRCLE
  5
1FD
330
309
100
AcDbEntity
  8
0
100
AcDbCircle
 10
330.6870754812269
 20
153.4848931163647
 30
0.0
 40
0.5
  0
CIRCLE
  5
1FE
330
309
100
AcDbEntity
  8
0
100
AcDbCircle
 10
333.687075481227
 20
157.4848931163647
 30
0.0
 40
0.5
  0
ARC
  5
1FF
330
309
100
AcDbEntity
  8
0
100
AcDbCircle
 10
330.4705308093177
 20
172.0310759069231
 30
0.0
 40
7.850859508424823
100
AcDbArc
 50
349.328411708488
 51
71.70025964008821
  0
ARC
  5
200
330
309
100
AcDbEntity
  8
0
100
AcDbCircle
 10
321.8099603857291
 20
170.4196198242388
 30
0.0
 40
3.174697433795961
100
AcDbArc
 50
342.8766289236349
 51
105.0868445572331
  0
LINE
  5
201
330
309
100
AcDbEntity
  8
0
100
AcDbLine
 10
311.437075481227
 20
179.4848931163645
 30
0.0
 11
332.9356076903209
 21
179.4848931163646
 31
0.0
  0
ARC
  5
202
330
309
100
AcDbEntity
  8
0
100
AcDbCircle
 10
309.1531911624987
 20
170.4327832821076
 30
0.0
 40
3.113894346473227
100
AcDbArc
 50
78.56736808152328
 51
197.7224704919881
  0
LINE
  5
203
330
309
100
AcDbEntity
  8
0
100
AcDbLine
 10
320.9836411733596
 20
173.4848931163645
 30
0.0
 11
309.7704136188545
 21
173.4848931163645
 31
0.0
  0
LINE
  5
204
330
309
100
AcDbEntity
  8
0
100
AcDbLine
 10
311.437075481227
 20
179.4848931163645
 30
0.0
 11
305.6045583360315
 21
179.4848931163645
 31
0.0
  0
CIRCLE
  5
205
330
309
100
AcDbEntity
  8
0
100
AcDbCircle
 10
333.687075481227
 20
169.4848931163646
 30
0.0
 40
0.5
  0
CIRCLE
  5
206
330
309
100
AcDbEntity
  8
0
100
AcDbCircle
 10
330.6870754812269
 20
173.4848931163645
 30
0.0
 40
0.5
  0
LINE
  5
207
330
309
100
AcDbEntity
  8
0
100
AcDbLine
 10
311.437075481227
 20
198.4848931163645
 30
0.0
 11
311.437075481227
 21
190.5996277313428
 31
0.0
  0
ARC
  5
208
330
309
100
AcDbEntity
  8
0
100
AcDbCircle
 10
301.4370754812271
 20
190.5996277313428
 30
0.0
 40
10.0
100
AcDbArc
 50
305.8229224129949
 51
0.0
  0
CIRCLE
  5
209
330
309
100
AcDbEntity
  8
0
100
AcDbCircle
 10
306.1870754812271
 20
188.4848931163645
 30
0.0
 40
0.5
  0
LINE
  5
20A
330
309
100
AcDbEntity
  8
0
100
AcDbLine
 10
311.437075481227
 20
198.4848931163645
 30
0.0
 11
311.437075481227
 21
203.4848931163645
 31
0.0
  0
CIRCLE
  5
20B
330
309
100
AcDbEntity
  8
0
100
AcDbCircle
 10
306.1870754812271
 20
198.4848931163645
 30
0.0
 40
0.5
  0
CIRCLE
  5
20C
330
309
100
AcDbEntity
  8
0
100
AcDbCircle
 10
240.1872218703831
 20
193.4848931163645
 30
0.0
 40
0.5
  0
CIRCLE
  5
20D
330
309
100
AcDbEntity
  8
0
100
AcDbCircle
 10
240.3372220210385
 20
133.4848931163647
 30
0.0
 40
0.5
  0
LINE
  5
20F
330
309
100
AcDbEntity
  8
0
100
AcDbLine
 10
207.0620754812269
 20
157.4848931163648
 30
0.0
 11
207.0620754812269
 21
169.4848931163648
 31
0.0
  0
ARC
  5
32D
330
309
100
AcDbEntity
  8
0
100
AcDbCircle
 10
347.7405607226592
 20
206.20272926963
 30
0.0
 40
17.13051872162156
100
AcDbArc
 50
248.8550254999123
 51
275.0007802869562
  0
ARC
  5
32E
330
309
100
AcDbEntity
  8
0
100
AcDbCircle
 10
347.6777938435094
 20
205.922896970474
 30
0.0
 40
18.40009176799656
100
AcDbArc
 50
250.7852112612839
 51
274.5952956643814
  0
ARC
  5
32F
330
309
100
AcDbEntity
  8
0
100
AcDbCircle
 10
350.9371462822788
 20
197.7895348251768
 30
0.0
 40
3.250000000000007
100
AcDbArc
 50
290.8042420179026
 51
110.8042420179026
  0
ARC
  5
330
330
309
100
AcDbEntity
  8
0
100
AcDbCircle
 10
341.764228306796
 20
199.4734313229477
 30
0.0
 40
3.249999999999924
100
AcDbArc
 50
48.3915159641918
 51
228.3915159641918
  0
CIRCLE
  5
331
330
309
100
AcDbEntity
  8
0
100
AcDbCircle
 10
341.6221324504858
 20
189.4780855694374
 30
0.0
 40
0.75
  0
ARC
  5
332
330
309
100
AcDbEntity
  8
0
100
AcDbCircle
 10
347.7405607226591
 20
206.2027292696214
 30
0.0
 40
5.750000000000031
100
AcDbArc
 50
228.3915159641918
 51
290.8042420179026
  0
ARC
  5
333
330
309
100
AcDbEntity
  8
0
100
AcDbCircle
 10
347.7405607226591
 20
206.2027292696213
 30
0.0
 40
12.2499999999999
100
AcDbArc
 50
228.3915159641918
 51
290.8042420179026
  0
ARC
  5
334
330
309
100
AcDbEntity
  8
0
100
AcDbCircle
 10
331.6000766117337
 20
196.7223671793139
 30
0.0
 40
10.0
100
AcDbArc
 50
97.26619807352339
 51
153.807172011022
  0
LINE
  5
335
330
309
100
AcDbEntity
  8
0
100
AcDbLine
 10
317.7405607226591
 20
191.2027292696214
 30
0.0
 11
322.6269403294245
 21
201.1363025276294
 31
0.0
  0
ARC
  5
336
330
309
100
AcDbEntity
  8
0
100
AcDbCircle
 10
313.9882178203206
 20
184.7305069836658
 30
0.0
 40
7.481292573850407
100
AcDbArc
 50
11.34914319550915
 51
59.89650906329496
  0
LINE
  5
337
330
309
100
AcDbEntity
  8
0
100
AcDbLine
 10
329.7405607226591
 20
185.1467328680767
 30
0.0
 11
321.32322294072
 21
186.2027292696213
 31
0.0
  0
LINE
  5
338
330
309
100
AcDbEntity
  8
0
100
AcDbLine
 10
329.7405607226591
 20
185.1467328680767
 30
0.0
 11
349.0823221013632
 21
185.2340849191954
 31
0.0
  0
ARC
  5
339
330
309
100
AcDbEntity
  8
0
100
AcDbCircle
 10
343.9123418481133
 20
197.5728501117434
 30
0.0
 40
13.37810981775179
100
AcDbArc
 50
292.7338326838929
 51
354.1217386060836
  0
ARC
  5
33A
330
309
100
AcDbEntity
  8
0
100
AcDbCircle
 10
346.5502144484392
 20
199.9976910943284
 30
0.0
 40
10.74683768341952
100
AcDbArc
 50
353.1395962626949
 51
82.53823215071115
  0
LINE
  5
33B
330
309
100
AcDbEntity
  8
0
100
AcDbLine
 10
347.9458481711534
 20
210.6535217379614
 30
0.0
 11
330.3352824764746
 21
206.6420595029404
 31
0.0
  0
LINE
  5
33C
330
309
100
AcDbEntity
  8
0
100
AcDbLine
 10
357.2201061672546
 20
196.2027292696213
 30
0.0
 11
357.2201061672546
 21
198.7139734842132
 31
0.0
  0
CIRCLE
  5
33D
330
309
100
AcDbEntity
  8
0
100
AcDbCircle
 10
349.2338162108853
 20
188.3274722002806
 30
0.0
 40
0.75
  0
CIRCLE
  5
33E
330
309
100
AcDbEntity
  8
0
100
AcDbCircle
 10
329.7405607226591
 20
197.2027292696213
 30
0.0
 40
4.977646812051034
  0
CIRCLE
  5
33F
330
309
100
AcDbEntity
  8
0
100
AcDbCircle
 10
347.7405607226591
 20
206.2027292696214
 30
0.0
 40
0.75
  0
ARC
  5
35E
330
309
100
AcDbEntity
  8
0
100
AcDbCircle
 10
386.5343147941923
 20
180.0849168580158
 30
0.0
 40
10.0
100
AcDbArc
 50
270.0
 51
314.5633513633953
  0
ARC
  5
35F
330
309
100
AcDbEntity
  8
0
100
AcDbCircle
 10
386.5343147931361
 20
147.0849168547598
 30
0.0
 40
10.0
100
AcDbArc
 50
45.4366486262422
 51
90.0
  0
ARC
  5
360
330
309
100
AcDbEntity
  8
0
100
AcDbCircle
 10
372.9458125502275
 20
180.0849168580158
 30
0.0
 40
10.0
100
AcDbArc
 50
225.1576974382058
 51
270.0
  0
ARC
  5
361
330
309
100
AcDbEntity
  8
0
100
AcDbCircle
 10
372.9458124757112
 20
147.0849168547598
 30
0.0
 40
10.0
100
AcDbArc
 50
90.0
 51
134.8423018321204
  0
ARC
  5
362
330
309
100
AcDbEntity
  8
0
100
AcDbCircle
 10
403.8676746123814
 20
169.0849168547598
 30
0.0
 40
10.0
100
AcDbArc
 50
90.0
 51
134.5633513633953
  0
ARC
  5
363
330
309
100
AcDbEntity
  8
0
100
AcDbCircle
 10
403.8676746134377
 20
158.0849168547598
 30
0.0
 40
10.0
100
AcDbArc
 50
225.4366486262422
 51
270.0
  0
LINE
  5
364
330
309
100
AcDbEntity
  8
0
100
AcDbLine
 10
372.9458125502275
 20
170.0849168580158
 30
0.0
 11
386.5343147941923
 21
170.0849168580158
 31
0.0
  0
LINE
  5
365
330
309
100
AcDbEntity
  8
0
100
AcDbLine
 10
372.9458124757112
 20
157.0849168547598
 30
0.0
 11
386.534314793136
 21
157.0849168547598
 31
0.0
  0
LINE
  5
366
330
309
100
AcDbEntity
  8
0
100
AcDbLine
 10
396.85069991746
 20
176.2096671051777
 30
0.0
 11
393.5512894891138
 21
172.9601666075978
 31
0.0
  0
LINE
  5
367
330
309
100
AcDbEntity
  8
0
100
AcDbLine
 10
396.8506999172275
 20
150.960166605611
 30
0.0
 11
393.5512894893463
 21
154.2096671039085
 31
0.0
  0
LINE
  5
368
330
309
100
AcDbEntity
  8
0
100
AcDbLine
 10
359.7701116128741
 20
179.0849168580158
 30
0.0
 11
365.8942334761383
 21
172.9944138743151
 31
0.0
  0
LINE
  5
369
330
309
100
AcDbEntity
  8
0
100
AcDbLine
 10
359.7701113823715
 20
148.0849168547598
 30
0.0
 11
365.894233491921
 21
154.1754199282637
 31
0.0
  0
LINE
  5
36A
330
309
100
AcDbEntity
  8
0
100
AcDbLine
 10
349.7701113823716
 20
155.0849168547598
 30
0.0
 11
349.7701114094895
 21
172.0849168580158
 31
0.0
  0
LINE
  5
36B
330
309
100
AcDbEntity
  8
0
100
AcDbLine
 10
349.7701116128741
 20
179.0849168580158
 30
0.0
 11
359.7701116128741
 21
179.0849168580158
 31
0.0
  0
LINE
  5
36C
330
309
100
AcDbEntity
  8
0
100
AcDbLine
 10
349.7701113823716
 20
148.0849168547598
 30
0.0
 11
359.7701113823715
 21
148.0849168547598
 31
0.0
  0
LINE
  5
36D
330
309
100
AcDbEntity
  8
0
100
AcDbLine
 10
429.7701113823714
 20
148.0849168547598
 30
0.0
 11
403.8676746134377
 21
148.0849168547598
 31
0.0
  0
LINE
  5
36E
330
309
100
AcDbEntity
  8
0
100
AcDbLine
 10
429.7701113823714
 20
179.0849168547598
 30
0.0
 11
403.8676746123814
 21
179.0849168547598
 31
0.0
  0
LINE
  5
36F
330
309
100
AcDbEntity
  8
0
100
AcDbLine
 10
429.7701113823714
 20
155.0849168547598
 30
0.0
 11
429.7701113823714
 21
172.0849168547598
 31
0.0
  0
ARC
  5
370
330
309
100
AcDbEntity
  8
0
100
AcDbCircle
 10
429.7701113823714
 20
175.5849168547599
 30
0.0
 40
3.499999999999971
100
AcDbArc
 50
270.0
 51
90.0
  0
ARC
  5
371
330
309
100
AcDbEntity
  8
0
100
AcDbCircle
 10
429.7701113823714
 20
151.5849168547598
 30
0.0
 40
3.499999999999971
100
AcDbArc
 50
270.0
 51
90.0
  0
ARC
  5
372
330
309
100
AcDbEntity
  8
0
100
AcDbCircle
 10
349.7701116128741
 20
175.5849168580158
 30
0.0
 40
3.499999999999971
100
AcDbArc
 50
90.0
 51
270.0
  0
ARC
  5
373
330
309
100
AcDbEntity
  8
0
100
AcDbCircle
 10
349.7701113823715
 20
151.5849168547598
 30
0.0
 40
3.499999999999971
100
AcDbArc
 50
90.0
 51
270.0
  0
CIRCLE
  5
374
330
309
100
AcDbEntity
  8
0
100
AcDbCircle
 10
349.7701113823716
 20
175.5849168547598
 30
0.0
 40
0.5
  0
CIRCLE
  5
375
330
309
100
AcDbEntity
  8
0
100
AcDbCircle
 10
349.7701113823716
 20
151.5849168547598
 30
0.0
 40
0.5
  0
CIRCLE
  5
376
330
309
100
AcDbEntity
  8
0
100
AcDbCircle
 10
429.7701113823714
 20
175.5849168547598
 30
0.0
 40
0.75
  0
CIRCLE
  5
377
330
309
100
AcDbEntity
  8
0
100
AcDbCircle
 10
429.7701113823714
 20
151.5849168547598
 30
0.0
 40
0.75
  0
LINE
  5
39A
330
309
100
AcDbEntity
  8
0
100
AcDbLine
 10
448.995978384909
 20
136.2586083217273
 30
0.0
 11
448.995978384909
 21
196.2586083217273
 31
0.0
  0
CIRCLE
  5
39B
330
309
100
AcDbEntity
  8
0
100
AcDbCircle
 10
443.9959783849089
 20
136.2586083217274
 30
0.0
 40
0.5
  0
ARC
  5
39C
330
309
100
AcDbEntity
  8
0
100
AcDbCircle
 10
443.4959783849089
 20
136.9227444854838
 30
0.0
 40
5.539952783554148
100
AcDbArc
 50
186.8852460973043
 51
353.1147539026956
  0
CIRCLE
  5
39D
330
309
100
AcDbEntity
  8
0
100
AcDbCircle
 10
443.9959783849089
 20
196.2586083217273
 30
0.0
 40
0.5
  0
ARC
  5
39E
330
309
100
AcDbEntity
  8
0
100
AcDbCircle
 10
443.4959783849089
 20
195.7586083217274
 30
0.0
 40
5.522680508593628
100
AcDbArc
 50
5.194428907734805
 51
174.8055710922652
  0
LINE
  5
39F
330
309
100
AcDbEntity
  8
0
100
AcDbLine
 10
437.995978384909
 20
196.2586083217274
 30
0.0
 11
437.995978384909
 21
136.2586083217273
 31
0.0
  0
LINE
  5
3A0
330
309
100
AcDbEntity
  8
0
100
AcDbLine
 10
469.2380897457895
 20
131.7912351523382
 30
0.0
 11
479.2380897457896
 21
141.7912351523382
 31
0.0
  0
LINE
  5
3A1
330
309
100
AcDbEntity
  8
0
100
AcDbLine
 10
487.2380897457896
 20
141.7912351523382
 30
0.0
 11
497.2380897457896
 21
131.7912351523382
 31
0.0
  0
ARC
  5
3A2
330
309
100
AcDbEntity
  8
0
100
AcDbCircle
 10
504.7497627893099
 20
193.3062939018024
 30
0.0
 40
3.499258584191651
100
AcDbArc
 50
4.530072513988089
 51
95.18476257560356
  0
ARC
  5
3A3
330
309
100
AcDbEntity
  8
0
100
AcDbCircle
 10
462.0221718840149
 20
192.9768026692235
 30
0.0
 40
3.832278316559333
100
AcDbArc
 50
84.46845814024662
 51
170.9035566752204
  0
LINE
  5
3A4
330
309
100
AcDbEntity
  8
0
100
AcDbLine
 10
497.2380897457895
 20
188.7912351523382
 30
0.0
 11
487.2380897457896
 21
178.7912351523382
 31
0.0
  0
LINE
  5
3A5
330
309
100
AcDbEntity
  8
0
100
AcDbLine
 10
469.2380897457895
 20
188.7912351523382
 30
0.0
 11
479.2380897457896
 21
178.7912351523382
 31
0.0
  0
LINE
  5
3A6
330
309
100
AcDbEntity
  8
0
100
AcDbLine
 10
497.2380897457896
 20
131.7912351523382
 30
0.0
 11
500.2380897457896
 21
131.7912351523382
 31
0.0
  0
LINE
  5
3A7
330
309
100
AcDbEntity
  8
0
100
AcDbLine
 10
487.2380897457896
 20
178.7912351523382
 30
0.0
 11
487.2380897457896
 21
141.7912351523382
 31
0.0
  0
LINE
  5
3A8
330
309
100
AcDbEntity
  8
0
100
AcDbLine
 10
500.2380897457896
 20
188.7912351523382
 30
0.0
 11
497.2380897457895
 21
188.7912351523382
 31
0.0
  0
LINE
  5
3A9
330
309
100
AcDbEntity
  8
0
100
AcDbLine
 10
469.2380897457895
 20
131.7912351523382
 30
0.0
 11
466.2380897457896
 21
131.7912351523382
 31
0.0
  0
LINE
  5
3AA
330
309
100
AcDbEntity
  8
0
100
AcDbLine
 10
479.2380897457896
 20
178.7912351523382
 30
0.0
 11
479.2380897457896
 21
141.7912351523382
 31
0.0
  0
LINE
  5
3AB
330
309
100
AcDbEntity
  8
0
100
AcDbLine
 10
466.2380897457896
 20
188.7912351523382
 30
0.0
 11
469.2380897457895
 21
188.7912351523382
 31
0.0
  0
LINE
  5
3AC
330
309
100
AcDbEntity
  8
0
100
AcDbLine
 10
500.2380897457896
 20
131.7912351523382
 30
0.0
 11
500.2380897457896
 21
188.7912351523382
 31
0.0
  0
LINE
  5
3AD
330
309
100
AcDbEntity
  8
0
100
AcDbLine
 10
466.2380897457896
 20
131.7912351523382
 30
0.0
 11
466.2380897457896
 21
188.7912351523382
 31
0.0
  0
LINE
  5
3AE
330
309
100
AcDbEntity
  8
0
100
AcDbLine
 10
504.4335427403678
 20
196.7912351523382
 30
0.0
 11
462.3915794195776
 21
196.7912351523382
 31
0.0
  0
LINE
  5
3AF
330
309
100
AcDbEntity
  8
0
100
AcDbLine
 10
508.2380897457896
 20
131.7912351523382
 30
0.0
 11
508.2380897457896
 21
193.5826735025981
 31
0.0
  0
LINE
  5
3B0
330
309
100
AcDbEntity
  8
0
100
AcDbLine
 10
458.2380897457896
 20
131.7912351523382
 30
0.0
 11
458.2380897457896
 21
193.5826735025981
 31
0.0
  0
ARC
  5
3B1
330
309
100
AcDbEntity
  8
0
100
AcDbCircle
 10
512.5739535820332
 20
126.2912351523382
 30
0.0
 40
5.539952783554148
100
AcDbArc
 50
276.885246097303
 51
83.11475390269384
  0
ARC
  5
3B2
330
309
100
AcDbEntity
  8
0
100
AcDbCircle
 10
453.7380897457896
 20
126.2912351523382
 30
0.0
 40
5.522680508593628
100
AcDbArc
 50
95.19442890773486
 51
264.8055710922652
  0
LINE
  5
3B3
330
309
100
AcDbEntity
  8
0
100
AcDbLine
 10
513.2380897457895
 20
131.7912351523382
 30
0.0
 11
508.2380897457896
 21
131.7912351523382
 31
0.0
  0
LINE
  5
3B4
330
309
100
AcDbEntity
  8
0
100
AcDbLine
 10
453.2380897457896
 20
131.7912351523382
 30
0.0
 11
458.2380897457896
 21
131.7912351523382
 31
0.0
  0
LINE
  5
3B5
330
309
100
AcDbEntity
  8
0
100
AcDbLine
 10
453.2380897457896
 20
120.7912351523382
 30
0.0
 11
513.2380897457895
 21
120.7912351523382
 31
0.0
  0
CIRCLE
  5
3B6
330
309
100
AcDbEntity
  8
0
100
AcDbCircle
 10
513.2380897457895
 20
126.7912351523382
 30
0.0
 40
0.5
  0
CIRCLE
  5
3B7
330
309
100
AcDbEntity
  8
0
100
AcDbCircle
 10
453.2380897457896
 20
126.7912351523382
 30
0.0
 40
0.5
  0
ARC
  5
3E6
330
309
100
AcDbEntity
  8
0
100
AcDbCircle
 10
429.6843858632095
 20
222.4094308488688
 30
0.0
 40
10.0
100
AcDbArc
 50
174.5962083452565
 51
222.6532883675162
  0
ARC
  5
3E7
330
309
100
AcDbEntity
  8
0
100
AcDbCircle
 10
369.2846216801747
 20
221.9073016064913
 30
0.0
 40
10.0
100
AcDbArc
 50
320.60800759662
 51
5.403791360249713
  0
ARC
  5
3E8
330
309
100
AcDbEntity
  8
0
100
AcDbCircle
 10
365.8968345891369
 20
228.562462989692
 30
0.0
 40
17.10560508928147
100
AcDbArc
 50
265.1841342517859
 51
310.529995457883
  0
ARC
  5
3E9
330
309
100
AcDbEntity
  8
0
100
AcDbCircle
 10
432.1700237732549
 20
224.6993622841631
 30
0.0
 40
13.37967184770937
100
AcDbArc
 50
222.6532883675162
 51
279.858165497284
  0
LINE
  5
3EA
330
309
100
AcDbEntity
  8
0
100
AcDbLine
 10
410.960754569637
 20
257.5172463531774
 30
0.0
 11
410.2299886810561
 21
250.9134591602343
 31
0.0
  0
LINE
  5
3EB
330
309
100
AcDbEntity
  8
0
100
AcDbLine
 10
387.9607544082856
 20
257.5172466758807
 30
0.0
 11
388.6915202631777
 21
250.9134591602343
 31
0.0
  0
ARC
  5
3EC
330
309
100
AcDbEntity
  8
0
100
AcDbCircle
 10
399.4607542833302
 20
262.8016404640322
 30
0.0
 40
23.12328279996799
100
AcDbArc
 50
258.0768318497365
 51
281.9231681502635
  0
ARC
  5
3ED
330
309
100
AcDbEntity
  8
0
100
AcDbCircle
 10
399.4607543975356
 20
256.6392250624286
 30
0.0
 40
10.0
100
AcDbArc
 50
242.9247863163575
 51
297.0752130696937
  0
LINE
  5
3EE
330
309
100
AcDbEntity
  8
0
100
AcDbLine
 10
404.0123518625295
 20
247.7351271004416
 30
0.0
 11
410.2299886810561
 21
250.9134591602343
 31
0.0
  0
LINE
  5
3EF
330
309
100
AcDbEntity
  8
0
100
AcDbLine
 10
388.6915202631777
 20
250.9134591602343
 30
0.0
 11
394.9091568371304
 21
247.735127149214
 31
0.0
  0
LINE
  5
3F0
330
309
100
AcDbEntity
  8
0
100
AcDbLine
 10
404.2380207849659
 20
240.1772303674208
 30
0.0
 11
411.7619492629278
 21
242.75140578069
 31
0.0
  0
LINE
  5
3F1
330
309
100
AcDbEntity
  8
0
100
AcDbLine
 10
387.6256764436279
 20
242.75140578069
 30
0.0
 11
394.6834877816946
 21
240.1772303674208
 31
0.0
  0
ARC
  5
3F2
330
309
100
AcDbEntity
  8
0
100
AcDbCircle
 10
399.4607543297495
 20
201.1961700453356
 30
0.0
 40
10.0
100
AcDbArc
 50
68.739083616145
 51
111.2609163838519
  0
LINE
  5
3F3
330
309
100
AcDbEntity
  8
0
100
AcDbLine
 10
411.4607544082855
 20
207.2573113566806
 30
0.0
 11
411.4607544082855
 21
205.5172466758807
 31
0.0
  0
LINE
  5
3F4
330
309
100
AcDbEntity
  8
0
100
AcDbLine
 10
387.4607544082855
 20
207.2573113566807
 30
0.0
 11
387.4607544082855
 21
205.5172466758807
 31
0.0
  0
LINE
  5
3F5
330
309
100
AcDbEntity
  8
0
100
AcDbLine
 10
411.4607544082855
 20
207.2573113566806
 30
0.0
 11
403.0869103719405
 21
210.5155580272625
 31
0.0
  0
LINE
  5
3F6
330
309
100
AcDbEntity
  8
0
100
AcDbLine
 10
387.4607544082855
 20
205.5172466758807
 30
0.0
 11
411.4607544082855
 21
205.5172466758807
 31
0.0
  0
LINE
  5
3F7
330
309
100
AcDbEntity
  8
0
100
AcDbLine
 10
395.8345982875586
 20
210.5155580272625
 30
0.0
 11
387.4607544082855
 21
207.2573113566807
 31
0.0
  0
LINE
  5
3F8
330
309
100
AcDbEntity
  8
0
100
AcDbLine
 10
419.4607544082855
 20
199.5172466758808
 30
0.0
 11
417.4607544082855
 21
196.8297466758808
 31
0.0
  0
LINE
  5
3F9
330
309
100
AcDbEntity
  8
0
100
AcDbLine
 10
379.4607544082855
 20
199.5172466758808
 30
0.0
 11
381.4607544082854
 21
196.8297466758808
 31
0.0
  0
LINE
  5
3FA
330
309
100
AcDbEntity
  8
0
100
AcDbLine
 10
393.4607544082853
 20
189.1422466758808
 30
0.0
 11
405.4607544082854
 21
189.1422466758808
 31
0.0
  0
LINE
  5
3FB
330
309
100
AcDbEntity
  8
0
100
AcDbLine
 10
419.4607544082855
 20
199.5172466758808
 30
0.0
 11
434.4607544082855
 21
199.5172466758808
 31
0.0
  0
LINE
  5
3FC
330
309
100
AcDbEntity
  8
0
100
AcDbLine
 10
417.4607544082855
 20
189.1422466758808
 30
0.0
 11
417.4607544082855
 21
196.8297466758808
 31
0.0
  0
LINE
  5
3FD
330
309
100
AcDbEntity
  8
0
100
AcDbLine
 10
381.4607544082854
 20
196.8297466758808
 30
0.0
 11
381.4607544082855
 21
189.1422466758808
 31
0.0
  0
LINE
  5
3FE
330
309
100
AcDbEntity
  8
0
100
AcDbLine
 10
364.4607544082855
 20
199.5172466758808
 30
0.0
 11
379.4607544082855
 21
199.5172466758808
 31
0.0
  0
ARC
  5
3FF
330
309
100
AcDbEntity
  8
0
100
AcDbCircle
 10
411.4607544082855
 20
191.0410401572294
 30
0.0
 40
6.293283458164872
100
AcDbArc
 50
197.5607868126326
 51
342.4392131873658
  0
ARC
  5
400
330
309
100
AcDbEntity
  8
0
100
AcDbCircle
 10
387.4607544082854
 20
191.0410401572293
 30
0.0
 40
6.293283458164806
100
AcDbArc
 50
197.5607868126326
 51
342.4392131873673
  0
ARC
  5
401
330
309
100
AcDbEntity
  8
0
100
AcDbCircle
 10
399.5605691401482
 20
233.0484410781066
 30
0.0
 40
12.28515133940658
100
AcDbArc
 50
215.6489891241863
 51
324.3510108758137
  0
LINE
  5
402
330
309
100
AcDbEntity
  8
0
100
AcDbLine
 10
387.6256764436279
 20
242.75140578069
 30
0.0
 11
389.5776215467399
 21
225.8884340404434
 31
0.0
  0
LINE
  5
403
330
309
100
AcDbEntity
  8
0
100
AcDbLine
 10
411.7619492629278
 20
242.75140578069
 30
0.0
 11
409.5435167335565
 21
225.8884340404433
 31
0.0
  0
LINE
  5
404
330
309
100
AcDbEntity
  8
0
100
AcDbLine
 10
422.9607545696372
 20
257.5172463531774
 30
0.0
 11
419.7288285169045
 21
223.3511728116342
 31
0.0
  0
ARC
  5
405
330
309
100
AcDbEntity
  8
0
100
AcDbCircle
 10
434.4607544082855
 20
205.5172466758807
 30
0.0
 40
6.000000000000056
100
AcDbArc
 50
269.9999999999968
 51
90.0
  0
ARC
  5
406
330
309
100
AcDbEntity
  8
0
100
AcDbCircle
 10
364.9243596020691
 20
205.5172466758807
 30
0.0
 40
6.01788416104056
100
AcDbArc
 50
94.4183245834459
 51
265.5816754165541
  0
LINE
  5
407
330
309
100
AcDbEntity
  8
0
100
AcDbLine
 10
375.9607544082856
 20
257.5172466758807
 30
0.0
 11
379.2401790313201
 21
222.8490435180861
 31
0.0
  0
ARC
  5
408
330
309
100
AcDbEntity
  8
0
100
AcDbCircle
 10
416.9607545696371
 20
257.5172463531774
 30
0.0
 40
6.000000000000028
100
AcDbArc
 50
0.0
 51
180.0
  0
ARC
  5
409
330
309
100
AcDbEntity
  8
0
100
AcDbCircle
 10
381.9607544082856
 20
257.5172466758807
 30
0.0
 40
6.000000000000028
100
AcDbArc
 50
0.0
 51
180.0
  0
CIRCLE
  5
40A
330
309
100
AcDbEntity
  8
0
100
AcDbCircle
 10
416.9607544082856
 20
257.5172466758807
 30
0.0
 40
0.75
  0
CIRCLE
  5
40B
330
309
100
AcDbEntity
  8
0
100
AcDbCircle
 10
381.9607544082856
 20
257.5172466758807
 30
0.0
 40
0.75
  0
CIRCLE
  5
40C
330
309
100
AcDbEntity
  8
0
100
AcDbCircle
 10
411.4607544082855
 20
189.1422466758808
 30
0.0
 40
0.5
  0
CIRCLE
  5
40D
330
309
100
AcDbEntity
  8
0
100
AcDbCircle
 10
387.4607544082855
 20
189.1422466758808
 30
0.0
 40
0.5
  0
CIRCLE
  5
40E
330
309
100
AcDbEntity
  8
0
100
AcDbCircle
 10
434.4607544082855
 20
205.5172466758807
 30
0.0
 40
0.5
  0
CIRCLE
  5
40F
330
309
100
AcDbEntity
  8
0
100
AcDbCircle
 10
364.4607544082855
 20
205.5172466758807
 30
0.0
 40
0.5
  0
ENDSEC
  0
SECTION
  2
OBJECTS
  0
DICTIONARY
  5
2F5
330
0
100
AcDbDictionary
281
     1
  3
ACAD_COLOR
350
304
  3
ACAD_GROUP
350
2F6
  3
ACAD_LAYOUT
350
302
  3
ACAD_MATERIAL
350
303
  3
ACAD_MLINESTYLE
350
2FF
  3
ACAD_PLOTSETTINGS
350
301
  3
ACAD_PLOTSTYLENAME
350
2F7
  3
ACDBHEADERROUNDTRIPXREC
350
414
  3
AcDbVariableDictionary
350
410
  0
DICTIONARY
  5
304
102
{ACAD_REACTORS
330
2F5
102
}
330
2F5
100
AcDbDictionary
281
     1
  0
DICTIONARY
  5
2F6
102
{ACAD_REACTORS
330
2F5
102
}
330
2F5
100
AcDbDictionary
281
     1
  0
DICTIONARY
  5
302
102
{ACAD_REACTORS
330
2F5
102
}
330
2F5
100
AcDbDictionary
281
     1
  3
Layout1
350
308
  3
Model
350
30C
  0
DICTIONARY
  5
303
102
{ACAD_REACTORS
330
2F5
102
}
330
2F5
100
AcDbDictionary
281
     1
  0
DICTIONARY
  5
2FF
102
{ACAD_REACTORS
330
2F5
102
}
330
2F5
100
AcDbDictionary
281
     1
  3
Standard
350
300
  0
DICTIONARY
  5
301
102
{ACAD_REACTORS
330
2F5
102
}
330
2F5
100
AcDbDictionary
281
     1
  0
ACDBDICTIONARYWDFLT
  5
2F7
102
{ACAD_REACTORS
330
2F5
102
}
330
2F5
100
AcDbDictionary
281
     1
  3
Normal
350
2F8
100
AcDbDictionaryWithDefault
340
2F8
  0
DICTIONARY
  5
414
102
{ACAD_REACTORS
330
2F5
102
}
330
2F5
100
AcDbDictionary
281
     1
  3
COLORDICT
350
416
  3
MATERIALDICT
350
415
  0
DICTIONARY
  5
410
102
{ACAD_REACTORS
330
2F5
102
}
330
2F5
100
AcDbDictionary
281
     1
  3
DIMASSOC
350
411
  3
PROJECTNAME
350
412
  0
LAYOUT
  5
308
102
{ACAD_XDICTIONARY
360
417
102
}
102
{ACAD_REACTORS
330
302
102
}
330
302
100
AcDbPlotSettings
  1

  2
HP PSC 1500 series
  4

  6

 40
0.0
 41
0.0
 42
0.0
 43
0.0
 44
0.0
 45
0.0
 46
0.0
 47
0.0
 48
0.0
 49
0.0
140
0.0
141
0.0
142
1.0
143
1.0
 70
   688
 72
     0
 73
     0
 74
     5
  7

 75
    16
147
1.0
148
0.0
149
0.0
100
AcDbLayout
  1
Layout1
 70
     1
 71
     1
 10
0.0
 20
0.0
 11
420.0
 21
297.0
 12
0.0
 22
0.0
 32
0.0
 14
1.000000000000000E+20
 24
1.000000000000000E+20
 34
1.000000000000000E+20
 15
-1.000000000000000E+20
 25
-1.000000000000000E+20
 35
-1.000000000000000E+20
146
0.0
 13
0.0
 23
0.0
 33
0.0
 16
1.0
 26
0.0
 36
0.0
 17
0.0
 27
1.0
 37
0.0
 76
     0
330
305
  0
LAYOUT
  5
30C
102
{ACAD_XDICTIONARY
360
419
102
}
102
{ACAD_REACTORS
330
302
102
}
330
302
100
AcDbPlotSettings
  1

  2
HP PSC 1500 series
  4

  6

 40
0.0
 41
0.0
 42
0.0
 43
0.0
 44
0.0
 45
0.0
 46
0.0
 47
0.0
 48
0.0
 49
0.0
140
0.0
141
0.0
142
1.0
143
1.0
 70
  1712
 72
     0
 73
     0
 74
     0
  7

 75
     0
147
1.0
148
0.0
149
0.0
100
AcDbLayout
  1
Model
 70
     1
 71
     0
 10
0.0
 20
0.0
 11
12.0
 21
9.0
 12
0.0
 22
0.0
 32
0.0
 14
0.0
 24
0.0
 34
0.0
 15
0.0
 25
0.0
 35
0.0
146
0.0
 13
0.0
 23
0.0
 33
0.0
 16
1.0
 26
0.0
 36
0.0
 17
0.0
 27
1.0
 37
0.0
 76
     0
330
309
  0
MLINESTYLE
  5
300
102
{ACAD_REACTORS
330
2FF
102
}
330
2FF
100
AcDbMlineStyle
  2
STANDARD
 70
     0
  3

 62
   256
 51
90.0
 52
90.0
 71
     2
 49
0.5
 62
   256
  6
BYLAYER
 49
-0.5
 62
   256
  6
BYLAYER
  0
ACDBPLACEHOLDER
  5
2F8
102
{ACAD_REACTORS
330
2F7
102
}
330
2F7
  0
XRECORD
  5
416
102
{ACAD_REACTORS
330
414
102
}
330
414
100
AcDbXrecord
280
     1
340
304
  0
XRECORD
  5
415
102
{ACAD_REACTORS
330
414
102
}
330
414
100
AcDbXrecord
280
     1
340
303
  0
DICTIONARYVAR
  5
411
102
{ACAD_REACTORS
330
410
102
}
330
410
100
DictionaryVariables
280
     0
  1
1
  0
DICTIONARYVAR
  5
412
102
{ACAD_REACTORS
330
410
102
}
330
410
100
DictionaryVariables
280
     0
  1

  0
DICTIONARY
  5
417
330
308
100
AcDbDictionary
280
     1
281
     1
  3
ACAD_XREC_ROUNDTRIP
360
418
  0
DICTIONARY
  5
419
330
30C
100
AcDbDictionary
280
     1
281
     1
  3
ACAD_XREC_ROUNDTRIP
360
41A
  0
XRECORD
  5
418
102
{ACAD_REACTORS
330
417
102
}
330
417
100
AcDbXrecord
280
     1
102
SHADEPLOT
 70
     0
102
SHADEPLOTRESLEVEL
 70
     2
102
SHADEPLOTCUSTOMDPI
 70
   300
  0
XRECORD
  5
41A
102
{ACAD_REACTORS
330
419
102
}
330
419
100
AcDbXrecord
280
     1
102
SHADEPLOT
 70
     0
102
SHADEPLOTRESLEVEL
 70
     2
102
SHADEPLOTCUSTOMDPI
 70
   300
  0
ENDSEC
  0
EOF
