  0
SECTION
  2
HEADER
  9
$ACADVER
  1
AC1009
  9
$INSBASE
 10
0.0
 20
0.0
 30
0.0
  9
$EXTMIN
 10
673.46120496261278
 20
2515.1183430881988
 30
0.0
  9
$EXTMAX
 10
1306.9394906913431
 20
2858.5969040864179
 30
0.0
  9
$LIMMIN
 10
0.0
 20
0.0
  9
$LIMMAX
 10
420.0
 20
297.0
  9
$ORTHOMODE
 70
     0
  9
$REGENMODE
 70
     1
  9
$FILLMODE
 70
     1
  9
$QTEXTMODE
 70
     0
  9
$MIRRTEXT
 70
     0
  9
$DRAGMODE
 70
     2
  9
$LTSCALE
 40
1.0
  9
$OSMODE
 70
    37
  9
$ATTMODE
 70
     1
  9
$TEXTSIZE
 40
2.5
  9
$TRACEWID
 40
1.0
  9
$TEXTSTYLE
  7
STANDARD
  9
$CLAYER
  8
0
  9
$CELTYPE
  6
BYLAYER
  9
$CECOLOR
 62
   256
  9
$DIMSCALE
 40
1.0
  9
$DIMASZ
 40
2.5
  9
$DIMEXO
 40
0.625
  9
$DIMDLI
 40
3.75
  9
$DIMRND
 40
0.0
  9
$DIMDLE
 40
0.0
  9
$DIMEXE
 40
1.25
  9
$DIMTP
 40
0.0
  9
$DIMTM
 40
0.0
  9
$DIMTXT
 40
2.5
  9
$DIMCEN
 40
2.5
  9
$DIMTSZ
 40
0.0
  9
$DIMTOL
 70
     0
  9
$DIMLIM
 70
     0
  9
$DIMTIH
 70
     0
  9
$DIMTOH
 70
     0
  9
$DIMSE1
 70
     0
  9
$DIMSE2
 70
     0
  9
$DIMTAD
 70
     1
  9
$DIMZIN
 70
     8
  9
$DIMBLK
  1

  9
$DIMASO
 70
     1
  9
$DIMSHO
 70
     1
  9
$DIMPOST
  1

  9
$DIMAPOST
  1

  9
$DIMALT
 70
     0
  9
$DIMALTD
 70
     3
  9
$DIMALTF
 40
0.03937007874016
  9
$DIMLFAC
 40
1.0
  9
$DIMTOFL
 70
     1
  9
$DIMTVP
 40
0.0
  9
$DIMTIX
 70
     0
  9
$DIMSOXD
 70
     0
  9
$DIMSAH
 70
     0
  9
$DIMBLK1
  1

  9
$DIMBLK2
  1

  9
$DIMSTYLE
  2
ISO-25
  9
$DIMCLRD
 70
     0
  9
$DIMCLRE
 70
     0
  9
$DIMCLRT
 70
     0
  9
$DIMTFAC
 40
1.0
  9
$DIMGAP
 40
0.625
  9
$LUNITS
 70
     2
  9
$LUPREC
 70
     4
  9
$SKETCHINC
 40
1.0
  9
$FILLETRAD
 40
0.0
  9
$AUNITS
 70
     0
  9
$AUPREC
 70
     0
  9
$MENU
  1
.
  9
$ELEVATION
 40
0.0
  9
$PELEVATION
 40
0.0
  9
$THICKNESS
 40
0.0
  9
$LIMCHECK
 70
     0
  9
$BLIPMODE
 70
     0
  9
$CHAMFERA
 40
0.0
  9
$CHAMFERB
 40
0.0
  9
$SKPOLY
 70
     0
  9
$TDCREATE
 40
2454545.6405565632
  9
$TDUPDATE
 40
2454545.6520739822
  9
$TDINDWG
 40
0.0115183333
  9
$TDUSRTIMER
 40
0.0115176042
  9
$USRTIMER
 70
     1
  9
$ANGBASE
 50
0.0
  9
$ANGDIR
 70
     0
  9
$PDMODE
 70
     0
  9
$PDSIZE
 40
0.0
  9
$PLINEWID
 40
0.0
  9
$COORDS
 70
     1
  9
$SPLFRAME
 70
     0
  9
$SPLINETYPE
 70
     6
  9
$SPLINESEGS
 70
     8
  9
$ATTDIA
 70
     0
  9
$ATTREQ
 70
     1
  9
$HANDLING
 70
     1
  9
$HANDSEED
  5
49C
  9
$SURFTAB1
 70
     6
  9
$SURFTAB2
 70
     6
  9
$SURFTYPE
 70
     6
  9
$SURFU
 70
     6
  9
$SURFV
 70
     6
  9
$UCSNAME
  2

  9
$UCSORG
 10
0.0
 20
0.0
 30
0.0
  9
$UCSXDIR
 10
1.0
 20
0.0
 30
0.0
  9
$UCSYDIR
 10
0.0
 20
1.0
 30
0.0
  9
$PUCSNAME
  2

  9
$PUCSORG
 10
0.0
 20
0.0
 30
0.0
  9
$PUCSXDIR
 10
1.0
 20
0.0
 30
0.0
  9
$PUCSYDIR
 10
0.0
 20
1.0
 30
0.0
  9
$USERI1
 70
     0
  9
$USERI2
 70
     0
  9
$USERI3
 70
     0
  9
$USERI4
 70
     0
  9
$USERI5
 70
     0
  9
$USERR1
 40
0.0
  9
$USERR2
 40
0.0
  9
$USERR3
 40
0.0
  9
$USERR4
 40
0.0
  9
$USERR5
 40
0.0
  9
$WORLDVIEW
 70
     1
  9
$SHADEDGE
 70
     3
  9
$SHADEDIF
 70
    70
  9
$TILEMODE
 70
     1
  9
$MAXACTVP
 70
    64
  9
$PLIMCHECK
 70
     0
  9
$PEXTMIN
 10
0.0
 20
0.0
 30
0.0
  9
$PEXTMAX
 10
0.0
 20
0.0
 30
0.0
  9
$PLIMMIN
 10
0.0
 20
0.0
  9
$PLIMMAX
 10
12.0
 20
9.0
  9
$UNITMODE
 70
     0
  9
$VISRETAIN
 70
     1
  9
$PLINEGEN
 70
     0
  9
$PSLTSCALE
 70
     1
  0
ENDSEC
  0
SECTION
  2
TABLES
  0
TABLE
  2
VPORT
 70
     1
  0
VPORT
  2
*ACTIVE
 70
     0
 10
0.0
 20
0.0
 11
1.0
 21
1.0
 12
1220.4524097178321
 22
2681.3571035165792
 13
0.0
 23
0.0
 14
10.0
 24
10.0
 15
10.0
 25
10.0
 16
0.0
 26
0.0
 36
1.0
 17
0.0
 27
0.0
 37
0.0
 40
428.99161468037067
 41
2.2363344051446941
 42
50.0
 43
0.0
 44
0.0
 50
0.0
 51
0.0
 71
     0
 72
  1000
 73
     1
 74
     3
 75
     0
 76
     0
 77
     0
 78
     0
  0
ENDTAB
  0
TABLE
  2
LTYPE
 70
     1
  0
LTYPE
  2
CONTINUOUS
 70
     0
  3
Solid line
 72
    65
 73
     0
 40
0.0
  0
ENDTAB
  0
TABLE
  2
LAYER
 70
     1
  0
LAYER
  2
0
 70
     0
 62
     7
  6
CONTINUOUS
  0
ENDTAB
  0
TABLE
  2
STYLE
 70
     2
  0
STYLE
  2
STANDARD
 70
     0
 40
0.0
 41
1.0
 50
0.0
 71
     0
 42
2.5
  3
txt.shx
  4

  0
STYLE
  2
ANNOTATIVA
 70
     0
 40
0.0
 41
1.0
 50
0.0
 71
     0
 42
2.5
  3
txt.shx
  4

  0
ENDTAB
  0
TABLE
  2
VIEW
 70
     1
  0
ENDTAB
  0
TABLE
  2
UCS
 70
     0
  0
ENDTAB
  0
TABLE
  2
APPID
 70
     7
  0
APPID
  2
ACAD
 70
     0
  0
APPID
  2
ACAD_PSEXT
 70
     0
  0
APPID
  2
ACADANNOPO
 70
     0
  0
APPID
  2
ACADANNOTATIVE
 70
     0
  0
APPID
  2
ACAD_DSTYLE_DIMJAG
 70
     0
  0
APPID
  2
ACAD_DSTYLE_DIMTALN
 70
     0
  0
APPID
  2
ACAD_MLEADERVER
 70
     0
  0
ENDTAB
  0
TABLE
  2
DIMSTYLE
 70
     2
  0
DIMSTYLE
  2
ISO-25
 70
     0
  3

  4

  5

  6

  7

 40
1.0
 41
2.5
 42
0.625
 43
3.75
 44
1.25
 45
0.0
 46
0.0
 47
0.0
 48
0.0
140
2.5
141
2.5
142
0.0
143
0.03937007874016
144
1.0
145
0.0
146
1.0
147
0.625
 71
     0
 72
     0
 73
     0
 74
     0
 75
     0
 76
     0
 77
     1
 78
     8
170
     0
171
     3
172
     1
173
     0
174
     0
175
     0
176
     0
177
     0
178
     0
  0
DIMSTYLE
  2
ANNOTATIVA
 70
     0
  3

  4

  5

  6

  7

 40
0.0
 41
2.5
 42
0.625
 43
3.75
 44
1.25
 45
0.0
 46
0.0
 47
0.0
 48
0.0
140
2.5
141
2.5
142
0.0
143
0.03937007874016
144
1.0
145
0.0
146
1.0
147
0.625
 71
     0
 72
     0
 73
     0
 74
     0
 75
     0
 76
     0
 77
     1
 78
     8
170
     0
171
     3
172
     1
173
     0
174
     0
175
     0
176
     0
177
     0
178
     0
  0
ENDTAB
  0
ENDSEC
  0
SECTION
  2
BLOCKS
  0
BLOCK
  8
0
  2
$MODEL_SPACE
 70
     0
 10
0.0
 20
0.0
 30
0.0
  3
$MODEL_SPACE
  1

  0
ENDBLK
  5
21
  8
0
  0
BLOCK
 67
     1
  8
0
  2
$PAPER_SPACE
 70
     0
 10
0.0
 20
0.0
 30
0.0
  3
$PAPER_SPACE
  1

  0
ENDBLK
  5
D5
 67
     1
  8
0
  0
BLOCK
  8
0
  2
A$C79A20835
 70
     0
 10
0.0
 20
0.0
 30
0.0
  3
A$C79A20835
  1

  0
CIRCLE
  5
410
  8
0
 10
67.999999893615438
 20
7.9999999236962926
 30
0.0
 40
0.5
  0
CIRCLE
  5
411
  8
0
 10
89.999999893615438
 20
7.9999999236962926
 30
0.0
 40
0.5
  0
LINE
  5
412
  8
0
 10
55.499999893615438
 20
7.9999999236962926
 30
0.0
 11
55.499999893615438
 21
-0.0000000763037065
 31
0.0
  0
LINE
  5
413
  8
0
 10
55.499999893615438
 20
-0.0000000763037065
 30
0.0
 11
102.4999998936154
 21
-0.0000000763037065
 31
0.0
  0
LINE
  5
414
  8
0
 10
102.4999998936154
 20
-0.0000000763037065
 30
0.0
 11
102.4999998936154
 21
7.9999999236962926
 31
0.0
  0
LINE
  5
415
  8
0
 10
102.4999998936154
 20
7.9999999236962926
 30
0.0
 11
102.4999998936154
 21
17.999999923696318
 31
0.0
  0
LINE
  5
416
  8
0
 10
112.4999998936154
 20
27.999999923696301
 30
0.0
 11
157.99999989361541
 21
27.999999923696279
 31
0.0
  0
LINE
  5
417
  8
0
 10
157.99999989361541
 20
27.999999923696279
 30
0.0
 11
157.99999989361541
 21
37.455676512984702
 31
0.0
  0
LINE
  5
418
  8
0
 10
150.74560647984521
 20
47.071374328205991
 30
0.0
 11
142.0100285373266
 21
49.565676956511943
 31
0.0
  0
LINE
  5
419
  8
0
 10
-0.0000001063845048
 20
27.999999923696318
 30
0.0
 11
45.499999893615467
 21
27.999999923696311
 31
0.0
  0
LINE
  5
41A
  8
0
 10
-0.0000001063845048
 20
27.999999923696318
 30
0.0
 11
-0.0000001063845048
 21
37.45566593563737
 31
0.0
  0
LINE
  5
41B
  8
0
 10
7.2544062707565891
 20
47.071367452329547
 30
0.0
 11
15.990063742736989
 21
49.565680051874551
 31
0.0
  0
LINE
  5
41C
  8
0
 10
17.145169131919459
 20
49.822685721083133
 30
0.0
 11
54.709849640465791
 21
55.874337129926658
 31
0.0
  0
LINE
  5
41D
  8
0
 10
140.85490681822981
 20
49.822686869539332
 30
0.0
 11
103.2901484961176
 21
55.87433767227455
 31
0.0
  0
LINE
  5
41E
  8
0
 10
56.300337874142173
 20
56.001629944025872
 30
0.0
 11
101.69966362898469
 21
56.001629944025872
 31
0.0
  0
LINE
  5
41F
  8
0
 10
55.499999893615438
 20
7.9999999236962926
 30
0.0
 11
55.499999893615467
 21
17.999999923696311
 31
0.0
  0
ARC
  5
420
  8
0
 10
18.73565736559587
 20
39.949978535182339
 30
0.0
 40
10.0
 50
99.151690851619847
 51
105.9357567607576
  0
ARC
  5
421
  8
0
 10
56.300337874142173
 20
46.001629944025872
 30
0.0
 40
10.0
 50
90.0
 51
99.151690851619847
  0
ARC
  5
422
  8
0
 10
101.69966362898469
 20
46.001629944025872
 30
0.0
 40
10.0
 50
80.848328685952396
 51
90.0
  0
ARC
  5
423
  8
0
 10
139.26442195109681
 20
39.94997914129064
 30
0.0
 40
10.0
 50
74.064165996142634
 51
80.848328685952396
  0
ARC
  5
424
  8
0
 10
147.99999989361541
 20
37.455676512984702
 30
0.0
 40
10.0
 50
0.0
 51
74.064165996142634
  0
ARC
  5
425
  8
0
 10
9.9999998936154952
 20
37.45566593563737
 30
0.0
 40
10.0
 50
105.9357567607576
 51
180.0
  0
ARC
  5
426
  8
0
 10
45.499999893615467
 20
17.999999923696311
 30
0.0
 40
10.0
 50
0.0
 51
90.0
  0
ARC
  5
427
  8
0
 10
112.4999998936154
 20
17.99999992369629
 30
0.0
 40
10.0
 50
90.0
 51
180.0
  0
CIRCLE
  5
428
  8
0
 10
29.999999893615438
 20
34.999999923696294
 30
0.0
 40
0.5
  0
CIRCLE
  5
429
  8
0
 10
127.9999998936154
 20
34.999999923696279
 30
0.0
 40
0.5
  0
ENDBLK
  5
42B
  8
0
  0
ENDSEC
  0
SECTION
  2
ENTITIES
  0
CIRCLE
  5
1FE
  8
0
 10
994.14503994774918
 20
2767.0969040864179
 30
0.0
 40
0.5
  0
CIRCLE
  5
1FF
  8
0
 10
994.14503994774918
 20
2792.0969040864179
 30
0.0
 40
0.5
  0
CIRCLE
  5
200
  8
0
 10
1021.145039947749
 20
2792.0969040864179
 30
0.0
 40
0.5
  0
CIRCLE
  5
201
  8
0
 10
1021.145039947749
 20
2767.0969040864179
 30
0.0
 40
0.5
  0
CIRCLE
  5
202
  8
0
 10
1297.645039947749
 20
2797.1450344957898
 30
0.0
 40
0.5
  0
CIRCLE
  5
203
  8
0
 10
1297.645039947749
 20
2762.1450344957898
 30
0.0
 40
0.5
  0
CIRCLE
  5
204
  8
0
 10
1240.145039947749
 20
2792.0969040864179
 30
0.0
 40
0.5
  0
CIRCLE
  5
205
  8
0
 10
1240.145039947749
 20
2767.1367584632849
 30
0.0
 40
0.5
  0
CIRCLE
  5
206
  8
0
 10
1165.145039947749
 20
2765.6367584632849
 30
0.0
 40
0.5
  0
CIRCLE
  5
207
  8
0
 10
1178.145039947749
 20
2813.6367584632849
 30
0.0
 40
0.5
  0
CIRCLE
  5
208
  8
0
 10
1165.145039947749
 20
2813.6367584632849
 30
0.0
 40
0.5
  0
LINE
  5
209
  8
0
 10
1178.145039947749
 20
2798.6367584632849
 30
0.0
 11
1213.145039947749
 21
2798.6367584632849
 31
0.0
  0
LINE
  5
20A
  8
0
 10
1213.145039947749
 20
2798.6367584632849
 30
0.0
 11
1213.145039947749
 21
2783.6367584632849
 31
0.0
  0
LINE
  5
20B
  8
0
 10
1213.145039947749
 20
2783.6367584632849
 30
0.0
 11
1178.145039947749
 21
2783.6367584632849
 31
0.0
  0
LINE
  5
20C
  8
0
 10
1178.145039947749
 20
2783.6367584632849
 30
0.0
 11
1178.145039947749
 21
2798.6367584632849
 31
0.0
  0
CIRCLE
  5
20D
  8
0
 10
1232.145039947749
 20
2802.0969040864188
 30
0.0
 40
0.5
  0
LINE
  5
20E
  8
0
 10
1295.145039947749
 20
2818.1450344957898
 30
0.0
 11
1273.317035229398
 21
2818.1450344957898
 31
0.0
  0
LINE
  5
20F
  8
0
 10
1305.145039947749
 20
2808.1450344957889
 30
0.0
 11
1305.145039947749
 21
2750.6450344957898
 31
0.0
  0
LINE
  5
210
  8
0
 10
1060.5586145887769
 20
2842.3695013877732
 30
0.0
 11
1010.189477980784
 21
2821.2856204912218
 31
0.0
  0
LINE
  5
211
  8
0
 10
1004.006468074208
 20
2819.1450344957898
 30
0.0
 11
980.20190691463733
 21
2819.1450344957898
 31
0.0
  0
LINE
  5
212
  8
0
 10
970.20190691463733
 20
2809.1450344957898
 30
0.0
 11
970.20190691463733
 21
2750.1450344957898
 31
0.0
  0
LINE
  5
213
  8
0
 10
980.20190691463733
 20
2740.1450344957889
 30
0.0
 11
1004.006468074208
 21
2740.1450344957889
 31
0.0
  0
LINE
  5
214
  8
0
 10
1060.52558256673
 20
2716.4444725863291
 30
0.0
 11
1010.189477980784
 21
2738.0044485003568
 31
0.0
  0
LINE
  5
215
  8
0
 10
1273.317035229398
 20
2740.6450344957898
 30
0.0
 11
1254.184124115812
 21
2736.4853686491078
 31
0.0
  0
LINE
  5
216
  8
0
 10
1295.145039947749
 20
2740.6450344957898
 30
0.0
 11
1273.317035229398
 21
2740.6450344957898
 31
0.0
  0
ARC
  5
217
  8
0
 10
1295.145039947749
 20
2808.1450344957889
 30
0.0
 40
10.0
 50
0.0
 51
90.0
  0
ARC
  5
218
  8
0
 10
1295.145039947749
 20
2750.6450344957898
 30
0.0
 40
10.0
 50
270.0
 51
0.0
  0
CIRCLE
  5
219
  8
0
 10
977.14503994774918
 20
2790.5969040864188
 30
0.0
 40
0.5
  0
CIRCLE
  5
21A
  8
0
 10
977.14503994774918
 20
2768.5969040864179
 30
0.0
 40
0.5
  0
CIRCLE
  5
21B
  8
0
 10
1065.145039947749
 20
2738.6367584632849
 30
0.0
 40
0.5
  0
CIRCLE
  5
21C
  8
0
 10
1100.145039947749
 20
2792.0969040864179
 30
0.0
 40
0.5
  0
ARC
  5
21D
  8
0
 10
980.20190691463733
 20
2750.1450344957898
 30
0.0
 40
10.0
 50
180.0
 51
270.0
  0
ARC
  5
21E
  8
0
 10
980.20190691463733
 20
2809.1450344957898
 30
0.0
 40
10.0
 50
90.0
 51
180.0
  0
CIRCLE
  5
21F
  8
0
 10
1167.145039947749
 20
2738.6367584632849
 30
0.0
 40
0.5
  0
LINE
  5
220
  8
0
 10
1177.145039947749
 20
2751.6367584632849
 30
0.0
 11
1185.145039947749
 21
2751.6367584632849
 31
0.0
  0
LINE
  5
221
  8
0
 10
1185.145039947749
 20
2757.6367584632849
 30
0.0
 11
1177.145039947749
 21
2757.6367584632849
 31
0.0
  0
LINE
  5
222
  8
0
 10
1217.145039947749
 20
2757.6367584632849
 30
0.0
 11
1209.145039947749
 21
2757.6367584632849
 31
0.0
  0
LINE
  5
223
  8
0
 10
1209.145039947749
 20
2751.6367584632849
 30
0.0
 11
1217.145039947749
 21
2751.6367584632849
 31
0.0
  0
LINE
  5
224
  8
0
 10
1177.145039947749
 20
2742.6367584632849
 30
0.0
 11
1185.145039947749
 21
2742.6367584632849
 31
0.0
  0
LINE
  5
225
  8
0
 10
1185.145039947749
 20
2736.6367584632849
 30
0.0
 11
1177.145039947749
 21
2736.6367584632849
 31
0.0
  0
LINE
  5
226
  8
0
 10
1209.145039947749
 20
2736.6367584632849
 30
0.0
 11
1217.145039947749
 21
2736.6367584632849
 31
0.0
  0
LINE
  5
227
  8
0
 10
1217.145039947749
 20
2742.6367584632849
 30
0.0
 11
1209.145039947749
 21
2742.6367584632849
 31
0.0
  0
CIRCLE
  5
228
  8
0
 10
1197.145039947749
 20
2747.1367584632849
 30
0.0
 40
0.2
  0
ARC
  5
229
  8
0
 10
1004.006468074208
 20
2730.1450344957898
 30
0.0
 40
10.0
 50
51.807830312599563
 51
90.0
  0
ARC
  5
22A
  8
0
 10
1004.006468074208
 20
2829.1450344957898
 30
0.0
 40
10.0
 50
270.0
 51
308.19216968740051
  0
POLYLINE
  5
22B
  8
0
 66
     1
 10
0.0
 20
0.0
 30
0.0
 70
     1
  0
VERTEX
  5
497
  8
0
 10
1213.710160828763
 20
2821.9317267873021
 30
0.0
  0
VERTEX
  5
498
  8
0
 10
1237.5757956623879
 20
2821.9317267873021
 30
0.0
  0
VERTEX
  5
499
  8
0
 10
1237.5757956623879
 20
2809.317602283531
 30
0.0
  0
VERTEX
  5
49A
  8
0
 10
1213.710160828763
 20
2809.317602283531
 30
0.0
  0
SEQEND
  5
49B
  8
0
  0
LINE
  5
22C
  8
0
 10
1064.4628253019839
 20
2715.6367584632849
 30
0.0
 11
1231.9438441150901
 21
2715.6367584632849
 31
0.0
  0
ARC
  5
22D
  8
0
 10
1256.3085850750931
 20
2726.713640775672
 30
0.0
 40
10.0
 50
102.2657383529441
 51
147.6213049533313
  0
CIRCLE
  5
22E
  8
0
 10
1297.645039947749
 20
2752.1450344957898
 30
0.0
 40
0.5
  0
CIRCLE
  5
22F
  8
0
 10
1297.645039947749
 20
2807.1450344957889
 30
0.0
 40
0.5
  0
CIRCLE
  5
230
  8
0
 10
1150.145039947749
 20
2823.6367584632849
 30
0.0
 40
0.5
  0
CIRCLE
  5
231
  8
0
 10
1050.145039947749
 20
2823.6367584632849
 30
0.0
 40
0.5
  0
LINE
  5
232
  8
0
 10
1247.863313976994
 20
2732.0687687927798
 30
0.0
 11
1240.3891152131889
 21
2720.2816304461771
 31
0.0
  0
ARC
  5
233
  8
0
 10
1231.9438441150901
 20
2725.6367584632849
 30
0.0
 40
10.0
 50
270.0
 51
327.62130495333128
  0
ARC
  5
234
  8
0
 10
1064.4628253019839
 20
2725.6367584632849
 30
0.0
 40
10.0
 50
246.81356600592949
 51
270.0
  0
ARC
  5
235
  8
0
 10
1064.419859279119
 20
2833.1450344957889
 30
0.0
 40
10.0
 50
90.0
 51
112.7135664301408
  0
LINE
  5
236
  8
0
 10
1064.419859279119
 20
2843.1450344957898
 30
0.0
 11
1231.900878092225
 21
2843.1450344957898
 31
0.0
  0
ARC
  5
237
  8
0
 10
1231.900878092225
 20
2833.1450344957889
 30
0.0
 40
10.0
 50
32.378695046668689
 51
90.0
  0
LINE
  5
238
  8
0
 10
1247.8203479541289
 20
2826.7130241662949
 30
0.0
 11
1240.346149190324
 21
2838.5001625128971
 31
0.0
  0
ARC
  5
239
  8
0
 10
1256.265619052228
 20
2832.0681521834031
 30
0.0
 40
10.0
 50
212.3786950466687
 51
257.73426164705592
  0
LINE
  5
23A
  8
0
 10
1273.2740692065331
 20
2818.1367584632849
 30
0.0
 11
1254.1411580929471
 21
2822.2964243099659
 31
0.0
  0
CIRCLE
  5
23B
  8
0
 10
1177.145039947749
 20
2728.6367584632849
 30
0.0
 40
0.2
  0
CIRCLE
  5
23C
  8
0
 10
1217.145039947749
 20
2728.6367584632849
 30
0.0
 40
0.2
  0
CIRCLE
  5
23D
  8
0
 10
1217.145039947749
 20
2766.6367584632849
 30
0.0
 40
0.2
  0
CIRCLE
  5
23E
  8
0
 10
1162.145039947749
 20
2752.6367584632849
 30
0.0
 40
0.2
  0
CIRCLE
  5
23F
  8
0
 10
1178.145039947749
 20
2765.6367584632849
 30
0.0
 40
0.5
  0
ARC
  5
240
  8
0
 10
1178.07561127236
 20
2739.6367584632849
 30
0.0
 40
3.1410130515788248
 50
107.23339049141249
 51
252.76660950858741
  0
ARC
  5
241
  8
0
 10
1178.07561127236
 20
2754.6367584632849
 30
0.0
 40
3.1410130515788248
 50
107.23339049141249
 51
252.76660950858741
  0
ARC
  5
242
  8
0
 10
1210.07561127236
 20
2754.6367584632849
 30
0.0
 40
3.1410130515788248
 50
107.23339049141249
 51
252.76660950858741
  0
ARC
  5
243
  8
0
 10
1210.07561127236
 20
2739.6367584632849
 30
0.0
 40
3.1410130515788248
 50
107.23339049141249
 51
252.76660950858741
  0
ARC
  5
244
  8
0
 10
1184.2144686231379
 20
2739.6367584632849
 30
0.0
 40
3.1410130515788248
 50
287.23339049141248
 51
72.766609508587436
  0
ARC
  5
245
  8
0
 10
1184.2144686231379
 20
2754.6367584632849
 30
0.0
 40
3.1410130515788248
 50
287.23339049141248
 51
72.766609508587436
  0
ARC
  5
246
  8
0
 10
1216.214468623137
 20
2739.6367584632849
 30
0.0
 40
3.1410130515788248
 50
287.23339049141248
 51
72.766609508587436
  0
ARC
  5
247
  8
0
 10
1216.2144686231379
 20
2754.6367584632849
 30
0.0
 40
3.1410130515788248
 50
287.23339049141248
 51
72.766609508587436
  0
ARC
  5
295
  8
0
 10
1161.6469076682511
 20
2655.3786637978428
 30
0.0
 40
4.400215966890948
 50
273.25808511913101
 51
5.0682713842465716
  0
LINE
  5
296
  8
0
 10
1172.937043008342
 20
2603.9509691441599
 30
0.0
 11
1172.937043008342
 21
2585.8506070268518
 31
0.0
  0
ARC
  5
297
  8
0
 10
1295.145039947749
 20
2580.8023656239088
 30
0.0
 40
10.0
 50
270.0
 51
0.0
  0
ARC
  5
298
  8
0
 10
1176.9199667769331
 20
2645.282077607108
 30
0.0
 40
10.0
 50
239.03436161733711
 51
269.93904618384681
  0
LINE
  5
299
  8
0
 10
1166.0299194048689
 20
2655.7673907868061
 30
0.0
 11
1174.2526503870631
 21
2670.02332536622
 31
0.0
  0
ARC
  5
29A
  8
0
 10
1295.145039947749
 20
2687.993836105948
 30
0.0
 40
10.0
 50
0.0
 51
90.0
  0
LINE
  5
29B
  8
0
 10
1192.6717074673311
 20
2570.8023656239088
 30
0.0
 11
1295.145039947749
 21
2570.8023656239088
 31
0.0
  0
LINE
  5
29C
  8
0
 10
1162.145039947749
 20
2641.985560073444
 30
0.0
 11
1153.4462803066749
 21
2641.985560073444
 31
0.0
  0
LINE
  5
29D
  8
0
 10
1153.446280306674
 20
2650.9855600734431
 30
0.0
 11
1161.8969880992131
 21
2650.9855600734431
 31
0.0
  0
LINE
  5
29E
  8
0
 10
1176.909328331104
 20
2635.2820832659359
 30
0.0
 11
1281.218333679589
 21
2635.1711146328512
 31
0.0
  0
LINE
  5
29F
  8
0
 10
1162.145039947749
 20
2641.985560073444
 30
0.0
 11
1171.774727586265
 21
2636.7073173381091
 31
0.0
  0
LINE
  5
2A0
  8
0
 10
1218.145039947749
 20
2640.9855600734431
 30
0.0
 11
1178.145039947749
 21
2640.9855600734431
 31
0.0
  0
ARC
  5
2A1
  8
0
 10
1280.0206411255531
 20
2630.5783373531472
 30
0.0
 40
4.7463744684713021
 50
284.61593009083163
 51
75.384069909168417
  0
CIRCLE
  5
2A2
  8
0
 10
1196.145039947749
 20
2593.4855600734431
 30
0.0
 40
0.5
  0
CIRCLE
  5
2A3
  8
0
 10
1297.645039947749
 20
2593.4855600734431
 30
0.0
 40
0.5
  0
ARC
  5
2A4
  8
0
 10
1162.62239933611
 20
2607.7914686369809
 30
0.0
 40
9.2226644091961187
 50
32.358813916639782
 51
94.511275285437321
  0
LINE
  5
2A5
  8
0
 10
1305.145039947749
 20
2580.8023656239088
 30
0.0
 11
1305.145039947749
 21
2687.993836105948
 31
0.0
  0
LINE
  5
2A6
  8
0
 10
1170.412902724489
 20
2612.727620555258
 30
0.0
 11
1172.937043008342
 21
2603.9509691441599
 31
0.0
  0
LINE
  5
2A7
  8
0
 10
1154.145039947749
 20
2616.9855600734431
 30
0.0
 11
1161.8969880992131
 21
2616.9855600734431
 31
0.0
  0
LINE
  5
2A8
  8
0
 10
1154.145039947749
 20
2625.985560073444
 30
0.0
 11
1281.218333679589
 21
2625.985560073444
 31
0.0
  0
CIRCLE
  5
2A9
  8
0
 10
1154.145039947749
 20
2646.4855600734431
 30
0.0
 40
0.5
  0
ARC
  5
2AA
  8
0
 10
1153.6307032264649
 20
2646.4855600734431
 30
0.0
 40
4.5037775048667852
 50
92.346832222524725
 51
267.65316777750132
  0
ARC
  5
2AB
  8
0
 10
1153.6586729732001
 20
2621.4855600734431
 30
0.0
 40
4.5262073343950719
 50
83.831329003593609
 51
276.16867099640638
  0
LINE
  5
2AC
  8
0
 10
1218.145039947749
 20
2659.9855600734431
 30
0.0
 11
1178.145039947749
 21
2659.9855600734431
 31
0.0
  0
LINE
  5
2AD
  8
0
 10
1178.145039947749
 20
2659.9855600734431
 30
0.0
 11
1178.145039947749
 21
2640.9855600734431
 31
0.0
  0
LINE
  5
2AE
  8
0
 10
1218.145039947749
 20
2659.9855600734431
 30
0.0
 11
1218.145039947749
 21
2640.9855600734431
 31
0.0
  0
CIRCLE
  5
2AF
  8
0
 10
1222.145039947749
 20
2655.4855600734431
 30
0.0
 40
0.5
  0
CIRCLE
  5
2B0
  8
0
 10
1162.145039947749
 20
2646.4855600734431
 30
0.0
 40
0.5
  0
CIRCLE
  5
2B1
  8
0
 10
1154.145039947749
 20
2621.4855600734431
 30
0.0
 40
0.5
  0
CIRCLE
  5
2B2
  8
0
 10
1162.145039947749
 20
2621.4855600734431
 30
0.0
 40
0.5
  0
CIRCLE
  5
2B3
  8
0
 10
1174.145039947749
 20
2654.9855600734431
 30
0.0
 40
0.5
  0
CIRCLE
  5
2B4
  8
0
 10
1174.145039947749
 20
2644.9855600734431
 30
0.0
 40
0.5
  0
CIRCLE
  5
2B5
  8
0
 10
1222.145039947749
 20
2645.4855600734431
 30
0.0
 40
0.5
  0
LINE
  5
2B6
  8
0
 10
1244.145039947749
 20
2640.9855600734431
 30
0.0
 11
1284.145039947749
 21
2640.9855600734431
 31
0.0
  0
LINE
  5
2B7
  8
0
 10
1284.145039947749
 20
2640.9855600734431
 30
0.0
 11
1284.145039947749
 21
2659.9855600734431
 31
0.0
  0
LINE
  5
2B8
  8
0
 10
1244.145039947749
 20
2659.9855600734431
 30
0.0
 11
1284.145039947749
 21
2659.9855600734431
 31
0.0
  0
LINE
  5
2B9
  8
0
 10
1244.145039947749
 20
2640.9855600734431
 30
0.0
 11
1244.145039947749
 21
2659.9855600734431
 31
0.0
  0
CIRCLE
  5
2BA
  8
0
 10
1240.145039947749
 20
2645.4855600734431
 30
0.0
 40
0.5
  0
CIRCLE
  5
2BB
  8
0
 10
1240.145039947749
 20
2655.4855600734431
 30
0.0
 40
0.5
  0
LINE
  5
2BC
  8
0
 10
1288.145039947749
 20
2645.4855600734431
 30
0.0
 11
1289.145039947749
 21
2645.4855600734431
 31
0.0
  0
LINE
  5
2BD
  8
0
 10
1288.145039947749
 20
2655.4855600734431
 30
0.0
 11
1289.145039947749
 21
2655.4855600734431
 31
0.0
  0
CIRCLE
  5
2BE
  8
0
 10
1299.645039947749
 20
2633.4855600734431
 30
0.0
 40
0.5
  0
CIRCLE
  5
2BF
  8
0
 10
1299.645039947749
 20
2651.4855600734431
 30
0.0
 40
0.5
  0
CIRCLE
  5
2C0
  8
0
 10
1299.645039947749
 20
2621.4855600734431
 30
0.0
 40
0.5
  0
CIRCLE
  5
2C1
  8
0
 10
1299.645039947749
 20
2669.4855600734431
 30
0.0
 40
0.5
  0
LINE
  5
2C2
  8
0
 10
1192.6717074673311
 20
2570.8023656239088
 30
0.0
 11
1178.999800273087
 21
2576.658321149896
 31
0.0
  0
ARC
  5
2C3
  8
0
 10
1182.937043008342
 20
2585.8506070268518
 30
0.0
 40
10.0
 50
180.0
 51
246.81356600592349
  0
LINE
  5
2C4
  8
0
 10
1186.4113538094809
 20
2709.993836105948
 30
0.0
 11
1176.1909670942609
 21
2685.7415934175269
 31
0.0
  0
CIRCLE
  5
2C5
  8
0
 10
1230.645039947749
 20
2646.9457056965771
 30
0.0
 40
0.5
  0
LINE
  5
2C6
  8
0
 10
1242.4113538094809
 20
2691.993836105948
 30
0.0
 11
1198.4113538094809
 21
2691.993836105948
 31
0.0
  0
LINE
  5
2C7
  8
0
 10
1295.145039947749
 20
2697.993836105948
 30
0.0
 11
1265.9605878133291
 21
2697.993836105948
 31
0.0
  0
LINE
  5
2C8
  8
0
 10
1265.9605878133291
 20
2697.993836105948
 30
0.0
 11
1262.8777970399899
 21
2704.3549718295508
 31
0.0
  0
LINE
  5
2C9
  8
0
 10
1186.4113538094809
 20
2709.993836105948
 30
0.0
 11
1193.4113538094809
 21
2709.993836105948
 31
0.0
  0
LINE
  5
2CA
  8
0
 10
1247.4113538094809
 20
2709.993836105948
 30
0.0
 11
1253.878880705214
 21
2709.993836105948
 31
0.0
  0
ARC
  5
2CB
  8
0
 10
1253.878880705214
 20
2699.993836105948
 30
0.0
 40
10.0
 50
25.856173404570612
 51
90.0
  0
LINE
  5
2CC
  8
0
 10
1193.4113538094809
 20
2696.993836105948
 30
0.0
 11
1193.4113538094809
 21
2709.993836105948
 31
0.0
  0
LINE
  5
2CD
  8
0
 10
1210.6337382900799
 20
2584.9855600734431
 30
0.0
 11
1261.1337382900799
 21
2584.9855600734431
 31
0.0
  0
LINE
  5
2CE
  8
0
 10
1261.1337382900799
 20
2584.9855600734431
 30
0.0
 11
1261.1337382900799
 21
2619.4855600734431
 31
0.0
  0
LINE
  5
2CF
  8
0
 10
1210.6337382900799
 20
2584.9855600734431
 30
0.0
 11
1210.6337382900799
 21
2619.4855600734431
 31
0.0
  0
CIRCLE
  5
2D0
  8
0
 10
1204.1337382900799
 20
2602.4855600734431
 30
0.0
 40
0.2
  0
CIRCLE
  5
2D1
  8
0
 10
1268.1337382900799
 20
2602.4855600734431
 30
0.0
 40
0.2
  0
LINE
  5
2D2
  8
0
 10
1261.1337382900799
 20
2619.4855600734431
 30
0.0
 11
1210.6337382900799
 21
2619.4855600734431
 31
0.0
  0
LINE
  5
2D3
  8
0
 10
1247.4113538094809
 20
2709.993836105948
 30
0.0
 11
1247.4113538094809
 21
2696.3061251203421
 31
0.0
  0
ARC
  5
2D4
  8
0
 10
1198.099029267516
 20
2696.6815115639829
 30
0.0
 40
4.6980685200809331
 50
176.1882025813957
 51
273.8117974185912
  0
ARC
  5
2D5
  8
0
 10
1242.7552093022839
 20
2696.6499806131451
 30
0.0
 40
4.6688240780557857
 50
265.77638338480909
 51
4.223616615189937
  0
LINE
  5
2D6
  8
0
 10
1276.1337382900799
 20
2617.4855600734431
 30
0.0
 11
1274.1337382900799
 21
2617.4855600734431
 31
0.0
  0
ARC
  5
2D7
  8
0
 10
1273.6837382900801
 20
2619.4855600734431
 30
0.0
 40
2.0499999999999901
 50
77.319616508178896
 51
282.68038349182109
  0
ARC
  5
2D8
  8
0
 10
1276.58373829008
 20
2619.4855600734431
 30
0.0
 40
2.05000000000001
 50
257.31961650817891
 51
102.6803834918211
  0
LINE
  5
2D9
  8
0
 10
1276.1337382900799
 20
2621.4855600734431
 30
0.0
 11
1274.1337382900799
 21
2621.4855600734431
 31
0.0
  0
CIRCLE
  5
2DA
  8
0
 10
1180.645039947749
 20
2678.4855600734431
 30
0.0
 40
2.5
  0
CIRCLE
  5
2DB
  8
0
 10
1280.645039947749
 20
2678.4855600734431
 30
0.0
 40
2.5
  0
ARC
  5
2DC
  8
0
 10
1180.5288055652929
 20
2678.4437140065952
 30
0.0
 40
8.4897518513358321
 50
120.72712764007559
 51
222.33137027003389
  0
LINE
  5
2DD
  8
0
 10
1174.2526503870631
 20
2672.7265676313441
 30
0.0
 11
1174.2526503870631
 21
2670.02332536622
 31
0.0
  0
CIRCLE
  5
307
  8
0
 10
966.14503994774941
 20
2696.8725450692291
 30
0.0
 40
0.2
  0
ARC
  5
308
  8
0
 10
971.00087120912372
 20
2682.3974988873051
 30
0.0
 40
5.1980884735493129
 50
279.05274624551811
 51
88.410700457842964
  0
ARC
  5
309
  8
0
 10
971.1099448116463
 20
2696.961149718943
 30
0.0
 40
9.9652987777823334
 50
84.03793625040403
 51
180.5094417617818
  0
LINE
  5
30A
  8
0
 10
972.1450399477493
 20
2706.8725450692291
 30
0.0
 11
989.65107306851587
 21
2706.8725450692291
 31
0.0
  0
LINE
  5
30B
  8
0
 10
1013.145039947749
 20
2716.3725450692291
 30
0.0
 11
989.65107306851587
 21
2706.8725450692291
 31
0.0
  0
LINE
  5
30C
  8
0
 10
1013.145039947749
 20
2716.3725450692291
 30
0.0
 11
1027.257974948554
 21
2716.3725450692291
 31
0.0
  0
LINE
  5
30D
  8
0
 10
1031.145039947749
 20
2712.3725450692291
 30
0.0
 11
1031.145039947749
 21
2673.7461964284021
 31
0.0
  0
ARC
  5
30E
  8
0
 10
1026.333788835203
 20
2672.6761462222498
 30
0.0
 40
4.9288076358956356
 50
282.94207108887559
 51
12.53883118237173
  0
CIRCLE
  5
30F
  8
0
 10
1021.145039947749
 20
2672.8725450692291
 30
0.0
 40
0.2
  0
CIRCLE
  5
310
  8
0
 10
1001.145039947749
 20
2691.3725450692291
 30
0.0
 40
0.2
  0
CIRCLE
  5
311
  8
0
 10
1021.145039947749
 20
2710.8725450692291
 30
0.0
 40
0.2
  0
CIRCLE
  5
312
  8
0
 10
981.1450399477493
 20
2672.8725450692291
 30
0.0
 40
0.2
  0
LINE
  5
313
  8
0
 10
1027.437673192534
 20
2667.8725450692291
 30
0.0
 11
976.05964735983787
 21
2667.8725450692291
 31
0.0
  0
LINE
  5
314
  8
0
 10
961.18446393923955
 20
2687.5935877196521
 30
0.0
 11
961.14503994774941
 21
2696.8725450692291
 31
0.0
  0
LINE
  5
315
  8
0
 10
971.14503994774952
 20
2687.5935877196521
 30
0.0
 11
961.18446393923955
 21
2687.5935877196521
 31
0.0
  0
LINE
  5
316
  8
0
 10
971.81875747567494
 20
2677.2641582757892
 30
0.0
 11
971.81875747567494
 21
2672.8725450692291
 31
0.0
  0
ARC
  5
317
  8
0
 10
976.21377436151795
 20
2672.301786898649
 30
0.0
 40
4.431922643292622
 50
172.6007033247252
 51
268.00704831766132
  0
ARC
  5
318
  8
0
 10
1027.3492402518959
 20
2712.5725743222988
 30
0.0
 40
3.8010665652054878
 50
356.98344446030251
 51
91.375829433765276
  0
LINE
  5
319
  8
0
 10
981.1450399477493
 20
2684.3725450692291
 30
0.0
 11
989.1450399477493
 21
2684.3725450692291
 31
0.0
  0
LINE
  5
31A
  8
0
 10
981.1450399477493
 20
2684.3725450692291
 30
0.0
 11
981.1450399477493
 21
2683.3725450692291
 31
0.0
  0
LINE
  5
31B
  8
0
 10
981.1450399477493
 20
2683.3725450692291
 30
0.0
 11
989.1450399477493
 21
2683.3725450692291
 31
0.0
  0
LINE
  5
31C
  8
0
 10
989.1450399477493
 20
2683.3725450692291
 30
0.0
 11
989.1450399477493
 21
2684.3725450692291
 31
0.0
  0
LINE
  5
31D
  8
0
 10
1013.145039947749
 20
2683.3725450692291
 30
0.0
 11
1021.145039947749
 21
2683.3725450692291
 31
0.0
  0
LINE
  5
31E
  8
0
 10
1013.145039947749
 20
2684.3725450692291
 30
0.0
 11
1013.145039947749
 21
2683.3725450692291
 31
0.0
  0
LINE
  5
31F
  8
0
 10
1013.145039947749
 20
2684.3725450692291
 30
0.0
 11
1021.145039947749
 21
2684.3725450692291
 31
0.0
  0
LINE
  5
320
  8
0
 10
1021.145039947749
 20
2683.3725450692291
 30
0.0
 11
1021.145039947749
 21
2684.3725450692291
 31
0.0
  0
LINE
  5
321
  8
0
 10
1013.145039947749
 20
2698.3725450692291
 30
0.0
 11
1021.145039947749
 21
2698.3725450692291
 31
0.0
  0
LINE
  5
322
  8
0
 10
1013.145039947749
 20
2699.3725450692291
 30
0.0
 11
1013.145039947749
 21
2698.3725450692291
 31
0.0
  0
LINE
  5
323
  8
0
 10
1013.145039947749
 20
2699.3725450692291
 30
0.0
 11
1021.145039947749
 21
2699.3725450692291
 31
0.0
  0
LINE
  5
324
  8
0
 10
1021.145039947749
 20
2698.3725450692291
 30
0.0
 11
1021.145039947749
 21
2699.3725450692291
 31
0.0
  0
LINE
  5
325
  8
0
 10
981.1450399477493
 20
2698.3725450692291
 30
0.0
 11
989.1450399477493
 21
2698.3725450692291
 31
0.0
  0
LINE
  5
326
  8
0
 10
981.1450399477493
 20
2699.3725450692291
 30
0.0
 11
981.1450399477493
 21
2698.3725450692291
 31
0.0
  0
LINE
  5
327
  8
0
 10
981.1450399477493
 20
2699.3725450692291
 30
0.0
 11
989.1450399477493
 21
2699.3725450692291
 31
0.0
  0
LINE
  5
328
  8
0
 10
989.1450399477493
 20
2698.3725450692291
 30
0.0
 11
989.1450399477493
 21
2699.3725450692291
 31
0.0
  0
LINE
  5
333
  8
0
 10
971.1099448116463
 20
2660.3506058702119
 30
0.0
 11
1071.1099448116461
 21
2660.3506058702119
 31
0.0
  0
LINE
  5
334
  8
0
 10
1071.1099448116461
 20
2645.3506058702128
 30
0.0
 11
971.1099448116463
 21
2645.3506058702128
 31
0.0
  0
ARC
  5
335
  8
0
 10
971.1099448116463
 20
2652.8506058702128
 30
0.0
 40
7.5
 50
90.0
 51
270.0
  0
ARC
  5
336
  8
0
 10
1071.1099448116461
 20
2652.8506058702128
 30
0.0
 40
7.5
 50
270.0
 51
90.0
  0
CIRCLE
  5
337
  8
0
 10
971.1099448116463
 20
2652.8506058702128
 30
0.0
 40
0.5
  0
CIRCLE
  5
338
  8
0
 10
1071.1099448116461
 20
2652.8506058702128
 30
0.0
 40
0.5
  0
CIRCLE
  5
36A
  8
0
 10
974.40559718236887
 20
2601.698941856705
 30
0.0
 40
0.5
  0
CIRCLE
  5
36B
  8
0
 10
974.40559718236887
 20
2607.698941856705
 30
0.0
 40
0.5
  0
CIRCLE
  5
36C
  8
0
 10
988.40559718236898
 20
2608.698941856705
 30
0.0
 40
0.5
  0
CIRCLE
  5
36D
  8
0
 10
988.40559718236898
 20
2602.698941856705
 30
0.0
 40
0.5
  0
CIRCLE
  5
36E
  8
0
 10
980.40559718236887
 20
2604.698941856705
 30
0.0
 40
0.5
  0
CIRCLE
  5
36F
  8
0
 10
968.40559718236898
 20
2622.698941856705
 30
0.0
 40
0.5
  0
CIRCLE
  5
370
  8
0
 10
962.40559718236898
 20
2622.698941856705
 30
0.0
 40
0.5
  0
CIRCLE
  5
371
  8
0
 10
968.40559718236898
 20
2632.698941856705
 30
0.0
 40
0.5
  0
CIRCLE
  5
372
  8
0
 10
974.40559718236887
 20
2632.698941856705
 30
0.0
 40
0.5
  0
CIRCLE
  5
373
  8
0
 10
1039.4055971823691
 20
2622.698941856705
 30
0.0
 40
0.5
  0
CIRCLE
  5
374
  8
0
 10
1033.4055971823691
 20
2622.698941856705
 30
0.0
 40
0.5
  0
CIRCLE
  5
375
  8
0
 10
1033.4055971823691
 20
2632.698941856705
 30
0.0
 40
0.5
  0
CIRCLE
  5
376
  8
0
 10
1027.4055971823691
 20
2632.698941856705
 30
0.0
 40
0.5
  0
CIRCLE
  5
377
  8
0
 10
1021.405597182369
 20
2604.698941856705
 30
0.0
 40
0.5
  0
CIRCLE
  5
378
  8
0
 10
1027.4055971823691
 20
2601.698941856705
 30
0.0
 40
0.5
  0
CIRCLE
  5
379
  8
0
 10
1027.4055971823691
 20
2607.698941856705
 30
0.0
 40
0.5
  0
CIRCLE
  5
37A
  8
0
 10
1013.405597182369
 20
2608.698941856705
 30
0.0
 40
0.5
  0
CIRCLE
  5
37B
  8
0
 10
1013.405597182369
 20
2602.698941856705
 30
0.0
 40
0.5
  0
LINE
  5
37C
  8
0
 10
993.40559718236898
 20
2610.7369385074139
 30
0.0
 11
1008.405597182369
 21
2610.7369385074139
 31
0.0
  0
LINE
  5
37D
  8
0
 10
993.40559718236898
 20
2610.7369385074139
 30
0.0
 11
993.40559718236898
 21
2597.698941856705
 31
0.0
  0
LINE
  5
37E
  8
0
 10
1008.405597182369
 20
2610.7369385074139
 30
0.0
 11
1008.405597182369
 21
2597.698941856705
 31
0.0
  0
LINE
  5
37F
  8
0
 10
993.40559718236898
 20
2597.698941856705
 30
0.0
 11
981.23322248535112
 21
2597.698941856705
 31
0.0
  0
LINE
  5
380
  8
0
 10
1008.405597182369
 20
2597.698941856705
 30
0.0
 11
1020.577971879387
 21
2597.698941856705
 31
0.0
  0
LINE
  5
381
  8
0
 10
979.58923261229756
 20
2597.5628810950261
 30
0.0
 11
974.40559718236887
 21
2596.698941856705
 31
0.0
  0
LINE
  5
382
  8
0
 10
1022.2219617524401
 20
2597.5628810950261
 30
0.0
 11
1027.4055971823691
 21
2596.698941856705
 31
0.0
  0
LINE
  5
383
  8
0
 10
969.40559718236898
 20
2601.698941856705
 30
0.0
 11
963.73886168559056
 21
2617.0606429519921
 31
0.0
  0
LINE
  5
384
  8
0
 10
1032.4055971823691
 20
2601.698941856705
 30
0.0
 11
1037.636306770451
 21
2617.0606429519921
 31
0.0
  0
CIRCLE
  5
385
  8
0
 10
980.40559718236887
 20
2632.698941856705
 30
0.0
 40
0.5
  0
CIRCLE
  5
386
  8
0
 10
1021.405597182369
 20
2632.698941856705
 30
0.0
 40
0.5
  0
LINE
  5
387
  8
0
 10
971.84104459231492
 20
2637.698941856705
 30
0.0
 11
985.40559718236898
 21
2637.698941856705
 31
0.0
  0
LINE
  5
388
  8
0
 10
1029.9701497724229
 20
2637.698941856705
 30
0.0
 11
985.40559718236898
 21
2637.698941856705
 31
0.0
  0
LINE
  5
389
  8
0
 10
1016.405597182369
 20
2618.8581517573889
 30
0.0
 11
985.40559718236898
 21
2618.8581517573889
 31
0.0
  0
LINE
  5
38A
  8
0
 10
985.40559718236898
 20
2629.1233921800858
 30
0.0
 11
1016.405597182369
 21
2629.1233921800858
 31
0.0
  0
ARC
  5
38B
  8
0
 10
985.40559718236898
 20
2623.9907719687371
 30
0.0
 40
5.132620211348522
 50
90.0
 51
270.0
  0
ARC
  5
38C
  8
0
 10
1016.405597182369
 20
2623.9907719687371
 30
0.0
 40
5.132620211348522
 50
270.0
 51
90.0
  0
ARC
  5
38D
  8
0
 10
981.23322248535112
 20
2587.698941856705
 30
0.0
 40
10.0
 50
90.0
 51
99.462322208027473
  0
ARC
  5
38E
  8
0
 10
1020.577971879387
 20
2587.698941856705
 30
0.0
 40
10.0
 50
80.537677791972513
 51
90.0
  0
LINE
  5
38F
  8
0
 10
974.40559718236887
 20
2596.698941856705
 30
0.0
 11
969.40559718236898
 21
2601.698941856705
 31
0.0
  0
LINE
  5
390
  8
0
 10
1032.4055971823691
 20
2601.698941856705
 30
0.0
 11
1027.4055971823691
 21
2596.698941856705
 31
0.0
  0
ARC
  5
391
  8
0
 10
964.50131945334329
 20
2622.958690496645
 30
0.0
 40
5.9471259181724863
 50
123.1888127065596
 51
262.63405853725391
  0
ARC
  5
392
  8
0
 10
1037.596213253162
 20
2622.9033986941508
 30
0.0
 40
5.842893303207398
 50
270.39316263968209
 51
59.458737112779339
  0
LINE
  5
393
  8
0
 10
1040.565330631274
 20
2627.9356689718352
 30
0.0
 11
1039.329731112847
 21
2631.220054909702
 31
0.0
  0
LINE
  5
394
  8
0
 10
961.24586373346415
 20
2627.9356689718352
 30
0.0
 11
962.48146325189066
 21
2631.220054909702
 31
0.0
  0
ARC
  5
395
  8
0
 10
971.84104459231492
 20
2627.698941856705
 30
0.0
 40
10.0
 50
90.0
 51
159.383493529845
  0
ARC
  5
396
  8
0
 10
1029.9701497724229
 20
2627.698941856705
 30
0.0
 40
10.0
 50
20.616506470154999
 51
90.0
  0
CIRCLE
  5
3C5
  8
0
 10
1057.4386064532439
 20
2698.9980805006871
 30
0.0
 40
0.5
  0
CIRCLE
  5
3C6
  8
0
 10
1090.9386064532439
 20
2698.9980805006871
 30
0.0
 40
0.5
  0
CIRCLE
  5
3C7
  8
0
 10
1062.4386064532439
 20
2698.9980805006871
 30
0.0
 40
0.5
  0
CIRCLE
  5
3C8
  8
0
 10
1046.4386064532439
 20
2698.9980805006871
 30
0.0
 40
0.5
  0
CIRCLE
  5
3C9
  8
0
 10
1052.4386064532439
 20
2698.9980805006871
 30
0.0
 40
0.5
  0
CIRCLE
  5
3CA
  8
0
 10
1063.9386064532439
 20
2686.9980805006871
 30
0.0
 40
0.5
  0
CIRCLE
  5
3CB
  8
0
 10
1063.9386064532439
 20
2680.998080500688
 30
0.0
 40
0.5
  0
CIRCLE
  5
3CC
  8
0
 10
1055.9386064532439
 20
2678.9980805006871
 30
0.0
 40
0.5
  0
CIRCLE
  5
3CD
  8
0
 10
1088.9386064532439
 20
2686.9980805006871
 30
0.0
 40
0.5
  0
CIRCLE
  5
3CE
  8
0
 10
1088.9386064532439
 20
2680.998080500688
 30
0.0
 40
0.5
  0
CIRCLE
  5
3CF
  8
0
 10
1049.9386064532439
 20
2690.9980805006871
 30
0.0
 40
0.5
  0
CIRCLE
  5
3D0
  8
0
 10
1055.9386064532439
 20
2690.9980805006871
 30
0.0
 40
0.5
  0
LINE
  5
3D1
  8
0
 10
1068.4386064532439
 20
2686.9980805006871
 30
0.0
 11
1068.4386064532439
 21
2680.998080500688
 31
0.0
  0
LINE
  5
3D2
  8
0
 10
1068.4386064532439
 20
2686.9980805006871
 30
0.0
 11
1084.9386064532439
 21
2686.9980805006871
 31
0.0
  0
LINE
  5
3D3
  8
0
 10
1084.9386064532439
 20
2686.9980805006871
 30
0.0
 11
1084.9386064532439
 21
2680.998080500688
 31
0.0
  0
LINE
  5
3D4
  8
0
 10
1060.4386064532439
 20
2675.9980805006871
 30
0.0
 11
1063.4386064532439
 21
2675.9980805006871
 31
0.0
  0
LINE
  5
3D5
  8
0
 10
1050.4386064532439
 20
2675.9980805006871
 30
0.0
 11
1050.4386064532439
 21
2676.6374007256891
 31
0.0
  0
LINE
  5
3D6
  8
0
 10
1043.712878694512
 20
2692.4495360181509
 30
0.0
 11
1041.494334543245
 21
2696.8866243206849
 31
0.0
  0
LINE
  5
3D7
  8
0
 10
1045.4386064532439
 20
2703.9980805006871
 30
0.0
 11
1107.9386064532439
 21
2703.9980805006871
 31
0.0
  0
LINE
  5
3D8
  8
0
 10
1049.3828783632439
 20
2681.109536680689
 30
0.0
 11
1043.712878694512
 21
2692.4495360181509
 31
0.0
  0
ARC
  5
3D9
  8
0
 10
1055.4386064532439
 20
2678.4292985075272
 30
0.0
 40
5.5597500840222409
 50
205.9310413703995
 51
334.06895862960062
  0
ARC
  5
3DA
  8
0
 10
1063.0474677071061
 20
2681.3892192468252
 30
0.0
 40
5.4053091029878919
 50
274.1496615802472
 51
355.85033841976508
  0
ARC
  5
3DB
  8
0
 10
1045.45147378104
 20
2699.3413974878949
 30
0.0
 40
4.6567007902320219
 50
90.158319064865822
 51
211.8129969353962
  0
LINE
  5
3DC
  8
0
 10
1068.4386064532439
 20
2690.9980805006871
 30
0.0
 11
1084.9386064532439
 21
2690.9424822765882
 31
0.0
  0
LINE
  5
3DD
  8
0
 10
1068.4386064532439
 20
2690.9980805006871
 30
0.0
 11
1068.4386064532439
 21
2698.9980805006871
 31
0.0
  0
LINE
  5
3DE
  8
0
 10
1084.9386064532439
 20
2698.9980805006871
 30
0.0
 11
1084.9386064532439
 21
2690.9424822765882
 31
0.0
  0
ARC
  5
3DF
  8
0
 10
1108.647402559465
 20
2699.7416582417009
 30
0.0
 40
4.3150344572188102
 50
318.57431988637381
 51
99.45436411338224
  0
LINE
  5
3E0
  8
0
 10
1103.994334543245
 20
2681.1095366806881
 30
0.0
 11
1109.6643342119769
 21
2692.4495360181509
 31
0.0
  0
ARC
  5
3E1
  8
0
 10
1097.938606453245
 20
2678.4292985075272
 30
0.0
 40
5.5597500840222409
 50
205.9310413703995
 51
334.06895862960062
  0
LINE
  5
3E2
  8
0
 10
1102.9386064532439
 20
2675.9980805006871
 30
0.0
 11
1102.9386064532439
 21
2676.6374007256891
 31
0.0
  0
CIRCLE
  5
3E3
  8
0
 10
1096.9386064532439
 20
2678.9980805006871
 30
0.0
 40
0.5
  0
ARC
  5
3E4
  8
0
 10
1090.3297451993831
 20
2681.3892192468252
 30
0.0
 40
5.4053091029878919
 50
184.14966158023481
 51
265.8503384197528
  0
LINE
  5
3E5
  8
0
 10
1092.9386064532439
 20
2675.9980805006871
 30
0.0
 11
1089.938606453245
 21
2675.9980805006871
 31
0.0
  0
CIRCLE
  5
3E6
  8
0
 10
1102.9386064532439
 20
2690.9980805006871
 30
0.0
 40
0.5
  0
LINE
  5
3E7
  8
0
 10
1109.6643342119769
 20
2692.4495360181509
 30
0.0
 11
1111.8828783632439
 21
2696.8866243206849
 31
0.0
  0
CIRCLE
  5
3E8
  8
0
 10
1096.9386064532439
 20
2690.9980805006871
 30
0.0
 40
0.5
  0
CIRCLE
  5
3E9
  8
0
 10
1106.9386064532439
 20
2698.9980805006871
 30
0.0
 40
0.5
  0
CIRCLE
  5
3EA
  8
0
 10
1100.9386064532439
 20
2698.9980805006871
 30
0.0
 40
0.5
  0
CIRCLE
  5
3EB
  8
0
 10
1095.9386064532439
 20
2698.9980805006871
 30
0.0
 40
0.5
  0
ARC
  5
3EC
  8
0
 10
1040.4386064532439
 20
2676.6374007256891
 30
0.0
 40
10.0
 50
0.0
 51
26.565051177067019
  0
ARC
  5
3ED
  8
0
 10
1112.9386064532439
 20
2676.6374007256891
 30
0.0
 40
10.0
 50
153.43494882293291
 51
180.0
  0
LINE
  5
3EE
  8
0
 10
1068.4386064532439
 20
2698.9980805006871
 30
0.0
 11
1084.9386064532439
 21
2698.9980805006871
 31
0.0
  0
CIRCLE
  5
401
  8
0
 10
1073.7089764420259
 20
2631.7786176013119
 30
0.0
 40
0.5
  0
CIRCLE
  5
402
  8
0
 10
1073.7089764420259
 20
2606.7786176013119
 30
0.0
 40
0.5
  0
LINE
  5
403
  8
0
 10
1078.2089764420259
 20
2631.7786176013119
 30
0.0
 11
1078.208976442025
 21
2618.5688327535122
 31
0.0
  0
LINE
  5
404
  8
0
 10
1069.2089764420259
 20
2631.7786176013119
 30
0.0
 11
1069.2089764420259
 21
2604.0895905484372
 31
0.0
  0
ARC
  5
405
  8
0
 10
1073.7089764420259
 20
2631.7786176013119
 30
0.0
 40
4.5
 50
0.0
 51
180.0
  0
LINE
  5
406
  8
0
 10
1073.7089764420259
 20
2601.7237021885908
 30
0.0
 11
1133.2089764420259
 21
2601.7237021885908
 31
0.0
  0
LINE
  5
407
  8
0
 10
1143.2089764420259
 20
2608.5688327535122
 30
0.0
 11
1143.2089764420259
 21
2599.2345637882781
 31
0.0
  0
LINE
  5
408
  8
0
 10
1141.2089764420259
 20
2608.5688327535122
 30
0.0
 11
1088.208976442025
 21
2608.5688327535122
 31
0.0
  0
LINE
  5
409
  8
0
 10
1073.7089764420259
 20
2601.7237021885908
 30
0.0
 11
1069.2089764420259
 21
2604.0895905484372
 31
0.0
  0
LINE
  5
40A
  8
0
 10
1133.2089764420259
 20
2599.2345637882781
 30
0.0
 11
1133.2089764420259
 21
2601.7237021885908
 31
0.0
  0
ARC
  5
40B
  8
0
 10
1138.2089764420259
 20
2599.2345637882781
 30
0.0
 40
5.0
 50
180.0
 51
0.0
  0
CIRCLE
  5
40C
  8
0
 10
1138.2089764420259
 20
2600.7786176013119
 30
0.0
 40
0.5
  0
ARC
  5
40D
  8
0
 10
1088.208976442025
 20
2618.5688327535122
 30
0.0
 40
10.0
 50
180.0
 51
270.0
  0
LINE
  5
40E
  8
0
 10
1141.2089764420259
 20
2608.5688327535122
 30
0.0
 11
1143.2089764420259
 21
2608.5688327535122
 31
0.0
  0
CIRCLE
  5
44A
  8
0
 10
960.27878052287269
 20
2768.5969040864188
 30
0.0
 40
0.5
  0
CIRCLE
  5
44B
  8
0
 10
960.27878052287269
 20
2790.5969040864188
 30
0.0
 40
0.5
  0
LINE
  5
44C
  8
0
 10
960.27878052287269
 20
2756.0969040864179
 30
0.0
 11
968.27878052287269
 21
2756.0969040864179
 31
0.0
  0
LINE
  5
44D
  8
0
 10
968.27878052287269
 20
2756.0969040864179
 30
0.0
 11
968.27878052287269
 21
2803.0969040864188
 31
0.0
  0
LINE
  5
44E
  8
0
 10
968.27878052287269
 20
2803.0969040864188
 30
0.0
 11
960.27878052287269
 21
2803.0969040864188
 31
0.0
  0
LINE
  5
44F
  8
0
 10
960.27878052287269
 20
2803.0969040864188
 30
0.0
 11
950.27878052287269
 21
2803.0969040864188
 31
0.0
  0
LINE
  5
450
  8
0
 10
940.27878052287258
 20
2813.0969040864179
 30
0.0
 11
940.27878052287258
 21
2858.5969040864179
 31
0.0
  0
LINE
  5
451
  8
0
 10
940.27878052287258
 20
2858.5969040864179
 30
0.0
 11
930.82310393358421
 21
2858.5969040864179
 31
0.0
  0
LINE
  5
452
  8
0
 10
921.207406118363
 20
2851.3425106726481
 30
0.0
 11
918.7131034900566
 21
2842.6069327301302
 31
0.0
  0
LINE
  5
453
  8
0
 10
940.27878052287258
 20
2700.5969040864188
 30
0.0
 11
940.27878052287258
 21
2746.0969040864188
 31
0.0
  0
LINE
  5
454
  8
0
 10
940.27878052287258
 20
2700.5969040864188
 30
0.0
 11
930.82311451093153
 21
2700.5969040864188
 31
0.0
  0
LINE
  5
455
  8
0
 10
921.20741299423935
 20
2707.851310463559
 30
0.0
 11
918.71310039469427
 21
2716.5869679355401
 31
0.0
  0
LINE
  5
456
  8
0
 10
918.45609472548585
 20
2717.7420733247232
 30
0.0
 11
912.4044433166423
 21
2755.3067538332689
 31
0.0
  0
LINE
  5
457
  8
0
 10
918.45609357702961
 20
2841.451811011033
 30
0.0
 11
912.40444277429424
 21
2803.8870526889209
 31
0.0
  0
LINE
  5
458
  8
0
 10
912.2771505025429
 20
2756.8972420669452
 30
0.0
 11
912.2771505025429
 21
2802.2965678217879
 31
0.0
  0
LINE
  5
459
  8
0
 10
960.27878052287269
 20
2756.0969040864179
 30
0.0
 11
950.27878052287269
 21
2756.0969040864179
 31
0.0
  0
ARC
  5
45A
  8
0
 10
928.32880191138656
 20
2719.332561558399
 30
0.0
 40
10.0
 50
189.15169085161719
 51
195.9357567607673
  0
ARC
  5
45B
  8
0
 10
922.27715050254312
 20
2756.8972420669452
 30
0.0
 40
10.0
 50
180.0
 51
189.15169085161719
  0
ARC
  5
45C
  8
0
 10
922.27715050254312
 20
2802.2965678217879
 30
0.0
 40
10.0
 50
170.84832868596331
 51
180.0
  0
ARC
  5
45D
  8
0
 10
928.32880130527838
 20
2839.8613261439
 30
0.0
 40
10.0
 50
164.0641659961442
 51
170.84832868596331
  0
ARC
  5
45E
  8
0
 10
930.82310393358421
 20
2848.5969040864188
 30
0.0
 40
10.0
 50
90.0
 51
164.0641659961442
  0
ARC
  5
45F
  8
0
 10
930.82311451093153
 20
2710.5969040864188
 30
0.0
 40
10.0
 50
195.9357567607673
 51
270.0
  0
ARC
  5
460
  8
0
 10
950.27878052287269
 20
2746.0969040864188
 30
0.0
 40
10.0
 50
90.0
 51
180.0
  0
ARC
  5
461
  8
0
 10
950.27878052287269
 20
2813.0969040864179
 30
0.0
 40
10.0
 50
180.0
 51
270.0
  0
CIRCLE
  5
462
  8
0
 10
933.27878052287269
 20
2730.5969040864179
 30
0.0
 40
0.5
  0
CIRCLE
  5
463
  8
0
 10
933.27878052287269
 20
2828.5969040864188
 30
0.0
 40
0.5
  0
CIRCLE
  5
470
  8
0
 10
1093.0655803203099
 20
2631.7786176013119
 30
0.0
 40
0.5
  0
CIRCLE
  5
471
  8
0
 10
1118.0655803203099
 20
2631.7786176013119
 30
0.0
 40
0.5
  0
CIRCLE
  5
472
  8
0
 10
1127.0655803203099
 20
2631.7786176013119
 30
0.0
 40
1.5
  0
LINE
  5
473
  8
0
 10
1093.0655803203099
 20
2636.2786176013119
 30
0.0
 11
1120.7546073731839
 21
2636.2786176013119
 31
0.0
  0
LINE
  5
474
  8
0
 10
1093.0655803203099
 20
2627.278617601311
 30
0.0
 11
1120.7546073731839
 21
2627.2786176013119
 31
0.0
  0
ARC
  5
475
  8
0
 10
1126.863780316784
 20
2631.7786176013119
 30
0.0
 40
7.5876211064348249
 50
216.37525829701821
 51
143.62474170298179
  0
ARC
  5
476
  8
0
 10
1093.0655803203099
 20
2631.7786176013119
 30
0.0
 40
4.5
 50
90.0
 51
270.0
  0
ENDSEC
  0
EOF
