  0
SECTION
  2
HEADER
  9
$ACADVER
  1
AC1015
  9
$ACADMAINTVER
 70
     6
  9
$DWGCODEPAGE
  3
DOS850
  9
$INSBASE
 10
0.0
 20
0.0
 30
0.0
  9
$EXTMIN
 10
-13.21261
 20
-6.64933
 30
1.000000E+20
  9
$EXTMAX
 10
13.22725
 20
6.64541
 30
-1.000000E+20
  9
$LIMMIN
 10
0.0
 20
0.0
  9
$LIMMAX
 10
0.0
 20
0.0
  9
$ORTHOMODE
 70
     0
  9
$REGENMODE
 70
     1
  9
$FILLMODE
 70
     1
  9
$QTEXTMODE
 70
     0
  9
$MIRRTEXT
 70
     1
  9
$LTSCALE
 40
1.0
  9
$ATTMODE
 70
     1
  9
$TEXTSIZE
 40
0.2
  9
$TRACEWID
 40
0.05
  9
$TEXTSTYLE
  7
Standard
  9
$CLAYER
  8
0
  9
$CELTYPE
  6
Continuous
  9
$CECOLOR
 62
   256
  9
$CELTSCALE
 40
1.0
  9
$DISPSILH
 70
     0
  9
$DIMSCALE
 40
1.0
  9
$DIMASZ
 40
0.18
  9
$DIMEXO
 40
0.0625
  9
$DIMDLI
 40
0.38
  9
$DIMRND
 40
0.0
  9
$DIMDLE
 40
0.0
  9
$DIMEXE
 40
0.18
  9
$DIMTP
 40
0.0
  9
$DIMTM
 40
0.0
  9
$DIMTXT
 40
0.18
  9
$DIMCEN
 40
0.09
  9
$DIMTSZ
 40
0.0
  9
$DIMTOL
 70
     0
  9
$DIMLIM
 70
     0
  9
$DIMTIH
 70
     1
  9
$DIMTOH
 70
     1
  9
$DIMSE1
 70
     0
  9
$DIMSE2
 70
     0
  9
$DIMTAD
 70
     0
  9
$DIMZIN
 70
     0
  9
$DIMBLK
  1

  9
$DIMASO
 70
     1
  9
$DIMSHO
 70
     1
  9
$DIMPOST
  1

  9
$DIMAPOST
  1

  9
$DIMALT
 70
     0
  9
$DIMALTD
 70
     2
  9
$DIMALTF
 40
25.4
  9
$DIMLFAC
 40
1.0
  9
$DIMTOFL
 70
     0
  9
$DIMTVP
 40
0.0
  9
$DIMTIX
 70
     0
  9
$DIMSOXD
 70
     0
  9
$DIMSAH
 70
     0
  9
$DIMBLK1
  1

  9
$DIMBLK2
  1

  9
$DIMSTYLE
  2
Standard
  9
$DIMCLRD
 70
     0
  9
$DIMCLRE
 70
     0
  9
$DIMCLRT
 70
     0
  9
$DIMTFAC
 40
1.0
  9
$DIMGAP
 40
0.09
  9
$DIMJUST
 70
     0
  9
$DIMSD1
 70
     0
  9
$DIMSD2
 70
     0
  9
$DIMTOLJ
 70
     1
  9
$DIMTZIN
 70
     0
  9
$DIMALTZ
 70
     0
  9
$DIMALTTZ
 70
     0
  9
$DIMUPT
 70
     0
  9
$DIMDEC
 70
     4
  9
$DIMTDEC
 70
     4
  9
$DIMALTU
 70
     2
  9
$DIMALTTD
 70
     2
  9
$DIMTXSTY
  7
Standard
  9
$DIMAUNIT
 70
     0
  9
$DIMADEC
 70
     0
  9
$DIMALTRND
 40
0.0
  9
$DIMAZIN
 70
     0
  9
$DIMDSEP
 70
     0
  9
$DIMATFIT
 70
     3
  9
$DIMFRAC
 70
     0
  9
$DIMLDRBLK
  1

  9
$DIMLUNIT
 70
     2
  9
$DIMLWD
 70
     0
  9
$DIMLWE
 70
     0
  9
$DIMTMOVE
 70
     0
  9
$LUNITS
 70
     2
  9
$LUPREC
 70
     4
  9
$SKETCHINC
 40
0.1
  9
$FILLETRAD
 40
0.0
  9
$AUNITS
 70
     0
  9
$AUPREC
 70
     0
  9
$MENU
  1
acad
  9
$ELEVATION
 40
0.0
  9
$PELEVATION
 40
0.0
  9
$THICKNESS
 40
0.0
  9
$LIMCHECK
 70
     0
  9
$CHAMFERA
 40
0.0
  9
$CHAMFERB
 40
0.0
  9
$CHAMFERC
 40
0.0
  9
$CHAMFERD
 40
0.0
  9
$SKPOLY
 70
     0
  9
$TDCREATE
 40
0.000000000
  9
$TDUCREATE
 40
0.000000000
  9
$TDUPDATE
 40
0.000000000
  9
$TDUUPDATE
 40
0.000000000
  9
$TDINDWG
 40
0.0000000000
  9
$TDUSRTIMER
 40
0.0000000000
  9
$USRTIMER
 70
     1
  9
$ANGBASE
 50
0.0
  9
$ANGDIR
 70
     0
  9
$PDMODE
 70
     0
  9
$PDSIZE
 40
0.0
  9
$PLINEWID
 40
0.0
  9
$SPLFRAME
 70
     0
  9
$SPLINETYPE
 70
     6
  9
$SPLINESEGS
 70
     8
  9
$HANDSEED
  5
68
  9
$SURFTAB1
 70
     6
  9
$SURFTAB2
 70
     6
  9
$SURFTYPE
 70
     6
  9
$SURFU
 70
     6
  9
$SURFV
 70
     6
  9
$UCSBASE
  2

  9
$UCSNAME
  2

  9
$UCSORG
 10
0.0
 20
0.0
 30
0.0
  9
$UCSXDIR
 10
1.0
 20
0.0
 30
0.0
  9
$UCSYDIR
 10
0.0
 20
1.0
 30
0.0
  9
$UCSORTHOREF
  2

  9
$UCSORTHOVIEW
 70
     0
  9
$UCSORGTOP
 10
0.0
 20
0.0
 30
0.0
  9
$UCSORGBOTTOM
 10
0.0
 20
0.0
 30
0.0
  9
$UCSORGLEFT
 10
0.0
 20
0.0
 30
0.0
  9
$UCSORGRIGHT
 10
0.0
 20
0.0
 30
0.0
  9
$UCSORGFRONT
 10
0.0
 20
0.0
 30
0.0
  9
$UCSORGBACK
 10
0.0
 20
0.0
 30
0.0
  9
$PUCSBASE
  2

  9
$PUCSNAME
  2

  9
$PUCSORG
 10
0.0
 20
0.0
 30
0.0
  9
$PUCSXDIR
 10
1.0
 20
0.0
 30
0.0
  9
$PUCSYDIR
 10
0.0
 20
1.0
 30
0.0
  9
$PUCSORTHOREF
  2

  9
$PUCSORTHOVIEW
 70
     0
  9
$PUCSORGTOP
 10
0.0
 20
0.0
 30
0.0
  9
$PUCSORGBOTTOM
 10
0.0
 20
0.0
 30
0.0
  9
$PUCSORGLEFT
 10
0.0
 20
0.0
 30
0.0
  9
$PUCSORGRIGHT
 10
0.0
 20
0.0
 30
0.0
  9
$PUCSORGFRONT
 10
0.0
 20
0.0
 30
0.0
  9
$PUCSORGBACK
 10
0.0
 20
0.0
 30
0.0
  9
$USERI1
 70
     0
  9
$USERI2
 70
     0
  9
$USERI3
 70
     0
  9
$USERI4
 70
     0
  9
$USERI5
 70
     0
  9
$USERR1
 40
0.0
  9
$USERR2
 40
0.0
  9
$USERR3
 40
0.0
  9
$USERR4
 40
0.0
  9
$USERR5
 40
0.0
  9
$WORLDVIEW
 70
     1
  9
$SHADEDGE
 70
     3
  9
$SHADEDIF
 70
    70
  9
$TILEMODE
 70
     1
  9
$MAXACTVP
 70
    16
  9
$PINSBASE
 10
0.0
 20
0.0
 30
0.0
  9
$PLIMCHECK
 70
     0
  9
$PEXTMIN
 10
1.000000E+20
 20
1.000000E+20
 30
1.000000E+20
  9
$PEXTMAX
 10
-1.000000E+20
 20
-1.000000E+20
 30
-1.000000E+20
  9
$PLIMMIN
 10
0.0
 20
0.0
  9
$PLIMMAX
 10
12.0
 20
9.0
  9
$UNITMODE
 70
     0
  9
$VISRETAIN
 70
     0
  9
$PLINEGEN
 70
     1
  9
$PSLTSCALE
 70
     0
  9
$TREEDEPTH
 70
  3020
  9
$CMLSTYLE
  2
Standard
  9
$CMLJUST
 70
     0
  9
$CMLSCALE
 40
1.0
  9
$PROXYGRAPHICS
 70
     0
  9
$MEASUREMENT
 70
     0
  9
$CELWEIGHT
370
     0
  9
$ENDCAPS
280
     0
  9
$JOINSTYLE
280
     0
  9
$LWDISPLAY
290
     0
  9
$INSUNITS
 70
     5
  9
$HYPERLINKBASE
  1

  9
$XEDIT
290
     1
  9
$CEPSNTYPE
380
     0
  9
$PSTYLEMODE
290
     1
  9
$FINGERPRINTGUID
  2

  9
$VERSIONGUID
  2

  9
$EXTNAMES
290
     1
  9
$PSVPSCALE
 40
0.0
  0
ENDSEC
  0
SECTION
  2
CLASSES
  0
CLASS
  1
LWPOLYLINE
  2
AcDbPolyline
  3
AutoCAD 2000
 90
    32768
280
     0
281
     1
  0
CLASS
  1
IMAGE
  2
AcDbRasterImage
  3
ISM
 90
    32895
280
     0
281
     1
  0
CLASS
  1
OLE2FRAME
  2
AcDbOle2Frame
  3
AutoCAD 2000
 90
    32768
280
     0
281
     1
  0
CLASS
  1
HATCH
  2
AcDbHatch
  3
AutoCAD 2000
 90
    32768
280
     0
281
     1
  0
CLASS
  1
DICTIONARYVAR
  2
AcDbDictionaryVar
  3
AutoCAD 2000
 90
    32768
280
     0
281
     0
  0
CLASS
  1
RASTERVARIABLES
  2
AcDbRasterVariables
  3
ISM
 90
    32768
280
     0
281
     0
  0
CLASS
  1
IMAGEDEF
  2
AcDbRasterImageDef
  3
ISM
 90
    32768
280
     0
281
     0
  0
CLASS
  1
IMAGEDEF_REACTOR
  2
AcDbRasterImageDefReactor
  3
ISM
 90
    32769
280
     0
281
     0
  0
CLASS
  1
IDBUFFER
  2
AcDbIdBuffer
  3
AutoCAD 2000
 90
    32768
280
     0
281
     0
  0
CLASS
  1
SPATIAL_FILTER
  2
AcDbSpatialFilter
  3
AutoCAD 2000
 90
    32768
280
     0
281
     0
  0
CLASS
  1
XRECORD
  2
AcDbXrecord
  3
AutoCAD 2000
 90
    32768
280
     0
281
     0
  0
CLASS
  1
SORTENTSTABLE
  2
AcDbSortentsTable
  3
AutoCAD 2000
 90
    32768
280
     0
281
     0
  0
CLASS
  1
LAYER_INDEX
  2
AcDbLayerIndex
  3
AutoCAD 2000
 90
    32768
280
     0
281
     0
  0
CLASS
  1
SPATIAL_INDEX
  2
AcDbSpatialIndex
  3
AutoCAD 2000
 90
    32768
280
     0
281
     0
  0
CLASS
  1
OBJECT_PTR
  2
CAseDLPNTableRecord
  3
"ASE-LPNTableRecord"
 90
    32769
280
     0
281
     0
  0
CLASS
  1
LAYOUT
  2
AcDbLayout
  3
AutoCAD 2000
 90
        0
280
     0
281
     0
  0
CLASS
  1
PLOTSETTINGS
  2
AcDbPlotSettings
  3
AutoCAD 2000
 90
    32768
280
     0
281
     0
  0
CLASS
  1
ACDBDICTIONARYWDFLT
  2
AcDbDictionaryWithDefault
  3
AutoCAD 2000
 90
        0
280
     0
281
     0
  0
CLASS
  1
ACDBPLACEHOLDER
  2
AcDbPlaceHolder
  3
AutoCAD 2000
 90
        0
280
     0
281
     0
  0
CLASS
  1
VBA_PROJECT
  2
AcDbVbaProject
  3
acadvba
 90
    32768
280
     0
281
     0
  0
CLASS
  1
WIPEOUT
  2
AcDbWipeout
  3
WipeOut|AutoCAD Express Tool|expresstools@autodesk.com
 90
    32895
280
     0
281
     1
  0
CLASS
  1
WIPEOUTVARIABLES
  2
AcDbWipeoutVariables
  3
WipeOut|AutoCAD Express Tool|expresstools@autodesk.com
 90
        0
280
     0
281
     0
  0
CLASS
  1
RTEXT
  2
RText
  3
RText|AutoCAD Express Tool|expresstools@autodesk.com
 90
    32768
280
     0
281
     1
  0
CLASS
  1
ARCALIGNEDTEXT
  2
AcDbArcAlignedText
  3
ATEXT|AutoCAD Express Tool|expresstools@autodesk.com
 90
    32768
280
     0
281
     1
  0
ENDSEC
  0
SECTION
  2
TABLES
  0
TABLE
  2
VPORT
  5
7
100
AcDbSymbolTable
 70
     1
  0
VPORT
  5
15
100
AcDbSymbolTableRecord
100
AcDbViewportTableRecord
  2
*ACTIVE
 70
     0
 10
0.0
 20
0.0
 11
1.0
 21
1.0
 12
6.591288
 22
4.579184
 13
0.0
 23
0.0
 14
1.0
 24
1.0
 15
0.0
 25
0.0
 16
0.0
 26
0.0
 36
1.0
 17
0.0
 27
0.0
 37
0.0
 40
9.158369
 41
0.688564
 42
50.0
 43
0.0
 44
0.0
 50
0.0
 51
0.0
 71
     0
 72
   100
 73
     1
 74
     1
 75
     0
 76
     0
 77
     0
 78
     0
281
     0
 65
     0
110
0.0
120
0.0
130
0.0
111
1.0
121
0.0
131
0.0
112
0.0
122
1.0
132
0.0
345
0
346
0
 79
     0
146
0.0
  0
ENDTAB
  0
TABLE
  2
LTYPE
  5
4
100
AcDbSymbolTable
 70
     3
  0
LTYPE
  5
11
100
AcDbSymbolTableRecord
100
AcDbLinetypeTableRecord
  2
ByBlock
 70
    64
  3

 72
    65
 73
     0
 40
0.0
  0
LTYPE
  5
12
100
AcDbSymbolTableRecord
100
AcDbLinetypeTableRecord
  2
ByLayer
 70
    64
  3

 72
    65
 73
     0
 40
0.0
  0
LTYPE
  5
13
100
AcDbSymbolTableRecord
100
AcDbLinetypeTableRecord
  2
Continuous
 70
    64
  3
Solid line
 72
    65
 73
     0
 40
0.0
  0
ENDTAB
  0
TABLE
  2
LAYER
  5
2
100
AcDbSymbolTable
 70
     2
  0
LAYER
  5
14
100
AcDbSymbolTableRecord
100
AcDbLayerTableRecord
  2
0
 70
     0
 62
     7
  6
Continuous
290
     1
370
    -3
390
1D
  0
LAYER
  5
24
100
AcDbSymbolTableRecord
100
AcDbLayerTableRecord
  2
Ebene 1
 70
     0
 62
     7
  6
Continuous
290
     1
370
    -3
390
1F
  0
ENDTAB
  0
TABLE
  2
STYLE
  5
3
100
AcDbSymbolTable
 70
     1
  0
STYLE
  5
17
100
AcDbSymbolTableRecord
100
AcDbTextStyleTableRecord
  2
Standard
 70
     0
 40
0.0
 41
1.0
 50
0.0
 71
     0
 42
0.0
  3
txt
  4

  0
ENDTAB
  0
TABLE
  2
VIEW
  5
5
100
AcDbSymbolTable
 70
     0
  0
ENDTAB
  0
TABLE
  2
UCS
  5
6
100
AcDbSymbolTable
 70
     0
  0
ENDTAB
  0
TABLE
  2
APPID
  5
8
100
AcDbSymbolTable
 70
     1
  0
APPID
  5
16
100
AcDbSymbolTableRecord
100
AcDbRegAppTableRecord
  2
ACAD
 70
     0
  0
ENDTAB
  0
TABLE
  2
DIMSTYLE
  5
9
100
AcDbSymbolTable
 70
     1
100
AcDbDimStyleTable
 71
     0
  0
DIMSTYLE
105
18
100
AcDbSymbolTableRecord
100
AcDbDimStyleTableRecord
  2
Standard
 70
     0
  3

  4

 40
1.0
 41
0.18
 42
0.0625
 43
0.38
 44
0.18
 45
0.0
 46
0.0
 47
0.0
 48
0.0
 71
     0
 72
     0
 73
     1
 74
     1
 75
     0
 76
     0
 77
     0
 78
     0
 79
     0
140
0.18
141
0.09
142
0.0
143
25.4
144
1.0
145
0.0
146
1.0
147
0.09
148
0.0
170
     0
171
     2
172
     0
173
     0
174
     0
175
     0
176
     0
177
     0
178
     0
179
     0
271
     4
272
     4
273
     2
274
     2
275
     0
276
     0
277
     2
278
    46
279
     0
280
     0
281
     0
282
     0
283
     1
284
     0
285
     0
286
     0
288
     0
340
17
341
0
342
0
343
0
344
0
371
    -2
372
    -2
  0
ENDTAB
  0
TABLE
  2
BLOCK_RECORD
  5
1
100
AcDbSymbolTable
 70
     0
  0
BLOCK_RECORD
  5
A
100
AcDbSymbolTableRecord
100
AcDbBlockTableRecord
  2
*MODEL_SPACE
340
20
  0
BLOCK_RECORD
  5
B
100
AcDbSymbolTableRecord
100
AcDbBlockTableRecord
  2
*PAPER_SPACE
340
21
  0
ENDTAB
  0
ENDSEC
  0
SECTION
  2
BLOCKS
  0
BLOCK
  5
D
100
AcDbEntity
  8
0
100
AcDbBlockBegin
  2
*MODEL_SPACE
 70
     0
 10
0.0
 20
0.0
 30
0.0
  3
*MODEL_SPACE
  1

  0
ENDBLK
  5
E
100
AcDbEntity
  8
0
100
AcDbBlockEnd
  0
BLOCK
  5
F
100
AcDbEntity
 67
     1
  8
0
100
AcDbBlockBegin
  2
*PAPER_SPACE
 70
     0
 10
0.0
 20
0.0
 30
0.0
  3
*PAPER_SPACE
  1

  0
ENDBLK
  5
10
100
AcDbEntity
 67
     1
  8
0
100
AcDbBlockEnd
  0
ENDSEC
  0
SECTION
  2
ENTITIES
  0
SPLINE
  5
25
100
AcDbEntity
  8
Ebene 1
 62
     1
100
AcDbSpline
210
0.0
220
0.0
230
1.0
 70
     1
 71
     3
 72
    36
 73
    32
 74
     0
 42
0.0000000001
 43
0.0000000001
 40
0.0
 40
0.0
 40
0.0
 40
0.0
 40
0.125
 40
0.125
 40
0.125
 40
0.125
 40
0.25
 40
0.25
 40
0.25
 40
0.25
 40
0.375
 40
0.375
 40
0.375
 40
0.375
 40
0.5
 40
0.5
 40
0.5
 40
0.5
 40
0.625
 40
0.625
 40
0.625
 40
0.625
 40
0.75
 40
0.75
 40
0.75
 40
0.75
 40
0.875
 40
0.875
 40
0.875
 40
0.875
 40
1.0
 40
1.0
 40
1.0
 40
1.0
 10
0.71896
 20
6.6339100000000002
 30
0.0
 10
0.71896
 20
6.6339100000000002
 30
0.0
 10
0.7164200000000001
 20
6.6339100000000002
 30
0.0
 10
0.7164200000000001
 20
6.6339100000000002
 30
0.0
 10
0.7164200000000001
 20
6.6339100000000002
 30
0.0
 10
0.38368
 20
6.5373900000000003
 30
0.0
 10
0.10428
 20
6.4815100000000001
 30
0.0
 10
-0.11415
 20
6.4713500000000002
 30
0.0
 10
-0.11415
 20
6.4713500000000002
 30
0.0
 10
-0.4291100000000001
 20
6.4586500000000004
 30
0.0
 10
-1.2774700000000001
 20
6.7329700000000008
 30
0.0
 10
-1.4324100000000002
 20
6.2605300000000002
 30
0.0
 10
-1.4324100000000002
 20
6.2605300000000002
 30
0.0
 10
-1.4324100000000002
 20
6.2529100000000009
 30
0.0
 10
-1.42225
 20
6.2452900000000007
 30
0.0
 10
-1.41717
 20
6.2529100000000009
 30
0.0
 10
-1.41717
 20
6.2529100000000009
 30
0.0
 10
-1.0742700000000001
 20
6.5729500000000005
 30
0.0
 10
-0.63993
 20
6.4357900000000008
 30
0.0
 10
-0.21575
 20
6.3849900000000002
 30
0.0
 10
-0.21575
 20
6.3849900000000002
 30
0.0
 10
0.09158
 20
6.3468900000000001
 30
0.0
 10
0.3659
 20
6.3773700000000009
 30
0.0
 10
0.6707000000000001
 20
6.4408700000000003
 30
0.0
 10
0.6707000000000001
 20
6.4408700000000003
 30
0.0
 10
0.6732400000000001
 20
6.4408700000000003
 30
0.0
 10
0.6732400000000001
 20
6.443410000000001
 30
0.0
 10
0.6757800000000001
 20
6.443410000000001
 30
0.0
 10
0.6757800000000001
 20
6.443410000000001
 30
0.0
 10
0.7265800000000001
 20
6.4967500000000005
 30
0.0
 10
0.8815200000000001
 20
6.6948700000000008
 30
0.0
 10
0.71896
 20
6.6339100000000002
 30
0.0
  0
SPLINE
  5
26
100
AcDbEntity
  8
Ebene 1
 62
     1
100
AcDbSpline
210
0.0
220
0.0
230
1.0
 70
     1
 71
     3
 72
   168
 73
   164
 74
     0
 42
0.0000000001
 43
0.0000000001
 40
0.0
 40
0.0
 40
0.0
 40
0.0
 40
0.024390243902439
 40
0.024390243902439
 40
0.024390243902439
 40
0.024390243902439
 40
0.0487804878048781
 40
0.0487804878048781
 40
0.0487804878048781
 40
0.0487804878048781
 40
0.0731707317073171
 40
0.0731707317073171
 40
0.0731707317073171
 40
0.0731707317073171
 40
0.0975609756097561
 40
0.0975609756097561
 40
0.0975609756097561
 40
0.0975609756097561
 40
0.1219512195121951
 40
0.1219512195121951
 40
0.1219512195121951
 40
0.1219512195121951
 40
0.1463414634146341
 40
0.1463414634146341
 40
0.1463414634146341
 40
0.1463414634146341
 40
0.1707317073170732
 40
0.1707317073170732
 40
0.1707317073170732
 40
0.1707317073170732
 40
0.1951219512195122
 40
0.1951219512195122
 40
0.1951219512195122
 40
0.1951219512195122
 40
0.2195121951219512
 40
0.2195121951219512
 40
0.2195121951219512
 40
0.2195121951219512
 40
0.2439024390243902
 40
0.2439024390243902
 40
0.2439024390243902
 40
0.2439024390243902
 40
0.2682926829268292
 40
0.2682926829268292
 40
0.2682926829268292
 40
0.2682926829268292
 40
0.2926829268292683
 40
0.2926829268292683
 40
0.2926829268292683
 40
0.2926829268292683
 40
0.3170731707317073
 40
0.3170731707317073
 40
0.3170731707317073
 40
0.3170731707317073
 40
0.3414634146341464
 40
0.3414634146341464
 40
0.3414634146341464
 40
0.3414634146341464
 40
0.3658536585365854
 40
0.3658536585365854
 40
0.3658536585365854
 40
0.3658536585365854
 40
0.3902439024390245
 40
0.3902439024390245
 40
0.3902439024390245
 40
0.3902439024390245
 40
0.4146341463414635
 40
0.4146341463414635
 40
0.4146341463414635
 40
0.4146341463414635
 40
0.4390243902439026
 40
0.4390243902439026
 40
0.4390243902439026
 40
0.4390243902439026
 40
0.4634146341463416
 40
0.4634146341463416
 40
0.4634146341463416
 40
0.4634146341463416
 40
0.4878048780487806
 40
0.4878048780487806
 40
0.4878048780487806
 40
0.4878048780487806
 40
0.5121951219512196
 40
0.5121951219512196
 40
0.5121951219512196
 40
0.5121951219512196
 40
0.5365853658536587
 40
0.5365853658536587
 40
0.5365853658536587
 40
0.5365853658536587
 40
0.5609756097560977
 40
0.5609756097560977
 40
0.5609756097560977
 40
0.5609756097560977
 40
0.5853658536585368
 40
0.5853658536585368
 40
0.5853658536585368
 40
0.5853658536585368
 40
0.6097560975609758
 40
0.6097560975609758
 40
0.6097560975609758
 40
0.6097560975609758
 40
0.6341463414634149
 40
0.6341463414634149
 40
0.6341463414634149
 40
0.6341463414634149
 40
0.6585365853658539
 40
0.6585365853658539
 40
0.6585365853658539
 40
0.6585365853658539
 40
0.682926829268293
 40
0.682926829268293
 40
0.682926829268293
 40
0.682926829268293
 40
0.707317073170732
 40
0.707317073170732
 40
0.707317073170732
 40
0.707317073170732
 40
0.7317073170731711
 40
0.7317073170731711
 40
0.7317073170731711
 40
0.7317073170731711
 40
0.7560975609756101
 40
0.7560975609756101
 40
0.7560975609756101
 40
0.7560975609756101
 40
0.7804878048780491
 40
0.7804878048780491
 40
0.7804878048780491
 40
0.7804878048780491
 40
0.8048780487804882
 40
0.8048780487804882
 40
0.8048780487804882
 40
0.8048780487804882
 40
0.8292682926829272
 40
0.8292682926829272
 40
0.8292682926829272
 40
0.8292682926829272
 40
0.8536585365853663
 40
0.8536585365853663
 40
0.8536585365853663
 40
0.8536585365853663
 40
0.8780487804878053
 40
0.8780487804878053
 40
0.8780487804878053
 40
0.8780487804878053
 40
0.9024390243902444
 40
0.9024390243902444
 40
0.9024390243902444
 40
0.9024390243902444
 40
0.9268292682926834
 40
0.9268292682926834
 40
0.9268292682926834
 40
0.9268292682926834
 40
0.9512195121951225
 40
0.9512195121951225
 40
0.9512195121951225
 40
0.9512195121951225
 40
0.9756097560975615
 40
0.9756097560975615
 40
0.9756097560975615
 40
0.9756097560975615
 40
1.0
 40
1.0
 40
1.0
 40
1.0
 10
-9.1235300000000006
 20
6.3545100000000003
 30
0.0
 10
-9.1184500000000011
 20
6.3545100000000003
 30
0.0
 10
-9.1133700000000015
 20
6.3545100000000003
 30
0.0
 10
-9.11083
 20
6.3519700000000006
 30
0.0
 10
-9.11083
 20
6.3519700000000006
 30
0.0
 10
-8.4529700000000005
 20
6.2808500000000009
 30
0.0
 10
-7.8814700000000011
 20
5.9455700000000009
 30
0.0
 10
-7.2439300000000006
 20
5.7957100000000006
 30
0.0
 10
-7.2439300000000006
 20
5.7957100000000006
 30
0.0
 10
-7.172810000000001
 20
5.7779300000000005
 30
0.0
 10
-6.9137300000000002
 20
5.7068100000000008
 30
0.0
 10
-6.837530000000001
 20
5.7652300000000007
 30
0.0
 10
-6.837530000000001
 20
5.7652300000000007
 30
0.0
 10
-6.7384700000000004
 20
5.8693700000000009
 30
0.0
 10
-7.2642500000000005
 20
6.0928900000000006
 30
0.0
 10
-7.3099700000000007
 20
6.1081300000000001
 30
0.0
 10
-7.3099700000000007
 20
6.1081300000000001
 30
0.0
 10
-7.3658500000000009
 20
6.1259100000000002
 30
0.0
 10
-7.5817500000000004
 20
6.3087900000000001
 30
0.0
 10
-7.4344300000000008
 20
6.2452900000000007
 30
0.0
 10
-7.4344300000000008
 20
6.2452900000000007
 30
0.0
 10
-6.9086500000000006
 20
6.0319300000000009
 30
0.0
 10
-6.2457100000000008
 20
5.9836700000000009
 30
0.0
 10
-5.6843700000000004
 20
6.0192300000000003
 30
0.0
 10
-5.6843700000000004
 20
6.0192300000000003
 30
0.0
 10
-5.6818300000000006
 20
6.0192300000000003
 30
0.0
 10
-5.6818300000000006
 20
6.0192300000000003
 30
0.0
 10
-5.6818300000000006
 20
6.0192300000000003
 30
0.0
 10
-5.6818300000000006
 20
6.0192300000000003
 30
0.0
 10
-5.0290500000000007
 20
5.7195100000000005
 30
0.0
 10
-4.3153100000000002
 20
5.6458500000000003
 30
0.0
 10
-3.6955500000000003
 20
5.2902500000000003
 30
0.0
 10
-3.6955500000000003
 20
5.2902500000000003
 30
0.0
 10
-3.5355300000000005
 20
5.1988100000000008
 30
0.0
 10
-3.4390100000000001
 20
5.1226100000000008
 30
0.0
 10
-3.0300700000000003
 20
4.7644700000000002
 30
0.0
 10
-3.0300700000000003
 20
4.7644700000000002
 30
0.0
 10
-2.52461
 20
4.3199700000000005
 30
0.0
 10
-1.8946900000000002
 20
3.7332300000000003
 30
0.0
 10
-1.2215900000000002
 20
3.6240100000000002
 30
0.0
 10
-1.2215900000000002
 20
3.6240100000000002
 30
0.0
 10
-0.9447300000000001
 20
3.5782900000000004
 30
0.0
 10
-0.51039
 20
3.6798900000000003
 30
0.0
 10
-0.40879
 20
3.9745300000000001
 30
0.0
 10
-0.40879
 20
3.9745300000000001
 30
0.0
 10
-0.24623
 20
4.4520500000000007
 30
0.0
 10
-0.26655
 20
4.97783
 30
0.0
 10
-0.8405900000000001
 20
4.8711500000000001
 30
0.0
 10
-0.8405900000000001
 20
4.8711500000000001
 30
0.0
 10
-1.3130300000000001
 20
4.7822500000000003
 30
0.0
 10
-1.7194300000000002
 20
4.8711500000000001
 30
0.0
 10
-2.1232900000000003
 20
5.1556300000000004
 30
0.0
 10
-2.1232900000000003
 20
5.1556300000000004
 30
0.0
 10
-2.1563100000000004
 20
5.1759500000000003
 30
0.0
 10
-2.18425
 20
5.1962700000000002
 30
0.0
 10
-2.18425
 20
5.1988100000000008
 30
0.0
 10
-2.18425
 20
5.1988100000000008
 30
0.0
 10
-1.9023100000000002
 20
5.0591100000000004
 30
0.0
 10
-1.5314700000000001
 20
4.9448100000000004
 30
0.0
 10
-1.2215900000000002
 20
5.0616500000000002
 30
0.0
 10
-1.2215900000000002
 20
5.0616500000000002
 30
0.0
 10
-1.00061
 20
5.1480100000000002
 30
0.0
 10
-0.6932700000000001
 20
5.2013500000000006
 30
0.0
 10
-0.46213
 20
5.1251500000000005
 30
0.0
 10
-0.46213
 20
5.1251500000000005
 30
0.0
 10
-0.45705
 20
5.1226100000000008
 30
0.0
 10
-0.45705
 20
5.1226100000000008
 30
0.0
 10
-0.45705
 20
5.1200700000000001
 30
0.0
 10
-0.45705
 20
5.1200700000000001
 30
0.0
 10
-0.38085
 20
4.9829100000000004
 30
0.0
 10
-0.24877
 20
4.6298500000000002
 30
0.0
 10
-0.06843
 20
4.6933500000000006
 30
0.0
 10
-0.06843
 20
4.6933500000000006
 30
0.0
 10
-0.06589
 20
4.6933500000000006
 30
0.0
 10
-0.06081
 20
4.6933500000000006
 30
0.0
 10
-0.05827
 20
4.6908100000000008
 30
0.0
 10
-0.05827
 20
4.6908100000000008
 30
0.0
 10
-0.03287
 20
4.6628700000000007
 30
0.0
 10
-0.04303
 20
4.6171500000000005
 30
0.0
 10
-0.04557
 20
4.5815900000000003
 30
0.0
 10
-0.04557
 20
4.5815900000000003
 30
0.0
 10
-0.09891
 20
4.2132900000000006
 30
0.0
 10
-0.3122700000000001
 20
3.7637100000000001
 30
0.0
 10
-0.56881
 20
3.5020900000000004
 30
0.0
 10
-0.56881
 20
3.5020900000000004
 30
0.0
 10
-0.5992900000000001
 20
3.4690700000000003
 30
0.0
 10
-0.63993
 20
3.4335100000000001
 30
0.0
 10
-0.6704100000000001
 20
3.4081100000000002
 30
0.0
 10
-0.6704100000000001
 20
3.4081100000000002
 30
0.0
 10
-0.67803
 20
3.4030300000000002
 30
0.0
 10
-0.6881900000000001
 20
3.4131900000000002
 30
0.0
 10
-0.6831100000000001
 20
3.4208100000000004
 30
0.0
 10
-0.6831100000000001
 20
3.4208100000000004
 30
0.0
 10
-0.61199
 20
3.5249500000000005
 30
0.0
 10
-0.4291100000000001
 20
3.7459300000000004
 30
0.0
 10
-0.58913
 20
3.6646500000000004
 30
0.0
 10
-0.58913
 20
3.6646500000000004
 30
0.0
 10
-0.7720100000000001
 20
3.5732100000000004
 30
0.0
 10
-0.9777500000000001
 20
3.5376500000000002
 30
0.0
 10
-1.25207
 20
3.5478100000000001
 30
0.0
 10
-1.25207
 20
3.5478100000000001
 30
0.0
 10
-2.02677
 20
3.5782900000000004
 30
0.0
 10
-2.8446500000000001
 20
3.9796100000000005
 30
0.0
 10
-3.5279100000000003
 20
4.3479100000000006
 30
0.0
 10
-3.5279100000000003
 20
4.3479100000000006
 30
0.0
 10
-3.8657300000000001
 20
4.5307900000000005
 30
0.0
 10
-4.1705300000000003
 20
4.7314500000000006
 30
0.0
 10
-4.5388300000000008
 20
4.8305100000000003
 30
0.0
 10
-4.5388300000000008
 20
4.8305100000000003
 30
0.0
 10
-4.5413700000000006
 20
4.8305100000000003
 30
0.0
 10
-4.5413700000000006
 20
4.8305100000000003
 30
0.0
 10
-4.5439100000000003
 20
4.8305100000000003
 30
0.0
 10
-4.5439100000000003
 20
4.8305100000000003
 30
0.0
 10
-4.9249100000000006
 20
5.2115100000000005
 30
0.0
 10
-5.4506900000000007
 20
5.4020100000000006
 30
0.0
 10
-5.9586900000000007
 20
5.5467900000000006
 30
0.0
 10
-5.9586900000000007
 20
5.5467900000000006
 30
0.0
 10
-5.9993300000000005
 20
5.5569500000000005
 30
0.0
 10
-6.3117500000000009
 20
5.64839
 30
0.0
 10
-6.1060100000000004
 20
5.6128300000000007
 30
0.0
 10
-6.1060100000000004
 20
5.6128300000000007
 30
0.0
 10
-5.4710100000000006
 20
5.4959900000000008
 30
0.0
 10
-4.9299900000000001
 20
5.2775500000000006
 30
0.0
 10
-4.3508700000000005
 20
4.9930700000000003
 30
0.0
 10
-4.3508700000000005
 20
4.9930700000000003
 30
0.0
 10
-4.2645100000000005
 20
4.9498900000000008
 30
0.0
 10
-3.2434300000000005
 20
4.46983
 30
0.0
 10
-3.5050500000000002
 20
4.8660700000000006
 30
0.0
 10
-3.5050500000000002
 20
4.8660700000000006
 30
0.0
 10
-3.5990300000000004
 20
5.0108500000000005
 30
0.0
 10
-3.8809700000000005
 20
5.2089700000000008
 30
0.0
 10
-4.1883100000000004
 20
5.3410500000000001
 30
0.0
 10
-4.1883100000000004
 20
5.3410500000000001
 30
0.0
 10
-4.5794700000000006
 20
5.5137700000000001
 30
0.0
 10
-5.0315900000000005
 20
5.6407700000000007
 30
0.0
 10
-5.6411900000000008
 20
5.7626900000000001
 30
0.0
 10
-5.6411900000000008
 20
5.7626900000000001
 30
0.0
 10
-5.7580300000000006
 20
5.7855500000000006
 30
0.0
 10
-6.1949100000000001
 20
5.8719100000000006
 30
0.0
 10
-6.2939700000000007
 20
5.8871500000000001
 30
0.0
 10
-6.2939700000000007
 20
5.8871500000000001
 30
0.0
 10
-6.3015900000000009
 20
5.8896900000000008
 30
0.0
 10
-6.3066700000000004
 20
5.8820700000000006
 30
0.0
 10
-6.3015900000000009
 20
5.8769900000000002
 30
0.0
 10
-6.3015900000000009
 20
5.8769900000000002
 30
0.0
 10
-6.1822100000000004
 20
5.7118900000000004
 30
0.0
 10
-6.1898300000000006
 20
5.6255300000000004
 30
0.0
 10
-6.4362100000000009
 20
5.5467900000000006
 30
0.0
 10
-6.4362100000000009
 20
5.5467900000000006
 30
0.0
 10
-6.885790000000001
 20
5.3994700000000009
 30
0.0
 10
-7.4141100000000009
 20
5.7398300000000004
 30
0.0
 10
-7.8357500000000009
 20
5.8439700000000006
 30
0.0
 10
-7.8357500000000009
 20
5.8439700000000006
 30
0.0
 10
-7.9170300000000005
 20
5.8617500000000007
 30
0.0
 10
-8.0414900000000014
 20
5.8566700000000003
 30
0.0
 10
-8.0999100000000013
 20
5.9125500000000004
 30
0.0
 10
-8.0999100000000013
 20
5.9125500000000004
 30
0.0
 10
-8.3589900000000004
 20
6.1563900000000009
 30
0.0
 10
-8.7907900000000012
 20
6.2605300000000002
 30
0.0
 10
-9.1260700000000003
 20
6.3392700000000008
 30
0.0
 10
-9.1260700000000003
 20
6.3392700000000008
 30
0.0
 10
-9.1336900000000014
 20
6.3392700000000008
 30
0.0
 10
-9.1336900000000014
 20
6.3545100000000003
 30
0.0
 10
-9.1235300000000006
 20
6.3545100000000003
 30
0.0
  0
SPLINE
  5
27
100
AcDbEntity
  8
Ebene 1
 62
     1
100
AcDbSpline
210
0.0
220
0.0
230
1.0
 70
     1
 71
     3
 72
   144
 73
   140
 74
     0
 42
0.0000000001
 43
0.0000000001
 40
0.0
 40
0.0
 40
0.0
 40
0.0
 40
0.0285714285714286
 40
0.0285714285714286
 40
0.0285714285714286
 40
0.0285714285714286
 40
0.0571428571428571
 40
0.0571428571428571
 40
0.0571428571428571
 40
0.0571428571428571
 40
0.0857142857142857
 40
0.0857142857142857
 40
0.0857142857142857
 40
0.0857142857142857
 40
0.1142857142857143
 40
0.1142857142857143
 40
0.1142857142857143
 40
0.1142857142857143
 40
0.1428571428571429
 40
0.1428571428571429
 40
0.1428571428571429
 40
0.1428571428571429
 40
0.1714285714285714
 40
0.1714285714285714
 40
0.1714285714285714
 40
0.1714285714285714
 40
0.2
 40
0.2
 40
0.2
 40
0.2
 40
0.2285714285714286
 40
0.2285714285714286
 40
0.2285714285714286
 40
0.2285714285714286
 40
0.2571428571428572
 40
0.2571428571428572
 40
0.2571428571428572
 40
0.2571428571428572
 40
0.2857142857142858
 40
0.2857142857142858
 40
0.2857142857142858
 40
0.2857142857142858
 40
0.3142857142857143
 40
0.3142857142857143
 40
0.3142857142857143
 40
0.3142857142857143
 40
0.3428571428571429
 40
0.3428571428571429
 40
0.3428571428571429
 40
0.3428571428571429
 40
0.3714285714285715
 40
0.3714285714285715
 40
0.3714285714285715
 40
0.3714285714285715
 40
0.4000000000000001
 40
0.4000000000000001
 40
0.4000000000000001
 40
0.4000000000000001
 40
0.4285714285714287
 40
0.4285714285714287
 40
0.4285714285714287
 40
0.4285714285714287
 40
0.4571428571428572
 40
0.4571428571428572
 40
0.4571428571428572
 40
0.4571428571428572
 40
0.4857142857142858
 40
0.4857142857142858
 40
0.4857142857142858
 40
0.4857142857142858
 40
0.5142857142857144
 40
0.5142857142857144
 40
0.5142857142857144
 40
0.5142857142857144
 40
0.5428571428571429
 40
0.5428571428571429
 40
0.5428571428571429
 40
0.5428571428571429
 40
0.5714285714285715
 40
0.5714285714285715
 40
0.5714285714285715
 40
0.5714285714285715
 40
0.6000000000000001
 40
0.6000000000000001
 40
0.6000000000000001
 40
0.6000000000000001
 40
0.6285714285714287
 40
0.6285714285714287
 40
0.6285714285714287
 40
0.6285714285714287
 40
0.6571428571428573
 40
0.6571428571428573
 40
0.6571428571428573
 40
0.6571428571428573
 40
0.6857142857142858
 40
0.6857142857142858
 40
0.6857142857142858
 40
0.6857142857142858
 40
0.7142857142857144
 40
0.7142857142857144
 40
0.7142857142857144
 40
0.7142857142857144
 40
0.742857142857143
 40
0.742857142857143
 40
0.742857142857143
 40
0.742857142857143
 40
0.7714285714285716
 40
0.7714285714285716
 40
0.7714285714285716
 40
0.7714285714285716
 40
0.8000000000000002
 40
0.8000000000000002
 40
0.8000000000000002
 40
0.8000000000000002
 40
0.8285714285714287
 40
0.8285714285714287
 40
0.8285714285714287
 40
0.8285714285714287
 40
0.8571428571428573
 40
0.8571428571428573
 40
0.8571428571428573
 40
0.8571428571428573
 40
0.8857142857142859
 40
0.8857142857142859
 40
0.8857142857142859
 40
0.8857142857142859
 40
0.9142857142857145
 40
0.9142857142857145
 40
0.9142857142857145
 40
0.9142857142857145
 40
0.9428571428571431
 40
0.9428571428571431
 40
0.9428571428571431
 40
0.9428571428571431
 40
0.9714285714285716
 40
0.9714285714285716
 40
0.9714285714285716
 40
0.9714285714285716
 40
1.0
 40
1.0
 40
1.0
 40
1.0
 10
9.1441400000000002
 20
6.3519700000000006
 30
0.0
 10
8.4812000000000012
 20
6.2757700000000005
 30
0.0
 10
7.9071600000000011
 20
5.9506500000000004
 30
0.0
 10
7.2696200000000006
 20
5.7957100000000006
 30
0.0
 10
7.2696200000000006
 20
5.7957100000000006
 30
0.0
 10
7.2289800000000008
 20
5.7830100000000009
 30
0.0
 10
6.7108200000000009
 20
5.6610900000000006
 30
0.0
 10
6.8835400000000009
 20
5.8515900000000007
 30
0.0
 10
6.8835400000000009
 20
5.8515900000000007
 30
0.0
 10
7.0105400000000007
 20
5.9938300000000009
 30
0.0
 10
7.2188200000000009
 20
6.0700300000000009
 30
0.0
 10
7.3966200000000004
 20
6.1335300000000004
 30
0.0
 10
7.3966200000000004
 20
6.1335300000000004
 30
0.0
 10
7.3991600000000002
 20
6.1335300000000004
 30
0.0
 10
7.3991600000000002
 20
6.1335300000000004
 30
0.0
 10
7.4017000000000008
 20
6.1360700000000001
 30
0.0
 10
7.4017000000000008
 20
6.1360700000000001
 30
0.0
 10
7.4398000000000009
 20
6.1843300000000001
 30
0.0
 10
7.6049000000000007
 20
6.318950000000001
 30
0.0
 10
7.4626600000000005
 20
6.2478300000000004
 30
0.0
 10
7.4626600000000005
 20
6.2478300000000004
 30
0.0
 10
7.4601200000000008
 20
6.2452900000000007
 30
0.0
 10
7.4601200000000008
 20
6.2452900000000007
 30
0.0
 10
7.4601200000000008
 20
6.2452900000000007
 30
0.0
 10
7.4601200000000008
 20
6.2452900000000007
 30
0.0
 10
6.8911600000000002
 20
6.0573300000000003
 30
0.0
 10
6.3095000000000008
 20
5.9836700000000009
 30
0.0
 10
5.7126000000000001
 20
6.0192300000000003
 30
0.0
 10
5.7126000000000001
 20
6.0192300000000003
 30
0.0
 10
5.7100600000000004
 20
6.0192300000000003
 30
0.0
 10
5.7100600000000004
 20
6.0192300000000003
 30
0.0
 10
5.7075200000000006
 20
6.0192300000000003
 30
0.0
 10
5.7075200000000006
 20
6.0192300000000003
 30
0.0
 10
5.4128800000000004
 20
5.8896900000000008
 30
0.0
 10
5.1207800000000008
 20
5.77285
 30
0.0
 10
4.8058200000000006
 20
5.6966500000000009
 30
0.0
 10
4.8058200000000006
 20
5.6966500000000009
 30
0.0
 10
4.3968800000000003
 20
5.6001300000000001
 30
0.0
 10
4.0489000000000006
 20
5.4807500000000005
 30
0.0
 10
3.6806000000000001
 20
5.26485
 30
0.0
 10
3.6806000000000001
 20
5.26485
 30
0.0
 10
3.1599000000000004
 20
4.9549700000000003
 30
0.0
 10
2.1032600000000001
 20
3.3522300000000005
 30
0.0
 10
1.4250800000000001
 20
3.8856300000000004
 30
0.0
 10
1.4250800000000001
 20
3.8856300000000004
 30
0.0
 10
1.4225400000000001
 20
3.8881700000000001
 30
0.0
 10
1.4225400000000001
 20
3.8907100000000003
 30
0.0
 10
1.4225400000000001
 20
3.8932500000000001
 30
0.0
 10
1.4225400000000001
 20
3.8932500000000001
 30
0.0
 10
1.4225400000000001
 20
4.3580700000000006
 30
0.0
 10
1.3895200000000001
 20
4.80511
 30
0.0
 10
1.2930000000000001
 20
5.2597700000000005
 30
0.0
 10
1.2930000000000001
 20
5.2597700000000005
 30
0.0
 10
1.27014
 20
5.3740700000000006
 30
0.0
 10
1.2244200000000001
 20
5.5391700000000004
 30
0.0
 10
1.1990200000000002
 20
5.6331500000000005
 30
0.0
 10
1.1990200000000002
 20
5.6331500000000005
 30
0.0
 10
1.19648
 20
5.6433100000000005
 30
0.0
 10
1.1837800000000001
 20
5.6407700000000007
 30
0.0
 10
1.1837800000000001
 20
5.6306100000000008
 30
0.0
 10
1.1837800000000001
 20
5.6306100000000008
 30
0.0
 10
1.2422000000000002
 20
4.96767
 30
0.0
 10
1.3412600000000001
 20
4.2513900000000007
 30
0.0
 10
1.2218800000000001
 20
3.5935300000000003
 30
0.0
 10
1.2218800000000001
 20
3.5935300000000003
 30
0.0
 10
1.14822
 20
3.1668100000000003
 30
0.0
 10
1.2980800000000001
 20
2.7832700000000004
 30
0.0
 10
1.5724
 20
2.46069
 30
0.0
 10
1.5724
 20
2.46069
 30
0.0
 10
1.6105
 20
2.4149700000000003
 30
0.0
 10
1.7171800000000002
 20
2.2752700000000003
 30
0.0
 10
1.6333600000000001
 20
2.4124300000000001
 30
0.0
 10
1.6333600000000001
 20
2.4124300000000001
 30
0.0
 10
1.4200000000000002
 20
2.75787
 30
0.0
 10
1.36158
 20
3.2912700000000004
 30
0.0
 10
1.4123800000000002
 20
3.6976700000000005
 30
0.0
 10
1.4123800000000002
 20
3.6976700000000005
 30
0.0
 10
1.4149200000000002
 20
3.7027500000000004
 30
0.0
 10
1.4174600000000002
 20
3.7052900000000002
 30
0.0
 10
1.4225400000000001
 20
3.7052900000000002
 30
0.0
 10
1.4225400000000001
 20
3.7052900000000002
 30
0.0
 10
2.3369400000000002
 20
3.5249500000000005
 30
0.0
 10
3.2183200000000003
 20
4.0735900000000003
 30
0.0
 10
3.9600000000000004
 20
4.5485700000000007
 30
0.0
 10
3.9600000000000004
 20
4.5485700000000007
 30
0.0
 10
4.1936800000000005
 20
4.7009700000000008
 30
0.0
 10
4.3156000000000008
 20
4.7593900000000007
 30
0.0
 10
4.5670600000000006
 20
4.8330500000000001
 30
0.0
 10
4.5670600000000006
 20
4.8330500000000001
 30
0.0
 10
4.5696000000000003
 20
4.8330500000000001
 30
0.0
 10
4.5721400000000001
 20
4.8330500000000001
 30
0.0
 10
4.5721400000000001
 20
4.8355900000000007
 30
0.0
 10
4.5721400000000001
 20
4.8355900000000007
 30
0.0
 10
4.9836200000000002
 20
5.1962700000000002
 30
0.0
 10
5.4255800000000001
 20
5.38931
 30
0.0
 10
5.9539000000000009
 20
5.5340900000000008
 30
0.0
 10
5.9539000000000009
 20
5.5340900000000008
 30
0.0
 10
6.0047000000000006
 20
5.5467900000000006
 30
0.0
 10
6.3704600000000005
 20
5.6534700000000004
 30
0.0
 10
6.1291600000000006
 20
5.6128300000000007
 30
0.0
 10
6.1291600000000006
 20
5.6128300000000007
 30
0.0
 10
5.5094000000000003
 20
5.5010700000000003
 30
0.0
 10
4.9531400000000003
 20
5.2800900000000004
 30
0.0
 10
4.3943400000000006
 20
5.0006900000000005
 30
0.0
 10
4.3943400000000006
 20
5.0006900000000005
 30
0.0
 10
4.3511600000000001
 20
4.97783
 30
0.0
 10
3.4494600000000002
 20
4.5282500000000008
 30
0.0
 10
3.4901000000000004
 20
4.7847900000000001
 30
0.0
 10
3.4901000000000004
 20
4.7847900000000001
 30
0.0
 10
3.4951800000000004
 20
4.8863900000000005
 30
0.0
 10
3.6780600000000003
 20
5.0565700000000007
 30
0.0
 10
3.9473000000000003
 20
5.2115100000000005
 30
0.0
 10
3.9473000000000003
 20
5.2115100000000005
 30
0.0
 10
4.5848400000000007
 20
5.5798100000000002
 30
0.0
 10
5.3697000000000008
 20
5.7093500000000006
 30
0.0
 10
6.0859800000000002
 20
5.8439700000000006
 30
0.0
 10
6.0859800000000002
 20
5.8439700000000006
 30
0.0
 10
6.0936000000000003
 20
5.8439700000000006
 30
0.0
 10
6.3780800000000006
 20
5.9354100000000001
 30
0.0
 10
6.3120400000000005
 20
5.8693700000000009
 30
0.0
 10
6.3120400000000005
 20
5.8693700000000009
 30
0.0
 10
6.2485400000000002
 20
5.7830100000000009
 30
0.0
 10
6.2307600000000001
 20
5.6966500000000009
 30
0.0
 10
6.317120000000001
 20
5.6128300000000007
 30
0.0
 10
6.317120000000001
 20
5.6128300000000007
 30
0.0
 10
6.652400000000001
 20
5.2877100000000006
 30
0.0
 10
7.6836400000000005
 20
5.8236500000000007
 30
0.0
 10
8.0900400000000001
 20
5.8871500000000001
 30
0.0
 10
8.0900400000000001
 20
5.8871500000000001
 30
0.0
 10
8.0900400000000001
 20
5.8871500000000001
 30
0.0
 10
8.0925799999999999
 20
5.8871500000000001
 30
0.0
 10
8.0925799999999999
 20
5.8896900000000008
 30
0.0
 10
8.0925799999999999
 20
5.8896900000000008
 30
0.0
 10
8.3897600000000008
 20
6.1436900000000003
 30
0.0
 10
8.7758400000000005
 20
6.2554500000000006
 30
0.0
 10
9.1517600000000012
 20
6.3392700000000008
 30
0.0
 10
9.1517600000000012
 20
6.3392700000000008
 30
0.0
 10
9.2457400000000014
 20
6.3621300000000005
 30
0.0
 10
9.2457400000000014
 20
6.3646700000000003
 30
0.0
 10
9.1441400000000002
 20
6.3519700000000006
 30
0.0
  0
SPLINE
  5
28
100
AcDbEntity
  8
Ebene 1
 62
     1
100
AcDbSpline
210
0.0
220
0.0
230
1.0
 70
     1
 71
     3
 72
    72
 73
    68
 74
     0
 42
0.0000000001
 43
0.0000000001
 40
0.0
 40
0.0
 40
0.0
 40
0.0
 40
0.0588235294117647
 40
0.0588235294117647
 40
0.0588235294117647
 40
0.0588235294117647
 40
0.1176470588235294
 40
0.1176470588235294
 40
0.1176470588235294
 40
0.1176470588235294
 40
0.1764705882352941
 40
0.1764705882352941
 40
0.1764705882352941
 40
0.1764705882352941
 40
0.2352941176470588
 40
0.2352941176470588
 40
0.2352941176470588
 40
0.2352941176470588
 40
0.2941176470588235
 40
0.2941176470588235
 40
0.2941176470588235
 40
0.2941176470588235
 40
0.3529411764705883
 40
0.3529411764705883
 40
0.3529411764705883
 40
0.3529411764705883
 40
0.411764705882353
 40
0.411764705882353
 40
0.411764705882353
 40
0.411764705882353
 40
0.4705882352941177
 40
0.4705882352941177
 40
0.4705882352941177
 40
0.4705882352941177
 40
0.5294117647058824
 40
0.5294117647058824
 40
0.5294117647058824
 40
0.5294117647058824
 40
0.5882352941176471
 40
0.5882352941176471
 40
0.5882352941176471
 40
0.5882352941176471
 40
0.6470588235294118
 40
0.6470588235294118
 40
0.6470588235294118
 40
0.6470588235294118
 40
0.7058823529411765
 40
0.7058823529411765
 40
0.7058823529411765
 40
0.7058823529411765
 40
0.7647058823529412
 40
0.7647058823529412
 40
0.7647058823529412
 40
0.7647058823529412
 40
0.823529411764706
 40
0.823529411764706
 40
0.823529411764706
 40
0.823529411764706
 40
0.8823529411764707
 40
0.8823529411764707
 40
0.8823529411764707
 40
0.8823529411764707
 40
0.9411764705882354
 40
0.9411764705882354
 40
0.9411764705882354
 40
0.9411764705882354
 40
1.0
 40
1.0
 40
1.0
 40
1.0
 10
-11.224110000000001
 20
6.3087900000000001
 30
0.0
 10
-11.224110000000001
 20
6.3062500000000004
 30
0.0
 10
-11.224110000000001
 20
6.3062500000000004
 30
0.0
 10
-11.224110000000001
 20
6.3062500000000004
 30
0.0
 10
-11.224110000000001
 20
6.3062500000000004
 30
0.0
 10
-10.75675
 20
6.0928900000000006
 30
0.0
 10
-10.291930000000001
 20
6.0243100000000007
 30
0.0
 10
-9.7864700000000013
 20
6.0116100000000001
 30
0.0
 10
-9.7864700000000013
 20
6.0116100000000001
 30
0.0
 10
-9.70519
 20
6.0090700000000004
 30
0.0
 10
-8.9025500000000015
 20
5.9887500000000005
 30
0.0
 10
-9.004150000000001
 20
5.7652300000000007
 30
0.0
 10
-9.004150000000001
 20
5.7652300000000007
 30
0.0
 10
-9.1565500000000011
 20
5.4350300000000002
 30
0.0
 10
-10.27923
 20
5.7296700000000005
 30
0.0
 10
-10.482430000000001
 20
5.7906300000000002
 30
0.0
 10
-10.482430000000001
 20
5.7906300000000002
 30
0.0
 10
-11.010750000000002
 20
5.9481100000000007
 30
0.0
 10
-11.52383
 20
6.2021100000000002
 30
0.0
 10
-12.087710000000001
 20
6.1487700000000007
 30
0.0
 10
-12.087710000000001
 20
6.1487700000000007
 30
0.0
 10
-12.163910000000001
 20
6.1411500000000006
 30
0.0
 10
-12.17661
 20
6.1360700000000001
 30
0.0
 10
-12.13597
 20
6.1335300000000004
 30
0.0
 10
-12.13597
 20
6.1335300000000004
 30
0.0
 10
-11.648290000000001
 20
6.0903500000000008
 30
0.0
 10
-11.285070000000001
 20
5.9455700000000009
 30
0.0
 10
-10.893910000000002
 20
5.6737900000000003
 30
0.0
 10
-10.893910000000002
 20
5.6737900000000003
 30
0.0
 10
-10.89137
 20
5.6737900000000003
 30
0.0
 10
-10.88883
 20
5.6737900000000003
 30
0.0
 10
-10.886290000000001
 20
5.6737900000000003
 30
0.0
 10
-10.886290000000001
 20
5.6737900000000003
 30
0.0
 10
-10.634830000000001
 20
5.6737900000000003
 30
0.0
 10
-10.41131
 20
5.6509300000000007
 30
0.0
 10
-10.170010000000001
 20
5.5747300000000006
 30
0.0
 10
-10.170010000000001
 20
5.5747300000000006
 30
0.0
 10
-9.6772500000000008
 20
5.4223300000000005
 30
0.0
 10
-9.2810100000000002
 20
5.4020100000000006
 30
0.0
 10
-8.793330000000001
 20
5.5544100000000007
 30
0.0
 10
-8.793330000000001
 20
5.5544100000000007
 30
0.0
 10
-8.5342500000000001
 20
5.6356900000000003
 30
0.0
 10
-8.3691500000000012
 20
5.6534700000000004
 30
0.0
 10
-8.1100700000000003
 20
5.6280700000000001
 30
0.0
 10
-8.1100700000000003
 20
5.6280700000000001
 30
0.0
 10
-8.102450000000001
 20
5.6255300000000004
 30
0.0
 10
-8.0999100000000013
 20
5.6356900000000003
 30
0.0
 10
-8.1049900000000008
 20
5.6407700000000007
 30
0.0
 10
-8.1049900000000008
 20
5.6407700000000007
 30
0.0
 10
-8.1659500000000005
 20
5.6839500000000003
 30
0.0
 10
-8.3335900000000009
 20
5.8033300000000008
 30
0.0
 10
-8.409790000000001
 20
5.8566700000000003
 30
0.0
 10
-8.409790000000001
 20
5.8566700000000003
 30
0.0
 10
-8.6739500000000014
 20
6.0319300000000009
 30
0.0
 10
-8.8949300000000004
 20
6.1106700000000007
 30
0.0
 10
-9.1997300000000006
 20
6.1411500000000006
 30
0.0
 10
-9.1997300000000006
 20
6.1411500000000006
 30
0.0
 10
-9.3673700000000011
 20
6.1589300000000007
 30
0.0
 10
-9.5858100000000004
 20
6.2427500000000009
 30
0.0
 10
-9.7407500000000002
 20
6.2173500000000006
 30
0.0
 10
-9.7407500000000002
 20
6.2173500000000006
 30
0.0
 10
-10.08365
 20
6.1132100000000005
 30
0.0
 10
-10.617050000000001
 20
6.1538500000000003
 30
0.0
 10
-11.21649
 20
6.318950000000001
 30
0.0
 10
-11.21649
 20
6.318950000000001
 30
0.0
 10
-11.31301
 20
6.3468900000000001
 30
0.0
 10
-11.300310000000001
 20
6.3494300000000008
 30
0.0
 10
-11.224110000000001
 20
6.3087900000000001
 30
0.0
  0
SPLINE
  5
29
100
AcDbEntity
  8
Ebene 1
 62
     1
100
AcDbSpline
210
0.0
220
0.0
230
1.0
 70
     1
 71
     3
 72
    72
 73
    68
 74
     0
 42
0.0000000001
 43
0.0000000001
 40
0.0
 40
0.0
 40
0.0
 40
0.0
 40
0.0588235294117647
 40
0.0588235294117647
 40
0.0588235294117647
 40
0.0588235294117647
 40
0.1176470588235294
 40
0.1176470588235294
 40
0.1176470588235294
 40
0.1176470588235294
 40
0.1764705882352941
 40
0.1764705882352941
 40
0.1764705882352941
 40
0.1764705882352941
 40
0.2352941176470588
 40
0.2352941176470588
 40
0.2352941176470588
 40
0.2352941176470588
 40
0.2941176470588235
 40
0.2941176470588235
 40
0.2941176470588235
 40
0.2941176470588235
 40
0.3529411764705883
 40
0.3529411764705883
 40
0.3529411764705883
 40
0.3529411764705883
 40
0.411764705882353
 40
0.411764705882353
 40
0.411764705882353
 40
0.411764705882353
 40
0.4705882352941177
 40
0.4705882352941177
 40
0.4705882352941177
 40
0.4705882352941177
 40
0.5294117647058824
 40
0.5294117647058824
 40
0.5294117647058824
 40
0.5294117647058824
 40
0.5882352941176471
 40
0.5882352941176471
 40
0.5882352941176471
 40
0.5882352941176471
 40
0.6470588235294118
 40
0.6470588235294118
 40
0.6470588235294118
 40
0.6470588235294118
 40
0.7058823529411765
 40
0.7058823529411765
 40
0.7058823529411765
 40
0.7058823529411765
 40
0.7647058823529412
 40
0.7647058823529412
 40
0.7647058823529412
 40
0.7647058823529412
 40
0.823529411764706
 40
0.823529411764706
 40
0.823529411764706
 40
0.823529411764706
 40
0.8823529411764707
 40
0.8823529411764707
 40
0.8823529411764707
 40
0.8823529411764707
 40
0.9411764705882354
 40
0.9411764705882354
 40
0.9411764705882354
 40
0.9411764705882354
 40
1.0
 40
1.0
 40
1.0
 40
1.0
 10
11.277740000000001
 20
6.3367300000000002
 30
0.0
 10
11.313300000000002
 20
6.3443500000000004
 30
0.0
 10
11.313300000000002
 20
6.3443500000000004
 30
0.0
 10
11.280280000000001
 20
6.3265700000000002
 30
0.0
 10
11.280280000000001
 20
6.3265700000000002
 30
0.0
 10
10.802760000000001
 20
6.0954300000000003
 30
0.0
 10
10.327780000000001
 20
6.0217700000000001
 30
0.0
 10
9.8045400000000011
 20
6.0116100000000001
 30
0.0
 10
9.8045400000000011
 20
6.0116100000000001
 30
0.0
 10
9.6597600000000003
 20
6.0065300000000006
 30
0.0
 10
8.808860000000001
 20
5.9506500000000004
 30
0.0
 10
9.0577800000000011
 20
5.7245900000000001
 30
0.0
 10
9.0577800000000011
 20
5.7245900000000001
 30
0.0
 10
9.3168600000000001
 20
5.4909100000000004
 30
0.0
 10
10.071240000000001
 20
5.6737900000000003
 30
0.0
 10
10.360800000000001
 20
5.7499900000000004
 30
0.0
 10
10.360800000000001
 20
5.7499900000000004
 30
0.0
 10
10.937380000000001
 20
5.9023900000000005
 30
0.0
 10
11.503800000000002
 20
6.2097300000000004
 30
0.0
 10
12.11594
 20
6.1487700000000007
 30
0.0
 10
12.11594
 20
6.1487700000000007
 30
0.0
 10
12.19214
 20
6.1411500000000006
 30
0.0
 10
12.199760000000001
 20
6.1360700000000001
 30
0.0
 10
12.159120000000001
 20
6.1335300000000004
 30
0.0
 10
12.159120000000001
 20
6.1335300000000004
 30
0.0
 10
11.67398
 20
6.0903500000000008
 30
0.0
 10
11.305680000000001
 20
5.9557300000000009
 30
0.0
 10
10.917060000000001
 20
5.6737900000000003
 30
0.0
 10
10.917060000000001
 20
5.6737900000000003
 30
0.0
 10
10.914520000000001
 20
5.6737900000000003
 30
0.0
 10
10.914520000000001
 20
5.6737900000000003
 30
0.0
 10
10.911980000000002
 20
5.6737900000000003
 30
0.0
 10
10.911980000000002
 20
5.6737900000000003
 30
0.0
 10
10.381120000000001
 20
5.6712500000000006
 30
0.0
 10
9.9239200000000007
 20
5.4401100000000007
 30
0.0
 10
9.403220000000001
 20
5.4502700000000006
 30
0.0
 10
9.403220000000001
 20
5.4502700000000006
 30
0.0
 10
8.9765000000000015
 20
5.4553500000000001
 30
0.0
 10
8.6107399999999998
 20
5.6941100000000002
 30
0.0
 10
8.1890999999999998
 20
5.6331500000000005
 30
0.0
 10
8.1890999999999998
 20
5.6331500000000005
 30
0.0
 10
8.0925799999999999
 20
5.6179100000000002
 30
0.0
 10
8.0875000000000004
 20
5.6128300000000007
 30
0.0
 10
8.2195800000000006
 20
5.7042700000000002
 30
0.0
 10
8.2195800000000006
 20
5.7042700000000002
 30
0.0
 10
8.5675600000000003
 20
5.9582700000000006
 30
0.0
 10
8.7402800000000003
 20
6.0497100000000001
 30
0.0
 10
8.9587200000000013
 20
6.1030500000000005
 30
0.0
 10
8.9587200000000013
 20
6.1030500000000005
 30
0.0
 10
9.2051000000000016
 20
6.1640100000000002
 30
0.0
 10
9.4591000000000012
 20
6.1589300000000007
 30
0.0
 10
9.710560000000001
 20
6.2300500000000003
 30
0.0
 10
9.710560000000001
 20
6.2300500000000003
 30
0.0
 10
9.7131000000000007
 20
6.2300500000000003
 30
0.0
 10
9.7131000000000007
 20
6.2300500000000003
 30
0.0
 10
9.7156400000000005
 20
6.2300500000000003
 30
0.0
 10
9.7156400000000005
 20
6.2300500000000003
 30
0.0
 10
10.1957
 20
6.1005100000000008
 30
0.0
 10
10.69354
 20
6.1767100000000008
 30
0.0
 10
11.165980000000001
 20
6.3037100000000006
 30
0.0
 10
11.165980000000001
 20
6.3037100000000006
 30
0.0
 10
11.21424
 20
6.3164100000000003
 30
0.0
 10
11.265040000000001
 20
6.3316500000000007
 30
0.0
 10
11.275200000000002
 20
6.3367300000000002
 30
0.0
 10
11.275200000000002
 20
6.3367300000000002
 30
0.0
 10
11.277740000000001
 20
6.3367300000000002
 30
0.0
 10
11.277740000000001
 20
6.3367300000000002
 30
0.0
 10
11.277740000000001
 20
6.3367300000000002
 30
0.0
  0
SPLINE
  5
2A
100
AcDbEntity
  8
Ebene 1
 62
     1
100
AcDbSpline
210
0.0
220
0.0
230
1.0
 70
     1
 71
     3
 72
    28
 73
    24
 74
     0
 42
0.0000000001
 43
0.0000000001
 40
0.0
 40
0.0
 40
0.0
 40
0.0
 40
0.1666666666666667
 40
0.1666666666666667
 40
0.1666666666666667
 40
0.1666666666666667
 40
0.3333333333333333
 40
0.3333333333333333
 40
0.3333333333333333
 40
0.3333333333333333
 40
0.5
 40
0.5
 40
0.5
 40
0.5
 40
0.6666666666666666
 40
0.6666666666666666
 40
0.6666666666666666
 40
0.6666666666666666
 40
0.8333333333333333
 40
0.8333333333333333
 40
0.8333333333333333
 40
0.8333333333333333
 40
1.0
 40
1.0
 40
1.0
 40
1.0
 10
0.9577200000000001
 20
6.2986300000000002
 30
0.0
 10
0.9805800000000001
 20
6.3316500000000007
 30
0.0
 10
0.9374000000000001
 20
6.1436900000000003
 30
0.0
 10
0.9272400000000001
 20
6.1208300000000007
 30
0.0
 10
0.9272400000000001
 20
6.1208300000000007
 30
0.0
 10
0.8332600000000001
 20
5.9354100000000001
 30
0.0
 10
-0.13701
 20
6.1233700000000004
 30
0.0
 10
-0.38847
 20
6.1817900000000003
 30
0.0
 10
-0.38847
 20
6.1817900000000003
 30
0.0
 10
-0.6424700000000001
 20
6.2402100000000003
 30
0.0
 10
-0.8304300000000001
 20
6.2859300000000005
 30
0.0
 10
-1.0539500000000002
 20
6.1767100000000008
 30
0.0
 10
-1.0539500000000002
 20
6.1767100000000008
 30
0.0
 10
-1.0615700000000001
 20
6.1716300000000004
 30
0.0
 10
-1.0717300000000001
 20
6.1843300000000001
 30
0.0
 10
-1.0615700000000001
 20
6.1919500000000003
 30
0.0
 10
-1.0615700000000001
 20
6.1919500000000003
 30
0.0
 10
-0.7542300000000001
 20
6.4129300000000002
 30
0.0
 10
-0.28433
 20
6.2148100000000008
 30
0.0
 10
0.05856
 20
6.1843300000000001
 30
0.0
 10
0.05856
 20
6.1843300000000001
 30
0.0
 10
0.16016
 20
6.1767100000000008
 30
0.0
 10
0.8815200000000001
 20
6.1538500000000003
 30
0.0
 10
0.9577200000000001
 20
6.2986300000000002
 30
0.0
  0
SPLINE
  5
2B
100
AcDbEntity
  8
Ebene 1
 62
     1
100
AcDbSpline
210
0.0
220
0.0
230
1.0
 70
     1
 71
     3
 72
    36
 73
    32
 74
     0
 42
0.0000000001
 43
0.0000000001
 40
0.0
 40
0.0
 40
0.0
 40
0.0
 40
0.125
 40
0.125
 40
0.125
 40
0.125
 40
0.25
 40
0.25
 40
0.25
 40
0.25
 40
0.375
 40
0.375
 40
0.375
 40
0.375
 40
0.5
 40
0.5
 40
0.5
 40
0.5
 40
0.625
 40
0.625
 40
0.625
 40
0.625
 40
0.75
 40
0.75
 40
0.75
 40
0.75
 40
0.875
 40
0.875
 40
0.875
 40
0.875
 40
1.0
 40
1.0
 40
1.0
 40
1.0
 10
-0.7135900000000001
 20
6.1436900000000003
 30
0.0
 10
-0.7872500000000001
 20
6.1386100000000008
 30
0.0
 10
-0.8329700000000001
 20
6.1284500000000008
 30
0.0
 10
-0.8812300000000001
 20
6.1030500000000005
 30
0.0
 10
-0.8812300000000001
 20
6.1030500000000005
 30
0.0
 10
-0.8913900000000001
 20
6.0979700000000001
 30
0.0
 10
-0.88631
 20
6.0852700000000004
 30
0.0
 10
-0.8761500000000001
 20
6.0878100000000002
 30
0.0
 10
-0.8761500000000001
 20
6.0878100000000002
 30
0.0
 10
-0.53579
 20
6.1843300000000001
 30
0.0
 10
-0.19035
 20
6.0014500000000002
 30
0.0
 10
0.10428
 20
5.8439700000000006
 30
0.0
 10
0.10428
 20
5.8439700000000006
 30
0.0
 10
0.41416
 20
5.6814100000000005
 30
0.0
 10
0.89168
 20
5.56203
 30
0.0
 10
1.2117200000000001
 20
5.7779300000000005
 30
0.0
 10
1.2117200000000001
 20
5.7779300000000005
 30
0.0
 10
1.2803000000000002
 20
5.8261900000000004
 30
0.0
 10
1.2828400000000002
 20
5.9125500000000004
 30
0.0
 10
1.2828400000000002
 20
5.9912900000000002
 30
0.0
 10
1.2828400000000002
 20
5.9912900000000002
 30
0.0
 10
1.2828400000000002
 20
6.1055900000000003
 30
0.0
 10
1.2803000000000002
 20
6.0852700000000004
 30
0.0
 10
1.18632
 20
6.0116100000000001
 30
0.0
 10
1.18632
 20
6.0116100000000001
 30
0.0
 10
0.61482
 20
5.5569500000000005
 30
0.0
 10
0.06872
 20
6.0598700000000001
 30
0.0
 10
-0.5154700000000001
 20
6.1360700000000001
 30
0.0
 10
-0.5154700000000001
 20
6.1360700000000001
 30
0.0
 10
-0.56881
 20
6.1436900000000003
 30
0.0
 10
-0.6856500000000001
 20
6.1487700000000007
 30
0.0
 10
-0.7135900000000001
 20
6.1436900000000003
 30
0.0
  0
SPLINE
  5
2C
100
AcDbEntity
  8
Ebene 1
 62
     1
100
AcDbSpline
210
0.0
220
0.0
230
1.0
 70
     1
 71
     3
 72
    52
 73
    48
 74
     0
 42
0.0000000001
 43
0.0000000001
 40
0.0
 40
0.0
 40
0.0
 40
0.0
 40
0.0833333333333333
 40
0.0833333333333333
 40
0.0833333333333333
 40
0.0833333333333333
 40
0.1666666666666667
 40
0.1666666666666667
 40
0.1666666666666667
 40
0.1666666666666667
 40
0.25
 40
0.25
 40
0.25
 40
0.25
 40
0.3333333333333333
 40
0.3333333333333333
 40
0.3333333333333333
 40
0.3333333333333333
 40
0.4166666666666666
 40
0.4166666666666666
 40
0.4166666666666666
 40
0.4166666666666666
 40
0.4999999999999999
 40
0.4999999999999999
 40
0.4999999999999999
 40
0.4999999999999999
 40
0.5833333333333333
 40
0.5833333333333333
 40
0.5833333333333333
 40
0.5833333333333333
 40
0.6666666666666666
 40
0.6666666666666666
 40
0.6666666666666666
 40
0.6666666666666666
 40
0.75
 40
0.75
 40
0.75
 40
0.75
 40
0.8333333333333334
 40
0.8333333333333334
 40
0.8333333333333334
 40
0.8333333333333334
 40
0.9166666666666667
 40
0.9166666666666667
 40
0.9166666666666667
 40
0.9166666666666667
 40
1.0
 40
1.0
 40
1.0
 40
1.0
 10
-1.6051300000000002
 20
6.1284500000000008
 30
0.0
 10
-1.9810500000000002
 20
6.0751100000000005
 30
0.0
 10
-2.2553700000000001
 20
5.7931700000000008
 30
0.0
 10
-2.26553
 20
5.4121700000000006
 30
0.0
 10
-2.26553
 20
5.4121700000000006
 30
0.0
 10
-2.26553
 20
5.4045500000000004
 30
0.0
 10
-2.2579100000000003
 20
5.3994700000000009
 30
0.0
 10
-2.2502900000000001
 20
5.4070900000000002
 30
0.0
 10
-2.2502900000000001
 20
5.4070900000000002
 30
0.0
 10
-1.8362700000000001
 20
5.8439700000000006
 30
0.0
 10
-1.50099
 20
5.7804700000000002
 30
0.0
 10
-1.0107700000000002
 20
5.5061500000000008
 30
0.0
 10
-1.0107700000000002
 20
5.5061500000000008
 30
0.0
 10
-0.9244100000000001
 20
5.4578900000000008
 30
0.0
 10
-0.8355100000000001
 20
5.4121700000000006
 30
0.0
 10
-0.7491500000000001
 20
5.3664500000000004
 30
0.0
 10
-0.7491500000000001
 20
5.3664500000000004
 30
0.0
 10
-0.73899
 20
5.3613700000000009
 30
0.0
 10
-0.74407
 20
5.35121
 30
0.0
 10
-0.7516900000000001
 20
5.35121
 30
0.0
 10
-0.7516900000000001
 20
5.35121
 30
0.0
 10
-1.1352300000000002
 20
5.3613700000000009
 30
0.0
 10
-1.4527300000000001
 20
5.5391700000000004
 30
0.0
 10
-1.8515100000000002
 20
5.4578900000000008
 30
0.0
 10
-1.8515100000000002
 20
5.4578900000000008
 30
0.0
 10
-2.2350500000000002
 20
5.3791500000000001
 30
0.0
 10
-1.7194300000000002
 20
5.4553500000000001
 30
0.0
 10
-1.63053
 20
5.4528100000000004
 30
0.0
 10
-1.63053
 20
5.4528100000000004
 30
0.0
 10
-1.2698500000000001
 20
5.4477300000000008
 30
0.0
 10
-0.82789
 20
5.1556300000000004
 30
0.0
 10
-0.46467
 20
5.2775500000000006
 30
0.0
 10
-0.46467
 20
5.2775500000000006
 30
0.0
 10
-0.45705
 20
5.2800900000000004
 30
0.0
 10
-0.45705
 20
5.2877100000000006
 30
0.0
 10
-0.46213
 20
5.2927900000000001
 30
0.0
 10
-0.46213
 20
5.2927900000000001
 30
0.0
 10
-0.46721
 20
5.2978700000000005
 30
0.0
 10
-0.4799100000000001
 20
5.3105700000000002
 30
0.0
 10
-0.49515
 20
5.3207300000000002
 30
0.0
 10
-0.49515
 20
5.3207300000000002
 30
0.0
 10
-0.6932700000000001
 20
5.4985300000000006
 30
0.0
 10
-0.76439
 20
5.7703100000000003
 30
0.0
 10
-0.9675900000000001
 20
5.9404900000000005
 30
0.0
 10
-0.9675900000000001
 20
5.9404900000000005
 30
0.0
 10
-1.1403100000000002
 20
6.0878100000000002
 30
0.0
 10
-1.37907
 20
6.1640100000000002
 30
0.0
 10
-1.6051300000000002
 20
6.1284500000000008
 30
0.0
  0
SPLINE
  5
2D
100
AcDbEntity
  8
Ebene 1
 62
     1
100
AcDbSpline
210
0.0
220
0.0
230
1.0
 70
     1
 71
     3
 72
    16
 73
    12
 74
     0
 42
0.0000000001
 43
0.0000000001
 40
0.0
 40
0.0
 40
0.0
 40
0.0
 40
0.3333333333333333
 40
0.3333333333333333
 40
0.3333333333333333
 40
0.3333333333333333
 40
0.6666666666666666
 40
0.6666666666666666
 40
0.6666666666666666
 40
0.6666666666666666
 40
1.0
 40
1.0
 40
1.0
 40
1.0
 10
-1.63053
 20
6.0420900000000008
 30
0.0
 10
-1.8108700000000002
 20
6.0776500000000002
 30
0.0
 10
-1.9454900000000002
 20
5.9074700000000009
 30
0.0
 10
-1.9429500000000002
 20
5.9100100000000007
 30
0.0
 10
-1.9429500000000002
 20
5.9100100000000007
 30
0.0
 10
-1.8007100000000003
 20
5.9862100000000007
 30
0.0
 10
-1.7321300000000002
 20
6.0116100000000001
 30
0.0
 10
-1.63053
 20
6.0217700000000001
 30
0.0
 10
-1.63053
 20
6.0217700000000001
 30
0.0
 10
-1.5644900000000002
 20
6.0293900000000002
 30
0.0
 10
-1.58735
 20
6.0293900000000002
 30
0.0
 10
-1.63053
 20
6.0420900000000008
 30
0.0
  0
SPLINE
  5
2E
100
AcDbEntity
  8
Ebene 1
 62
     1
100
AcDbSpline
210
0.0
220
0.0
230
1.0
 70
     1
 71
     3
 72
    24
 73
    20
 74
     0
 42
0.0000000001
 43
0.0000000001
 40
0.0
 40
0.0
 40
0.0
 40
0.0
 40
0.2
 40
0.2
 40
0.2
 40
0.2
 40
0.4
 40
0.4
 40
0.4
 40
0.4
 40
0.6000000000000001
 40
0.6000000000000001
 40
0.6000000000000001
 40
0.6000000000000001
 40
0.8
 40
0.8
 40
0.8
 40
0.8
 40
1.0
 40
1.0
 40
1.0
 40
1.0
 10
-0.73899
 20
6.0471700000000004
 30
0.0
 10
-0.73899
 20
5.9379500000000007
 30
0.0
 10
-0.6704100000000001
 20
5.8185700000000002
 30
0.0
 10
-0.5586500000000001
 20
5.7449100000000008
 30
0.0
 10
-0.5586500000000001
 20
5.7449100000000008
 30
0.0
 10
-0.28941
 20
5.5671100000000004
 30
0.0
 10
-0.5459500000000001
 20
5.7652300000000007
 30
0.0
 10
-0.59167
 20
5.8363500000000004
 30
0.0
 10
-0.59167
 20
5.8363500000000004
 30
0.0
 10
-0.65263
 20
5.9252500000000001
 30
0.0
 10
-0.61199
 20
6.0700300000000009
 30
0.0
 10
-0.67549
 20
6.0725700000000007
 30
0.0
 10
-0.67549
 20
6.0725700000000007
 30
0.0
 10
-0.67803
 20
6.0725700000000007
 30
0.0
 10
-0.67803
 20
6.0725700000000007
 30
0.0
 10
-0.67803
 20
6.0725700000000007
 30
0.0
 10
-0.67803
 20
6.0725700000000007
 30
0.0
 10
-0.71867
 20
6.0801900000000009
 30
0.0
 10
-0.73899
 20
6.0954300000000003
 30
0.0
 10
-0.73899
 20
6.0471700000000004
 30
0.0
  0
SPLINE
  5
2F
100
AcDbEntity
  8
Ebene 1
 62
     1
100
AcDbSpline
210
0.0
220
0.0
230
1.0
 70
     1
 71
     3
 72
    28
 73
    24
 74
     0
 42
0.0000000001
 43
0.0000000001
 40
0.0
 40
0.0
 40
0.0
 40
0.0
 40
0.1666666666666667
 40
0.1666666666666667
 40
0.1666666666666667
 40
0.1666666666666667
 40
0.3333333333333333
 40
0.3333333333333333
 40
0.3333333333333333
 40
0.3333333333333333
 40
0.5
 40
0.5
 40
0.5
 40
0.5
 40
0.6666666666666666
 40
0.6666666666666666
 40
0.6666666666666666
 40
0.6666666666666666
 40
0.8333333333333333
 40
0.8333333333333333
 40
0.8333333333333333
 40
0.8333333333333333
 40
1.0
 40
1.0
 40
1.0
 40
1.0
 10
-0.50785
 20
6.0166900000000005
 30
0.0
 10
-0.50785
 20
6.0141500000000008
 30
0.0
 10
-0.50785
 20
6.0141500000000008
 30
0.0
 10
-0.50785
 20
6.0141500000000008
 30
0.0
 10
-0.50785
 20
6.0141500000000008
 30
0.0
 10
-0.48753
 20
5.8693700000000009
 30
0.0
 10
-0.38085
 20
5.7550700000000008
 30
0.0
 10
-0.23353
 20
5.8160300000000005
 30
0.0
 10
-0.23353
 20
5.8160300000000005
 30
0.0
 10
-0.05319
 20
5.8896900000000008
 30
0.0
 10
-0.18019
 20
5.9862100000000007
 30
0.0
 10
-0.21575
 20
5.9252500000000001
 30
0.0
 10
-0.21575
 20
5.9252500000000001
 30
0.0
 10
-0.29449
 20
5.7957100000000006
 30
0.0
 10
-0.4824500000000001
 20
5.8312700000000008
 30
0.0
 10
-0.39863
 20
6.0065300000000006
 30
0.0
 10
-0.39863
 20
6.0065300000000006
 30
0.0
 10
-0.39863
 20
6.0116100000000001
 30
0.0
 10
-0.39863
 20
6.0166900000000005
 30
0.0
 10
-0.40371
 20
6.0192300000000003
 30
0.0
 10
-0.40371
 20
6.0192300000000003
 30
0.0
 10
-0.43165
 20
6.0319300000000009
 30
0.0
 10
-0.5230900000000001
 20
6.0624100000000007
 30
0.0
 10
-0.50785
 20
6.0166900000000005
 30
0.0
  0
SPLINE
  5
30
100
AcDbEntity
  8
Ebene 1
 62
     1
100
AcDbSpline
210
0.0
220
0.0
230
1.0
 70
     1
 71
     3
 72
    16
 73
    12
 74
     0
 42
0.0000000001
 43
0.0000000001
 40
0.0
 40
0.0
 40
0.0
 40
0.0
 40
0.3333333333333333
 40
0.3333333333333333
 40
0.3333333333333333
 40
0.3333333333333333
 40
0.6666666666666666
 40
0.6666666666666666
 40
0.6666666666666666
 40
0.6666666666666666
 40
1.0
 40
1.0
 40
1.0
 40
1.0
 10
-0.34021
 20
5.9785900000000005
 30
0.0
 10
-0.38085
 20
5.9582700000000006
 30
0.0
 10
-0.33513
 20
5.8998500000000007
 30
0.0
 10
-0.30465
 20
5.9328700000000003
 30
0.0
 10
-0.30465
 20
5.9328700000000003
 30
0.0
 10
-0.30465
 20
5.9328700000000003
 30
0.0
 10
-0.30465
 20
5.9328700000000003
 30
0.0
 10
-0.3021100000000001
 20
5.9328700000000003
 30
0.0
 10
-0.3021100000000001
 20
5.9328700000000003
 30
0.0
 10
-0.27925
 20
5.9531900000000002
 30
0.0
 10
-0.30719
 20
5.9912900000000002
 30
0.0
 10
-0.34021
 20
5.9785900000000005
 30
0.0
  0
SPLINE
  5
31
100
AcDbEntity
  8
Ebene 1
 62
     1
100
AcDbSpline
210
0.0
220
0.0
230
1.0
 70
     1
 71
     3
 72
    40
 73
    36
 74
     0
 42
0.0000000001
 43
0.0000000001
 40
0.0
 40
0.0
 40
0.0
 40
0.0
 40
0.1111111111111111
 40
0.1111111111111111
 40
0.1111111111111111
 40
0.1111111111111111
 40
0.2222222222222222
 40
0.2222222222222222
 40
0.2222222222222222
 40
0.2222222222222222
 40
0.3333333333333333
 40
0.3333333333333333
 40
0.3333333333333333
 40
0.3333333333333333
 40
0.4444444444444444
 40
0.4444444444444444
 40
0.4444444444444444
 40
0.4444444444444444
 40
0.5555555555555556
 40
0.5555555555555556
 40
0.5555555555555556
 40
0.5555555555555556
 40
0.6666666666666667
 40
0.6666666666666667
 40
0.6666666666666667
 40
0.6666666666666667
 40
0.7777777777777779
 40
0.7777777777777779
 40
0.7777777777777779
 40
0.7777777777777779
 40
0.8888888888888891
 40
0.8888888888888891
 40
0.8888888888888891
 40
0.8888888888888891
 40
1.0
 40
1.0
 40
1.0
 40
1.0
 10
-13.197690000000001
 20
5.7880900000000004
 30
0.0
 10
-13.218010000000001
 20
5.8058700000000005
 30
0.0
 10
-13.218010000000001
 20
5.8058700000000005
 30
0.0
 10
-13.195150000000002
 20
5.7906300000000002
 30
0.0
 10
-13.195150000000002
 20
5.7906300000000002
 30
0.0
 10
-12.834470000000001
 20
5.6712500000000006
 30
0.0
 10
-12.494110000000001
 20
5.5366300000000006
 30
0.0
 10
-12.110570000000001
 20
5.6229900000000006
 30
0.0
 10
-12.110570000000001
 20
5.6229900000000006
 30
0.0
 10
-12.029290000000001
 20
5.6407700000000007
 30
0.0
 10
-12.036910000000001
 20
5.6433100000000005
 30
0.0
 10
-11.993730000000001
 20
5.6077500000000002
 30
0.0
 10
-11.993730000000001
 20
5.6077500000000002
 30
0.0
 10
-11.71687
 20
5.3766100000000003
 30
0.0
 10
-11.188550000000001
 20
5.1607100000000008
 30
0.0
 10
-10.73897
 20
5.10229
 30
0.0
 10
-10.73897
 20
5.10229
 30
0.0
 10
-10.502750000000001
 20
5.0718100000000002
 30
0.0
 10
-10.324950000000001
 20
5.0870500000000005
 30
0.0
 10
-10.23859
 20
5.1480100000000002
 30
0.0
 10
-10.23859
 20
5.1480100000000002
 30
0.0
 10
-10.134450000000001
 20
5.2191300000000007
 30
0.0
 10
-9.674710000000001
 20
5.0794300000000003
 30
0.0
 10
-9.4765900000000016
 20
5.1175300000000004
 30
0.0
 10
-9.4765900000000016
 20
5.1175300000000004
 30
0.0
 10
-9.3953100000000003
 20
5.14039
 30
0.0
 10
-9.425790000000001
 20
5.1149900000000006
 30
0.0
 10
-9.4689700000000006
 20
5.0692700000000004
 30
0.0
 10
-9.4689700000000006
 20
5.0692700000000004
 30
0.0
 10
-9.7940900000000006
 20
4.7238300000000004
 30
0.0
 10
-10.492590000000002
 20
4.8508300000000002
 30
0.0
 10
-10.886290000000001
 20
5.0083100000000007
 30
0.0
 10
-10.886290000000001
 20
5.0083100000000007
 30
0.0
 10
-11.622890000000002
 20
5.3054900000000007
 30
0.0
 10
-12.588090000000001
 20
5.2318300000000004
 30
0.0
 10
-13.197690000000001
 20
5.7880900000000004
 30
0.0
  0
SPLINE
  5
32
100
AcDbEntity
  8
Ebene 1
 62
     1
100
AcDbSpline
210
0.0
220
0.0
230
1.0
 70
     1
 71
     3
 72
    44
 73
    40
 74
     0
 42
0.0000000001
 43
0.0000000001
 40
0.0
 40
0.0
 40
0.0
 40
0.0
 40
0.1
 40
0.1
 40
0.1
 40
0.1
 40
0.2
 40
0.2
 40
0.2
 40
0.2
 40
0.3
 40
0.3
 40
0.3
 40
0.3
 40
0.4
 40
0.4
 40
0.4
 40
0.4
 40
0.5
 40
0.5
 40
0.5
 40
0.5
 40
0.6
 40
0.6
 40
0.6
 40
0.6
 40
0.7
 40
0.7
 40
0.7
 40
0.7
 40
0.7999999999999999
 40
0.7999999999999999
 40
0.7999999999999999
 40
0.7999999999999999
 40
0.8999999999999999
 40
0.8999999999999999
 40
0.8999999999999999
 40
0.8999999999999999
 40
1.0
 40
1.0
 40
1.0
 40
1.0
 10
13.177660000000001
 20
5.7779300000000005
 30
0.0
 10
12.86016
 20
5.6534700000000004
 30
0.0
 10
12.47662
 20
5.5417100000000001
 30
0.0
 10
12.136260000000002
 20
5.6229900000000006
 30
0.0
 10
12.136260000000002
 20
5.6229900000000006
 30
0.0
 10
12.05498
 20
5.6433100000000005
 30
0.0
 10
12.05752
 20
5.6433100000000005
 30
0.0
 10
12.042280000000002
 20
5.6280700000000001
 30
0.0
 10
12.042280000000002
 20
5.6280700000000001
 30
0.0
 10
11.684140000000001
 20
5.2927900000000001
 30
0.0
 10
10.652900000000001
 20
4.9270300000000002
 30
0.0
 10
10.23634
 20
5.1607100000000008
 30
0.0
 10
10.23634
 20
5.1607100000000008
 30
0.0
 10
10.2338
 20
5.1632500000000006
 30
0.0
 10
10.2338
 20
5.1632500000000006
 30
0.0
 10
10.231260000000001
 20
5.1632500000000006
 30
0.0
 10
10.231260000000001
 20
5.1632500000000006
 30
0.0
 10
9.9747200000000014
 20
5.1632500000000006
 30
0.0
 10
9.6978600000000004
 20
5.0565700000000007
 30
0.0
 10
9.4489400000000003
 20
5.1302300000000001
 30
0.0
 10
9.4489400000000003
 20
5.1302300000000001
 30
0.0
 10
9.4489400000000003
 20
5.1302300000000001
 30
0.0
 10
9.4464000000000006
 20
5.1302300000000001
 30
0.0
 10
9.4464000000000006
 20
5.1302300000000001
 30
0.0
 10
9.4464000000000006
 20
5.1302300000000001
 30
0.0
 10
9.4159200000000016
 20
5.1276900000000003
 30
0.0
 10
9.5353000000000012
 20
5.0235500000000002
 30
0.0
 10
9.5454600000000003
 20
5.01593
 30
0.0
 10
9.5454600000000003
 20
5.01593
 30
0.0
 10
9.9340800000000016
 20
4.7517700000000005
 30
0.0
 10
10.48272
 20
4.84321
 30
0.0
 10
10.894200000000001
 20
5.0057700000000001
 30
0.0
 10
10.894200000000001
 20
5.0057700000000001
 30
0.0
 10
11.661280000000001
 20
5.3080300000000005
 30
0.0
 10
12.512180000000001
 20
5.2292900000000007
 30
0.0
 10
13.185280000000001
 20
5.7626900000000001
 30
0.0
 10
13.185280000000001
 20
5.7626900000000001
 30
0.0
 10
13.2437
 20
5.8084100000000003
 30
0.0
 10
13.241160000000001
 20
5.8058700000000005
 30
0.0
 10
13.177660000000001
 20
5.7779300000000005
 30
0.0
  0
SPLINE
  5
33
100
AcDbEntity
  8
Ebene 1
 62
     1
100
AcDbSpline
210
0.0
220
0.0
230
1.0
 70
     1
 71
     3
 72
    80
 73
    76
 74
     0
 42
0.0000000001
 43
0.0000000001
 40
0.0
 40
0.0
 40
0.0
 40
0.0
 40
0.0526315789473684
 40
0.0526315789473684
 40
0.0526315789473684
 40
0.0526315789473684
 40
0.1052631578947368
 40
0.1052631578947368
 40
0.1052631578947368
 40
0.1052631578947368
 40
0.1578947368421053
 40
0.1578947368421053
 40
0.1578947368421053
 40
0.1578947368421053
 40
0.2105263157894737
 40
0.2105263157894737
 40
0.2105263157894737
 40
0.2105263157894737
 40
0.2631578947368421
 40
0.2631578947368421
 40
0.2631578947368421
 40
0.2631578947368421
 40
0.3157894736842105
 40
0.3157894736842105
 40
0.3157894736842105
 40
0.3157894736842105
 40
0.3684210526315789
 40
0.3684210526315789
 40
0.3684210526315789
 40
0.3684210526315789
 40
0.4210526315789474
 40
0.4210526315789474
 40
0.4210526315789474
 40
0.4210526315789474
 40
0.4736842105263158
 40
0.4736842105263158
 40
0.4736842105263158
 40
0.4736842105263158
 40
0.5263157894736842
 40
0.5263157894736842
 40
0.5263157894736842
 40
0.5263157894736842
 40
0.5789473684210527
 40
0.5789473684210527
 40
0.5789473684210527
 40
0.5789473684210527
 40
0.631578947368421
 40
0.631578947368421
 40
0.631578947368421
 40
0.631578947368421
 40
0.6842105263157894
 40
0.6842105263157894
 40
0.6842105263157894
 40
0.6842105263157894
 40
0.7368421052631577
 40
0.7368421052631577
 40
0.7368421052631577
 40
0.7368421052631577
 40
0.7894736842105261
 40
0.7894736842105261
 40
0.7894736842105261
 40
0.7894736842105261
 40
0.8421052631578945
 40
0.8421052631578945
 40
0.8421052631578945
 40
0.8421052631578945
 40
0.8947368421052628
 40
0.8947368421052628
 40
0.8947368421052628
 40
0.8947368421052628
 40
0.9473684210526312
 40
0.9473684210526312
 40
0.9473684210526312
 40
0.9473684210526312
 40
1.0
 40
1.0
 40
1.0
 40
1.0
 10
7.8563600000000005
 20
5.5340900000000008
 30
0.0
 10
7.9376400000000009
 20
5.5544100000000007
 30
0.0
 10
7.9351000000000003
 20
5.5544100000000007
 30
0.0
 10
7.8284200000000004
 20
5.5137700000000001
 30
0.0
 10
7.8284200000000004
 20
5.5137700000000001
 30
0.0
 10
7.419480000000001
 20
5.3588300000000002
 30
0.0
 10
6.9851400000000003
 20
5.2419900000000004
 30
0.0
 10
6.5660400000000001
 20
5.1276900000000003
 30
0.0
 10
6.5660400000000001
 20
5.1276900000000003
 30
0.0
 10
6.3628400000000003
 20
5.0718100000000002
 30
0.0
 10
4.8058200000000006
 20
4.7136700000000005
 30
0.0
 10
4.9607600000000005
 20
4.4139500000000007
 30
0.0
 10
4.9607600000000005
 20
4.4139500000000007
 30
0.0
 10
5.0344200000000008
 20
4.2717100000000006
 30
0.0
 10
5.64656
 20
4.4723700000000006
 30
0.0
 10
5.7303800000000003
 20
4.5003100000000007
 30
0.0
 10
5.7303800000000003
 20
4.5003100000000007
 30
0.0
 10
6.5711200000000005
 20
4.7746300000000002
 30
0.0
 10
7.3991600000000002
 20
5.2165900000000001
 30
0.0
 10
8.28308
 20
5.3207300000000002
 30
0.0
 10
8.28308
 20
5.3207300000000002
 30
0.0
 10
8.4939
 20
5.3486700000000003
 30
0.0
 10
8.8368000000000002
 20
5.3029500000000001
 30
0.0
 10
9.01206
 20
5.2724700000000002
 30
0.0
 10
9.01206
 20
5.2724700000000002
 30
0.0
 10
9.0247600000000006
 20
5.2724700000000002
 30
0.0
 10
9.0222200000000008
 20
5.2572300000000007
 30
0.0
 10
9.01206
 20
5.2572300000000007
 30
0.0
 10
9.01206
 20
5.2572300000000007
 30
0.0
 10
8.8545800000000003
 20
5.2597700000000005
 30
0.0
 10
8.5904199999999999
 20
5.2572300000000007
 30
0.0
 10
8.5447000000000006
 20
5.2521500000000003
 30
0.0
 10
8.5447000000000006
 20
5.2521500000000003
 30
0.0
 10
8.100200000000001
 20
5.2140500000000003
 30
0.0
 10
7.7827000000000011
 20
5.0641900000000009
 30
0.0
 10
7.4042400000000006
 20
4.8635300000000008
 30
0.0
 10
7.4042400000000006
 20
4.8635300000000008
 30
0.0
 10
7.4042400000000006
 20
4.8635300000000008
 30
0.0
 10
7.4042400000000006
 20
4.8635300000000008
 30
0.0
 10
7.4017000000000008
 20
4.8635300000000008
 30
0.0
 10
7.4017000000000008
 20
4.8635300000000008
 30
0.0
 10
7.0715000000000003
 20
4.8178100000000006
 30
0.0
 10
6.7565400000000002
 20
4.7543100000000003
 30
0.0
 10
6.4517400000000009
 20
4.6146100000000008
 30
0.0
 10
6.4517400000000009
 20
4.6146100000000008
 30
0.0
 10
5.8472200000000001
 20
4.3377500000000007
 30
0.0
 10
5.3341400000000005
 20
4.17265
 30
0.0
 10
4.6864400000000002
 20
4.0558100000000001
 30
0.0
 10
4.6864400000000002
 20
4.0558100000000001
 30
0.0
 10
4.3003600000000004
 20
3.9872300000000003
 30
0.0
 10
3.9396800000000005
 20
3.8195900000000003
 30
0.0
 10
3.6247200000000004
 20
3.5833700000000004
 30
0.0
 10
3.6247200000000004
 20
3.5833700000000004
 30
0.0
 10
3.5967800000000003
 20
3.5630500000000005
 30
0.0
 10
3.5967800000000003
 20
3.5630500000000005
 30
0.0
 10
3.6577400000000004
 20
3.6367100000000003
 30
0.0
 10
3.6577400000000004
 20
3.6367100000000003
 30
0.0
 10
3.7161600000000004
 20
3.7078300000000004
 30
0.0
 10
3.8711000000000002
 20
3.8678500000000002
 30
0.0
 10
4.0565199999999999
 20
4.0431100000000004
 30
0.0
 10
4.0565199999999999
 20
4.0431100000000004
 30
0.0
 10
4.2825800000000003
 20
4.25901
 30
0.0
 10
4.5010200000000005
 20
4.5028500000000005
 30
0.0
 10
4.7601000000000004
 20
4.6755700000000004
 30
0.0
 10
4.7601000000000004
 20
4.6755700000000004
 30
0.0
 10
5.0776000000000003
 20
4.8863900000000005
 30
0.0
 10
5.4509800000000004
 20
4.9752900000000002
 30
0.0
 10
5.7811800000000009
 20
5.1581700000000001
 30
0.0
 10
5.7811800000000009
 20
5.1581700000000001
 30
0.0
 10
5.7837200000000006
 20
5.1581700000000001
 30
0.0
 10
5.7837200000000006
 20
5.1581700000000001
 30
0.0
 10
5.7862600000000004
 20
5.1581700000000001
 30
0.0
 10
5.7862600000000004
 20
5.1581700000000001
 30
0.0
 10
6.4542800000000007
 20
5.1607100000000008
 30
0.0
 10
7.2239000000000004
 20
5.3664500000000004
 30
0.0
 10
7.8563600000000005
 20
5.5340900000000008
 30
0.0
  0
SPLINE
  5
34
100
AcDbEntity
  8
Ebene 1
 62
     1
100
AcDbSpline
210
0.0
220
0.0
230
1.0
 70
     1
 71
     3
 72
    80
 73
    76
 74
     0
 42
0.0000000001
 43
0.0000000001
 40
0.0
 40
0.0
 40
0.0
 40
0.0
 40
0.0526315789473684
 40
0.0526315789473684
 40
0.0526315789473684
 40
0.0526315789473684
 40
0.1052631578947368
 40
0.1052631578947368
 40
0.1052631578947368
 40
0.1052631578947368
 40
0.1578947368421053
 40
0.1578947368421053
 40
0.1578947368421053
 40
0.1578947368421053
 40
0.2105263157894737
 40
0.2105263157894737
 40
0.2105263157894737
 40
0.2105263157894737
 40
0.2631578947368421
 40
0.2631578947368421
 40
0.2631578947368421
 40
0.2631578947368421
 40
0.3157894736842105
 40
0.3157894736842105
 40
0.3157894736842105
 40
0.3157894736842105
 40
0.3684210526315789
 40
0.3684210526315789
 40
0.3684210526315789
 40
0.3684210526315789
 40
0.4210526315789474
 40
0.4210526315789474
 40
0.4210526315789474
 40
0.4210526315789474
 40
0.4736842105263158
 40
0.4736842105263158
 40
0.4736842105263158
 40
0.4736842105263158
 40
0.5263157894736842
 40
0.5263157894736842
 40
0.5263157894736842
 40
0.5263157894736842
 40
0.5789473684210527
 40
0.5789473684210527
 40
0.5789473684210527
 40
0.5789473684210527
 40
0.631578947368421
 40
0.631578947368421
 40
0.631578947368421
 40
0.631578947368421
 40
0.6842105263157894
 40
0.6842105263157894
 40
0.6842105263157894
 40
0.6842105263157894
 40
0.7368421052631577
 40
0.7368421052631577
 40
0.7368421052631577
 40
0.7368421052631577
 40
0.7894736842105261
 40
0.7894736842105261
 40
0.7894736842105261
 40
0.7894736842105261
 40
0.8421052631578945
 40
0.8421052631578945
 40
0.8421052631578945
 40
0.8421052631578945
 40
0.8947368421052628
 40
0.8947368421052628
 40
0.8947368421052628
 40
0.8947368421052628
 40
0.9473684210526312
 40
0.9473684210526312
 40
0.9473684210526312
 40
0.9473684210526312
 40
1.0
 40
1.0
 40
1.0
 40
1.0
 10
-7.8763900000000007
 20
5.5417100000000001
 30
0.0
 10
-7.8738500000000009
 20
5.5391700000000004
 30
0.0
 10
-7.6452500000000008
 20
5.4578900000000008
 30
0.0
 10
-7.5233300000000005
 20
5.4172500000000001
 30
0.0
 10
-7.5233300000000005
 20
5.4172500000000001
 30
0.0
 10
-6.8908700000000005
 20
5.2038900000000003
 30
0.0
 10
-6.2177700000000007
 20
5.0845100000000008
 30
0.0
 10
-5.5929300000000008
 20
4.8660700000000006
 30
0.0
 10
-5.5929300000000008
 20
4.8660700000000006
 30
0.0
 10
-5.5294300000000005
 20
4.8457500000000007
 30
0.0
 10
-4.8106100000000005
 20
4.5663500000000008
 30
0.0
 10
-4.9477700000000002
 20
4.4114100000000001
 30
0.0
 10
-4.9477700000000002
 20
4.4114100000000001
 30
0.0
 10
-5.1001700000000003
 20
4.2412300000000007
 30
0.0
 10
-6.0374300000000005
 20
4.6095300000000003
 30
0.0
 10
-6.2025300000000003
 20
4.67049
 30
0.0
 10
-6.2025300000000003
 20
4.67049
 30
0.0
 10
-7.0610500000000007
 20
4.9879900000000008
 30
0.0
 10
-7.9424300000000008
 20
5.4528100000000004
 30
0.0
 10
-8.8873100000000012
 20
5.2978700000000005
 30
0.0
 10
-8.8873100000000012
 20
5.2978700000000005
 30
0.0
 10
-8.8898500000000009
 20
5.2978700000000005
 30
0.0
 10
-8.8974700000000002
 20
5.2953300000000008
 30
0.0
 10
-8.907630000000001
 20
5.2953300000000008
 30
0.0
 10
-8.907630000000001
 20
5.2953300000000008
 30
0.0
 10
-8.9152500000000003
 20
5.2927900000000001
 30
0.0
 10
-8.9152500000000003
 20
5.2775500000000006
 30
0.0
 10
-8.9050900000000013
 20
5.2775500000000006
 30
0.0
 10
-8.9050900000000013
 20
5.2775500000000006
 30
0.0
 10
-8.4224899999999998
 20
5.3080300000000005
 30
0.0
 10
-7.8611500000000003
 20
5.1302300000000001
 30
0.0
 10
-7.4649100000000006
 20
4.9117900000000008
 30
0.0
 10
-7.4649100000000006
 20
4.9117900000000008
 30
0.0
 10
-7.4064900000000007
 20
4.8787700000000003
 30
0.0
 10
-7.383630000000001
 20
4.8635300000000008
 30
0.0
 10
-7.3201300000000007
 20
4.85337
 30
0.0
 10
-7.3201300000000007
 20
4.85337
 30
0.0
 10
-6.588610000000001
 20
4.7593900000000007
 30
0.0
 10
-6.0323500000000001
 20
4.3910900000000002
 30
0.0
 10
-5.3287700000000005
 20
4.1980500000000003
 30
0.0
 10
-5.3287700000000005
 20
4.1980500000000003
 30
0.0
 10
-4.7674300000000001
 20
4.0456500000000002
 30
0.0
 10
-4.3102300000000007
 20
4.0329500000000005
 30
0.0
 10
-3.7971500000000002
 20
3.7154500000000001
 30
0.0
 10
-3.7971500000000002
 20
3.7154500000000001
 30
0.0
 10
-3.7742900000000001
 20
3.7002100000000002
 30
0.0
 10
-3.6803100000000004
 20
3.6341700000000001
 30
0.0
 10
-3.6269700000000005
 20
3.5986100000000003
 30
0.0
 10
-3.6269700000000005
 20
3.5986100000000003
 30
0.0
 10
-3.6193500000000003
 20
3.5935300000000003
 30
0.0
 10
-3.6117300000000001
 20
3.6036900000000003
 30
0.0
 10
-3.6168100000000001
 20
3.6113100000000005
 30
0.0
 10
-3.6168100000000001
 20
3.6113100000000005
 30
0.0
 10
-3.8123900000000002
 20
3.8576900000000003
 30
0.0
 10
-4.0740100000000004
 20
4.0735900000000003
 30
0.0
 10
-4.2975300000000001
 20
4.2945700000000002
 30
0.0
 10
-4.2975300000000001
 20
4.2945700000000002
 30
0.0
 10
-4.6175700000000006
 20
4.6146100000000008
 30
0.0
 10
-4.8715700000000002
 20
4.7771700000000008
 30
0.0
 10
-5.2830500000000002
 20
4.9448100000000004
 30
0.0
 10
-5.2830500000000002
 20
4.9448100000000004
 30
0.0
 10
-5.4405300000000008
 20
5.0057700000000001
 30
0.0
 10
-5.6132500000000007
 20
5.0667300000000006
 30
0.0
 10
-5.7529500000000002
 20
5.1581700000000001
 30
0.0
 10
-5.7529500000000002
 20
5.1581700000000001
 30
0.0
 10
-5.7529500000000002
 20
5.1581700000000001
 30
0.0
 10
-5.7580300000000006
 20
5.1581700000000001
 30
0.0
 10
-5.7580300000000006
 20
5.1581700000000001
 30
0.0
 10
-5.7580300000000006
 20
5.1581700000000001
 30
0.0
 10
-6.3981100000000009
 20
5.1607100000000008
 30
0.0
 10
-7.1118500000000004
 20
5.3588300000000002
 30
0.0
 10
-7.7316100000000008
 20
5.5112300000000003
 30
0.0
 10
-7.7316100000000008
 20
5.5112300000000003
 30
0.0
 10
-7.8687700000000005
 20
5.5417100000000001
 30
0.0
 10
-7.8814700000000011
 20
5.5467900000000006
 30
0.0
 10
-7.8763900000000007
 20
5.5417100000000001
 30
0.0
  0
SPLINE
  5
35
100
AcDbEntity
  8
Ebene 1
 62
     1
100
AcDbSpline
210
0.0
220
0.0
230
1.0
 70
     1
 71
     3
 72
    36
 73
    32
 74
     0
 42
0.0000000001
 43
0.0000000001
 40
0.0
 40
0.0
 40
0.0
 40
0.0
 40
0.125
 40
0.125
 40
0.125
 40
0.125
 40
0.25
 40
0.25
 40
0.25
 40
0.25
 40
0.375
 40
0.375
 40
0.375
 40
0.375
 40
0.5
 40
0.5
 40
0.5
 40
0.5
 40
0.625
 40
0.625
 40
0.625
 40
0.625
 40
0.75
 40
0.75
 40
0.75
 40
0.75
 40
0.875
 40
0.875
 40
0.875
 40
0.875
 40
1.0
 40
1.0
 40
1.0
 40
1.0
 10
0.5462400000000001
 20
5.2292900000000007
 30
0.0
 10
0.5437000000000001
 20
5.2369100000000008
 30
0.0
 10
0.52846
 20
5.2369100000000008
 30
0.0
 10
0.52846
 20
5.22675
 30
0.0
 10
0.52846
 20
5.22675
 30
0.0
 10
0.53608
 20
5.1073700000000004
 30
0.0
 10
0.5386200000000001
 20
4.9422700000000006
 30
0.0
 10
0.53354
 20
4.8228900000000001
 30
0.0
 10
0.53354
 20
4.8228900000000001
 30
0.0
 10
0.51576
 20
4.0558100000000001
 30
0.0
 10
0.33288
 20
3.3471500000000001
 30
0.0
 10
-0.03287
 20
2.6791300000000002
 30
0.0
 10
-0.03287
 20
2.6791300000000002
 30
0.0
 10
-0.20051
 20
2.3819500000000002
 30
0.0
 10
-0.7135900000000001
 20
1.5539100000000001
 30
0.0
 10
-0.21321
 20
1.3024500000000001
 30
0.0
 10
-0.21321
 20
1.3024500000000001
 30
0.0
 10
-0.13447
 20
1.2643500000000001
 30
0.0
 10
-0.13447
 20
1.2643500000000001
 30
0.0
 10
-0.17257
 20
1.31515
 30
0.0
 10
-0.17257
 20
1.31515
 30
0.0
 10
-0.5662700000000001
 20
1.8764900000000002
 30
0.0
 10
0.22366
 20
2.7248500000000004
 30
0.0
 10
0.4167
 20
3.2379300000000004
 30
0.0
 10
0.4167
 20
3.2379300000000004
 30
0.0
 10
0.6097400000000001
 20
3.7560900000000004
 30
0.0
 10
0.6681600000000001
 20
4.3987100000000003
 30
0.0
 10
0.57926
 20
5.0413300000000003
 30
0.0
 10
0.57926
 20
5.0413300000000003
 30
0.0
 10
0.57672
 20
5.0565700000000007
 30
0.0
 10
0.55894
 20
5.1480100000000002
 30
0.0
 10
0.5462400000000001
 20
5.2292900000000007
 30
0.0
  0
SPLINE
  5
36
100
AcDbEntity
  8
Ebene 1
 62
     1
100
AcDbSpline
210
0.0
220
0.0
230
1.0
 70
     1
 71
     3
 72
    24
 73
    20
 74
     0
 42
0.0000000001
 43
0.0000000001
 40
0.0
 40
0.0
 40
0.0
 40
0.0
 40
0.2
 40
0.2
 40
0.2
 40
0.2
 40
0.4
 40
0.4
 40
0.4
 40
0.4
 40
0.6000000000000001
 40
0.6000000000000001
 40
0.6000000000000001
 40
0.6000000000000001
 40
0.8
 40
0.8
 40
0.8
 40
0.8
 40
1.0
 40
1.0
 40
1.0
 40
1.0
 10
0.87136
 20
5.2572300000000007
 30
0.0
 10
0.86882
 20
5.2673900000000007
 30
0.0
 10
0.8561200000000001
 20
5.2623100000000003
 30
0.0
 10
0.8561200000000001
 20
5.2521500000000003
 30
0.0
 10
0.8561200000000001
 20
5.2521500000000003
 30
0.0
 10
0.9424800000000001
 20
4.8279700000000005
 30
0.0
 10
0.9094600000000001
 20
4.3301300000000005
 30
0.0
 10
0.8002400000000001
 20
3.9211900000000002
 30
0.0
 10
0.8002400000000001
 20
3.9211900000000002
 30
0.0
 10
0.7494400000000001
 20
3.7357700000000005
 30
0.0
 10
0.8485
 20
3.9897700000000005
 30
0.0
 10
0.86882
 20
4.0354900000000002
 30
0.0
 10
0.86882
 20
4.0354900000000002
 30
0.0
 10
1.0136000000000001
 20
4.3783900000000004
 30
0.0
 10
1.0644
 20
4.8101900000000004
 30
0.0
 10
0.9170800000000001
 20
5.1632500000000006
 30
0.0
 10
0.9170800000000001
 20
5.1632500000000006
 30
0.0
 10
0.9170800000000001
 20
5.1683300000000001
 30
0.0
 10
0.89168
 20
5.2191300000000007
 30
0.0
 10
0.87136
 20
5.2572300000000007
 30
0.0
  0
SPLINE
  5
37
100
AcDbEntity
  8
Ebene 1
 62
     1
100
AcDbSpline
210
0.0
220
0.0
230
1.0
 70
     1
 71
     3
 72
   212
 73
   208
 74
     0
 42
0.0000000001
 43
0.0000000001
 40
0.0
 40
0.0
 40
0.0
 40
0.0
 40
0.0192307692307692
 40
0.0192307692307692
 40
0.0192307692307692
 40
0.0192307692307692
 40
0.0384615384615385
 40
0.0384615384615385
 40
0.0384615384615385
 40
0.0384615384615385
 40
0.0576923076923077
 40
0.0576923076923077
 40
0.0576923076923077
 40
0.0576923076923077
 40
0.0769230769230769
 40
0.0769230769230769
 40
0.0769230769230769
 40
0.0769230769230769
 40
0.0961538461538462
 40
0.0961538461538462
 40
0.0961538461538462
 40
0.0961538461538462
 40
0.1153846153846154
 40
0.1153846153846154
 40
0.1153846153846154
 40
0.1153846153846154
 40
0.1346153846153846
 40
0.1346153846153846
 40
0.1346153846153846
 40
0.1346153846153846
 40
0.1538461538461539
 40
0.1538461538461539
 40
0.1538461538461539
 40
0.1538461538461539
 40
0.1730769230769231
 40
0.1730769230769231
 40
0.1730769230769231
 40
0.1730769230769231
 40
0.1923076923076923
 40
0.1923076923076923
 40
0.1923076923076923
 40
0.1923076923076923
 40
0.2115384615384615
 40
0.2115384615384615
 40
0.2115384615384615
 40
0.2115384615384615
 40
0.2307692307692307
 40
0.2307692307692307
 40
0.2307692307692307
 40
0.2307692307692307
 40
0.2499999999999999
 40
0.2499999999999999
 40
0.2499999999999999
 40
0.2499999999999999
 40
0.2692307692307692
 40
0.2692307692307692
 40
0.2692307692307692
 40
0.2692307692307692
 40
0.2884615384615384
 40
0.2884615384615384
 40
0.2884615384615384
 40
0.2884615384615384
 40
0.3076923076923076
 40
0.3076923076923076
 40
0.3076923076923076
 40
0.3076923076923076
 40
0.3269230769230768
 40
0.3269230769230768
 40
0.3269230769230768
 40
0.3269230769230768
 40
0.346153846153846
 40
0.346153846153846
 40
0.346153846153846
 40
0.346153846153846
 40
0.3653846153846153
 40
0.3653846153846153
 40
0.3653846153846153
 40
0.3653846153846153
 40
0.3846153846153845
 40
0.3846153846153845
 40
0.3846153846153845
 40
0.3846153846153845
 40
0.4038461538461537
 40
0.4038461538461537
 40
0.4038461538461537
 40
0.4038461538461537
 40
0.4230769230769229
 40
0.4230769230769229
 40
0.4230769230769229
 40
0.4230769230769229
 40
0.4423076923076921
 40
0.4423076923076921
 40
0.4423076923076921
 40
0.4423076923076921
 40
0.4615384615384613
 40
0.4615384615384613
 40
0.4615384615384613
 40
0.4615384615384613
 40
0.4807692307692306
 40
0.4807692307692306
 40
0.4807692307692306
 40
0.4807692307692306
 40
0.4999999999999998
 40
0.4999999999999998
 40
0.4999999999999998
 40
0.4999999999999998
 40
0.5192307692307691
 40
0.5192307692307691
 40
0.5192307692307691
 40
0.5192307692307691
 40
0.5384615384615383
 40
0.5384615384615383
 40
0.5384615384615383
 40
0.5384615384615383
 40
0.5576923076923076
 40
0.5576923076923076
 40
0.5576923076923076
 40
0.5576923076923076
 40
0.5769230769230769
 40
0.5769230769230769
 40
0.5769230769230769
 40
0.5769230769230769
 40
0.5961538461538462
 40
0.5961538461538462
 40
0.5961538461538462
 40
0.5961538461538462
 40
0.6153846153846154
 40
0.6153846153846154
 40
0.6153846153846154
 40
0.6153846153846154
 40
0.6346153846153847
 40
0.6346153846153847
 40
0.6346153846153847
 40
0.6346153846153847
 40
0.653846153846154
 40
0.653846153846154
 40
0.653846153846154
 40
0.653846153846154
 40
0.6730769230769232
 40
0.6730769230769232
 40
0.6730769230769232
 40
0.6730769230769232
 40
0.6923076923076925
 40
0.6923076923076925
 40
0.6923076923076925
 40
0.6923076923076925
 40
0.7115384615384618
 40
0.7115384615384618
 40
0.7115384615384618
 40
0.7115384615384618
 40
0.7307692307692311
 40
0.7307692307692311
 40
0.7307692307692311
 40
0.7307692307692311
 40
0.7500000000000003
 40
0.7500000000000003
 40
0.7500000000000003
 40
0.7500000000000003
 40
0.7692307692307696
 40
0.7692307692307696
 40
0.7692307692307696
 40
0.7692307692307696
 40
0.7884615384615389
 40
0.7884615384615389
 40
0.7884615384615389
 40
0.7884615384615389
 40
0.8076923076923082
 40
0.8076923076923082
 40
0.8076923076923082
 40
0.8076923076923082
 40
0.8269230769230774
 40
0.8269230769230774
 40
0.8269230769230774
 40
0.8269230769230774
 40
0.8461538461538467
 40
0.8461538461538467
 40
0.8461538461538467
 40
0.8461538461538467
 40
0.865384615384616
 40
0.865384615384616
 40
0.865384615384616
 40
0.865384615384616
 40
0.8846153846153853
 40
0.8846153846153853
 40
0.8846153846153853
 40
0.8846153846153853
 40
0.9038461538461545
 40
0.9038461538461545
 40
0.9038461538461545
 40
0.9038461538461545
 40
0.9230769230769238
 40
0.9230769230769238
 40
0.9230769230769238
 40
0.9230769230769238
 40
0.9423076923076931
 40
0.9423076923076931
 40
0.9423076923076931
 40
0.9423076923076931
 40
0.9615384615384623
 40
0.9615384615384623
 40
0.9615384615384623
 40
0.9615384615384623
 40
0.9807692307692316
 40
0.9807692307692316
 40
0.9807692307692316
 40
0.9807692307692316
 40
1.0
 40
1.0
 40
1.0
 40
1.0
 10
-9.2124300000000012
 20
4.7035100000000005
 30
0.0
 10
-9.2124300000000012
 20
4.7035100000000005
 30
0.0
 10
-9.176870000000001
 20
4.6654100000000005
 30
0.0
 10
-9.176870000000001
 20
4.6654100000000005
 30
0.0
 10
-9.176870000000001
 20
4.6654100000000005
 30
0.0
 10
-9.176870000000001
 20
4.6628700000000007
 30
0.0
 10
-9.1743300000000012
 20
4.6628700000000007
 30
0.0
 10
-9.1743300000000012
 20
4.6628700000000007
 30
0.0
 10
-9.1743300000000012
 20
4.6628700000000007
 30
0.0
 10
-8.9711300000000005
 20
4.5993700000000004
 30
0.0
 10
-8.7730100000000011
 20
4.5155500000000002
 30
0.0
 10
-8.6231500000000008
 20
4.3606100000000003
 30
0.0
 10
-8.6231500000000008
 20
4.3606100000000003
 30
0.0
 10
-8.2980300000000007
 20
4.0304100000000007
 30
0.0
 10
-9.0092300000000005
 20
4.1878900000000003
 30
0.0
 10
-9.1057500000000005
 20
4.2056700000000005
 30
0.0
 10
-9.1057500000000005
 20
4.2056700000000005
 30
0.0
 10
-9.7890100000000011
 20
4.3479100000000006
 30
0.0
 10
-10.482430000000001
 20
4.7136700000000005
 30
0.0
 10
-11.191090000000001
 20
4.6755700000000004
 30
0.0
 10
-11.191090000000001
 20
4.6755700000000004
 30
0.0
 10
-11.201250000000002
 20
4.6755700000000004
 30
0.0
 10
-11.201250000000002
 20
4.6628700000000007
 30
0.0
 10
-11.191090000000001
 20
4.6603300000000001
 30
0.0
 10
-11.191090000000001
 20
4.6603300000000001
 30
0.0
 10
-10.787230000000001
 20
4.6019100000000002
 30
0.0
 10
-10.236050000000001
 20
4.5333300000000003
 30
0.0
 10
-9.9591900000000013
 20
4.2285300000000001
 30
0.0
 10
-9.9591900000000013
 20
4.2285300000000001
 30
0.0
 10
-9.9591900000000013
 20
4.2285300000000001
 30
0.0
 10
-9.9566500000000016
 20
4.2259900000000004
 30
0.0
 10
-9.95411
 20
4.2259900000000004
 30
0.0
 10
-9.95411
 20
4.2259900000000004
 30
0.0
 10
-9.6315300000000015
 20
4.21075
 30
0.0
 10
-9.3343500000000006
 20
4.1523300000000001
 30
0.0
 10
-9.0295500000000004
 20
4.0507300000000006
 30
0.0
 10
-9.0295500000000004
 20
4.0507300000000006
 30
0.0
 10
-8.7526900000000012
 20
3.9618300000000004
 30
0.0
 10
-8.13293
 20
3.7916500000000002
 30
0.0
 10
-7.9094100000000003
 20
4.0710500000000005
 30
0.0
 10
-7.9094100000000003
 20
4.0710500000000005
 30
0.0
 10
-7.8179700000000008
 20
4.1878900000000003
 30
0.0
 10
-7.8560700000000008
 20
4.2437700000000005
 30
0.0
 10
-7.9094100000000003
 20
4.3479100000000006
 30
0.0
 10
-7.9094100000000003
 20
4.3479100000000006
 30
0.0
 10
-7.9144900000000007
 20
4.3529900000000001
 30
0.0
 10
-7.9094100000000003
 20
4.3606100000000003
 30
0.0
 10
-7.901790000000001
 20
4.3606100000000003
 30
0.0
 10
-7.901790000000001
 20
4.3606100000000003
 30
0.0
 10
-7.7976500000000009
 20
4.34537
 30
0.0
 10
-7.1702700000000004
 20
4.2336100000000005
 30
0.0
 10
-7.0051700000000006
 20
4.2031300000000007
 30
0.0
 10
-7.0051700000000006
 20
4.2031300000000007
 30
0.0
 10
-6.5276500000000004
 20
4.1091500000000005
 30
0.0
 10
-5.2449500000000002
 20
3.8018100000000001
 30
0.0
 10
-5.0011100000000006
 20
3.3014300000000003
 30
0.0
 10
-5.0011100000000006
 20
3.3014300000000003
 30
0.0
 10
-4.9274500000000003
 20
3.1515700000000004
 30
0.0
 10
-5.1331900000000008
 20
3.1769700000000003
 30
0.0
 10
-5.2144700000000004
 20
3.1972900000000002
 30
0.0
 10
-5.2144700000000004
 20
3.1972900000000002
 30
0.0
 10
-5.3694100000000002
 20
3.2379300000000004
 30
0.0
 10
-5.5370500000000007
 20
3.3039700000000001
 30
0.0
 10
-5.8164500000000006
 20
3.4462100000000002
 30
0.0
 10
-5.8164500000000006
 20
3.4462100000000002
 30
0.0
 10
-6.2761900000000006
 20
3.6773500000000001
 30
0.0
 10
-6.5733700000000006
 20
3.7586300000000001
 30
0.0
 10
-7.2896500000000009
 20
3.8449900000000001
 30
0.0
 10
-7.2896500000000009
 20
3.8449900000000001
 30
0.0
 10
-7.4166500000000006
 20
3.8602300000000005
 30
0.0
 10
-7.5639700000000003
 20
3.8754700000000004
 30
0.0
 10
-7.6630300000000009
 20
3.8856300000000004
 30
0.0
 10
-7.6630300000000009
 20
3.8856300000000004
 30
0.0
 10
-7.6731900000000008
 20
3.8856300000000004
 30
0.0
 10
-7.6757300000000006
 20
3.8729300000000002
 30
0.0
 10
-7.6655700000000007
 20
3.8703900000000004
 30
0.0
 10
-7.6655700000000007
 20
3.8703900000000004
 30
0.0
 10
-7.1397900000000005
 20
3.7459300000000004
 30
0.0
 10
-6.4946300000000008
 20
3.6722700000000001
 30
0.0
 10
-6.0755300000000005
 20
3.3268300000000002
 30
0.0
 10
-6.0755300000000005
 20
3.3268300000000002
 30
0.0
 10
-6.0628300000000008
 20
3.3141300000000005
 30
0.0
 10
-6.0475900000000005
 20
3.3065100000000003
 30
0.0
 10
-5.9942500000000001
 20
3.2938100000000001
 30
0.0
 10
-5.9942500000000001
 20
3.2938100000000001
 30
0.0
 10
-5.6716700000000007
 20
3.2176100000000001
 30
0.0
 10
-5.3922700000000008
 20
3.0220300000000004
 30
0.0
 10
-5.0798500000000004
 20
2.9229700000000003
 30
0.0
 10
-5.0798500000000004
 20
2.9229700000000003
 30
0.0
 10
-4.7826700000000004
 20
2.8315300000000003
 30
0.0
 10
-4.4600900000000001
 20
2.8645500000000004
 30
0.0
 10
-4.1705300000000003
 20
2.75787
 30
0.0
 10
-4.1705300000000003
 20
2.75787
 30
0.0
 10
-3.5177500000000004
 20
2.5114900000000002
 30
0.0
 10
-3.0605500000000001
 20
1.6910700000000001
 30
0.0
 10
-2.7836900000000004
 20
1.0865500000000001
 30
0.0
 10
-2.7836900000000004
 20
1.0865500000000001
 30
0.0
 10
-2.7506700000000004
 20
1.01797
 30
0.0
 10
-2.60589
 20
0.6750700000000001
 30
0.0
 10
-2.5652500000000003
 20
0.5709300000000001
 30
0.0
 10
-2.5652500000000003
 20
0.5709300000000001
 30
0.0
 10
-2.56271
 20
0.5633100000000001
 30
0.0
 10
-2.5703300000000002
 20
0.55569
 30
0.0
 10
-2.5779500000000004
 20
0.5633100000000001
 30
0.0
 10
-2.5779500000000004
 20
0.5633100000000001
 30
0.0
 10
-2.9741900000000001
 20
0.8985900000000001
 30
0.0
 10
-3.3018500000000004
 20
1.10179
 30
0.0
 10
-3.7844500000000001
 20
1.2872100000000002
 30
0.0
 10
-3.7844500000000001
 20
1.2872100000000002
 30
0.0
 10
-4.0841700000000003
 20
1.40151
 30
0.0
 10
-4.3534100000000002
 20
1.5539100000000001
 30
0.0
 10
-4.6378900000000005
 20
1.69615
 30
0.0
 10
-4.6378900000000005
 20
1.69615
 30
0.0
 10
-4.6378900000000005
 20
1.69869
 30
0.0
 10
-4.6404300000000003
 20
1.69869
 30
0.0
 10
-4.6404300000000003
 20
1.69869
 30
0.0
 10
-4.6404300000000003
 20
1.69869
 30
0.0
 10
-5.2551100000000002
 20
1.69869
 30
0.0
 10
-5.74533
 20
1.8714100000000002
 30
0.0
 10
-6.3142900000000006
 20
2.0644500000000003
 30
0.0
 10
-6.3142900000000006
 20
2.0644500000000003
 30
0.0
 10
-6.3244500000000006
 20
2.0669900000000001
 30
0.0
 10
-6.3295300000000001
 20
2.0542899999999999
 30
0.0
 10
-6.3219100000000008
 20
2.04921
 30
0.0
 10
-6.3219100000000008
 20
2.04921
 30
0.0
 10
-6.2406300000000003
 20
2.00603
 30
0.0
 10
-6.1034700000000006
 20
1.9349100000000001
 30
0.0
 10
-6.0272700000000006
 20
1.9018900000000001
 30
0.0
 10
-6.0272700000000006
 20
1.9018900000000001
 30
0.0
 10
-5.1179500000000004
 20
1.49041
 30
0.0
 10
-4.1425900000000002
 20
1.3735700000000002
 30
0.0
 10
-3.2637500000000004
 20
0.8604900000000001
 30
0.0
 10
-3.2637500000000004
 20
0.8604900000000001
 30
0.0
 10
-3.1672300000000004
 20
0.8046100000000001
 30
0.0
 10
-2.3544300000000002
 20
0.17215
 30
0.0
 10
-2.6033500000000003
 20
0.06039
 30
0.0
 10
-2.6033500000000003
 20
0.06039
 30
0.0
 10
-2.7024100000000004
 20
0.01721
 30
0.0
 10
-2.9665700000000004
 20
0.14675
 30
0.0
 10
-3.3221700000000003
 20
0.41345
 30
0.0
 10
-3.3221700000000003
 20
0.41345
 30
0.0
 10
-3.8733500000000003
 20
0.82747
 30
0.0
 10
-4.4880300000000002
 20
1.1602100000000002
 30
0.0
 10
-5.16113
 20
1.3303900000000002
 30
0.0
 10
-5.16113
 20
1.3303900000000002
 30
0.0
 10
-5.2627300000000004
 20
1.35833
 30
0.0
 10
-5.5395900000000005
 20
1.4243700000000001
 30
0.0
 10
-5.4430700000000005
 20
1.3888100000000001
 30
0.0
 10
-5.4430700000000005
 20
1.3888100000000001
 30
0.0
 10
-4.8004500000000005
 20
1.1627500000000002
 30
0.0
 10
-4.0663900000000002
 20
0.8681100000000001
 30
0.0
 10
-3.6168100000000001
 20
0.3474100000000001
 30
0.0
 10
-3.6168100000000001
 20
0.3474100000000001
 30
0.0
 10
-3.5837900000000005
 20
0.30423
 30
0.0
 10
-3.5787100000000005
 20
0.30677
 30
0.0
 10
-3.5355300000000005
 20
0.28899
 30
0.0
 10
-3.5355300000000005
 20
0.28899
 30
0.0
 10
-3.1672300000000004
 20
0.14421
 30
0.0
 10
-2.8725900000000002
 20
-0.14788
 30
0.0
 10
-2.5144500000000001
 20
-0.3206000000000001
 30
0.0
 10
-2.5144500000000001
 20
-0.3206000000000001
 30
0.0
 10
-2.3264900000000002
 20
-0.41204
 30
0.0
 10
-2.1385300000000003
 20
-0.47554
 30
0.0
 10
-1.8464300000000002
 20
-0.5441200000000001
 30
0.0
 10
-1.8464300000000002
 20
-0.5441200000000001
 30
0.0
 10
-1.4857500000000001
 20
-0.63048
 30
0.0
 10
-1.0133100000000002
 20
-0.8768600000000001
 30
0.0
 10
-0.67549
 20
-0.61524
 30
0.0
 10
-0.67549
 20
-0.61524
 30
0.0
 10
-0.6704100000000001
 20
-0.61016
 30
0.0
 10
-0.6729500000000001
 20
-0.6000000000000001
 30
0.0
 10
-0.6831100000000001
 20
-0.6025400000000001
 30
0.0
 10
-0.6831100000000001
 20
-0.6025400000000001
 30
0.0
 10
-1.6635500000000001
 20
-0.74224
 30
0.0
 10
-2.1690100000000001
 20
0.23311
 30
0.0
 10
-2.5550900000000003
 20
0.9697100000000001
 30
0.0
 10
-2.5550900000000003
 20
0.9697100000000001
 30
0.0
 10
-2.8776700000000002
 20
1.5894700000000002
 30
0.0
 10
-3.0148300000000003
 20
1.8155300000000001
 30
0.0
 10
-3.2510500000000002
 20
2.1381100000000002
 30
0.0
 10
-3.2510500000000002
 20
2.1381100000000002
 30
0.0
 10
-3.7311100000000001
 20
2.7934300000000003
 30
0.0
 10
-4.4296100000000003
 20
3.3573100000000005
 30
0.0
 10
-5.1560500000000005
 20
3.7230700000000003
 30
0.0
 10
-5.1560500000000005
 20
3.7230700000000003
 30
0.0
 10
-5.1560500000000005
 20
3.7230700000000003
 30
0.0
 10
-5.1560500000000005
 20
3.7230700000000003
 30
0.0
 10
-5.1585900000000002
 20
3.7230700000000003
 30
0.0
 10
-5.1585900000000002
 20
3.7230700000000003
 30
0.0
 10
-5.7732700000000001
 20
4.1091500000000005
 30
0.0
 10
-6.4717700000000002
 20
4.1675700000000004
 30
0.0
 10
-7.1321700000000003
 20
4.4520500000000007
 30
0.0
 10
-7.1321700000000003
 20
4.4520500000000007
 30
0.0
 10
-7.1550300000000009
 20
4.4622100000000007
 30
0.0
 10
-7.1778900000000005
 20
4.46983
 30
0.0
 10
-7.1982100000000004
 20
4.4799900000000008
 30
0.0
 10
-7.1982100000000004
 20
4.4799900000000008
 30
0.0
 10
-7.2007500000000002
 20
4.4799900000000008
 30
0.0
 10
-7.2007500000000002
 20
4.4799900000000008
 30
0.0
 10
-7.2032900000000009
 20
4.4799900000000008
 30
0.0
 10
-7.2032900000000009
 20
4.4799900000000008
 30
0.0
 10
-7.8713100000000003
 20
4.4876100000000001
 30
0.0
 10
-8.5037700000000012
 20
4.4926900000000005
 30
0.0
 10
-9.1540100000000013
 20
4.7085900000000001
 30
0.0
 10
-9.1540100000000013
 20
4.7085900000000001
 30
0.0
 10
-9.1921100000000013
 20
4.7212900000000007
 30
0.0
 10
-9.2784700000000004
 20
4.7720900000000004
 30
0.0
 10
-9.2124300000000012
 20
4.7035100000000005
 30
0.0
  0
SPLINE
  5
38
100
AcDbEntity
  8
Ebene 1
 62
     1
100
AcDbSpline
210
0.0
220
0.0
230
1.0
 70
     1
 71
     3
 72
   192
 73
   188
 74
     0
 42
0.0000000001
 43
0.0000000001
 40
0.0
 40
0.0
 40
0.0
 40
0.0
 40
0.0212765957446809
 40
0.0212765957446809
 40
0.0212765957446809
 40
0.0212765957446809
 40
0.0425531914893617
 40
0.0425531914893617
 40
0.0425531914893617
 40
0.0425531914893617
 40
0.0638297872340425
 40
0.0638297872340425
 40
0.0638297872340425
 40
0.0638297872340425
 40
0.0851063829787234
 40
0.0851063829787234
 40
0.0851063829787234
 40
0.0851063829787234
 40
0.1063829787234043
 40
0.1063829787234043
 40
0.1063829787234043
 40
0.1063829787234043
 40
0.1276595744680851
 40
0.1276595744680851
 40
0.1276595744680851
 40
0.1276595744680851
 40
0.148936170212766
 40
0.148936170212766
 40
0.148936170212766
 40
0.148936170212766
 40
0.1702127659574468
 40
0.1702127659574468
 40
0.1702127659574468
 40
0.1702127659574468
 40
0.1914893617021277
 40
0.1914893617021277
 40
0.1914893617021277
 40
0.1914893617021277
 40
0.2127659574468085
 40
0.2127659574468085
 40
0.2127659574468085
 40
0.2127659574468085
 40
0.2340425531914894
 40
0.2340425531914894
 40
0.2340425531914894
 40
0.2340425531914894
 40
0.2553191489361702
 40
0.2553191489361702
 40
0.2553191489361702
 40
0.2553191489361702
 40
0.276595744680851
 40
0.276595744680851
 40
0.276595744680851
 40
0.276595744680851
 40
0.2978723404255319
 40
0.2978723404255319
 40
0.2978723404255319
 40
0.2978723404255319
 40
0.3191489361702127
 40
0.3191489361702127
 40
0.3191489361702127
 40
0.3191489361702127
 40
0.3404255319148935
 40
0.3404255319148935
 40
0.3404255319148935
 40
0.3404255319148935
 40
0.3617021276595743
 40
0.3617021276595743
 40
0.3617021276595743
 40
0.3617021276595743
 40
0.3829787234042552
 40
0.3829787234042552
 40
0.3829787234042552
 40
0.3829787234042552
 40
0.404255319148936
 40
0.404255319148936
 40
0.404255319148936
 40
0.404255319148936
 40
0.4255319148936168
 40
0.4255319148936168
 40
0.4255319148936168
 40
0.4255319148936168
 40
0.4468085106382976
 40
0.4468085106382976
 40
0.4468085106382976
 40
0.4468085106382976
 40
0.4680851063829785
 40
0.4680851063829785
 40
0.4680851063829785
 40
0.4680851063829785
 40
0.4893617021276593
 40
0.4893617021276593
 40
0.4893617021276593
 40
0.4893617021276593
 40
0.5106382978723402
 40
0.5106382978723402
 40
0.5106382978723402
 40
0.5106382978723402
 40
0.5319148936170211
 40
0.5319148936170211
 40
0.5319148936170211
 40
0.5319148936170211
 40
0.5531914893617019
 40
0.5531914893617019
 40
0.5531914893617019
 40
0.5531914893617019
 40
0.5744680851063828
 40
0.5744680851063828
 40
0.5744680851063828
 40
0.5744680851063828
 40
0.5957446808510637
 40
0.5957446808510637
 40
0.5957446808510637
 40
0.5957446808510637
 40
0.6170212765957446
 40
0.6170212765957446
 40
0.6170212765957446
 40
0.6170212765957446
 40
0.6382978723404255
 40
0.6382978723404255
 40
0.6382978723404255
 40
0.6382978723404255
 40
0.6595744680851063
 40
0.6595744680851063
 40
0.6595744680851063
 40
0.6595744680851063
 40
0.6808510638297872
 40
0.6808510638297872
 40
0.6808510638297872
 40
0.6808510638297872
 40
0.7021276595744681
 40
0.7021276595744681
 40
0.7021276595744681
 40
0.7021276595744681
 40
0.723404255319149
 40
0.723404255319149
 40
0.723404255319149
 40
0.723404255319149
 40
0.7446808510638299
 40
0.7446808510638299
 40
0.7446808510638299
 40
0.7446808510638299
 40
0.7659574468085107
 40
0.7659574468085107
 40
0.7659574468085107
 40
0.7659574468085107
 40
0.7872340425531916
 40
0.7872340425531916
 40
0.7872340425531916
 40
0.7872340425531916
 40
0.8085106382978725
 40
0.8085106382978725
 40
0.8085106382978725
 40
0.8085106382978725
 40
0.8297872340425534
 40
0.8297872340425534
 40
0.8297872340425534
 40
0.8297872340425534
 40
0.8510638297872343
 40
0.8510638297872343
 40
0.8510638297872343
 40
0.8510638297872343
 40
0.8723404255319152
 40
0.8723404255319152
 40
0.8723404255319152
 40
0.8723404255319152
 40
0.893617021276596
 40
0.893617021276596
 40
0.893617021276596
 40
0.893617021276596
 40
0.9148936170212769
 40
0.9148936170212769
 40
0.9148936170212769
 40
0.9148936170212769
 40
0.9361702127659578
 40
0.9361702127659578
 40
0.9361702127659578
 40
0.9361702127659578
 40
0.9574468085106387
 40
0.9574468085106387
 40
0.9574468085106387
 40
0.9574468085106387
 40
0.9787234042553196
 40
0.9787234042553196
 40
0.9787234042553196
 40
0.9787234042553196
 40
1.0
 40
1.0
 40
1.0
 40
1.0
 10
9.2482800000000012
 20
4.7314500000000006
 30
0.0
 10
9.2533600000000007
 20
4.7339900000000004
 30
0.0
 10
9.2762200000000004
 20
4.7466900000000001
 30
0.0
 10
9.2279600000000013
 20
4.6908100000000008
 30
0.0
 10
9.2279600000000013
 20
4.6908100000000008
 30
0.0
 10
9.2051000000000016
 20
4.6628700000000007
 30
0.0
 10
9.2000200000000003
 20
4.6628700000000007
 30
0.0
 10
9.154300000000001
 20
4.6501700000000001
 30
0.0
 10
9.154300000000001
 20
4.6501700000000001
 30
0.0
 10
9.0171400000000013
 20
4.6095300000000003
 30
0.0
 10
8.8520400000000006
 20
4.5282500000000008
 30
0.0
 10
8.7275800000000014
 20
4.4393500000000001
 30
0.0
 10
8.7275800000000014
 20
4.4393500000000001
 30
0.0
 10
8.6183600000000009
 20
4.3606100000000003
 30
0.0
 10
8.4329400000000003
 20
4.1523300000000001
 30
0.0
 10
8.694560000000001
 20
4.1523300000000001
 30
0.0
 10
8.694560000000001
 20
4.1523300000000001
 30
0.0
 10
9.5403800000000007
 20
4.1523300000000001
 30
0.0
 10
10.335400000000002
 20
4.7212900000000007
 30
0.0
 10
11.204080000000001
 20
4.6755700000000004
 30
0.0
 10
11.204080000000001
 20
4.6755700000000004
 30
0.0
 10
11.21424
 20
4.6755700000000004
 30
0.0
 10
11.21424
 20
4.6628700000000007
 30
0.0
 10
11.204080000000001
 20
4.6603300000000001
 30
0.0
 10
11.204080000000001
 20
4.6603300000000001
 30
0.0
 10
10.787520000000001
 20
4.6019100000000002
 30
0.0
 10
10.279520000000002
 20
4.5282500000000008
 30
0.0
 10
9.9798000000000009
 20
4.2285300000000001
 30
0.0
 10
9.9798000000000009
 20
4.2285300000000001
 30
0.0
 10
9.9772600000000011
 20
4.2285300000000001
 30
0.0
 10
9.9772600000000011
 20
4.2259900000000004
 30
0.0
 10
9.9747200000000014
 20
4.2259900000000004
 30
0.0
 10
9.9747200000000014
 20
4.2259900000000004
 30
0.0
 10
9.64452
 20
4.2082100000000002
 30
0.0
 10
9.3473400000000009
 20
4.1497900000000003
 30
0.0
 10
9.0323799999999999
 20
4.04819
 30
0.0
 10
9.0323799999999999
 20
4.04819
 30
0.0
 10
8.7555200000000006
 20
3.9592900000000002
 30
0.0
 10
8.0646400000000007
 20
3.7738700000000005
 30
0.0
 10
7.8944600000000005
 20
4.12439
 30
0.0
 10
7.8944600000000005
 20
4.12439
 30
0.0
 10
7.7801600000000004
 20
4.3529900000000001
 30
0.0
 10
8.1713200000000015
 20
4.4037900000000008
 30
0.0
 10
7.6887200000000009
 20
4.3199700000000005
 30
0.0
 10
7.6887200000000009
 20
4.3199700000000005
 30
0.0
 10
7.0130800000000004
 20
4.2031300000000007
 30
0.0
 10
6.2383800000000003
 20
4.0837500000000002
 30
0.0
 10
5.6160800000000002
 20
3.7662500000000003
 30
0.0
 10
5.6160800000000002
 20
3.7662500000000003
 30
0.0
 10
5.2706400000000002
 20
3.5909900000000001
 30
0.0
 10
5.0064800000000007
 20
3.3674700000000004
 30
0.0
 10
5.0064800000000007
 20
3.2480900000000004
 30
0.0
 10
5.0064800000000007
 20
3.2480900000000004
 30
0.0
 10
5.0064800000000007
 20
2.9864700000000002
 30
0.0
 10
6.0859800000000002
 20
3.5630500000000005
 30
0.0
 10
6.1875800000000005
 20
3.6036900000000003
 30
0.0
 10
6.1875800000000005
 20
3.6036900000000003
 30
0.0
 10
6.4415800000000001
 20
3.7052900000000002
 30
0.0
 10
6.7159000000000004
 20
3.7637100000000001
 30
0.0
 10
7.112140000000001
 20
3.8170500000000005
 30
0.0
 10
7.112140000000001
 20
3.8170500000000005
 30
0.0
 10
7.3051800000000009
 20
3.8424500000000004
 30
0.0
 10
7.7954000000000008
 20
3.9008700000000003
 30
0.0
 10
7.7979400000000005
 20
3.8983300000000005
 30
0.0
 10
7.7979400000000005
 20
3.8983300000000005
 30
0.0
 10
7.8004800000000003
 20
3.8983300000000005
 30
0.0
 10
7.8004800000000003
 20
3.8983300000000005
 30
0.0
 10
7.8004800000000003
 20
3.8983300000000005
 30
0.0
 10
7.8004800000000003
 20
3.8983300000000005
 30
0.0
 10
7.8004800000000003
 20
3.8957900000000003
 30
0.0
 10
7.7954000000000008
 20
3.8932500000000001
 30
0.0
 10
7.7877800000000006
 20
3.8932500000000001
 30
0.0
 10
7.7877800000000006
 20
3.8932500000000001
 30
0.0
 10
7.7877800000000006
 20
3.8932500000000001
 30
0.0
 10
7.7852400000000008
 20
3.8932500000000001
 30
0.0
 10
7.7852400000000008
 20
3.8932500000000001
 30
0.0
 10
7.7852400000000008
 20
3.8932500000000001
 30
0.0
 10
7.2594600000000007
 20
3.7764100000000003
 30
0.0
 10
6.5000000000000009
 20
3.6697300000000004
 30
0.0
 10
6.0936000000000003
 20
3.3268300000000002
 30
0.0
 10
6.0936000000000003
 20
3.3268300000000002
 30
0.0
 10
6.0758200000000002
 20
3.3141300000000005
 30
0.0
 10
6.0656600000000003
 20
3.3065100000000003
 30
0.0
 10
6.0148600000000005
 20
3.2938100000000001
 30
0.0
 10
6.0148600000000005
 20
3.2938100000000001
 30
0.0
 10
5.6516400000000004
 20
3.1998300000000004
 30
0.0
 10
5.3417600000000007
 20
2.9712300000000003
 30
0.0
 10
4.9785400000000006
 20
2.8924900000000004
 30
0.0
 10
4.9785400000000006
 20
2.8924900000000004
 30
0.0
 10
4.6077000000000004
 20
2.8137500000000002
 30
0.0
 10
4.3079800000000006
 20
2.8569300000000002
 30
0.0
 10
3.9752400000000003
 20
2.63849
 30
0.0
 10
3.9752400000000003
 20
2.63849
 30
0.0
 10
3.2716600000000002
 20
2.17875
 30
0.0
 10
2.8754200000000001
 20
1.31769
 30
0.0
 10
2.5833200000000001
 20
0.55061
 30
0.0
 10
2.5833200000000001
 20
0.55061
 30
0.0
 10
2.5833200000000001
 20
0.55061
 30
0.0
 10
2.5833200000000001
 20
0.55061
 30
0.0
 10
2.5833200000000001
 20
0.5480700000000001
 30
0.0
 10
2.5833200000000001
 20
0.5480700000000001
 30
0.0
 10
2.5833200000000001
 20
0.5480700000000001
 30
0.0
 10
2.6036400000000004
 20
0.5683900000000001
 30
0.0
 10
2.6265000000000001
 20
0.5912500000000001
 30
0.0
 10
2.6265000000000001
 20
0.5912500000000001
 30
0.0
 10
3.1726000000000001
 20
1.11195
 30
0.0
 10
3.8812600000000002
 20
1.2694300000000001
 30
0.0
 10
4.5213400000000004
 20
1.6250300000000002
 30
0.0
 10
4.5213400000000004
 20
1.6250300000000002
 30
0.0
 10
4.6559600000000003
 20
1.69869
 30
0.0
 10
4.6635800000000005
 20
1.7012300000000002
 30
0.0
 10
4.8236000000000008
 20
1.7063100000000002
 30
0.0
 10
4.8236000000000008
 20
1.7063100000000002
 30
0.0
 10
5.3468400000000003
 20
1.7240900000000001
 30
0.0
 10
5.8319800000000006
 20
1.8637900000000001
 30
0.0
 10
6.3196600000000007
 20
2.0568300000000002
 30
0.0
 10
6.3196600000000007
 20
2.0568300000000002
 30
0.0
 10
6.4161800000000007
 20
2.0949300000000002
 30
0.0
 10
6.4136400000000009
 20
2.09239
 30
0.0
 10
6.3907800000000003
 20
2.0771500000000001
 30
0.0
 10
6.3907800000000003
 20
2.0771500000000001
 30
0.0
 10
5.8700800000000006
 20
1.7444100000000002
 30
0.0
 10
5.1690400000000007
 20
1.5970900000000001
 30
0.0
 10
4.5823
 20
1.4091300000000002
 30
0.0
 10
4.5823
 20
1.4091300000000002
 30
0.0
 10
4.0743
 20
1.2465700000000002
 30
0.0
 10
2.7433400000000003
 20
0.7741300000000001
 30
0.0
 10
2.5909400000000002
 20
0.15437
 30
0.0
 10
2.5909400000000002
 20
0.15437
 30
0.0
 10
2.50712
 20
-0.1809
 30
0.0
 10
3.3529400000000003
 20
0.41599
 30
0.0
 10
3.3681800000000002
 20
0.42869
 30
0.0
 10
3.3681800000000002
 20
0.42869
 30
0.0
 10
4.0006400000000006
 20
0.8985900000000001
 30
0.0
 10
4.6737400000000004
 20
1.23895
 30
0.0
 10
5.4586000000000006
 20
1.3913500000000001
 30
0.0
 10
5.4586000000000006
 20
1.3913500000000001
 30
0.0
 10
5.4586000000000006
 20
1.3938900000000001
 30
0.0
 10
5.4586000000000006
 20
1.3938900000000001
 30
0.0
 10
5.4586000000000006
 20
1.3938900000000001
 30
0.0
 10
5.4586000000000006
 20
1.3938900000000001
 30
0.0
 10
5.4865400000000006
 20
1.40151
 30
0.0
 10
5.4890800000000004
 20
1.3964300000000001
 30
0.0
 10
5.4662200000000007
 20
1.3888100000000001
 30
0.0
 10
5.4662200000000007
 20
1.3888100000000001
 30
0.0
 10
4.8210600000000001
 20
1.1856100000000001
 30
0.0
 10
4.0819200000000002
 20
0.8554100000000001
 30
0.0
 10
3.6323400000000001
 20
0.3372500000000001
 30
0.0
 10
3.6323400000000001
 20
0.3372500000000001
 30
0.0
 10
3.5510600000000001
 20
0.24327
 30
0.0
 10
3.30722
 20
0.16453
 30
0.0
 10
3.1903800000000002
 20
0.09087
 30
0.0
 10
3.1903800000000002
 20
0.09087
 30
0.0
 10
2.7636600000000002
 20
-0.24694
 30
0.0
 10
2.33948
 20
-0.4349
 30
0.0
 10
1.8060800000000001
 20
-0.5593600000000001
 30
0.0
 10
1.8060800000000001
 20
-0.5593600000000001
 30
0.0
 10
1.5546200000000001
 20
-0.6203200000000001
 30
0.0
 10
1.1736200000000001
 20
-0.9454400000000001
 30
0.0
 10
0.9374000000000001
 20
-0.69652
 30
0.0
 10
0.9374000000000001
 20
-0.69652
 30
0.0
 10
0.93232
 20
-0.6889000000000001
 30
0.0
 10
0.93486
 20
-0.6838200000000001
 30
0.0
 10
0.9424800000000001
 20
-0.6812800000000001
 30
0.0
 10
0.9424800000000001
 20
-0.6812800000000001
 30
0.0
 10
1.6790800000000001
 20
-0.6711200000000001
 30
0.0
 10
2.04738
 20
0.00197
 30
0.0
 10
2.3623400000000001
 20
0.5658500000000001
 30
0.0
 10
2.3623400000000001
 20
0.5658500000000001
 30
0.0
 10
2.6417400000000004
 20
1.06115
 30
0.0
 10
2.8728800000000003
 20
1.5843900000000002
 30
0.0
 10
3.2030800000000004
 20
2.04921
 30
0.0
 10
3.2030800000000004
 20
2.04921
 30
0.0
 10
3.8507800000000003
 20
2.9712300000000003
 30
0.0
 10
5.1157000000000004
 20
3.8856300000000004
 30
0.0
 10
6.2714000000000008
 20
4.1574100000000005
 30
0.0
 10
6.2714000000000008
 20
4.1574100000000005
 30
0.0
 10
6.5990600000000006
 20
4.2336100000000005
 30
0.0
 10
6.9038600000000008
 20
4.3428300000000002
 30
0.0
 10
7.2162800000000002
 20
4.4799900000000008
 30
0.0
 10
7.2162800000000002
 20
4.4799900000000008
 30
0.0
 10
7.2162800000000002
 20
4.4799900000000008
 30
0.0
 10
7.2162800000000002
 20
4.4799900000000008
 30
0.0
 10
7.2188200000000009
 20
4.4799900000000008
 30
0.0
 10
7.2188200000000009
 20
4.4799900000000008
 30
0.0
 10
7.917320000000001
 20
4.4799900000000008
 30
0.0
 10
8.5701000000000001
 20
4.5053900000000002
 30
0.0
 10
9.2482800000000012
 20
4.7314500000000006
 30
0.0
  0
SPLINE
  5
39
100
AcDbEntity
  8
Ebene 1
 62
     1
100
AcDbSpline
210
0.0
220
0.0
230
1.0
 70
     1
 71
     3
 72
    24
 73
    20
 74
     0
 42
0.0000000001
 43
0.0000000001
 40
0.0
 40
0.0
 40
0.0
 40
0.0
 40
0.2
 40
0.2
 40
0.2
 40
0.2
 40
0.4
 40
0.4
 40
0.4
 40
0.4
 40
0.6000000000000001
 40
0.6000000000000001
 40
0.6000000000000001
 40
0.6000000000000001
 40
0.8
 40
0.8
 40
0.8
 40
0.8
 40
1.0
 40
1.0
 40
1.0
 40
1.0
 10
0.12714
 20
4.2437700000000005
 30
0.0
 10
0.1246
 20
4.2513900000000007
 30
0.0
 10
0.10936
 20
4.2513900000000007
 30
0.0
 10
0.10936
 20
4.2437700000000005
 30
0.0
 10
0.10936
 20
4.2437700000000005
 30
0.0
 10
0.0865
 20
3.8805500000000004
 30
0.0
 10
-0.25639
 20
3.2734900000000002
 30
0.0
 10
-0.47483
 20
3.0093300000000003
 30
0.0
 10
-0.47483
 20
3.0093300000000003
 30
0.0
 10
-0.57389
 20
2.9102700000000001
 30
0.0
 10
-0.47229
 20
2.97377
 30
0.0
 10
-0.41387
 20
3.0093300000000003
 30
0.0
 10
-0.41387
 20
3.0093300000000003
 30
0.0
 10
-0.09891
 20
3.2023700000000002
 30
0.0
 10
0.10682
 20
3.6316300000000004
 30
0.0
 10
0.13222
 20
4.1370900000000006
 30
0.0
 10
0.13222
 20
4.1370900000000006
 30
0.0
 10
0.13222
 20
4.17265
 30
0.0
 10
0.12968
 20
4.2132900000000006
 30
0.0
 10
0.12714
 20
4.2437700000000005
 30
0.0
  0
SPLINE
  5
3A
100
AcDbEntity
  8
Ebene 1
 62
     1
100
AcDbSpline
210
0.0
220
0.0
230
1.0
 70
     1
 71
     3
 72
    32
 73
    28
 74
     0
 42
0.0000000001
 43
0.0000000001
 40
0.0
 40
0.0
 40
0.0
 40
0.0
 40
0.1428571428571429
 40
0.1428571428571429
 40
0.1428571428571429
 40
0.1428571428571429
 40
0.2857142857142857
 40
0.2857142857142857
 40
0.2857142857142857
 40
0.2857142857142857
 40
0.4285714285714286
 40
0.4285714285714286
 40
0.4285714285714286
 40
0.4285714285714286
 40
0.5714285714285714
 40
0.5714285714285714
 40
0.5714285714285714
 40
0.5714285714285714
 40
0.7142857142857142
 40
0.7142857142857142
 40
0.7142857142857142
 40
0.7142857142857142
 40
0.857142857142857
 40
0.857142857142857
 40
0.857142857142857
 40
0.857142857142857
 40
1.0
 40
1.0
 40
1.0
 40
1.0
 10
3.4266000000000001
 20
3.9542100000000002
 30
0.0
 10
3.5180400000000005
 20
3.9846900000000005
 30
0.0
 10
3.4316800000000001
 20
3.9465900000000005
 30
0.0
 10
3.3961200000000002
 20
3.9288100000000004
 30
0.0
 10
3.3961200000000002
 20
3.9288100000000004
 30
0.0
 10
2.5249000000000001
 20
3.5020900000000004
 30
0.0
 10
2.5757000000000003
 20
2.6105500000000004
 30
0.0
 10
2.1058000000000003
 20
1.8968100000000001
 30
0.0
 10
2.1058000000000003
 20
1.8968100000000001
 30
0.0
 10
2.1007200000000004
 20
1.8891900000000001
 30
0.0
 10
1.8873600000000001
 20
1.5920100000000001
 30
0.0
 10
1.9762600000000001
 20
1.7266300000000001
 30
0.0
 10
1.9762600000000001
 20
1.7266300000000001
 30
0.0
 10
2.12866
 20
2.01111
 30
0.0
 10
2.16676
 20
2.3565500000000004
 30
0.0
 10
2.1159600000000003
 20
2.6715100000000001
 30
0.0
 10
2.1159600000000003
 20
2.6715100000000001
 30
0.0
 10
2.1159600000000003
 20
2.6740500000000003
 30
0.0
 10
2.1159600000000003
 20
2.67659
 30
0.0
 10
2.1185
 20
2.6791300000000002
 30
0.0
 10
2.1185
 20
2.6791300000000002
 30
0.0
 10
2.2632800000000004
 20
2.8239100000000001
 30
0.0
 10
2.3547200000000004
 20
3.0271100000000004
 30
0.0
 10
2.4512400000000003
 20
3.2074500000000001
 30
0.0
 10
2.4512400000000003
 20
3.2074500000000001
 30
0.0
 10
2.6442800000000002
 20
3.5630500000000005
 30
0.0
 10
3.01004
 20
3.8399100000000002
 30
0.0
 10
3.4266000000000001
 20
3.9542100000000002
 30
0.0
  0
SPLINE
  5
3B
100
AcDbEntity
  8
Ebene 1
 62
     1
100
AcDbSpline
210
0.0
220
0.0
230
1.0
 70
     1
 71
     3
 72
    72
 73
    68
 74
     0
 42
0.0000000001
 43
0.0000000001
 40
0.0
 40
0.0
 40
0.0
 40
0.0
 40
0.0588235294117647
 40
0.0588235294117647
 40
0.0588235294117647
 40
0.0588235294117647
 40
0.1176470588235294
 40
0.1176470588235294
 40
0.1176470588235294
 40
0.1176470588235294
 40
0.1764705882352941
 40
0.1764705882352941
 40
0.1764705882352941
 40
0.1764705882352941
 40
0.2352941176470588
 40
0.2352941176470588
 40
0.2352941176470588
 40
0.2352941176470588
 40
0.2941176470588235
 40
0.2941176470588235
 40
0.2941176470588235
 40
0.2941176470588235
 40
0.3529411764705883
 40
0.3529411764705883
 40
0.3529411764705883
 40
0.3529411764705883
 40
0.411764705882353
 40
0.411764705882353
 40
0.411764705882353
 40
0.411764705882353
 40
0.4705882352941177
 40
0.4705882352941177
 40
0.4705882352941177
 40
0.4705882352941177
 40
0.5294117647058824
 40
0.5294117647058824
 40
0.5294117647058824
 40
0.5294117647058824
 40
0.5882352941176471
 40
0.5882352941176471
 40
0.5882352941176471
 40
0.5882352941176471
 40
0.6470588235294118
 40
0.6470588235294118
 40
0.6470588235294118
 40
0.6470588235294118
 40
0.7058823529411765
 40
0.7058823529411765
 40
0.7058823529411765
 40
0.7058823529411765
 40
0.7647058823529412
 40
0.7647058823529412
 40
0.7647058823529412
 40
0.7647058823529412
 40
0.823529411764706
 40
0.823529411764706
 40
0.823529411764706
 40
0.823529411764706
 40
0.8823529411764707
 40
0.8823529411764707
 40
0.8823529411764707
 40
0.8823529411764707
 40
0.9411764705882354
 40
0.9411764705882354
 40
0.9411764705882354
 40
0.9411764705882354
 40
1.0
 40
1.0
 40
1.0
 40
1.0
 10
-10.035390000000001
 20
3.8119700000000005
 30
0.0
 10
-10.025230000000001
 20
3.7992700000000004
 30
0.0
 10
-9.7864700000000013
 20
3.7205300000000001
 30
0.0
 10
-9.6518500000000014
 20
3.6824300000000001
 30
0.0
 10
-9.6518500000000014
 20
3.6824300000000001
 30
0.0
 10
-8.5774300000000014
 20
3.3674700000000004
 30
0.0
 10
-7.3023500000000006
 20
3.4284300000000001
 30
0.0
 10
-6.3346100000000005
 20
2.8188300000000002
 30
0.0
 10
-6.3346100000000005
 20
2.8188300000000002
 30
0.0
 10
-6.1060100000000004
 20
2.6740500000000003
 30
0.0
 10
-5.9510700000000005
 20
2.51403
 30
0.0
 10
-5.9637700000000002
 20
2.4327500000000004
 30
0.0
 10
-5.9637700000000002
 20
2.4327500000000004
 30
0.0
 10
-5.9891700000000005
 20
2.2371700000000003
 30
0.0
 10
-6.6724300000000003
 20
2.5673700000000004
 30
0.0
 10
-6.7359300000000006
 20
2.5978500000000002
 30
0.0
 10
-6.7359300000000006
 20
2.5978500000000002
 30
0.0
 10
-7.4471300000000005
 20
2.9483700000000002
 30
0.0
 10
-8.2294499999999999
 20
3.2785700000000002
 30
0.0
 10
-9.0320900000000002
 20
3.2785700000000002
 30
0.0
 10
-9.0320900000000002
 20
3.2785700000000002
 30
0.0
 10
-9.042250000000001
 20
3.2785700000000002
 30
0.0
 10
-8.9812900000000013
 20
3.2633300000000003
 30
0.0
 10
-8.8949300000000004
 20
3.2455500000000002
 30
0.0
 10
-8.8949300000000004
 20
3.2455500000000002
 30
0.0
 10
-8.2777100000000008
 20
3.1185500000000004
 30
0.0
 10
-7.5538100000000004
 20
2.9356700000000004
 30
0.0
 10
-7.0661300000000002
 20
2.5267300000000001
 30
0.0
 10
-7.0661300000000002
 20
2.5267300000000001
 30
0.0
 10
-7.0407300000000008
 20
2.50387
 30
0.0
 10
-7.0305700000000009
 20
2.5013300000000003
 30
0.0
 10
-7.0051700000000006
 20
2.4937100000000001
 30
0.0
 10
-7.0051700000000006
 20
2.4937100000000001
 30
0.0
 10
-6.6444900000000002
 20
2.4124300000000001
 30
0.0
 10
-6.3371500000000003
 20
2.20669
 30
0.0
 10
-5.9917100000000003
 20
2.0898500000000002
 30
0.0
 10
-5.9917100000000003
 20
2.0898500000000002
 30
0.0
 10
-5.6488100000000001
 20
1.9755500000000001
 30
0.0
 10
-5.28559
 20
1.9450700000000001
 30
0.0
 10
-4.9274500000000003
 20
1.9095100000000003
 30
0.0
 10
-4.9274500000000003
 20
1.9095100000000003
 30
0.0
 10
-4.8893500000000003
 20
1.9069700000000001
 30
0.0
 10
-4.7242500000000005
 20
1.8764900000000002
 30
0.0
 10
-4.8588700000000005
 20
1.9298300000000002
 30
0.0
 10
-4.8588700000000005
 20
1.9298300000000002
 30
0.0
 10
-5.4227500000000006
 20
2.21177
 30
0.0
 10
-5.7580300000000006
 20
2.7375500000000001
 30
0.0
 10
-6.3269900000000003
 20
3.0220300000000004
 30
0.0
 10
-6.3269900000000003
 20
3.0220300000000004
 30
0.0
 10
-6.8807100000000005
 20
3.2988900000000001
 30
0.0
 10
-7.4928500000000007
 20
3.3776300000000004
 30
0.0
 10
-8.0719700000000003
 20
3.6011500000000001
 30
0.0
 10
-8.0719700000000003
 20
3.6011500000000001
 30
0.0
 10
-8.2040500000000005
 20
3.6494100000000005
 30
0.0
 10
-8.1862700000000004
 20
3.6494100000000005
 30
0.0
 10
-8.3488300000000013
 20
3.6367100000000003
 30
0.0
 10
-8.3488300000000013
 20
3.6367100000000003
 30
0.0
 10
-8.9279500000000009
 20
3.5935300000000003
 30
0.0
 10
-9.4588100000000015
 20
3.6722700000000001
 30
0.0
 10
-10.025230000000001
 20
3.8068900000000001
 30
0.0
 10
-10.025230000000001
 20
3.8068900000000001
 30
0.0
 10
-10.025230000000001
 20
3.8068900000000001
 30
0.0
 10
-10.025230000000001
 20
3.8068900000000001
 30
0.0
 10
-10.02777
 20
3.8068900000000001
 30
0.0
 10
-10.02777
 20
3.8068900000000001
 30
0.0
 10
-10.035390000000001
 20
3.8119700000000005
 30
0.0
 10
-10.037930000000001
 20
3.8119700000000005
 30
0.0
 10
-10.035390000000001
 20
3.8119700000000005
 30
0.0
  0
SPLINE
  5
3C
100
AcDbEntity
  8
Ebene 1
 62
     1
100
AcDbSpline
210
0.0
220
0.0
230
1.0
 70
     1
 71
     3
 72
    64
 73
    60
 74
     0
 42
0.0000000001
 43
0.0000000001
 40
0.0
 40
0.0
 40
0.0
 40
0.0
 40
0.0666666666666667
 40
0.0666666666666667
 40
0.0666666666666667
 40
0.0666666666666667
 40
0.1333333333333333
 40
0.1333333333333333
 40
0.1333333333333333
 40
0.1333333333333333
 40
0.2
 40
0.2
 40
0.2
 40
0.2
 40
0.2666666666666667
 40
0.2666666666666667
 40
0.2666666666666667
 40
0.2666666666666667
 40
0.3333333333333333
 40
0.3333333333333333
 40
0.3333333333333333
 40
0.3333333333333333
 40
0.4
 40
0.4
 40
0.4
 40
0.4
 40
0.4666666666666666
 40
0.4666666666666666
 40
0.4666666666666666
 40
0.4666666666666666
 40
0.5333333333333333
 40
0.5333333333333333
 40
0.5333333333333333
 40
0.5333333333333333
 40
0.6
 40
0.6
 40
0.6
 40
0.6
 40
0.6666666666666666
 40
0.6666666666666666
 40
0.6666666666666666
 40
0.6666666666666666
 40
0.7333333333333333
 40
0.7333333333333333
 40
0.7333333333333333
 40
0.7333333333333333
 40
0.7999999999999999
 40
0.7999999999999999
 40
0.7999999999999999
 40
0.7999999999999999
 40
0.8666666666666666
 40
0.8666666666666666
 40
0.8666666666666666
 40
0.8666666666666666
 40
0.9333333333333332
 40
0.9333333333333332
 40
0.9333333333333332
 40
0.9333333333333332
 40
1.0
 40
1.0
 40
1.0
 40
1.0
 10
9.9569400000000012
 20
3.7865700000000002
 30
0.0
 10
10.091560000000001
 20
3.8195900000000003
 30
0.0
 10
10.091560000000001
 20
3.8195900000000003
 30
0.0
 10
9.9696400000000001
 20
3.7764100000000003
 30
0.0
 10
9.9696400000000001
 20
3.7764100000000003
 30
0.0
 10
8.8723600000000005
 20
3.3776300000000004
 30
0.0
 10
7.6252200000000006
 20
3.4766900000000005
 30
0.0
 10
6.5736600000000003
 20
2.9432900000000002
 30
0.0
 10
6.5736600000000003
 20
2.9432900000000002
 30
0.0
 10
6.3857000000000008
 20
2.8493100000000005
 30
0.0
 10
6.1012200000000005
 20
2.6943700000000002
 30
0.0
 10
5.9996200000000002
 20
2.4937100000000001
 30
0.0
 10
5.9996200000000002
 20
2.4937100000000001
 30
0.0
 10
5.8523000000000005
 20
2.1990700000000003
 30
0.0
 10
6.5736600000000003
 20
2.50895
 30
0.0
 10
6.8022600000000004
 20
2.6232500000000001
 30
0.0
 10
6.8022600000000004
 20
2.6232500000000001
 30
0.0
 10
7.5083800000000007
 20
2.97377
 30
0.0
 10
8.2271999999999998
 20
3.2353900000000002
 30
0.0
 10
9.0222200000000008
 20
3.2785700000000002
 30
0.0
 10
9.0222200000000008
 20
3.2785700000000002
 30
0.0
 10
9.0704799999999999
 20
3.2811100000000004
 30
0.0
 10
9.0704799999999999
 20
3.2785700000000002
 30
0.0
 10
8.9282400000000006
 20
3.2480900000000004
 30
0.0
 10
8.9282400000000006
 20
3.2480900000000004
 30
0.0
 10
8.2729200000000009
 20
3.1210900000000001
 30
0.0
 10
7.5795000000000003
 20
2.9204300000000001
 30
0.0
 10
7.0562600000000009
 20
2.5013300000000003
 30
0.0
 10
7.0562600000000009
 20
2.5013300000000003
 30
0.0
 10
7.0537200000000002
 20
2.5013300000000003
 30
0.0
 10
7.0537200000000002
 20
2.5013300000000003
 30
0.0
 10
7.0537200000000002
 20
2.4987900000000001
 30
0.0
 10
7.0537200000000002
 20
2.4987900000000001
 30
0.0
 10
6.6270000000000007
 20
2.3946500000000004
 30
0.0
 10
6.2587000000000002
 20
2.1457300000000004
 30
0.0
 10
5.8370600000000001
 20
2.0365100000000003
 30
0.0
 10
5.8370600000000001
 20
2.0365100000000003
 30
0.0
 10
5.5195600000000002
 20
1.9552300000000002
 30
0.0
 10
5.1969800000000008
 20
1.9450700000000001
 30
0.0
 10
4.8769400000000003
 20
1.9018900000000001
 30
0.0
 10
4.8769400000000003
 20
1.9018900000000001
 30
0.0
 10
4.8058200000000006
 20
1.8917300000000001
 30
0.0
 10
4.8058200000000006
 20
1.8942700000000001
 30
0.0
 10
4.9048800000000004
 20
1.9425300000000001
 30
0.0
 10
4.9048800000000004
 20
1.9425300000000001
 30
0.0
 10
5.3697000000000008
 20
2.1711300000000002
 30
0.0
 10
5.6491000000000007
 20
2.5800700000000001
 30
0.0
 10
6.0732800000000005
 20
2.8620100000000002
 30
0.0
 10
6.0732800000000005
 20
2.8620100000000002
 30
0.0
 10
6.6879600000000003
 20
3.2734900000000002
 30
0.0
 10
7.419480000000001
 20
3.3471500000000001
 30
0.0
 10
8.100200000000001
 20
3.6036900000000003
 30
0.0
 10
8.100200000000001
 20
3.6036900000000003
 30
0.0
 10
8.2221200000000003
 20
3.6494100000000005
 30
0.0
 10
8.2221200000000003
 20
3.6494100000000005
 30
0.0
 10
8.32118
 20
3.6417900000000003
 30
0.0
 10
8.32118
 20
3.6417900000000003
 30
0.0
 10
8.8876000000000008
 20
3.5935300000000003
 30
0.0
 10
9.403220000000001
 20
3.6595700000000004
 30
0.0
 10
9.9569400000000012
 20
3.7865700000000002
 30
0.0
  0
SPLINE
  5
3D
100
AcDbEntity
  8
Ebene 1
 62
     1
100
AcDbSpline
210
0.0
220
0.0
230
1.0
 70
     1
 71
     3
 72
    36
 73
    32
 74
     0
 42
0.0000000001
 43
0.0000000001
 40
0.0
 40
0.0
 40
0.0
 40
0.0
 40
0.125
 40
0.125
 40
0.125
 40
0.125
 40
0.25
 40
0.25
 40
0.25
 40
0.25
 40
0.375
 40
0.375
 40
0.375
 40
0.375
 40
0.5
 40
0.5
 40
0.5
 40
0.5
 40
0.625
 40
0.625
 40
0.625
 40
0.625
 40
0.75
 40
0.75
 40
0.75
 40
0.75
 40
0.875
 40
0.875
 40
0.875
 40
0.875
 40
1.0
 40
1.0
 40
1.0
 40
1.0
 10
-3.3526500000000001
 20
3.6240100000000002
 30
0.0
 10
-3.2916900000000004
 20
3.5935300000000003
 30
0.0
 10
-3.2002500000000005
 20
3.5427300000000002
 30
0.0
 10
-3.1418300000000001
 20
3.5020900000000004
 30
0.0
 10
-3.1418300000000001
 20
3.5020900000000004
 30
0.0
 10
-2.3976100000000002
 20
2.9991700000000003
 30
0.0
 10
-2.4534900000000004
 20
2.0644500000000003
 30
0.0
 10
-1.92517
 20
1.4142100000000002
 30
0.0
 10
-1.92517
 20
1.4142100000000002
 30
0.0
 10
-1.9200900000000001
 20
1.40659
 30
0.0
 10
-1.9073900000000001
 20
1.4142100000000002
 30
0.0
 10
-1.9124700000000001
 20
1.4218300000000001
 30
0.0
 10
-1.9124700000000001
 20
1.4218300000000001
 30
0.0
 10
-2.05471
 20
1.7469500000000002
 30
0.0
 10
-2.06487
 20
1.9984100000000002
 30
0.0
 10
-2.0369300000000004
 20
2.3514700000000004
 30
0.0
 10
-2.0369300000000004
 20
2.3514700000000004
 30
0.0
 10
-2.0369300000000004
 20
2.3540100000000002
 30
0.0
 10
-2.0394700000000001
 20
2.3540100000000002
 30
0.0
 10
-2.0394700000000001
 20
2.3565500000000004
 30
0.0
 10
-2.0394700000000001
 20
2.3565500000000004
 30
0.0
 10
-2.27061
 20
2.59023
 30
0.0
 10
-2.3544300000000002
 20
2.9331300000000002
 30
0.0
 10
-2.5830300000000004
 20
3.1718900000000003
 30
0.0
 10
-2.5830300000000004
 20
3.1718900000000003
 30
0.0
 10
-2.7633700000000001
 20
3.3598500000000002
 30
0.0
 10
-3.0046700000000004
 20
3.5122500000000003
 30
0.0
 10
-3.2510500000000002
 20
3.6011500000000001
 30
0.0
 10
-3.2510500000000002
 20
3.6011500000000001
 30
0.0
 10
-3.2662900000000001
 20
3.6062300000000005
 30
0.0
 10
-3.4796500000000004
 20
3.6798900000000003
 30
0.0
 10
-3.3526500000000001
 20
3.6240100000000002
 30
0.0
  0
SPLINE
  5
3E
100
AcDbEntity
  8
Ebene 1
 62
     1
100
AcDbSpline
210
0.0
220
0.0
230
1.0
 70
     1
 71
     3
 72
    36
 73
    32
 74
     0
 42
0.0000000001
 43
0.0000000001
 40
0.0
 40
0.0
 40
0.0
 40
0.0
 40
0.125
 40
0.125
 40
0.125
 40
0.125
 40
0.25
 40
0.25
 40
0.25
 40
0.25
 40
0.375
 40
0.375
 40
0.375
 40
0.375
 40
0.5
 40
0.5
 40
0.5
 40
0.5
 40
0.625
 40
0.625
 40
0.625
 40
0.625
 40
0.75
 40
0.75
 40
0.75
 40
0.75
 40
0.875
 40
0.875
 40
0.875
 40
0.875
 40
1.0
 40
1.0
 40
1.0
 40
1.0
 10
-4.0384500000000001
 20
3.5478100000000001
 30
0.0
 10
-4.04861
 20
3.5478100000000001
 30
0.0
 10
-4.04861
 20
3.5351100000000004
 30
0.0
 10
-4.0409900000000007
 20
3.5325700000000002
 30
0.0
 10
-4.0409900000000007
 20
3.5325700000000002
 30
0.0
 10
-3.6091900000000003
 20
3.3801700000000001
 30
0.0
 10
-3.1773900000000004
 20
2.7070700000000003
 30
0.0
 10
-3.1291300000000004
 20
2.2955900000000002
 30
0.0
 10
-3.1291300000000004
 20
2.2955900000000002
 30
0.0
 10
-3.1215100000000002
 20
2.2346300000000001
 30
0.0
 10
-3.0707100000000001
 20
2.2244700000000002
 30
0.0
 10
-3.0224500000000001
 20
2.1838300000000004
 30
0.0
 10
-3.0224500000000001
 20
2.1838300000000004
 30
0.0
 10
-2.7176500000000003
 20
1.9196700000000002
 30
0.0
 10
-2.5754100000000002
 20
1.4726300000000001
 30
0.0
 10
-2.2604500000000001
 20
1.18815
 30
0.0
 10
-2.2604500000000001
 20
1.18815
 30
0.0
 10
-2.2452100000000002
 20
1.1754500000000001
 30
0.0
 10
-2.0826500000000001
 20
1.0332100000000002
 30
0.0
 10
-2.1664700000000003
 20
1.1322700000000001
 30
0.0
 10
-2.1664700000000003
 20
1.1322700000000001
 30
0.0
 10
-2.5906500000000001
 20
1.6224900000000002
 30
0.0
 10
-2.7836900000000004
 20
2.2803500000000003
 30
0.0
 10
-3.1088100000000001
 20
2.8315300000000003
 30
0.0
 10
-3.1088100000000001
 20
2.8315300000000003
 30
0.0
 10
-3.2967700000000004
 20
3.1490300000000002
 30
0.0
 10
-3.6244300000000003
 20
3.5351100000000004
 30
0.0
 10
-4.0282900000000001
 20
3.5478100000000001
 30
0.0
 10
-4.0282900000000001
 20
3.5478100000000001
 30
0.0
 10
-4.0308299999999999
 20
3.5478100000000001
 30
0.0
 10
-4.0359100000000003
 20
3.5478100000000001
 30
0.0
 10
-4.0384500000000001
 20
3.5478100000000001
 30
0.0
  0
SPLINE
  5
3F
100
AcDbEntity
  8
Ebene 1
 62
     1
100
AcDbSpline
210
0.0
220
0.0
230
1.0
 70
     1
 71
     3
 72
    40
 73
    36
 74
     0
 42
0.0000000001
 43
0.0000000001
 40
0.0
 40
0.0
 40
0.0
 40
0.0
 40
0.1111111111111111
 40
0.1111111111111111
 40
0.1111111111111111
 40
0.1111111111111111
 40
0.2222222222222222
 40
0.2222222222222222
 40
0.2222222222222222
 40
0.2222222222222222
 40
0.3333333333333333
 40
0.3333333333333333
 40
0.3333333333333333
 40
0.3333333333333333
 40
0.4444444444444444
 40
0.4444444444444444
 40
0.4444444444444444
 40
0.4444444444444444
 40
0.5555555555555556
 40
0.5555555555555556
 40
0.5555555555555556
 40
0.5555555555555556
 40
0.6666666666666667
 40
0.6666666666666667
 40
0.6666666666666667
 40
0.6666666666666667
 40
0.7777777777777779
 40
0.7777777777777779
 40
0.7777777777777779
 40
0.7777777777777779
 40
0.8888888888888891
 40
0.8888888888888891
 40
0.8888888888888891
 40
0.8888888888888891
 40
1.0
 40
1.0
 40
1.0
 40
1.0
 10
3.9752400000000003
 20
3.5427300000000002
 30
0.0
 10
4.0133400000000004
 20
3.5478100000000001
 30
0.0
 10
4.1809799999999999
 20
3.5757500000000002
 30
0.0
 10
4.0819200000000002
 20
3.5351100000000004
 30
0.0
 10
4.0819200000000002
 20
3.5351100000000004
 30
0.0
 10
4.0819200000000002
 20
3.5351100000000004
 30
0.0
 10
4.0819200000000002
 20
3.5351100000000004
 30
0.0
 10
4.0793800000000005
 20
3.5351100000000004
 30
0.0
 10
4.0793800000000005
 20
3.5351100000000004
 30
0.0
 10
3.6323400000000001
 20
3.4157300000000004
 30
0.0
 10
3.1878400000000005
 20
2.6892900000000002
 30
0.0
 10
3.1497400000000004
 20
2.26003
 30
0.0
 10
3.1497400000000004
 20
2.26003
 30
0.0
 10
3.1497400000000004
 20
2.2574900000000002
 30
0.0
 10
3.1472000000000002
 20
2.25495
 30
0.0
 10
3.1446600000000005
 20
2.25495
 30
0.0
 10
3.1446600000000005
 20
2.25495
 30
0.0
 10
3.0938600000000003
 20
2.2244700000000002
 30
0.0
 10
3.0557600000000003
 20
2.1939900000000003
 30
0.0
 10
3.0151200000000005
 20
2.1508100000000003
 30
0.0
 10
3.0151200000000005
 20
2.1508100000000003
 30
0.0
 10
2.7077800000000001
 20
1.8434700000000002
 30
0.0
 10
2.5553800000000004
 20
1.3354700000000002
 30
0.0
 10
2.17184
 20
1.0992500000000001
 30
0.0
 10
2.17184
 20
1.0992500000000001
 30
0.0
 10
2.1591400000000003
 20
1.0916300000000001
 30
0.0
 10
2.1591400000000003
 20
1.0967100000000001
 30
0.0
 10
2.1794600000000002
 20
1.1195700000000002
 30
0.0
 10
2.1794600000000002
 20
1.1195700000000002
 30
0.0
 10
2.3064600000000004
 20
1.2643500000000001
 30
0.0
 10
2.4436200000000001
 20
1.4802500000000001
 30
0.0
 10
2.59348
 20
1.7596500000000002
 30
0.0
 10
2.59348
 20
1.7596500000000002
 30
0.0
 10
2.9059000000000004
 20
2.3336900000000003
 30
0.0
 10
3.2513400000000003
 20
3.4258900000000003
 30
0.0
 10
3.9752400000000003
 20
3.5427300000000002
 30
0.0
  0
SPLINE
  5
40
100
AcDbEntity
  8
Ebene 1
 62
     1
100
AcDbSpline
210
0.0
220
0.0
230
1.0
 70
     1
 71
     3
 72
    28
 73
    24
 74
     0
 42
0.0000000001
 43
0.0000000001
 40
0.0
 40
0.0
 40
0.0
 40
0.0
 40
0.1666666666666667
 40
0.1666666666666667
 40
0.1666666666666667
 40
0.1666666666666667
 40
0.3333333333333333
 40
0.3333333333333333
 40
0.3333333333333333
 40
0.3333333333333333
 40
0.5
 40
0.5
 40
0.5
 40
0.5
 40
0.6666666666666666
 40
0.6666666666666666
 40
0.6666666666666666
 40
0.6666666666666666
 40
0.8333333333333333
 40
0.8333333333333333
 40
0.8333333333333333
 40
0.8333333333333333
 40
1.0
 40
1.0
 40
1.0
 40
1.0
 10
1.0034400000000001
 20
2.8467700000000002
 30
0.0
 10
1.0263
 20
2.9001100000000002
 30
0.0
 10
1.02884
 20
2.9280500000000003
 30
0.0
 10
1.02884
 20
2.8543900000000004
 30
0.0
 10
1.02884
 20
2.8543900000000004
 30
0.0
 10
0.9805800000000001
 20
2.4505300000000001
 30
0.0
 10
1.1304400000000001
 20
2.0466700000000002
 30
0.0
 10
1.2904600000000002
 20
1.6834500000000001
 30
0.0
 10
1.2904600000000002
 20
1.6834500000000001
 30
0.0
 10
1.2930000000000001
 20
1.6834500000000001
 30
0.0
 10
1.2930000000000001
 20
1.6809100000000001
 30
0.0
 10
1.2930000000000001
 20
1.6809100000000001
 30
0.0
 10
1.2930000000000001
 20
1.6809100000000001
 30
0.0
 10
1.2523600000000001
 20
1.36087
 30
0.0
 10
1.4682600000000001
 20
1.01797
 30
0.0
 10
1.6587600000000002
 20
0.78683
 30
0.0
 10
1.6587600000000002
 20
0.78683
 30
0.0
 10
1.6917800000000001
 20
0.74619
 30
0.0
 10
1.6892400000000001
 20
0.74873
 30
0.0
 10
1.6257400000000002
 20
0.78937
 30
0.0
 10
1.6257400000000002
 20
0.78937
 30
0.0
 10
0.9424800000000001
 20
1.2414900000000002
 30
0.0
 10
0.72404
 20
2.0974700000000004
 30
0.0
 10
1.0034400000000001
 20
2.8467700000000002
 30
0.0
  0
SPLINE
  5
41
100
AcDbEntity
  8
Ebene 1
 62
     1
100
AcDbSpline
210
0.0
220
0.0
230
1.0
 70
     1
 71
     3
 72
    32
 73
    28
 74
     0
 42
0.0000000001
 43
0.0000000001
 40
0.0
 40
0.0
 40
0.0
 40
0.0
 40
0.1428571428571429
 40
0.1428571428571429
 40
0.1428571428571429
 40
0.1428571428571429
 40
0.2857142857142857
 40
0.2857142857142857
 40
0.2857142857142857
 40
0.2857142857142857
 40
0.4285714285714286
 40
0.4285714285714286
 40
0.4285714285714286
 40
0.4285714285714286
 40
0.5714285714285714
 40
0.5714285714285714
 40
0.5714285714285714
 40
0.5714285714285714
 40
0.7142857142857142
 40
0.7142857142857142
 40
0.7142857142857142
 40
0.7142857142857142
 40
0.857142857142857
 40
0.857142857142857
 40
0.857142857142857
 40
0.857142857142857
 40
1.0
 40
1.0
 40
1.0
 40
1.0
 10
-0.78471
 20
2.7400900000000004
 30
0.0
 10
-0.7720100000000001
 20
2.7527900000000001
 30
0.0
 10
-0.7745500000000001
 20
2.5927700000000002
 30
0.0
 10
-0.7872500000000001
 20
2.4937100000000001
 30
0.0
 10
-0.7872500000000001
 20
2.4937100000000001
 30
0.0
 10
-0.8583700000000001
 20
1.9069700000000001
 30
0.0
 10
-1.1098300000000001
 20
1.4370700000000001
 30
0.0
 10
-1.46289
 20
1.2059300000000002
 30
0.0
 10
-1.46289
 20
1.2059300000000002
 30
0.0
 10
-1.5746500000000001
 20
1.1322700000000001
 30
0.0
 10
-1.6457700000000002
 20
1.0763900000000002
 30
0.0
 10
-1.5416300000000001
 20
1.22879
 30
0.0
 10
-1.5416300000000001
 20
1.22879
 30
0.0
 10
-1.4019300000000001
 20
1.4370700000000001
 30
0.0
 10
-1.2444500000000001
 20
1.6859900000000001
 30
0.0
 10
-1.2419100000000001
 20
1.9476100000000001
 30
0.0
 10
-1.2419100000000001
 20
1.9476100000000001
 30
0.0
 10
-1.2419100000000001
 20
1.9501500000000001
 30
0.0
 10
-1.2419100000000001
 20
1.9526900000000003
 30
0.0
 10
-1.2393700000000001
 20
1.9526900000000003
 30
0.0
 10
-1.2393700000000001
 20
1.9526900000000003
 30
0.0
 10
-1.03871
 20
2.1000100000000002
 30
0.0
 10
-0.7897900000000001
 20
2.4937100000000001
 30
0.0
 10
-0.7872500000000001
 20
2.7350100000000004
 30
0.0
 10
-0.7872500000000001
 20
2.7350100000000004
 30
0.0
 10
-0.7872500000000001
 20
2.7375500000000001
 30
0.0
 10
-0.7872500000000001
 20
2.7400900000000004
 30
0.0
 10
-0.78471
 20
2.7400900000000004
 30
0.0
  0
SPLINE
  5
42
100
AcDbEntity
  8
Ebene 1
 62
     1
100
AcDbSpline
210
0.0
220
0.0
230
1.0
 70
     1
 71
     3
 72
    52
 73
    48
 74
     0
 42
0.0000000001
 43
0.0000000001
 40
0.0
 40
0.0
 40
0.0
 40
0.0
 40
0.0833333333333333
 40
0.0833333333333333
 40
0.0833333333333333
 40
0.0833333333333333
 40
0.1666666666666667
 40
0.1666666666666667
 40
0.1666666666666667
 40
0.1666666666666667
 40
0.25
 40
0.25
 40
0.25
 40
0.25
 40
0.3333333333333333
 40
0.3333333333333333
 40
0.3333333333333333
 40
0.3333333333333333
 40
0.4166666666666666
 40
0.4166666666666666
 40
0.4166666666666666
 40
0.4166666666666666
 40
0.4999999999999999
 40
0.4999999999999999
 40
0.4999999999999999
 40
0.4999999999999999
 40
0.5833333333333333
 40
0.5833333333333333
 40
0.5833333333333333
 40
0.5833333333333333
 40
0.6666666666666666
 40
0.6666666666666666
 40
0.6666666666666666
 40
0.6666666666666666
 40
0.75
 40
0.75
 40
0.75
 40
0.75
 40
0.8333333333333334
 40
0.8333333333333334
 40
0.8333333333333334
 40
0.8333333333333334
 40
0.9166666666666667
 40
0.9166666666666667
 40
0.9166666666666667
 40
0.9166666666666667
 40
1.0
 40
1.0
 40
1.0
 40
1.0
 10
0.6757800000000001
 20
1.6250300000000002
 30
0.0
 10
0.7265800000000001
 20
1.44469
 30
0.0
 10
0.8815200000000001
 20
0.8858900000000001
 30
0.0
 10
1.0771000000000002
 20
0.87065
 30
0.0
 10
1.0771000000000002
 20
0.87065
 30
0.0
 10
1.0821800000000001
 20
0.87065
 30
0.0
 10
1.0847200000000001
 20
0.8681100000000001
 30
0.0
 10
1.0847200000000001
 20
0.8655700000000001
 30
0.0
 10
1.0847200000000001
 20
0.8655700000000001
 30
0.0
 10
1.11266
 20
0.5277500000000001
 30
0.0
 10
1.1685400000000001
 20
0.31185
 30
0.0
 10
1.4631800000000001
 20
0.17977
 30
0.0
 10
1.4631800000000001
 20
0.17977
 30
0.0
 10
1.4708000000000001
 20
0.17469
 30
0.0
 10
1.4682600000000001
 20
0.16199
 30
0.0
 10
1.4581000000000002
 20
0.16453
 30
0.0
 10
1.4581000000000002
 20
0.16453
 30
0.0
 10
1.4250800000000001
 20
0.16453
 30
0.0
 10
1.3844400000000001
 20
0.17215
 30
0.0
 10
1.3641200000000002
 20
0.17469
 30
0.0
 10
1.3641200000000002
 20
0.17469
 30
0.0
 10
1.0872600000000001
 20
0.24581
 30
0.0
 10
0.87136
 20
0.5683900000000001
 30
0.0
 10
0.7596000000000001
 20
0.83001
 30
0.0
 10
0.7596000000000001
 20
0.83001
 30
0.0
 10
0.7570600000000001
 20
0.8401700000000001
 30
0.0
 10
0.7469
 20
0.8376300000000001
 30
0.0
 10
0.7469
 20
0.83001
 30
0.0
 10
0.7469
 20
0.83001
 30
0.0
 10
0.70372
 20
0.63951
 30
0.0
 10
0.6199
 20
0.39821
 30
0.0
 10
0.4827400000000001
 20
0.26867
 30
0.0
 10
0.4827400000000001
 20
0.26867
 30
0.0
 10
0.4675
 20
0.25597
 30
0.0
 10
0.4522600000000001
 20
0.24327
 30
0.0
 10
0.4395600000000001
 20
0.23565
 30
0.0
 10
0.4395600000000001
 20
0.23565
 30
0.0
 10
0.4319400000000001
 20
0.23057
 30
0.0
 10
0.42432
 20
0.23819
 30
0.0
 10
0.42686
 20
0.24581
 30
0.0
 10
0.42686
 20
0.24581
 30
0.0
 10
0.59704
 20
0.6445900000000001
 30
0.0
 10
0.65546
 20
1.1830700000000001
 30
0.0
 10
0.66054
 20
1.6224900000000002
 30
0.0
 10
0.66054
 20
1.6224900000000002
 30
0.0
 10
0.66054
 20
1.6301100000000002
 30
0.0
 10
0.6732400000000001
 20
1.6326500000000002
 30
0.0
 10
0.6757800000000001
 20
1.6250300000000002
 30
0.0
  0
SPLINE
  5
43
100
AcDbEntity
  8
Ebene 1
 62
     1
100
AcDbSpline
210
0.0
220
0.0
230
1.0
 70
     1
 71
     3
 72
    40
 73
    36
 74
     0
 42
0.0000000001
 43
0.0000000001
 40
0.0
 40
0.0
 40
0.0
 40
0.0
 40
0.1111111111111111
 40
0.1111111111111111
 40
0.1111111111111111
 40
0.1111111111111111
 40
0.2222222222222222
 40
0.2222222222222222
 40
0.2222222222222222
 40
0.2222222222222222
 40
0.3333333333333333
 40
0.3333333333333333
 40
0.3333333333333333
 40
0.3333333333333333
 40
0.4444444444444444
 40
0.4444444444444444
 40
0.4444444444444444
 40
0.4444444444444444
 40
0.5555555555555556
 40
0.5555555555555556
 40
0.5555555555555556
 40
0.5555555555555556
 40
0.6666666666666667
 40
0.6666666666666667
 40
0.6666666666666667
 40
0.6666666666666667
 40
0.7777777777777779
 40
0.7777777777777779
 40
0.7777777777777779
 40
0.7777777777777779
 40
0.8888888888888891
 40
0.8888888888888891
 40
0.8888888888888891
 40
0.8888888888888891
 40
1.0
 40
1.0
 40
1.0
 40
1.0
 10
-0.82789
 20
1.4954900000000002
 30
0.0
 10
-0.82789
 20
1.4954900000000002
 30
0.0
 10
-0.82281
 20
1.5056500000000002
 30
0.0
 10
-0.82281
 20
1.5056500000000002
 30
0.0
 10
-0.82281
 20
1.5056500000000002
 30
0.0
 10
-0.8202700000000001
 20
1.5132700000000001
 30
0.0
 10
-0.8075700000000001
 20
1.5107300000000001
 30
0.0
 10
-0.8075700000000001
 20
1.5031100000000002
 30
0.0
 10
-0.8075700000000001
 20
1.5031100000000002
 30
0.0
 10
-0.8075700000000001
 20
0.9671700000000001
 30
0.0
 10
-0.76439
 20
0.27121
 30
0.0
 10
-0.41387
 20
-0.15042
 30
0.0
 10
-0.41387
 20
-0.15042
 30
0.0
 10
-0.37069
 20
-0.20122
 30
0.0
 10
-0.37323
 20
-0.19868
 30
0.0
 10
-0.39355
 20
-0.18598
 30
0.0
 10
-0.39355
 20
-0.18598
 30
0.0
 10
-0.44435
 20
-0.1555
 30
0.0
 10
-1.03363
 20
0.30169
 30
0.0
 10
-0.9421900000000001
 20
0.42361
 30
0.0
 10
-0.9421900000000001
 20
0.42361
 30
0.0
 10
-0.88885
 20
0.4972700000000001
 30
0.0
 10
-0.9752100000000001
 20
0.78429
 30
0.0
 10
-1.0564900000000002
 20
0.7131700000000001
 30
0.0
 10
-1.0564900000000002
 20
0.7131700000000001
 30
0.0
 10
-1.2012700000000001
 20
0.5887100000000001
 30
0.0
 10
-1.3917700000000002
 20
0.5836300000000001
 30
0.0
 10
-1.5644900000000002
 20
0.64205
 30
0.0
 10
-1.5644900000000002
 20
0.64205
 30
0.0
 10
-1.5721100000000001
 20
0.6445900000000001
 30
0.0
 10
-1.5721100000000001
 20
0.6547500000000001
 30
0.0
 10
-1.5644900000000002
 20
0.65729
 30
0.0
 10
-1.5644900000000002
 20
0.65729
 30
0.0
 10
-1.1885700000000001
 20
0.7309500000000001
 30
0.0
 10
-0.9853700000000001
 20
1.1830700000000001
 30
0.0
 10
-0.82789
 20
1.4954900000000002
 30
0.0
  0
SPLINE
  5
44
100
AcDbEntity
  8
Ebene 1
 62
     1
100
AcDbSpline
210
0.0
220
0.0
230
1.0
 70
     1
 71
     3
 72
    20
 73
    16
 74
     0
 42
0.0000000001
 43
0.0000000001
 40
0.0
 40
0.0
 40
0.0
 40
0.0
 40
0.25
 40
0.25
 40
0.25
 40
0.25
 40
0.5
 40
0.5
 40
0.5
 40
0.5
 40
0.75
 40
0.75
 40
0.75
 40
0.75
 40
1.0
 40
1.0
 40
1.0
 40
1.0
 10
-0.03033
 20
1.4624700000000002
 30
0.0
 10
-0.03033
 20
1.4624700000000002
 30
0.0
 10
-0.02271
 20
1.5031100000000002
 30
0.0
 10
-0.02271
 20
1.5031100000000002
 30
0.0
 10
-0.02271
 20
1.5031100000000002
 30
0.0
 10
-0.01001
 20
0.9874900000000001
 30
0.0
 10
0.03824
 20
0.55569
 30
0.0
 10
0.1754
 20
0.06039
 30
0.0
 10
0.1754
 20
0.06039
 30
0.0
 10
0.21096
 20
-0.05644
 30
0.0
 10
0.3659
 20
-0.4374400000000001
 30
0.0
 10
0.16778
 20
-0.14026
 30
0.0
 10
0.16778
 20
-0.14026
 30
0.0
 10
-0.08621
 20
0.24835
 30
0.0
 10
-0.14971
 20
1.0001900000000001
 30
0.0
 10
-0.03033
 20
1.4624700000000002
 30
0.0
  0
SPLINE
  5
45
100
AcDbEntity
  8
Ebene 1
 62
     1
100
AcDbSpline
210
0.0
220
0.0
230
1.0
 70
     1
 71
     3
 72
    36
 73
    32
 74
     0
 42
0.0000000001
 43
0.0000000001
 40
0.0
 40
0.0
 40
0.0
 40
0.0
 40
0.125
 40
0.125
 40
0.125
 40
0.125
 40
0.25
 40
0.25
 40
0.25
 40
0.25
 40
0.375
 40
0.375
 40
0.375
 40
0.375
 40
0.5
 40
0.5
 40
0.5
 40
0.5
 40
0.625
 40
0.625
 40
0.625
 40
0.625
 40
0.75
 40
0.75
 40
0.75
 40
0.75
 40
0.875
 40
0.875
 40
0.875
 40
0.875
 40
1.0
 40
1.0
 40
1.0
 40
1.0
 10
-1.1606300000000001
 20
-0.99116
 30
0.0
 10
-1.2622300000000002
 20
-1.1588000000000001
 30
0.0
 10
-1.29271
 20
-1.33406
 30
0.0
 10
-1.2165100000000002
 20
-1.5169400000000002
 30
0.0
 10
-1.2165100000000002
 20
-1.5169400000000002
 30
0.0
 10
-1.2165100000000002
 20
-1.5194800000000002
 30
0.0
 10
-1.21397
 20
-1.5220200000000002
 30
0.0
 10
-1.20889
 20
-1.5220200000000002
 30
0.0
 10
-1.20889
 20
-1.5220200000000002
 30
0.0
 10
-1.0310900000000001
 20
-1.5194800000000002
 30
0.0
 10
-0.8380500000000001
 20
-1.3620000000000001
 30
0.0
 10
-0.7669300000000001
 20
-1.1994400000000001
 30
0.0
 10
-0.7669300000000001
 20
-1.1994400000000001
 30
0.0
 10
-0.76439
 20
-1.1918200000000001
 30
0.0
 10
-0.7694700000000001
 20
-1.1867400000000001
 30
0.0
 10
-0.7770900000000001
 20
-1.1892800000000001
 30
0.0
 10
-0.7770900000000001
 20
-1.1892800000000001
 30
0.0
 10
-0.8202700000000001
 20
-1.20452
 30
0.0
 10
-0.8507500000000001
 20
-1.2146800000000002
 30
0.0
 10
-0.8990100000000001
 20
-1.2096
 30
0.0
 10
-0.8990100000000001
 20
-1.2096
 30
0.0
 10
-0.9040900000000001
 20
-1.20706
 30
0.0
 10
-0.9066300000000001
 20
-1.2096
 30
0.0
 10
-0.90917
 20
-1.21214
 30
0.0
 10
-0.90917
 20
-1.21214
 30
0.0
 10
-0.9701300000000001
 20
-1.3035800000000002
 30
0.0
 10
-1.24953
 20
-1.50424
 30
0.0
 10
-1.1530100000000001
 20
-1.2654800000000002
 30
0.0
 10
-1.1530100000000001
 20
-1.2654800000000002
 30
0.0
 10
-1.1403100000000002
 20
-1.2400800000000001
 30
0.0
 10
-1.1174500000000001
 20
-0.9048000000000001
 30
0.0
 10
-1.1606300000000001
 20
-0.99116
 30
0.0
  0
SPLINE
  5
46
100
AcDbEntity
  8
Ebene 1
 62
     1
100
AcDbSpline
210
0.0
220
0.0
230
1.0
 70
     1
 71
     3
 72
    36
 73
    32
 74
     0
 42
0.0000000001
 43
0.0000000001
 40
0.0
 40
0.0
 40
0.0
 40
0.0
 40
0.125
 40
0.125
 40
0.125
 40
0.125
 40
0.25
 40
0.25
 40
0.25
 40
0.25
 40
0.375
 40
0.375
 40
0.375
 40
0.375
 40
0.5
 40
0.5
 40
0.5
 40
0.5
 40
0.625
 40
0.625
 40
0.625
 40
0.625
 40
0.75
 40
0.75
 40
0.75
 40
0.75
 40
0.875
 40
0.875
 40
0.875
 40
0.875
 40
1.0
 40
1.0
 40
1.0
 40
1.0
 10
1.4149200000000002
 20
-0.9759200000000001
 30
0.0
 10
1.4276200000000001
 20
-1.0572000000000001
 30
0.0
 10
1.40476
 20
-1.1969000000000001
 30
0.0
 10
1.4301600000000001
 20
-1.2654800000000002
 30
0.0
 10
1.4301600000000001
 20
-1.2654800000000002
 30
0.0
 10
1.5216000000000001
 20
-1.50424
 30
0.0
 10
1.23204
 20
-1.3112000000000001
 30
0.0
 10
1.1761600000000001
 20
-1.21214
 30
0.0
 10
1.1761600000000001
 20
-1.21214
 30
0.0
 10
1.1761600000000001
 20
-1.2096
 30
0.0
 10
1.1710800000000001
 20
-1.20706
 30
0.0
 10
1.1685400000000001
 20
-1.2096
 30
0.0
 10
1.1685400000000001
 20
-1.2096
 30
0.0
 10
1.1177400000000002
 20
-1.2172200000000002
 30
0.0
 10
1.0847200000000001
 20
-1.20452
 30
0.0
 10
1.0390000000000001
 20
-1.1867400000000001
 30
0.0
 10
1.0390000000000001
 20
-1.1867400000000001
 30
0.0
 10
1.0339200000000002
 20
-1.1842000000000001
 30
0.0
 10
1.0263
 20
-1.1918200000000001
 30
0.0
 10
1.02884
 20
-1.1994400000000001
 30
0.0
 10
1.02884
 20
-1.1994400000000001
 30
0.0
 10
1.06694
 20
-1.2858000000000001
 30
0.0
 10
1.44032
 20
-1.7049000000000001
 30
0.0
 10
1.5190600000000001
 20
-1.4356600000000002
 30
0.0
 10
1.5190600000000001
 20
-1.4356600000000002
 30
0.0
 10
1.5571600000000001
 20
-1.3137400000000001
 30
0.0
 10
1.5317600000000002
 20
-1.1486400000000001
 30
0.0
 10
1.44286
 20
-1.0089400000000002
 30
0.0
 10
1.44286
 20
-1.0089400000000002
 30
0.0
 10
1.4174600000000002
 20
-0.9657600000000001
 30
0.0
 10
1.4098400000000002
 20
-0.9606800000000001
 30
0.0
 10
1.4149200000000002
 20
-0.9759200000000001
 30
0.0
  0
SPLINE
  5
47
100
AcDbEntity
  8
Ebene 1
 62
     1
100
AcDbSpline
210
0.0
220
0.0
230
1.0
 70
     1
 71
     3
 72
    36
 73
    32
 74
     0
 42
0.0000000001
 43
0.0000000001
 40
0.0
 40
0.0
 40
0.0
 40
0.0
 40
0.125
 40
0.125
 40
0.125
 40
0.125
 40
0.25
 40
0.25
 40
0.25
 40
0.25
 40
0.375
 40
0.375
 40
0.375
 40
0.375
 40
0.5
 40
0.5
 40
0.5
 40
0.5
 40
0.625
 40
0.625
 40
0.625
 40
0.625
 40
0.75
 40
0.75
 40
0.75
 40
0.75
 40
0.875
 40
0.875
 40
0.875
 40
0.875
 40
1.0
 40
1.0
 40
1.0
 40
1.0
 10
-0.32751
 20
-1.1994400000000001
 30
0.0
 10
-0.4265700000000001
 20
-1.3645400000000001
 30
0.0
 10
-0.5383300000000001
 20
-1.8496800000000002
 30
0.0
 10
-0.20051
 20
-1.6820400000000002
 30
0.0
 10
-0.20051
 20
-1.6820400000000002
 30
0.0
 10
-0.08113
 20
-1.6210800000000001
 30
0.0
 10
0.00268
 20
-1.5169400000000002
 30
0.0
 10
0.06618
 20
-1.4001000000000001
 30
0.0
 10
0.06618
 20
-1.4001000000000001
 30
0.0
 10
0.07126
 20
-1.3924800000000002
 30
0.0
 10
0.06364
 20
-1.3848600000000002
 30
0.0
 10
0.05602
 20
-1.3899400000000002
 30
0.0
 10
0.05602
 20
-1.3899400000000002
 30
0.0
 10
0.01538
 20
-1.4077200000000001
 30
0.0
 10
-0.01509
 20
-1.4128000000000001
 30
0.0
 10
-0.06081
 20
-1.4077200000000001
 30
0.0
 10
-0.06081
 20
-1.4077200000000001
 30
0.0
 10
-0.06335
 20
-1.4077200000000001
 30
0.0
 10
-0.06843
 20
-1.4102600000000001
 30
0.0
 10
-0.06843
 20
-1.4128000000000001
 30
0.0
 10
-0.06843
 20
-1.4128000000000001
 30
0.0
 10
-0.11161
 20
-1.5194800000000002
 30
0.0
 10
-0.4062500000000001
 20
-1.6972800000000001
 30
0.0
 10
-0.31481
 20
-1.4686800000000002
 30
0.0
 10
-0.31481
 20
-1.4686800000000002
 30
0.0
 10
-0.28941
 20
-1.4026400000000001
 30
0.0
 10
-0.31735
 20
-1.28834
 30
0.0
 10
-0.30719
 20
-1.21214
 30
0.0
 10
-0.30719
 20
-1.21214
 30
0.0
 10
-0.29957
 20
-1.1562600000000001
 30
0.0
 10
-0.29703
 20
-1.16134
 30
0.0
 10
-0.32751
 20
-1.1994400000000001
 30
0.0
  0
SPLINE
  5
48
100
AcDbEntity
  8
Ebene 1
 62
     1
100
AcDbSpline
210
0.0
220
0.0
230
1.0
 70
     1
 71
     3
 72
    44
 73
    40
 74
     0
 42
0.0000000001
 43
0.0000000001
 40
0.0
 40
0.0
 40
0.0
 40
0.0
 40
0.1
 40
0.1
 40
0.1
 40
0.1
 40
0.2
 40
0.2
 40
0.2
 40
0.2
 40
0.3
 40
0.3
 40
0.3
 40
0.3
 40
0.4
 40
0.4
 40
0.4
 40
0.4
 40
0.5
 40
0.5
 40
0.5
 40
0.5
 40
0.6
 40
0.6
 40
0.6
 40
0.6
 40
0.7
 40
0.7
 40
0.7
 40
0.7
 40
0.7999999999999999
 40
0.7999999999999999
 40
0.7999999999999999
 40
0.7999999999999999
 40
0.8999999999999999
 40
0.8999999999999999
 40
0.8999999999999999
 40
0.8999999999999999
 40
1.0
 40
1.0
 40
1.0
 40
1.0
 10
0.57418
 20
-1.1816600000000002
 30
0.0
 10
0.57418
 20
-1.1842000000000001
 30
0.0
 10
0.57418
 20
-1.1842000000000001
 30
0.0
 10
0.57418
 20
-1.1842000000000001
 30
0.0
 10
0.57418
 20
-1.1842000000000001
 30
0.0
 10
0.5868800000000001
 20
-1.2680200000000001
 30
0.0
 10
0.5665600000000001
 20
-1.4001000000000001
 30
0.0
 10
0.5945
 20
-1.4712200000000002
 30
0.0
 10
0.5945
 20
-1.4712200000000002
 30
0.0
 10
0.5945
 20
-1.4712200000000002
 30
0.0
 10
0.5945
 20
-1.4712200000000002
 30
0.0
 10
0.5945
 20
-1.4737600000000002
 30
0.0
 10
0.5945
 20
-1.4737600000000002
 30
0.0
 10
0.6529200000000001
 20
-1.7023600000000001
 30
0.0
 10
0.3989200000000001
 20
-1.5118600000000002
 30
0.0
 10
0.3455800000000001
 20
-1.4128000000000001
 30
0.0
 10
0.3455800000000001
 20
-1.4128000000000001
 30
0.0
 10
0.3455800000000001
 20
-1.4102600000000001
 30
0.0
 10
0.34304
 20
-1.4077200000000001
 30
0.0
 10
0.33796
 20
-1.4077200000000001
 30
0.0
 10
0.33796
 20
-1.4077200000000001
 30
0.0
 10
0.277
 20
-1.4128000000000001
 30
0.0
 10
0.24652
 20
-1.4001000000000001
 30
0.0
 10
0.19318
 20
-1.3823200000000002
 30
0.0
 10
0.19318
 20
-1.3823200000000002
 30
0.0
 10
0.1881
 20
-1.37978
 30
0.0
 10
0.18302
 20
-1.3848600000000002
 30
0.0
 10
0.18302
 20
-1.3899400000000002
 30
0.0
 10
0.18302
 20
-1.3899400000000002
 30
0.0
 10
0.20588
 20
-1.4890000000000001
 30
0.0
 10
0.74436
 20
-2.0376400000000001
 30
0.0
 10
0.6935600000000001
 20
-1.4686800000000002
 30
0.0
 10
0.6935600000000001
 20
-1.4686800000000002
 30
0.0
 10
0.6910200000000001
 20
-1.4356600000000002
 30
0.0
 10
0.6122800000000001
 20
-1.16642
 30
0.0
 10
0.57418
 20
-1.16642
 30
0.0
 10
0.57418
 20
-1.16642
 30
0.0
 10
0.57164
 20
-1.16642
 30
0.0
 10
0.57164
 20
-1.1765800000000002
 30
0.0
 10
0.57418
 20
-1.1816600000000002
 30
0.0
  0
SPLINE
  5
49
100
AcDbEntity
  8
Ebene 1
 62
     1
100
AcDbSpline
210
0.0
220
0.0
230
1.0
 70
     1
 71
     3
 72
    32
 73
    28
 74
     0
 42
0.0000000001
 43
0.0000000001
 40
0.0
 40
0.0
 40
0.0
 40
0.0
 40
0.1428571428571429
 40
0.1428571428571429
 40
0.1428571428571429
 40
0.1428571428571429
 40
0.2857142857142857
 40
0.2857142857142857
 40
0.2857142857142857
 40
0.2857142857142857
 40
0.4285714285714286
 40
0.4285714285714286
 40
0.4285714285714286
 40
0.4285714285714286
 40
0.5714285714285714
 40
0.5714285714285714
 40
0.5714285714285714
 40
0.5714285714285714
 40
0.7142857142857142
 40
0.7142857142857142
 40
0.7142857142857142
 40
0.7142857142857142
 40
0.857142857142857
 40
0.857142857142857
 40
0.857142857142857
 40
0.857142857142857
 40
1.0
 40
1.0
 40
1.0
 40
1.0
 10
-0.9345700000000001
 20
-1.54234
 30
0.0
 10
-0.8609100000000001
 20
-1.4458200000000001
 30
0.0
 10
-0.9574300000000001
 20
-1.8852400000000002
 30
0.0
 10
-0.9472700000000001
 20
-1.9258800000000003
 30
0.0
 10
-0.9472700000000001
 20
-1.9258800000000003
 30
0.0
 10
-0.9472700000000001
 20
-1.9284200000000002
 30
0.0
 10
-0.9472700000000001
 20
-1.9284200000000002
 30
0.0
 10
-0.9447300000000001
 20
-1.9309600000000002
 30
0.0
 10
-0.9447300000000001
 20
-1.9309600000000002
 30
0.0
 10
-0.9142500000000001
 20
-1.9690600000000003
 30
0.0
 10
-0.71867
 20
-1.8471400000000002
 30
0.0
 10
-0.6932700000000001
 20
-1.7912600000000001
 30
0.0
 10
-0.6932700000000001
 20
-1.7912600000000001
 30
0.0
 10
-0.6856500000000001
 20
-1.7734800000000002
 30
0.0
 10
-0.58913
 20
-1.7430000000000001
 30
0.0
 10
-0.5434100000000001
 20
-1.7353800000000001
 30
0.0
 10
-0.5434100000000001
 20
-1.7353800000000001
 30
0.0
 10
-0.53579
 20
-1.7328400000000002
 30
0.0
 10
-0.53071
 20
-1.7430000000000001
 30
0.0
 10
-0.53579
 20
-1.7480800000000001
 30
0.0
 10
-0.53579
 20
-1.7480800000000001
 30
0.0
 10
-0.6069100000000001
 20
-1.8649200000000001
 30
0.0
 10
-0.6881900000000001
 20
-1.9766800000000002
 30
0.0
 10
-0.8151900000000001
 20
-2.0376400000000001
 30
0.0
 10
-0.8151900000000001
 20
-2.0376400000000001
 30
0.0
 10
-1.1530100000000001
 20
-2.2002000000000002
 30
0.0
 10
-1.04633
 20
-1.7226800000000002
 30
0.0
 10
-0.9345700000000001
 20
-1.54234
 30
0.0
  0
SPLINE
  5
4A
100
AcDbEntity
  8
Ebene 1
 62
     1
100
AcDbSpline
210
0.0
220
0.0
230
1.0
 70
     1
 71
     3
 72
    40
 73
    36
 74
     0
 42
0.0000000001
 43
0.0000000001
 40
0.0
 40
0.0
 40
0.0
 40
0.0
 40
0.1111111111111111
 40
0.1111111111111111
 40
0.1111111111111111
 40
0.1111111111111111
 40
0.2222222222222222
 40
0.2222222222222222
 40
0.2222222222222222
 40
0.2222222222222222
 40
0.3333333333333333
 40
0.3333333333333333
 40
0.3333333333333333
 40
0.3333333333333333
 40
0.4444444444444444
 40
0.4444444444444444
 40
0.4444444444444444
 40
0.4444444444444444
 40
0.5555555555555556
 40
0.5555555555555556
 40
0.5555555555555556
 40
0.5555555555555556
 40
0.6666666666666667
 40
0.6666666666666667
 40
0.6666666666666667
 40
0.6666666666666667
 40
0.7777777777777779
 40
0.7777777777777779
 40
0.7777777777777779
 40
0.7777777777777779
 40
0.8888888888888891
 40
0.8888888888888891
 40
0.8888888888888891
 40
0.8888888888888891
 40
1.0
 40
1.0
 40
1.0
 40
1.0
 10
1.19394
 20
-1.5372600000000001
 30
0.0
 10
1.19394
 20
-1.5372600000000001
 30
0.0
 10
1.1914
 20
-1.5118600000000002
 30
0.0
 10
1.1914
 20
-1.5118600000000002
 30
0.0
 10
1.1914
 20
-1.5118600000000002
 30
0.0
 10
1.2930000000000001
 20
-1.6668000000000001
 30
0.0
 10
1.3438000000000001
 20
-1.8725400000000001
 30
0.0
 10
1.2676000000000001
 20
-2.0478000000000001
 30
0.0
 10
1.2676000000000001
 20
-2.0478000000000001
 30
0.0
 10
1.19394
 20
-2.2154400000000001
 30
0.0
 10
0.8535800000000001
 20
-1.8344400000000001
 30
0.0
 10
0.8027800000000001
 20
-1.7480800000000001
 30
0.0
 10
0.8027800000000001
 20
-1.7480800000000001
 30
0.0
 10
0.8002400000000001
 20
-1.7430000000000001
 30
0.0
 10
0.80532
 20
-1.7353800000000001
 30
0.0
 10
0.8129400000000001
 20
-1.7379200000000001
 30
0.0
 10
0.8129400000000001
 20
-1.7379200000000001
 30
0.0
 10
0.8586600000000001
 20
-1.7531600000000001
 30
0.0
 10
0.8967600000000001
 20
-1.7684000000000002
 30
0.0
 10
0.9501000000000001
 20
-1.7709400000000002
 30
0.0
 10
0.9501000000000001
 20
-1.7709400000000002
 30
0.0
 10
0.95264
 20
-1.7709400000000002
 30
0.0
 10
0.95518
 20
-1.7709400000000002
 30
0.0
 10
0.95518
 20
-1.7734800000000002
 30
0.0
 10
0.95518
 20
-1.7734800000000002
 30
0.0
 10
1.0059800000000001
 20
-1.8852400000000002
 30
0.0
 10
1.2980800000000001
 20
-2.0351000000000004
 30
0.0
 10
1.2015600000000002
 20
-1.8268200000000001
 30
0.0
 10
1.2015600000000002
 20
-1.8268200000000001
 30
0.0
 10
1.1736200000000001
 20
-1.7633200000000002
 30
0.0
 10
1.1990200000000002
 20
-1.6134600000000001
 30
0.0
 10
1.19394
 20
-1.5398000000000001
 30
0.0
 10
1.19394
 20
-1.5398000000000001
 30
0.0
 10
1.19394
 20
-1.5372600000000001
 30
0.0
 10
1.19394
 20
-1.5372600000000001
 30
0.0
 10
1.19394
 20
-1.5372600000000001
 30
0.0
  0
SPLINE
  5
4B
100
AcDbEntity
  8
Ebene 1
 62
     1
100
AcDbSpline
210
0.0
220
0.0
230
1.0
 70
     1
 71
     3
 72
    32
 73
    28
 74
     0
 42
0.0000000001
 43
0.0000000001
 40
0.0
 40
0.0
 40
0.0
 40
0.0
 40
0.1428571428571429
 40
0.1428571428571429
 40
0.1428571428571429
 40
0.1428571428571429
 40
0.2857142857142857
 40
0.2857142857142857
 40
0.2857142857142857
 40
0.2857142857142857
 40
0.4285714285714286
 40
0.4285714285714286
 40
0.4285714285714286
 40
0.4285714285714286
 40
0.5714285714285714
 40
0.5714285714285714
 40
0.5714285714285714
 40
0.5714285714285714
 40
0.7142857142857142
 40
0.7142857142857142
 40
0.7142857142857142
 40
0.7142857142857142
 40
0.857142857142857
 40
0.857142857142857
 40
0.857142857142857
 40
0.857142857142857
 40
1.0
 40
1.0
 40
1.0
 40
1.0
 10
-1.3130300000000001
 20
-1.7277600000000002
 30
0.0
 10
-1.3130300000000001
 20
-1.7277600000000002
 30
0.0
 10
-1.3130300000000001
 20
-1.7303000000000002
 30
0.0
 10
-1.3130300000000001
 20
-1.7303000000000002
 30
0.0
 10
-1.3130300000000001
 20
-1.7303000000000002
 30
0.0
 10
-1.7372100000000001
 20
-2.1341600000000001
 30
0.0
 10
-2.0775700000000001
 20
-2.8987000000000003
 30
0.0
 10
-2.1436100000000002
 20
-3.4524200000000005
 30
0.0
 10
-2.1436100000000002
 20
-3.4524200000000005
 30
0.0
 10
-2.1537700000000002
 20
-3.5413200000000002
 30
0.0
 10
-2.1537700000000002
 20
-3.5438600000000005
 30
0.0
 10
-2.1258300000000001
 20
-3.5006800000000005
 30
0.0
 10
-2.1258300000000001
 20
-3.5006800000000005
 30
0.0
 10
-2.0623300000000002
 20
-3.3838400000000002
 30
0.0
 10
-1.8667500000000001
 20
-3.0917400000000002
 30
0.0
 10
-1.7245100000000002
 20
-3.0536400000000001
 30
0.0
 10
-1.7245100000000002
 20
-3.0536400000000001
 30
0.0
 10
-1.7194300000000002
 20
-3.0536400000000001
 30
0.0
 10
-1.7168900000000002
 20
-3.0485600000000002
 30
0.0
 10
-1.7194300000000002
 20
-3.0434800000000002
 30
0.0
 10
-1.7194300000000002
 20
-3.0434800000000002
 30
0.0
 10
-1.8515100000000002
 20
-2.6370800000000001
 30
0.0
 10
-1.5975100000000002
 20
-2.4719800000000003
 30
0.0
 10
-1.4324100000000002
 20
-2.1113
 30
0.0
 10
-1.4324100000000002
 20
-2.1113
 30
0.0
 10
-1.4146300000000001
 20
-2.0782800000000003
 30
0.0
 10
-1.1453900000000001
 20
-1.5347200000000001
 30
0.0
 10
-1.3130300000000001
 20
-1.7277600000000002
 30
0.0
  0
SPLINE
  5
4C
100
AcDbEntity
  8
Ebene 1
 62
     1
100
AcDbSpline
210
0.0
220
0.0
230
1.0
 70
     1
 71
     3
 72
    48
 73
    44
 74
     0
 42
0.0000000001
 43
0.0000000001
 40
0.0
 40
0.0
 40
0.0
 40
0.0
 40
0.0909090909090909
 40
0.0909090909090909
 40
0.0909090909090909
 40
0.0909090909090909
 40
0.1818181818181818
 40
0.1818181818181818
 40
0.1818181818181818
 40
0.1818181818181818
 40
0.2727272727272727
 40
0.2727272727272727
 40
0.2727272727272727
 40
0.2727272727272727
 40
0.3636363636363637
 40
0.3636363636363637
 40
0.3636363636363637
 40
0.3636363636363637
 40
0.4545454545454546
 40
0.4545454545454546
 40
0.4545454545454546
 40
0.4545454545454546
 40
0.5454545454545455
 40
0.5454545454545455
 40
0.5454545454545455
 40
0.5454545454545455
 40
0.6363636363636365
 40
0.6363636363636365
 40
0.6363636363636365
 40
0.6363636363636365
 40
0.7272727272727274
 40
0.7272727272727274
 40
0.7272727272727274
 40
0.7272727272727274
 40
0.8181818181818183
 40
0.8181818181818183
 40
0.8181818181818183
 40
0.8181818181818183
 40
0.9090909090909093
 40
0.9090909090909093
 40
0.9090909090909093
 40
0.9090909090909093
 40
1.0
 40
1.0
 40
1.0
 40
1.0
 10
1.4758800000000001
 20
-1.6820400000000002
 30
0.0
 10
1.4758800000000001
 20
-1.6642600000000001
 30
0.0
 10
1.5952600000000001
 20
-1.7938000000000001
 30
0.0
 10
1.6663800000000002
 20
-1.8877800000000002
 30
0.0
 10
1.6663800000000002
 20
-1.8877800000000002
 30
0.0
 10
1.9864200000000001
 20
-2.3018000000000001
 30
0.0
 10
2.2658200000000002
 20
-2.8453600000000003
 30
0.0
 10
2.3471000000000002
 20
-3.3736800000000002
 30
0.0
 10
2.3471000000000002
 20
-3.3736800000000002
 30
0.0
 10
2.3521800000000002
 20
-3.4067000000000003
 30
0.0
 10
2.3623400000000001
 20
-3.4702000000000002
 30
0.0
 10
2.3648800000000003
 20
-3.5057600000000004
 30
0.0
 10
2.3648800000000003
 20
-3.5057600000000004
 30
0.0
 10
2.3674200000000001
 20
-3.5159200000000004
 30
0.0
 10
2.3572600000000001
 20
-3.5210000000000004
 30
0.0
 10
2.3496400000000004
 20
-3.5133800000000002
 30
0.0
 10
2.3496400000000004
 20
-3.5133800000000002
 30
0.0
 10
2.25312
 20
-3.3609800000000001
 30
0.0
 10
2.1083400000000001
 20
-3.1196800000000002
 30
0.0
 10
1.9483200000000001
 20
-3.0561800000000003
 30
0.0
 10
1.9483200000000001
 20
-3.0561800000000003
 30
0.0
 10
1.9483200000000001
 20
-3.0561800000000003
 30
0.0
 10
1.9483200000000001
 20
-3.0561800000000003
 30
0.0
 10
1.9457800000000001
 20
-3.0561800000000003
 30
0.0
 10
1.9457800000000001
 20
-3.0561800000000003
 30
0.0
 10
1.9305400000000001
 20
-3.0536400000000001
 30
0.0
 10
1.9229200000000002
 20
-3.0485600000000002
 30
0.0
 10
1.9254600000000002
 20
-3.0434800000000002
 30
0.0
 10
1.9254600000000002
 20
-3.0434800000000002
 30
0.0
 10
1.9280000000000002
 20
-3.0434800000000002
 30
0.0
 10
1.9280000000000002
 20
-3.0434800000000002
 30
0.0
 10
1.9280000000000002
 20
-3.0434800000000002
 30
0.0
 10
1.9280000000000002
 20
-3.0434800000000002
 30
0.0
 10
1.9813400000000001
 20
-2.8479000000000001
 30
0.0
 10
2.0169000000000001
 20
-2.7132800000000001
 30
0.0
 10
1.8822800000000002
 20
-2.5304000000000002
 30
0.0
 10
1.8822800000000002
 20
-2.5304000000000002
 30
0.0
 10
1.7730600000000001
 20
-2.3805400000000003
 30
0.0
 10
1.6689200000000002
 20
-2.19258
 30
0.0
 10
1.56732
 20
-1.9411200000000002
 30
0.0
 10
1.56732
 20
-1.9411200000000002
 30
0.0
 10
1.5343000000000002
 20
-1.8547600000000002
 30
0.0
 10
1.4758800000000001
 20
-1.6896600000000002
 30
0.0
 10
1.4758800000000001
 20
-1.6820400000000002
 30
0.0
  0
SPLINE
  5
4D
100
AcDbEntity
  8
Ebene 1
 62
     1
100
AcDbSpline
210
0.0
220
0.0
230
1.0
 70
     1
 71
     3
 72
    28
 73
    24
 74
     0
 42
0.0000000001
 43
0.0000000001
 40
0.0
 40
0.0
 40
0.0
 40
0.0
 40
0.1666666666666667
 40
0.1666666666666667
 40
0.1666666666666667
 40
0.1666666666666667
 40
0.3333333333333333
 40
0.3333333333333333
 40
0.3333333333333333
 40
0.3333333333333333
 40
0.5
 40
0.5
 40
0.5
 40
0.5
 40
0.6666666666666666
 40
0.6666666666666666
 40
0.6666666666666666
 40
0.6666666666666666
 40
0.8333333333333333
 40
0.8333333333333333
 40
0.8333333333333333
 40
0.8333333333333333
 40
1.0
 40
1.0
 40
1.0
 40
1.0
 10
-0.46721
 20
-1.9411200000000002
 30
0.0
 10
-0.53325
 20
-2.05288
 30
0.0
 10
-0.67549
 20
-2.5329400000000004
 30
0.0
 10
-0.40117
 20
-2.4465800000000004
 30
0.0
 10
-0.40117
 20
-2.4465800000000004
 30
0.0
 10
-0.27925
 20
-2.4084800000000004
 30
0.0
 10
-0.16495
 20
-2.30688
 30
0.0
 10
-0.07351
 20
-2.1595600000000004
 30
0.0
 10
-0.07351
 20
-2.1595600000000004
 30
0.0
 10
-0.03541
 20
-2.0808200000000001
 30
0.0
 10
-0.09383
 20
-2.1468600000000002
 30
0.0
 10
-0.16495
 20
-2.1519400000000002
 30
0.0
 10
-0.16495
 20
-2.1519400000000002
 30
0.0
 10
-0.21321
 20
-2.1519400000000002
 30
0.0
 10
-0.5383300000000001
 20
-2.48468
 30
0.0
 10
-0.45451
 20
-2.2179800000000003
 30
0.0
 10
-0.45451
 20
-2.2179800000000003
 30
0.0
 10
-0.4291100000000001
 20
-2.1367000000000003
 30
0.0
 10
-0.45705
 20
-2.0401800000000003
 30
0.0
 10
-0.44689
 20
-1.9538200000000001
 30
0.0
 10
-0.44689
 20
-1.9538200000000001
 30
0.0
 10
-0.4392700000000001
 20
-1.9055600000000001
 30
0.0
 10
-0.4367300000000001
 20
-1.8928600000000002
 30
0.0
 10
-0.46721
 20
-1.9411200000000002
 30
0.0
  0
SPLINE
  5
4E
100
AcDbEntity
  8
Ebene 1
 62
     1
100
AcDbSpline
210
0.0
220
0.0
230
1.0
 70
     1
 71
     3
 72
    36
 73
    32
 74
     0
 42
0.0000000001
 43
0.0000000001
 40
0.0
 40
0.0
 40
0.0
 40
0.0
 40
0.125
 40
0.125
 40
0.125
 40
0.125
 40
0.25
 40
0.25
 40
0.25
 40
0.25
 40
0.375
 40
0.375
 40
0.375
 40
0.375
 40
0.5
 40
0.5
 40
0.5
 40
0.5
 40
0.625
 40
0.625
 40
0.625
 40
0.625
 40
0.75
 40
0.75
 40
0.75
 40
0.75
 40
0.875
 40
0.875
 40
0.875
 40
0.875
 40
1.0
 40
1.0
 40
1.0
 40
1.0
 10
0.7088000000000001
 20
-1.92334
 30
0.0
 10
0.7113400000000001
 20
-1.8649200000000001
 30
0.0
 10
0.8002400000000001
 20
-2.0782800000000003
 30
0.0
 10
0.80786
 20
-2.1036800000000002
 30
0.0
 10
0.80786
 20
-2.1036800000000002
 30
0.0
 10
0.9196200000000001
 20
-2.4872200000000002
 30
0.0
 10
0.6859400000000001
 20
-2.6015200000000003
 30
0.0
 10
0.3989200000000001
 20
-2.2459200000000004
 30
0.0
 10
0.3989200000000001
 20
-2.2459200000000004
 30
0.0
 10
0.2643
 20
-2.0401800000000003
 30
0.0
 10
0.34304
 20
-2.1646400000000003
 30
0.0
 10
0.47512
 20
-2.1494
 30
0.0
 10
0.47512
 20
-2.1494
 30
0.0
 10
0.47766
 20
-2.1494
 30
0.0
 10
0.4827400000000001
 20
-2.1519400000000002
 30
0.0
 10
0.48528
 20
-2.1544800000000004
 30
0.0
 10
0.48528
 20
-2.1544800000000004
 30
0.0
 10
0.51576
 20
-2.2408400000000004
 30
0.0
 10
0.6300600000000001
 20
-2.30688
 30
0.0
 10
0.71896
 20
-2.3195800000000002
 30
0.0
 10
0.71896
 20
-2.3195800000000002
 30
0.0
 10
0.72404
 20
-2.3195800000000002
 30
0.0
 10
0.7291200000000001
 20
-2.31704
 30
0.0
 10
0.7291200000000001
 20
-2.31196
 30
0.0
 10
0.7291200000000001
 20
-2.31196
 30
0.0
 10
0.7367400000000001
 20
-2.2586200000000001
 30
0.0
 10
0.7113400000000001
 20
-1.9411200000000002
 30
0.0
 10
0.7113400000000001
 20
-1.9258800000000003
 30
0.0
 10
0.7113400000000001
 20
-1.9258800000000003
 30
0.0
 10
0.7088000000000001
 20
-1.9258800000000003
 30
0.0
 10
0.7088000000000001
 20
-1.9258800000000003
 30
0.0
 10
0.7088000000000001
 20
-1.92334
 30
0.0
  0
SPLINE
  5
4F
100
AcDbEntity
  8
Ebene 1
 62
     1
100
AcDbSpline
210
0.0
220
0.0
230
1.0
 70
     1
 71
     3
 72
    28
 73
    24
 74
     0
 42
0.0000000001
 43
0.0000000001
 40
0.0
 40
0.0
 40
0.0
 40
0.0
 40
0.1666666666666667
 40
0.1666666666666667
 40
0.1666666666666667
 40
0.1666666666666667
 40
0.3333333333333333
 40
0.3333333333333333
 40
0.3333333333333333
 40
0.3333333333333333
 40
0.5
 40
0.5
 40
0.5
 40
0.5
 40
0.6666666666666666
 40
0.6666666666666666
 40
0.6666666666666666
 40
0.6666666666666666
 40
0.8333333333333333
 40
0.8333333333333333
 40
0.8333333333333333
 40
0.8333333333333333
 40
1.0
 40
1.0
 40
1.0
 40
1.0
 10
0.06364
 20
-2.06304
 30
0.0
 10
0.10428
 20
-1.9512800000000001
 30
0.0
 10
0.08396
 20
-2.0452600000000003
 30
0.0
 10
0.0738
 20
-2.0986000000000002
 30
0.0
 10
0.0738
 20
-2.0986000000000002
 30
0.0
 10
0.05094
 20
-2.2764000000000002
 30
0.0
 10
0.00522
 20
-2.56088
 30
0.0
 10
0.07126
 20
-2.73868
 30
0.0
 10
0.07126
 20
-2.73868
 30
0.0
 10
0.13222
 20
-2.90124
 30
0.0
 10
-0.06081
 20
-3.4778200000000004
 30
0.0
 10
-0.11923
 20
-3.6353000000000004
 30
0.0
 10
-0.11923
 20
-3.6353000000000004
 30
0.0
 10
-0.12431
 20
-3.6429200000000002
 30
0.0
 10
-0.13447
 20
-3.6429200000000002
 30
0.0
 10
-0.13447
 20
-3.6327600000000002
 30
0.0
 10
-0.13447
 20
-3.6327600000000002
 30
0.0
 10
-0.12685
 20
-3.3660600000000005
 30
0.0
 10
-0.04811
 20
-3.11206
 30
0.0
 10
-0.09129
 20
-2.8326600000000002
 30
0.0
 10
-0.09129
 20
-2.8326600000000002
 30
0.0
 10
-0.13193
 20
-2.57104
 30
0.0
 10
-0.04557
 20
-2.2967200000000001
 30
0.0
 10
0.06364
 20
-2.06304
 30
0.0
  0
SPLINE
  5
50
100
AcDbEntity
  8
Ebene 1
 62
     1
100
AcDbSpline
210
0.0
220
0.0
230
1.0
 70
     1
 71
     3
 72
    32
 73
    28
 74
     0
 42
0.0000000001
 43
0.0000000001
 40
0.0
 40
0.0
 40
0.0
 40
0.0
 40
0.1428571428571429
 40
0.1428571428571429
 40
0.1428571428571429
 40
0.1428571428571429
 40
0.2857142857142857
 40
0.2857142857142857
 40
0.2857142857142857
 40
0.2857142857142857
 40
0.4285714285714286
 40
0.4285714285714286
 40
0.4285714285714286
 40
0.4285714285714286
 40
0.5714285714285714
 40
0.5714285714285714
 40
0.5714285714285714
 40
0.5714285714285714
 40
0.7142857142857142
 40
0.7142857142857142
 40
0.7142857142857142
 40
0.7142857142857142
 40
0.857142857142857
 40
0.857142857142857
 40
0.857142857142857
 40
0.857142857142857
 40
1.0
 40
1.0
 40
1.0
 40
1.0
 10
0.11444
 20
-2.01986
 30
0.0
 10
0.1119
 20
-2.0046200000000001
 30
0.0
 10
0.15508
 20
-2.0884400000000003
 30
0.0
 10
0.19318
 20
-2.1773400000000001
 30
0.0
 10
0.19318
 20
-2.1773400000000001
 30
0.0
 10
0.27446
 20
-2.3754600000000003
 30
0.0
 10
0.3455800000000001
 20
-2.5913600000000003
 30
0.0
 10
0.31002
 20
-2.8098000000000001
 30
0.0
 10
0.31002
 20
-2.8098000000000001
 30
0.0
 10
0.26938
 20
-3.0765000000000002
 30
0.0
 10
0.31002
 20
-3.3686000000000003
 30
0.0
 10
0.34304
 20
-3.6403800000000004
 30
0.0
 10
0.34304
 20
-3.6403800000000004
 30
0.0
 10
0.34304
 20
-3.6480000000000001
 30
0.0
 10
0.33034
 20
-3.6530800000000001
 30
0.0
 10
0.3278
 20
-3.6429200000000002
 30
0.0
 10
0.3278
 20
-3.6429200000000002
 30
0.0
 10
0.2617600000000001
 20
-3.4854400000000001
 30
0.0
 10
0.08142
 20
-2.8402800000000004
 30
0.0
 10
0.12714
 20
-2.7564600000000001
 30
0.0
 10
0.12714
 20
-2.7564600000000001
 30
0.0
 10
0.23636
 20
-2.5583400000000003
 30
0.0
 10
0.11444
 20
-2.23576
 30
0.0
 10
0.11444
 20
-2.0224000000000002
 30
0.0
 10
0.11444
 20
-2.0224000000000002
 30
0.0
 10
0.11444
 20
-2.0224000000000002
 30
0.0
 10
0.11444
 20
-2.0224000000000002
 30
0.0
 10
0.11444
 20
-2.01986
 30
0.0
  0
SPLINE
  5
51
100
AcDbEntity
  8
Ebene 1
 62
     1
100
AcDbSpline
210
0.0
220
0.0
230
1.0
 70
     1
 71
     3
 72
    32
 73
    28
 74
     0
 42
0.0000000001
 43
0.0000000001
 40
0.0
 40
0.0
 40
0.0
 40
0.0
 40
0.1428571428571429
 40
0.1428571428571429
 40
0.1428571428571429
 40
0.1428571428571429
 40
0.2857142857142857
 40
0.2857142857142857
 40
0.2857142857142857
 40
0.2857142857142857
 40
0.4285714285714286
 40
0.4285714285714286
 40
0.4285714285714286
 40
0.4285714285714286
 40
0.5714285714285714
 40
0.5714285714285714
 40
0.5714285714285714
 40
0.5714285714285714
 40
0.7142857142857142
 40
0.7142857142857142
 40
0.7142857142857142
 40
0.7142857142857142
 40
0.857142857142857
 40
0.857142857142857
 40
0.857142857142857
 40
0.857142857142857
 40
1.0
 40
1.0
 40
1.0
 40
1.0
 10
1.02122
 20
-2.27386
 30
0.0
 10
1.01868
 20
-2.2662400000000003
 30
0.0
 10
1.0085200000000001
 20
-2.26878
 30
0.0
 10
1.0085200000000001
 20
-2.2764000000000002
 30
0.0
 10
1.0085200000000001
 20
-2.2764000000000002
 30
0.0
 10
1.0085200000000001
 20
-2.4618200000000003
 30
0.0
 10
1.02122
 20
-2.5583400000000003
 30
0.0
 10
0.8662800000000001
 20
-2.7005800000000004
 30
0.0
 10
0.8662800000000001
 20
-2.7005800000000004
 30
0.0
 10
0.8612000000000001
 20
-2.7031200000000002
 30
0.0
 10
0.8612000000000001
 20
-2.7082000000000002
 30
0.0
 10
0.8662800000000001
 20
-2.7132800000000001
 30
0.0
 10
0.8662800000000001
 20
-2.7132800000000001
 30
0.0
 10
0.9424800000000001
 20
-2.8072600000000003
 30
0.0
 10
1.5063600000000001
 20
-3.4575000000000005
 30
0.0
 10
1.5571600000000001
 20
-3.4067000000000003
 30
0.0
 10
1.5571600000000001
 20
-3.4067000000000003
 30
0.0
 10
1.5774800000000002
 20
-3.3838400000000002
 30
0.0
 10
1.31586
 20
-2.9114000000000004
 30
0.0
 10
1.23458
 20
-2.8326600000000002
 30
0.0
 10
1.23458
 20
-2.8326600000000002
 30
0.0
 10
1.0898000000000001
 20
-2.6929600000000002
 30
0.0
 10
1.10758
 20
-2.4923000000000002
 30
0.0
 10
1.0390000000000001
 20
-2.3145000000000002
 30
0.0
 10
1.0390000000000001
 20
-2.3145000000000002
 30
0.0
 10
1.0339200000000002
 20
-2.2967200000000001
 30
0.0
 10
1.0263
 20
-2.2840200000000004
 30
0.0
 10
1.02122
 20
-2.27386
 30
0.0
  0
SPLINE
  5
52
100
AcDbEntity
  8
Ebene 1
 62
     1
100
AcDbSpline
210
0.0
220
0.0
230
1.0
 70
     1
 71
     3
 72
    32
 73
    28
 74
     0
 42
0.0000000001
 43
0.0000000001
 40
0.0
 40
0.0
 40
0.0
 40
0.0
 40
0.1428571428571429
 40
0.1428571428571429
 40
0.1428571428571429
 40
0.1428571428571429
 40
0.2857142857142857
 40
0.2857142857142857
 40
0.2857142857142857
 40
0.2857142857142857
 40
0.4285714285714286
 40
0.4285714285714286
 40
0.4285714285714286
 40
0.4285714285714286
 40
0.5714285714285714
 40
0.5714285714285714
 40
0.5714285714285714
 40
0.5714285714285714
 40
0.7142857142857142
 40
0.7142857142857142
 40
0.7142857142857142
 40
0.7142857142857142
 40
0.857142857142857
 40
0.857142857142857
 40
0.857142857142857
 40
0.857142857142857
 40
1.0
 40
1.0
 40
1.0
 40
1.0
 10
-0.80249
 20
-2.2611600000000003
 30
0.0
 10
-0.7745500000000001
 20
-2.23576
 30
0.0
 10
-0.7948700000000001
 20
-2.3145000000000002
 30
0.0
 10
-0.7948700000000001
 20
-2.3246600000000002
 30
0.0
 10
-0.7948700000000001
 20
-2.3246600000000002
 30
0.0
 10
-0.8202700000000001
 20
-2.4694400000000001
 30
0.0
 10
-0.7872500000000001
 20
-2.5812000000000004
 30
0.0
 10
-0.6856500000000001
 20
-2.6777200000000003
 30
0.0
 10
-0.6856500000000001
 20
-2.6777200000000003
 30
0.0
 10
-0.6043700000000001
 20
-2.7564600000000001
 30
0.0
 10
-1.00315
 20
-3.1247600000000002
 30
0.0
 10
-1.08443
 20
-3.19842
 30
0.0
 10
-1.08443
 20
-3.19842
 30
0.0
 10
-1.1885700000000001
 20
-3.2924000000000002
 30
0.0
 10
-1.33843
 20
-3.4194000000000004
 30
0.0
 10
-1.33843
 20
-3.4067000000000003
 30
0.0
 10
-1.33843
 20
-3.4067000000000003
 30
0.0
 10
-1.33843
 20
-3.3178000000000001
 30
0.0
 10
-1.1149100000000001
 20
-2.9190200000000002
 30
0.0
 10
-1.0183900000000001
 20
-2.8301200000000004
 30
0.0
 10
-1.0183900000000001
 20
-2.8301200000000004
 30
0.0
 10
-0.86599
 20
-2.6802600000000001
 30
0.0
 10
-0.88631
 20
-2.4491200000000002
 30
0.0
 10
-0.80503
 20
-2.2637
 30
0.0
 10
-0.80503
 20
-2.2637
 30
0.0
 10
-0.80503
 20
-2.2611600000000003
 30
0.0
 10
-0.80503
 20
-2.2611600000000003
 30
0.0
 10
-0.80249
 20
-2.2611600000000003
 30
0.0
  0
SPLINE
  5
53
100
AcDbEntity
  8
Ebene 1
 62
     1
100
AcDbSpline
210
0.0
220
0.0
230
1.0
 70
     1
 71
     3
 72
    32
 73
    28
 74
     0
 42
0.0000000001
 43
0.0000000001
 40
0.0
 40
0.0
 40
0.0
 40
0.0
 40
0.1428571428571429
 40
0.1428571428571429
 40
0.1428571428571429
 40
0.1428571428571429
 40
0.2857142857142857
 40
0.2857142857142857
 40
0.2857142857142857
 40
0.2857142857142857
 40
0.4285714285714286
 40
0.4285714285714286
 40
0.4285714285714286
 40
0.4285714285714286
 40
0.5714285714285714
 40
0.5714285714285714
 40
0.5714285714285714
 40
0.5714285714285714
 40
0.7142857142857142
 40
0.7142857142857142
 40
0.7142857142857142
 40
0.7142857142857142
 40
0.857142857142857
 40
0.857142857142857
 40
0.857142857142857
 40
0.857142857142857
 40
1.0
 40
1.0
 40
1.0
 40
1.0
 10
-1.2673100000000002
 20
-2.4694400000000001
 30
0.0
 10
-1.21397
 20
-2.4389600000000002
 30
0.0
 10
-1.2393700000000001
 20
-2.4872200000000002
 30
0.0
 10
-1.24699
 20
-2.52278
 30
0.0
 10
-1.24699
 20
-2.52278
 30
0.0
 10
-1.3866900000000002
 20
-3.1933400000000001
 30
0.0
 10
-1.6635500000000001
 20
-3.8512000000000004
 30
0.0
 10
-2.0902700000000003
 20
-4.3871400000000005
 30
0.0
 10
-2.0902700000000003
 20
-4.3871400000000005
 30
0.0
 10
-2.1791700000000001
 20
-4.4963600000000001
 30
0.0
 10
-2.3772900000000003
 20
-4.3642799999999999
 30
0.0
 10
-2.3849100000000001
 20
-4.2449000000000003
 30
0.0
 10
-2.3849100000000001
 20
-4.2449000000000003
 30
0.0
 10
-2.3925300000000003
 20
-4.1255200000000007
 30
0.0
 10
-1.9912100000000001
 20
-3.8893000000000004
 30
0.0
 10
-1.9124700000000001
 20
-3.7318200000000004
 30
0.0
 10
-1.9124700000000001
 20
-3.7318200000000004
 30
0.0
 10
-1.8819900000000001
 20
-3.6759400000000002
 30
0.0
 10
-1.8819900000000001
 20
-3.6962600000000001
 30
0.0
 10
-1.8337300000000001
 20
-3.6708600000000002
 30
0.0
 10
-1.8337300000000001
 20
-3.6708600000000002
 30
0.0
 10
-1.4679700000000002
 20
-3.4778200000000004
 30
0.0
 10
-1.67117
 20
-2.7285200000000001
 30
0.0
 10
-1.2698500000000001
 20
-2.4694400000000001
 30
0.0
 10
-1.2698500000000001
 20
-2.4694400000000001
 30
0.0
 10
-1.2698500000000001
 20
-2.4694400000000001
 30
0.0
 10
-1.2673100000000002
 20
-2.4694400000000001
 30
0.0
 10
-1.2673100000000002
 20
-2.4694400000000001
 30
0.0
  0
SPLINE
  5
54
100
AcDbEntity
  8
Ebene 1
 62
     1
100
AcDbSpline
210
0.0
220
0.0
230
1.0
 70
     1
 71
     3
 72
    32
 73
    28
 74
     0
 42
0.0000000001
 43
0.0000000001
 40
0.0
 40
0.0
 40
0.0
 40
0.0
 40
0.1428571428571429
 40
0.1428571428571429
 40
0.1428571428571429
 40
0.1428571428571429
 40
0.2857142857142857
 40
0.2857142857142857
 40
0.2857142857142857
 40
0.2857142857142857
 40
0.4285714285714286
 40
0.4285714285714286
 40
0.4285714285714286
 40
0.4285714285714286
 40
0.5714285714285714
 40
0.5714285714285714
 40
0.5714285714285714
 40
0.5714285714285714
 40
0.7142857142857142
 40
0.7142857142857142
 40
0.7142857142857142
 40
0.7142857142857142
 40
0.857142857142857
 40
0.857142857142857
 40
0.857142857142857
 40
0.857142857142857
 40
1.0
 40
1.0
 40
1.0
 40
1.0
 10
1.4454
 20
-2.4745200000000001
 30
0.0
 10
1.5571600000000001
 20
-3.1704800000000004
 30
0.0
 10
1.9026000000000001
 20
-3.8766000000000003
 30
0.0
 10
2.3369400000000002
 20
-4.4252400000000005
 30
0.0
 10
2.3369400000000002
 20
-4.4252400000000005
 30
0.0
 10
2.3369400000000002
 20
-4.4277800000000003
 30
0.0
 10
2.33948
 20
-4.4277800000000003
 30
0.0
 10
2.3420200000000002
 20
-4.4277800000000003
 30
0.0
 10
2.3420200000000002
 20
-4.4277800000000003
 30
0.0
 10
2.5807800000000003
 20
-4.4277800000000003
 30
0.0
 10
2.7001600000000003
 20
-4.2372800000000002
 30
0.0
 10
2.46394
 20
-4.0620200000000004
 30
0.0
 10
2.46394
 20
-4.0620200000000004
 30
0.0
 10
2.3369400000000002
 20
-3.9680400000000002
 30
0.0
 10
2.2023200000000003
 20
-3.8867600000000002
 30
0.0
 10
2.1261200000000002
 20
-3.7369000000000003
 30
0.0
 10
2.1261200000000002
 20
-3.7369000000000003
 30
0.0
 10
2.1058000000000003
 20
-3.6911800000000001
 30
0.0
 10
2.1058000000000003
 20
-3.6911800000000001
 30
0.0
 10
2.08548
 20
-3.6886400000000004
 30
0.0
 10
2.08548
 20
-3.6886400000000004
 30
0.0
 10
1.6892400000000001
 20
-3.5972000000000004
 30
0.0
 10
1.8721200000000002
 20
-2.5964400000000003
 30
0.0
 10
1.4555600000000002
 20
-2.4567400000000004
 30
0.0
 10
1.4555600000000002
 20
-2.4567400000000004
 30
0.0
 10
1.44286
 20
-2.4542000000000002
 30
0.0
 10
1.44286
 20
-2.4542000000000002
 30
0.0
 10
1.4454
 20
-2.4745200000000001
 30
0.0
  0
SPLINE
  5
55
100
AcDbEntity
  8
Ebene 1
 62
     1
100
AcDbSpline
210
0.0
220
0.0
230
1.0
 70
     1
 71
     3
 72
    40
 73
    36
 74
     0
 42
0.0000000001
 43
0.0000000001
 40
0.0
 40
0.0
 40
0.0
 40
0.0
 40
0.1111111111111111
 40
0.1111111111111111
 40
0.1111111111111111
 40
0.1111111111111111
 40
0.2222222222222222
 40
0.2222222222222222
 40
0.2222222222222222
 40
0.2222222222222222
 40
0.3333333333333333
 40
0.3333333333333333
 40
0.3333333333333333
 40
0.3333333333333333
 40
0.4444444444444444
 40
0.4444444444444444
 40
0.4444444444444444
 40
0.4444444444444444
 40
0.5555555555555556
 40
0.5555555555555556
 40
0.5555555555555556
 40
0.5555555555555556
 40
0.6666666666666667
 40
0.6666666666666667
 40
0.6666666666666667
 40
0.6666666666666667
 40
0.7777777777777779
 40
0.7777777777777779
 40
0.7777777777777779
 40
0.7777777777777779
 40
0.8888888888888891
 40
0.8888888888888891
 40
0.8888888888888891
 40
0.8888888888888891
 40
1.0
 40
1.0
 40
1.0
 40
1.0
 10
-0.22083
 20
-3.0917400000000002
 30
0.0
 10
-0.22083
 20
-3.1069800000000001
 30
0.0
 10
-0.21829
 20
-3.1222200000000004
 30
0.0
 10
-0.21575
 20
-3.1374600000000004
 30
0.0
 10
-0.21575
 20
-3.1374600000000004
 30
0.0
 10
-0.18273
 20
-3.7572200000000002
 30
0.0
 10
-0.21829
 20
-4.7529000000000003
 30
0.0
 10
-0.41133
 20
-5.3574200000000003
 30
0.0
 10
-0.41133
 20
-5.3574200000000003
 30
0.0
 10
-0.57389
 20
-5.8755800000000002
 30
0.0
 10
-0.9218700000000001
 20
-6.3048400000000004
 30
0.0
 10
-1.38161
 20
-6.6020200000000004
 30
0.0
 10
-1.38161
 20
-6.6020200000000004
 30
0.0
 10
-1.4755900000000002
 20
-6.6629800000000001
 30
0.0
 10
-1.4755900000000002
 20
-6.6655200000000008
 30
0.0
 10
-1.42225
 20
-6.6071000000000009
 30
0.0
 10
-1.42225
 20
-6.6071000000000009
 30
0.0
 10
-1.24699
 20
-6.4166000000000007
 30
0.0
 10
-0.99299
 20
-6.0838600000000005
 30
0.0
 10
-1.1123700000000001
 20
-5.8171600000000003
 30
0.0
 10
-1.1123700000000001
 20
-5.8171600000000003
 30
0.0
 10
-1.1123700000000001
 20
-5.8171600000000003
 30
0.0
 10
-1.1123700000000001
 20
-5.8171600000000003
 30
0.0
 10
-1.1149100000000001
 20
-5.8171600000000003
 30
0.0
 10
-1.1149100000000001
 20
-5.8171600000000003
 30
0.0
 10
-1.1377700000000002
 20
-5.7739800000000008
 30
0.0
 10
-1.1403100000000002
 20
-5.7790600000000003
 30
0.0
 10
-1.0996700000000001
 20
-5.7612800000000002
 30
0.0
 10
-1.0996700000000001
 20
-5.7612800000000002
 30
0.0
 10
-0.45451
 20
-5.4412400000000005
 30
0.0
 10
-0.26147
 20
-3.8410400000000005
 30
0.0
 10
-0.23607
 20
-3.0917400000000002
 30
0.0
 10
-0.23607
 20
-3.0917400000000002
 30
0.0
 10
-0.23607
 20
-3.0815800000000002
 30
0.0
 10
-0.22083
 20
-3.0815800000000002
 30
0.0
 10
-0.22083
 20
-3.0917400000000002
 30
0.0
  0
SPLINE
  5
56
100
AcDbEntity
  8
Ebene 1
 62
     1
100
AcDbSpline
210
0.0
220
0.0
230
1.0
 70
     1
 71
     3
 72
    44
 73
    40
 74
     0
 42
0.0000000001
 43
0.0000000001
 40
0.0
 40
0.0
 40
0.0
 40
0.0
 40
0.1
 40
0.1
 40
0.1
 40
0.1
 40
0.2
 40
0.2
 40
0.2
 40
0.2
 40
0.3
 40
0.3
 40
0.3
 40
0.3
 40
0.4
 40
0.4
 40
0.4
 40
0.4
 40
0.5
 40
0.5
 40
0.5
 40
0.5
 40
0.6
 40
0.6
 40
0.6
 40
0.6
 40
0.7
 40
0.7
 40
0.7
 40
0.7
 40
0.7999999999999999
 40
0.7999999999999999
 40
0.7999999999999999
 40
0.7999999999999999
 40
0.8999999999999999
 40
0.8999999999999999
 40
0.8999999999999999
 40
0.8999999999999999
 40
1.0
 40
1.0
 40
1.0
 40
1.0
 10
0.4725800000000001
 20
-3.0917400000000002
 30
0.0
 10
0.4624200000000001
 20
-3.2416000000000005
 30
0.0
 10
0.47512
 20
-3.3965400000000003
 30
0.0
 10
0.47766
 20
-3.5464000000000002
 30
0.0
 10
0.47766
 20
-3.5464000000000002
 30
0.0
 10
0.4929000000000001
 20
-4.0874200000000007
 30
0.0
 10
0.5386200000000001
 20
-4.7910000000000004
 30
0.0
 10
0.658
 20
-5.3193200000000003
 30
0.0
 10
0.658
 20
-5.3193200000000003
 30
0.0
 10
0.7596000000000001
 20
-5.7739800000000008
 30
0.0
 10
1.1914
 20
-6.2565800000000005
 30
0.0
 10
1.4987400000000002
 20
-6.4978800000000003
 30
0.0
 10
1.4987400000000002
 20
-6.4978800000000003
 30
0.0
 10
1.5520800000000001
 20
-6.5385200000000001
 30
0.0
 10
1.6359000000000001
 20
-6.5969400000000009
 30
0.0
 10
1.6841600000000001
 20
-6.6274200000000008
 30
0.0
 10
1.6841600000000001
 20
-6.6274200000000008
 30
0.0
 10
1.69432
 20
-6.6350400000000009
 30
0.0
 10
1.7019400000000002
 20
-6.6223400000000003
 30
0.0
 10
1.69432
 20
-6.6172600000000008
 30
0.0
 10
1.69432
 20
-6.6172600000000008
 30
0.0
 10
1.5139800000000001
 20
-6.4166000000000007
 30
0.0
 10
1.2396600000000002
 20
-6.0711600000000008
 30
0.0
 10
1.3895200000000001
 20
-5.8044600000000006
 30
0.0
 10
1.3895200000000001
 20
-5.8044600000000006
 30
0.0
 10
1.3946000000000001
 20
-5.7968400000000004
 30
0.0
 10
1.39714
 20
-5.7892200000000003
 30
0.0
 10
1.39968
 20
-5.7841400000000007
 30
0.0
 10
1.39968
 20
-5.7841400000000007
 30
0.0
 10
1.40222
 20
-5.7790600000000003
 30
0.0
 10
1.39968
 20
-5.7765200000000005
 30
0.0
 10
1.3946000000000001
 20
-5.7739800000000008
 30
0.0
 10
1.3946000000000001
 20
-5.7739800000000008
 30
0.0
 10
0.6707000000000001
 20
-5.4920400000000003
 30
0.0
 10
0.51576
 20
-3.7267400000000004
 30
0.0
 10
0.4929000000000001
 20
-3.1171400000000005
 30
0.0
 10
0.4929000000000001
 20
-3.1171400000000005
 30
0.0
 10
0.48782
 20
-3.0409400000000004
 30
0.0
 10
0.47766
 20
-3.0155400000000001
 30
0.0
 10
0.4725800000000001
 20
-3.0917400000000002
 30
0.0
  0
SPLINE
  5
57
100
AcDbEntity
  8
Ebene 1
 62
     1
100
AcDbSpline
210
0.0
220
0.0
230
1.0
 70
     1
 71
     3
 72
    52
 73
    48
 74
     0
 42
0.0000000001
 43
0.0000000001
 40
0.0
 40
0.0
 40
0.0
 40
0.0
 40
0.0833333333333333
 40
0.0833333333333333
 40
0.0833333333333333
 40
0.0833333333333333
 40
0.1666666666666667
 40
0.1666666666666667
 40
0.1666666666666667
 40
0.1666666666666667
 40
0.25
 40
0.25
 40
0.25
 40
0.25
 40
0.3333333333333333
 40
0.3333333333333333
 40
0.3333333333333333
 40
0.3333333333333333
 40
0.4166666666666666
 40
0.4166666666666666
 40
0.4166666666666666
 40
0.4166666666666666
 40
0.4999999999999999
 40
0.4999999999999999
 40
0.4999999999999999
 40
0.4999999999999999
 40
0.5833333333333333
 40
0.5833333333333333
 40
0.5833333333333333
 40
0.5833333333333333
 40
0.6666666666666666
 40
0.6666666666666666
 40
0.6666666666666666
 40
0.6666666666666666
 40
0.75
 40
0.75
 40
0.75
 40
0.75
 40
0.8333333333333334
 40
0.8333333333333334
 40
0.8333333333333334
 40
0.8333333333333334
 40
0.9166666666666667
 40
0.9166666666666667
 40
0.9166666666666667
 40
0.9166666666666667
 40
1.0
 40
1.0
 40
1.0
 40
1.0
 10
0.09412
 20
-3.4295600000000004
 30
0.0
 10
0.08904
 20
-3.4575000000000005
 30
0.0
 10
0.08396
 20
-3.5565600000000002
 30
0.0
 10
0.07888
 20
-3.6632400000000005
 30
0.0
 10
0.07888
 20
-3.6632400000000005
 30
0.0
 10
0.03316
 20
-4.5420800000000003
 30
0.0
 10
-0.02017
 20
-5.0678600000000005
 30
0.0
 10
-0.11923
 20
-5.4666400000000008
 30
0.0
 10
-0.11923
 20
-5.4666400000000008
 30
0.0
 10
-0.14209
 20
-5.5530000000000008
 30
0.0
 10
-0.22083
 20
-5.8247800000000005
 30
0.0
 10
-0.30465
 20
-5.8933600000000004
 30
0.0
 10
-0.30465
 20
-5.8933600000000004
 30
0.0
 10
-0.30719
 20
-5.8959000000000001
 30
0.0
 10
-0.30719
 20
-5.9009800000000006
 30
0.0
 10
-0.30465
 20
-5.9060600000000001
 30
0.0
 10
-0.30465
 20
-5.9060600000000001
 30
0.0
 10
-0.10653
 20
-6.1016400000000006
 30
0.0
 10
0.02808
 20
-6.2591200000000002
 30
0.0
 10
0.09412
 20
-6.5232800000000006
 30
0.0
 10
0.09412
 20
-6.5232800000000006
 30
0.0
 10
0.09666
 20
-6.5334400000000006
 30
0.0
 10
0.10936
 20
-6.5309000000000008
 30
0.0
 10
0.10936
 20
-6.5232800000000006
 30
0.0
 10
0.10936
 20
-6.5232800000000006
 30
0.0
 10
0.13984
 20
-6.2845200000000006
 30
0.0
 10
0.33796
 20
-6.0610000000000008
 30
0.0
 10
0.5056000000000001
 20
-5.9035200000000003
 30
0.0
 10
0.5056000000000001
 20
-5.9035200000000003
 30
0.0
 10
0.50814
 20
-5.9009800000000006
 30
0.0
 10
0.50814
 20
-5.8959000000000001
 30
0.0
 10
0.5056000000000001
 20
-5.8933600000000004
 30
0.0
 10
0.5056000000000001
 20
-5.8933600000000004
 30
0.0
 10
0.4497200000000001
 20
-5.8247800000000005
 30
0.0
 10
0.4167
 20
-5.7409600000000003
 30
0.0
 10
0.3887600000000001
 20
-5.6571400000000001
 30
0.0
 10
0.3887600000000001
 20
-5.6571400000000001
 30
0.0
 10
0.27954
 20
-5.3396400000000002
 30
0.0
 10
0.2008
 20
-4.8037000000000001
 30
0.0
 10
0.14492
 20
-3.9655000000000005
 30
0.0
 10
0.14492
 20
-3.9655000000000005
 30
0.0
 10
0.1246
 20
-3.6632400000000005
 30
0.0
 10
0.10682
 20
-3.4854400000000001
 30
0.0
 10
0.0992
 20
-3.4295600000000004
 30
0.0
 10
0.0992
 20
-3.4295600000000004
 30
0.0
 10
0.09412
 20
-3.3990800000000001
 30
0.0
 10
0.09412
 20
-3.4194000000000004
 30
0.0
 10
0.09412
 20
-3.4295600000000004
 30
0.0
  0
SPLINE
  5
58
100
AcDbEntity
  8
Ebene 1
 62
     1
100
AcDbSpline
210
0.0
220
0.0
230
1.0
 70
     1
 71
     3
 72
     8
 73
     4
 74
     0
 42
0.0000000001
 43
0.0000000001
 40
0.0
 40
0.0
 40
0.0
 40
0.0
 40
1.0
 40
1.0
 40
1.0
 40
1.0
 10
-1.3536700000000002
 20
-3.4270200000000002
 30
0.0
 10
-1.3536700000000002
 20
-3.4270200000000002
 30
0.0
 10
-1.3536700000000002
 20
-3.4244800000000004
 30
0.0
 10
-1.3536700000000002
 20
-3.4270200000000002
 30
0.0
  0
SPLINE
  5
59
100
AcDbEntity
  8
Ebene 1
 62
     1
100
AcDbSpline
210
0.0
220
0.0
230
1.0
 70
     1
 71
     3
 72
    16
 73
    12
 74
     0
 42
0.0000000001
 43
0.0000000001
 40
0.0
 40
0.0
 40
0.0
 40
0.0
 40
0.3333333333333333
 40
0.3333333333333333
 40
0.3333333333333333
 40
0.3333333333333333
 40
0.6666666666666666
 40
0.6666666666666666
 40
0.6666666666666666
 40
0.6666666666666666
 40
1.0
 40
1.0
 40
1.0
 40
1.0
 10
1.5597000000000001
 20
-3.4219400000000002
 30
0.0
 10
1.5597000000000001
 20
-3.4219400000000002
 30
0.0
 10
1.5597000000000001
 20
-3.4219400000000002
 30
0.0
 10
1.5622400000000001
 20
-3.4244800000000004
 30
0.0
 10
1.5622400000000001
 20
-3.4244800000000004
 30
0.0
 10
1.56732
 20
-3.4346400000000004
 30
0.0
 10
1.5724
 20
-3.4397200000000003
 30
0.0
 10
1.5724
 20
-3.4346400000000004
 30
0.0
 10
1.5724
 20
-3.4346400000000004
 30
0.0
 10
1.5724
 20
-3.4295600000000004
 30
0.0
 10
1.5546200000000001
 20
-3.3990800000000001
 30
0.0
 10
1.5597000000000001
 20
-3.4219400000000002
 30
0.0
  0
SPLINE
  5
5A
100
AcDbEntity
  8
Ebene 1
 62
     1
100
AcDbSpline
210
0.0
220
0.0
230
1.0
 70
     1
 71
     3
 72
   144
 73
   140
 74
     0
 42
0.0000000001
 43
0.0000000001
 40
0.0
 40
0.0
 40
0.0
 40
0.0
 40
0.0285714285714286
 40
0.0285714285714286
 40
0.0285714285714286
 40
0.0285714285714286
 40
0.0571428571428571
 40
0.0571428571428571
 40
0.0571428571428571
 40
0.0571428571428571
 40
0.0857142857142857
 40
0.0857142857142857
 40
0.0857142857142857
 40
0.0857142857142857
 40
0.1142857142857143
 40
0.1142857142857143
 40
0.1142857142857143
 40
0.1142857142857143
 40
0.1428571428571429
 40
0.1428571428571429
 40
0.1428571428571429
 40
0.1428571428571429
 40
0.1714285714285714
 40
0.1714285714285714
 40
0.1714285714285714
 40
0.1714285714285714
 40
0.2
 40
0.2
 40
0.2
 40
0.2
 40
0.2285714285714286
 40
0.2285714285714286
 40
0.2285714285714286
 40
0.2285714285714286
 40
0.2571428571428572
 40
0.2571428571428572
 40
0.2571428571428572
 40
0.2571428571428572
 40
0.2857142857142858
 40
0.2857142857142858
 40
0.2857142857142858
 40
0.2857142857142858
 40
0.3142857142857143
 40
0.3142857142857143
 40
0.3142857142857143
 40
0.3142857142857143
 40
0.3428571428571429
 40
0.3428571428571429
 40
0.3428571428571429
 40
0.3428571428571429
 40
0.3714285714285715
 40
0.3714285714285715
 40
0.3714285714285715
 40
0.3714285714285715
 40
0.4000000000000001
 40
0.4000000000000001
 40
0.4000000000000001
 40
0.4000000000000001
 40
0.4285714285714287
 40
0.4285714285714287
 40
0.4285714285714287
 40
0.4285714285714287
 40
0.4571428571428572
 40
0.4571428571428572
 40
0.4571428571428572
 40
0.4571428571428572
 40
0.4857142857142858
 40
0.4857142857142858
 40
0.4857142857142858
 40
0.4857142857142858
 40
0.5142857142857144
 40
0.5142857142857144
 40
0.5142857142857144
 40
0.5142857142857144
 40
0.5428571428571429
 40
0.5428571428571429
 40
0.5428571428571429
 40
0.5428571428571429
 40
0.5714285714285715
 40
0.5714285714285715
 40
0.5714285714285715
 40
0.5714285714285715
 40
0.6000000000000001
 40
0.6000000000000001
 40
0.6000000000000001
 40
0.6000000000000001
 40
0.6285714285714287
 40
0.6285714285714287
 40
0.6285714285714287
 40
0.6285714285714287
 40
0.6571428571428573
 40
0.6571428571428573
 40
0.6571428571428573
 40
0.6571428571428573
 40
0.6857142857142858
 40
0.6857142857142858
 40
0.6857142857142858
 40
0.6857142857142858
 40
0.7142857142857144
 40
0.7142857142857144
 40
0.7142857142857144
 40
0.7142857142857144
 40
0.742857142857143
 40
0.742857142857143
 40
0.742857142857143
 40
0.742857142857143
 40
0.7714285714285716
 40
0.7714285714285716
 40
0.7714285714285716
 40
0.7714285714285716
 40
0.8000000000000002
 40
0.8000000000000002
 40
0.8000000000000002
 40
0.8000000000000002
 40
0.8285714285714287
 40
0.8285714285714287
 40
0.8285714285714287
 40
0.8285714285714287
 40
0.8571428571428573
 40
0.8571428571428573
 40
0.8571428571428573
 40
0.8571428571428573
 40
0.8857142857142859
 40
0.8857142857142859
 40
0.8857142857142859
 40
0.8857142857142859
 40
0.9142857142857145
 40
0.9142857142857145
 40
0.9142857142857145
 40
0.9142857142857145
 40
0.9428571428571431
 40
0.9428571428571431
 40
0.9428571428571431
 40
0.9428571428571431
 40
0.9714285714285716
 40
0.9714285714285716
 40
0.9714285714285716
 40
0.9714285714285716
 40
1.0
 40
1.0
 40
1.0
 40
1.0
 10
-3.7641300000000002
 20
-3.6581600000000001
 30
0.0
 10
-3.7641300000000002
 20
-3.6581600000000001
 30
0.0
 10
-3.7641300000000002
 20
-3.6581600000000001
 30
0.0
 10
-3.7641300000000002
 20
-3.6607000000000003
 30
0.0
 10
-3.7641300000000002
 20
-3.6607000000000003
 30
0.0
 10
-3.9952700000000005
 20
-3.7445200000000005
 30
0.0
 10
-4.3635700000000002
 20
-3.9578800000000003
 30
0.0
 10
-4.1578300000000006
 20
-4.2245800000000004
 30
0.0
 10
-4.1578300000000006
 20
-4.2245800000000004
 30
0.0
 10
-4.1527500000000002
 20
-4.22966
 30
0.0
 10
-4.14513
 20
-4.22966
 30
0.0
 10
-4.1425900000000002
 20
-4.2220400000000007
 30
0.0
 10
-4.1425900000000002
 20
-4.2220400000000007
 30
0.0
 10
-4.1019500000000004
 20
-4.0696400000000006
 30
0.0
 10
-4.0359100000000003
 20
-3.8689800000000005
 30
0.0
 10
-3.8987500000000002
 20
-4.0696400000000006
 30
0.0
 10
-3.8987500000000002
 20
-4.0696400000000006
 30
0.0
 10
-3.7336500000000004
 20
-4.3109400000000004
 30
0.0
 10
-3.6803100000000004
 20
-4.1839400000000007
 30
0.0
 10
-3.4593300000000005
 20
-4.2322000000000006
 30
0.0
 10
-3.4593300000000005
 20
-4.2322000000000006
 30
0.0
 10
-3.4059900000000001
 20
-4.2449000000000003
 30
0.0
 10
-3.0808700000000004
 20
-4.40238
 30
0.0
 10
-2.9868900000000003
 20
-4.4582600000000001
 30
0.0
 10
-2.9868900000000003
 20
-4.4582600000000001
 30
0.0
 10
-2.9818100000000003
 20
-4.4633400000000005
 30
0.0
 10
-2.9843500000000001
 20
-4.4735000000000005
 30
0.0
 10
-2.9919700000000002
 20
-4.4735000000000005
 30
0.0
 10
-2.9919700000000002
 20
-4.4735000000000005
 30
0.0
 10
-3.1824700000000004
 20
-4.4430200000000006
 30
0.0
 10
-3.4694900000000004
 20
-4.4074600000000004
 30
0.0
 10
-3.6422100000000004
 20
-4.4760400000000002
 30
0.0
 10
-3.6422100000000004
 20
-4.4760400000000002
 30
0.0
 10
-3.8149300000000004
 20
-4.5471600000000008
 30
0.0
 10
-3.9774900000000004
 20
-4.35412
 30
0.0
 10
-4.1019500000000004
 20
-4.3947600000000007
 30
0.0
 10
-4.1019500000000004
 20
-4.3947600000000007
 30
0.0
 10
-4.2340300000000006
 20
-4.4252400000000005
 30
0.0
 10
-4.44231
 20
-4.6640000000000006
 30
0.0
 10
-4.4448500000000006
 20
-4.8164000000000007
 30
0.0
 10
-4.4448500000000006
 20
-4.8164000000000007
 30
0.0
 10
-4.4448500000000006
 20
-4.8189400000000004
 30
0.0
 10
-4.44231
 20
-4.8214800000000002
 30
0.0
 10
-4.44231
 20
-4.8214800000000002
 30
0.0
 10
-4.44231
 20
-4.8214800000000002
 30
0.0
 10
-4.4143700000000008
 20
-4.8697400000000002
 30
0.0
 10
-4.3254700000000001
 20
-5.0069000000000008
 30
0.0
 10
-4.2822900000000006
 20
-5.07294
 30
0.0
 10
-4.2822900000000006
 20
-5.07294
 30
0.0
 10
-4.2772100000000002
 20
-5.0780200000000004
 30
0.0
 10
-4.2645100000000005
 20
-5.0754800000000007
 30
0.0
 10
-4.2670500000000002
 20
-5.0678600000000005
 30
0.0
 10
-4.2670500000000002
 20
-5.0678600000000005
 30
0.0
 10
-4.2899100000000008
 20
-4.9230800000000006
 30
0.0
 10
-4.2187900000000003
 20
-4.7275
 30
0.0
 10
-4.0740100000000004
 20
-4.8773600000000004
 30
0.0
 10
-4.0740100000000004
 20
-4.8773600000000004
 30
0.0
 10
-3.8454100000000002
 20
-5.1161200000000004
 30
0.0
 10
-3.3475700000000002
 20
-4.5293800000000006
 30
0.0
 10
-2.9818100000000003
 20
-4.6360600000000005
 30
0.0
 10
-2.9818100000000003
 20
-4.6360600000000005
 30
0.0
 10
-2.8471900000000003
 20
-4.6767000000000003
 30
0.0
 10
-2.9411700000000001
 20
-4.6894
 30
0.0
 10
-3.0300700000000003
 20
-4.7351200000000002
 30
0.0
 10
-3.0300700000000003
 20
-4.7351200000000002
 30
0.0
 10
-3.4085300000000003
 20
-4.9180000000000001
 30
0.0
 10
-3.6168100000000001
 20
-5.0526200000000001
 30
0.0
 10
-3.7082500000000005
 20
-5.1669200000000002
 30
0.0
 10
-3.7082500000000005
 20
-5.1669200000000002
 30
0.0
 10
-3.8149300000000004
 20
-5.2990000000000004
 30
0.0
 10
-3.8682700000000003
 20
-5.1034200000000007
 30
0.0
 10
-3.9470100000000001
 20
-5.1821600000000005
 30
0.0
 10
-3.9470100000000001
 20
-5.1821600000000005
 30
0.0
 10
-4.1806900000000002
 20
-5.4158400000000002
 30
0.0
 10
-4.1603700000000003
 20
-5.6241200000000005
 30
0.0
 10
-3.8606500000000001
 20
-5.7181000000000006
 30
0.0
 10
-3.8606500000000001
 20
-5.7181000000000006
 30
0.0
 10
-3.8530300000000004
 20
-5.7206400000000004
 30
0.0
 10
-3.8479500000000004
 20
-5.7130200000000002
 30
0.0
 10
-3.8504900000000002
 20
-5.7054
 30
0.0
 10
-3.8504900000000002
 20
-5.7054
 30
0.0
 10
-3.8809700000000005
 20
-5.6495200000000008
 30
0.0
 10
-3.9673300000000005
 20
-5.4691800000000006
 30
0.0
 10
-3.7717500000000004
 20
-5.5428400000000009
 30
0.0
 10
-3.7717500000000004
 20
-5.5428400000000009
 30
0.0
 10
-3.6168100000000001
 20
-5.6038000000000006
 30
0.0
 10
-3.5660100000000003
 20
-5.5606200000000001
 30
0.0
 10
-3.4720300000000002
 20
-5.4412400000000005
 30
0.0
 10
-3.4720300000000002
 20
-5.4412400000000005
 30
0.0
 10
-3.3145500000000001
 20
-5.2482000000000006
 30
0.0
 10
-3.0224500000000001
 20
-4.8291000000000004
 30
0.0
 10
-2.7379700000000002
 20
-4.8214800000000002
 30
0.0
 10
-2.7379700000000002
 20
-4.8214800000000002
 30
0.0
 10
-2.7328900000000003
 20
-4.8214800000000002
 30
0.0
 10
-2.7303500000000001
 20
-4.82402
 30
0.0
 10
-2.7303500000000001
 20
-4.8291000000000004
 30
0.0
 10
-2.7303500000000001
 20
-4.8291000000000004
 30
0.0
 10
-2.7278100000000003
 20
-5.0196000000000005
 30
0.0
 10
-2.6236700000000002
 20
-5.0678600000000005
 30
0.0
 10
-2.4128500000000002
 20
-5.0856400000000006
 30
0.0
 10
-2.4128500000000002
 20
-5.0856400000000006
 30
0.0
 10
-2.23759
 20
-5.0983400000000003
 30
0.0
 10
-1.0971300000000002
 20
-5.2990000000000004
 30
0.0
 10
-1.5136900000000002
 20
-5.6622200000000005
 30
0.0
 10
-1.5136900000000002
 20
-5.6622200000000005
 30
0.0
 10
-1.5213100000000002
 20
-5.6698400000000007
 30
0.0
 10
-1.5162300000000002
 20
-5.6774600000000008
 30
0.0
 10
-1.5086100000000002
 20
-5.6774600000000008
 30
0.0
 10
-1.5086100000000002
 20
-5.6774600000000008
 30
0.0
 10
-1.12761
 20
-5.6444400000000003
 30
0.0
 10
-1.0107700000000002
 20
-4.8341800000000008
 30
0.0
 10
-1.5543300000000002
 20
-5.0043600000000001
 30
0.0
 10
-1.5543300000000002
 20
-5.0043600000000001
 30
0.0
 10
-1.7829300000000001
 20
-5.07294
 30
0.0
 10
-2.0750300000000004
 20
-4.8697400000000002
 30
0.0
 10
-2.0826500000000001
 20
-4.6259000000000006
 30
0.0
 10
-2.0826500000000001
 20
-4.6259000000000006
 30
0.0
 10
-2.0826500000000001
 20
-4.6182800000000004
 30
0.0
 10
-2.0851900000000003
 20
-4.6157400000000006
 30
0.0
 10
-2.0928100000000001
 20
-4.6157400000000006
 30
0.0
 10
-2.0928100000000001
 20
-4.6157400000000006
 30
0.0
 10
-2.3468100000000001
 20
-4.6360600000000005
 30
0.0
 10
-2.4534900000000004
 20
-4.4658800000000003
 30
0.0
 10
-2.5779500000000004
 20
-4.2626800000000005
 30
0.0
 10
-2.5779500000000004
 20
-4.2626800000000005
 30
0.0
 10
-2.5779500000000004
 20
-4.2601400000000007
 30
0.0
 10
-2.5830300000000004
 20
-4.2576000000000001
 30
0.0
 10
-2.5855700000000001
 20
-4.2601400000000007
 30
0.0
 10
-2.5855700000000001
 20
-4.2601400000000007
 30
0.0
 10
-2.5881100000000004
 20
-4.2601400000000007
 30
0.0
 10
-2.5906500000000001
 20
-4.2601400000000007
 30
0.0
 10
-2.5957300000000001
 20
-4.2626800000000005
 30
0.0
 10
-2.5957300000000001
 20
-4.2626800000000005
 30
0.0
 10
-2.8954500000000003
 20
-4.3693600000000004
 30
0.0
 10
-3.3120100000000003
 20
-4.1280600000000005
 30
0.0
 10
-3.4593300000000005
 20
-3.8639000000000001
 30
0.0
 10
-3.4593300000000005
 20
-3.8639000000000001
 30
0.0
 10
-3.5253700000000001
 20
-3.7445200000000005
 30
0.0
 10
-3.6091900000000003
 20
-3.6073600000000003
 30
0.0
 10
-3.7641300000000002
 20
-3.6581600000000001
 30
0.0
  0
SPLINE
  5
5B
100
AcDbEntity
  8
Ebene 1
 62
     1
100
AcDbSpline
210
0.0
220
0.0
230
1.0
 70
     1
 71
     3
 72
    20
 73
    16
 74
     0
 42
0.0000000001
 43
0.0000000001
 40
0.0
 40
0.0
 40
0.0
 40
0.0
 40
0.25
 40
0.25
 40
0.25
 40
0.25
 40
0.5
 40
0.5
 40
0.5
 40
0.5
 40
0.75
 40
0.75
 40
0.75
 40
0.75
 40
1.0
 40
1.0
 40
1.0
 40
1.0
 10
-3.8479500000000004
 20
-3.7851600000000003
 30
0.0
 10
-3.8403300000000002
 20
-3.7826200000000001
 30
0.0
 10
-3.8352500000000003
 20
-3.7902400000000003
 30
0.0
 10
-3.8377900000000005
 20
-3.7978600000000005
 30
0.0
 10
-3.8377900000000005
 20
-3.7978600000000005
 30
0.0
 10
-3.8581100000000004
 20
-3.8486600000000002
 30
0.0
 10
-3.7666700000000004
 20
-3.9324800000000004
 30
0.0
 10
-3.7184100000000004
 20
-3.9705800000000004
 30
0.0
 10
-3.7184100000000004
 20
-3.9705800000000004
 30
0.0
 10
-3.7133300000000005
 20
-3.9782000000000002
 30
0.0
 10
-3.7184100000000004
 20
-3.9883600000000001
 30
0.0
 10
-3.7260300000000002
 20
-3.9858200000000004
 30
0.0
 10
-3.7260300000000002
 20
-3.9858200000000004
 30
0.0
 10
-3.9927300000000003
 20
-3.9197800000000003
 30
0.0
 10
-3.8911300000000004
 20
-3.8029400000000004
 30
0.0
 10
-3.8479500000000004
 20
-3.7851600000000003
 30
0.0
  0
SPLINE
  5
5C
100
AcDbEntity
  8
Ebene 1
 62
     1
100
AcDbSpline
210
0.0
220
0.0
230
1.0
 70
     1
 71
     3
 72
    40
 73
    36
 74
     0
 42
0.0000000001
 43
0.0000000001
 40
0.0
 40
0.0
 40
0.0
 40
0.0
 40
0.1111111111111111
 40
0.1111111111111111
 40
0.1111111111111111
 40
0.1111111111111111
 40
0.2222222222222222
 40
0.2222222222222222
 40
0.2222222222222222
 40
0.2222222222222222
 40
0.3333333333333333
 40
0.3333333333333333
 40
0.3333333333333333
 40
0.3333333333333333
 40
0.4444444444444444
 40
0.4444444444444444
 40
0.4444444444444444
 40
0.4444444444444444
 40
0.5555555555555556
 40
0.5555555555555556
 40
0.5555555555555556
 40
0.5555555555555556
 40
0.6666666666666667
 40
0.6666666666666667
 40
0.6666666666666667
 40
0.6666666666666667
 40
0.7777777777777779
 40
0.7777777777777779
 40
0.7777777777777779
 40
0.7777777777777779
 40
0.8888888888888891
 40
0.8888888888888891
 40
0.8888888888888891
 40
0.8888888888888891
 40
1.0
 40
1.0
 40
1.0
 40
1.0
 10
-2.7760700000000003
 20
-4.3947600000000007
 30
0.0
 10
-2.9589500000000002
 20
-4.3338000000000001
 30
0.0
 10
-2.7506700000000004
 20
-4.3287200000000006
 30
0.0
 10
-2.8395700000000001
 20
-4.5090600000000007
 30
0.0
 10
-2.8395700000000001
 20
-4.5090600000000007
 30
0.0
 10
-2.8395700000000001
 20
-4.5090600000000007
 30
0.0
 10
-2.8395700000000001
 20
-4.5090600000000007
 30
0.0
 10
-2.8395700000000001
 20
-4.5116000000000005
 30
0.0
 10
-2.8395700000000001
 20
-4.5116000000000005
 30
0.0
 10
-2.8624300000000003
 20
-4.5928800000000001
 30
0.0
 10
-2.7201900000000001
 20
-4.6386000000000003
 30
0.0
 10
-2.6516100000000002
 20
-4.6513
 30
0.0
 10
-2.6516100000000002
 20
-4.6513
 30
0.0
 10
-2.6516100000000002
 20
-4.6513
 30
0.0
 10
-2.6516100000000002
 20
-4.6513
 30
0.0
 10
-2.6516100000000002
 20
-4.6538400000000006
 30
0.0
 10
-2.6516100000000002
 20
-4.6538400000000006
 30
0.0
 10
-2.48651
 20
-4.6716200000000008
 30
0.0
 10
-2.56271
 20
-4.90022
 30
0.0
 10
-2.3442700000000003
 20
-4.93832
 30
0.0
 10
-2.3442700000000003
 20
-4.93832
 30
0.0
 10
-1.8794500000000001
 20
-5.0170600000000007
 30
0.0
 10
-2.2477500000000004
 20
-4.8926000000000007
 30
0.0
 10
-2.2604500000000001
 20
-4.7478200000000008
 30
0.0
 10
-2.2604500000000001
 20
-4.7478200000000008
 30
0.0
 10
-2.2604500000000001
 20
-4.6487600000000002
 30
0.0
 10
-2.6008100000000001
 20
-4.6817800000000007
 30
0.0
 10
-2.6312900000000004
 20
-4.4684200000000001
 30
0.0
 10
-2.6312900000000004
 20
-4.4684200000000001
 30
0.0
 10
-2.6516100000000002
 20
-4.3338000000000001
 30
0.0
 10
-2.6897100000000003
 20
-4.4430200000000006
 30
0.0
 10
-2.7735300000000001
 20
-4.3973000000000004
 30
0.0
 10
-2.7735300000000001
 20
-4.3973000000000004
 30
0.0
 10
-2.7735300000000001
 20
-4.3947600000000007
 30
0.0
 10
-2.7735300000000001
 20
-4.3947600000000007
 30
0.0
 10
-2.7760700000000003
 20
-4.3947600000000007
 30
0.0
  0
SPLINE
  5
5D
100
AcDbEntity
  8
Ebene 1
 62
     1
100
AcDbSpline
210
0.0
220
0.0
230
1.0
 70
     1
 71
     3
 72
    16
 73
    12
 74
     0
 42
0.0000000001
 43
0.0000000001
 40
0.0
 40
0.0
 40
0.0
 40
0.0
 40
0.3333333333333333
 40
0.3333333333333333
 40
0.3333333333333333
 40
0.3333333333333333
 40
0.6666666666666666
 40
0.6666666666666666
 40
0.6666666666666666
 40
0.6666666666666666
 40
1.0
 40
1.0
 40
1.0
 40
1.0
 10
-4.0740100000000004
 20
-4.5344600000000002
 30
0.0
 10
-4.0740100000000004
 20
-4.6005000000000003
 30
0.0
 10
-4.0384500000000001
 20
-4.6309800000000001
 30
0.0
 10
-3.9952700000000005
 20
-4.6589200000000002
 30
0.0
 10
-3.9952700000000005
 20
-4.6589200000000002
 30
0.0
 10
-3.9876500000000004
 20
-4.6640000000000006
 30
0.0
 10
-3.9927300000000003
 20
-4.6741600000000005
 30
0.0
 10
-4.0003500000000001
 20
-4.6741600000000005
 30
0.0
 10
-4.0003500000000001
 20
-4.6741600000000005
 30
0.0
 10
-4.2365700000000004
 20
-4.6233600000000008
 30
0.0
 10
-4.0740100000000004
 20
-4.4836600000000004
 30
0.0
 10
-4.0740100000000004
 20
-4.5344600000000002
 30
0.0
  0
SPLINE
  5
5E
100
AcDbEntity
  8
Ebene 1
 62
     1
100
AcDbSpline
210
0.0
220
0.0
230
1.0
 70
     1
 71
     3
 72
    20
 73
    16
 74
     0
 42
0.0000000001
 43
0.0000000001
 40
0.0
 40
0.0
 40
0.0
 40
0.0
 40
0.25
 40
0.25
 40
0.25
 40
0.25
 40
0.5
 40
0.5
 40
0.5
 40
0.5
 40
0.75
 40
0.75
 40
0.75
 40
0.75
 40
1.0
 40
1.0
 40
1.0
 40
1.0
 10
-3.8098500000000004
 20
-5.3040800000000008
 30
0.0
 10
-3.8174700000000001
 20
-5.37012
 30
0.0
 10
-3.7869900000000003
 20
-5.3879000000000001
 30
0.0
 10
-3.7438100000000003
 20
-5.4158400000000002
 30
0.0
 10
-3.7438100000000003
 20
-5.4158400000000002
 30
0.0
 10
-3.7361900000000001
 20
-5.4183800000000009
 30
0.0
 10
-3.7387300000000003
 20
-5.4310800000000006
 30
0.0
 10
-3.7488900000000003
 20
-5.4310800000000006
 30
0.0
 10
-3.7488900000000003
 20
-5.4310800000000006
 30
0.0
 10
-3.8149300000000004
 20
-5.4336200000000003
 30
0.0
 10
-3.8987500000000002
 20
-5.3625000000000007
 30
0.0
 10
-3.8377900000000005
 20
-5.2990000000000004
 30
0.0
 10
-3.8377900000000005
 20
-5.2990000000000004
 30
0.0
 10
-3.8073100000000002
 20
-5.2685200000000005
 30
0.0
 10
-3.8098500000000004
 20
-5.2609000000000004
 30
0.0
 10
-3.8098500000000004
 20
-5.3040800000000008
 30
0.0
  0
SPLINE
  5
5F
100
AcDbEntity
  8
Ebene 1
 62
     1
100
AcDbSpline
210
0.0
220
0.0
230
1.0
 70
     1
 71
     3
 72
    16
 73
    12
 74
     0
 42
0.0000000001
 43
0.0000000001
 40
0.0
 40
0.0
 40
0.0
 40
0.0
 40
0.3333333333333333
 40
0.3333333333333333
 40
0.3333333333333333
 40
0.3333333333333333
 40
0.6666666666666666
 40
0.6666666666666666
 40
0.6666666666666666
 40
0.6666666666666666
 40
1.0
 40
1.0
 40
1.0
 40
1.0
 10
-1.2419100000000001
 20
-5.3040800000000008
 30
0.0
 10
-1.2190500000000002
 20
-5.2405800000000005
 30
0.0
 10
-1.3155700000000001
 20
-5.3371000000000004
 30
0.0
 10
-1.3943100000000002
 20
-5.2964600000000006
 30
0.0
 10
-1.3943100000000002
 20
-5.2964600000000006
 30
0.0
 10
-1.4730500000000002
 20
-5.2558200000000008
 30
0.0
 10
-1.3155700000000001
 20
-5.4310800000000006
 30
0.0
 10
-1.2444500000000001
 20
-5.3040800000000008
 30
0.0
 10
-1.2444500000000001
 20
-5.3040800000000008
 30
0.0
 10
-1.2444500000000001
 20
-5.3040800000000008
 30
0.0
 10
-1.2419100000000001
 20
-5.3040800000000008
 30
0.0
 10
-1.2419100000000001
 20
-5.3040800000000008
 30
0.0
  0
SPLINE
  5
60
100
AcDbEntity
  8
Ebene 1
 62
     1
100
AcDbSpline
210
0.0
220
0.0
230
1.0
 70
     1
 71
     3
 72
   148
 73
   144
 74
     0
 42
0.0000000001
 43
0.0000000001
 40
0.0
 40
0.0
 40
0.0
 40
0.0
 40
0.0277777777777778
 40
0.0277777777777778
 40
0.0277777777777778
 40
0.0277777777777778
 40
0.0555555555555556
 40
0.0555555555555556
 40
0.0555555555555556
 40
0.0555555555555556
 40
0.0833333333333333
 40
0.0833333333333333
 40
0.0833333333333333
 40
0.0833333333333333
 40
0.1111111111111111
 40
0.1111111111111111
 40
0.1111111111111111
 40
0.1111111111111111
 40
0.1388888888888889
 40
0.1388888888888889
 40
0.1388888888888889
 40
0.1388888888888889
 40
0.1666666666666667
 40
0.1666666666666667
 40
0.1666666666666667
 40
0.1666666666666667
 40
0.1944444444444445
 40
0.1944444444444445
 40
0.1944444444444445
 40
0.1944444444444445
 40
0.2222222222222223
 40
0.2222222222222223
 40
0.2222222222222223
 40
0.2222222222222223
 40
0.2500000000000001
 40
0.2500000000000001
 40
0.2500000000000001
 40
0.2500000000000001
 40
0.2777777777777779
 40
0.2777777777777779
 40
0.2777777777777779
 40
0.2777777777777779
 40
0.3055555555555556
 40
0.3055555555555556
 40
0.3055555555555556
 40
0.3055555555555556
 40
0.3333333333333334
 40
0.3333333333333334
 40
0.3333333333333334
 40
0.3333333333333334
 40
0.3611111111111112
 40
0.3611111111111112
 40
0.3611111111111112
 40
0.3611111111111112
 40
0.388888888888889
 40
0.388888888888889
 40
0.388888888888889
 40
0.388888888888889
 40
0.4166666666666668
 40
0.4166666666666668
 40
0.4166666666666668
 40
0.4166666666666668
 40
0.4444444444444446
 40
0.4444444444444446
 40
0.4444444444444446
 40
0.4444444444444446
 40
0.4722222222222224
 40
0.4722222222222224
 40
0.4722222222222224
 40
0.4722222222222224
 40
0.5000000000000001
 40
0.5000000000000001
 40
0.5000000000000001
 40
0.5000000000000001
 40
0.5277777777777779
 40
0.5277777777777779
 40
0.5277777777777779
 40
0.5277777777777779
 40
0.5555555555555557
 40
0.5555555555555557
 40
0.5555555555555557
 40
0.5555555555555557
 40
0.5833333333333335
 40
0.5833333333333335
 40
0.5833333333333335
 40
0.5833333333333335
 40
0.6111111111111113
 40
0.6111111111111113
 40
0.6111111111111113
 40
0.6111111111111113
 40
0.6388888888888891
 40
0.6388888888888891
 40
0.6388888888888891
 40
0.6388888888888891
 40
0.6666666666666669
 40
0.6666666666666669
 40
0.6666666666666669
 40
0.6666666666666669
 40
0.6944444444444446
 40
0.6944444444444446
 40
0.6944444444444446
 40
0.6944444444444446
 40
0.7222222222222224
 40
0.7222222222222224
 40
0.7222222222222224
 40
0.7222222222222224
 40
0.7500000000000002
 40
0.7500000000000002
 40
0.7500000000000002
 40
0.7500000000000002
 40
0.777777777777778
 40
0.777777777777778
 40
0.777777777777778
 40
0.777777777777778
 40
0.8055555555555558
 40
0.8055555555555558
 40
0.8055555555555558
 40
0.8055555555555558
 40
0.8333333333333336
 40
0.8333333333333336
 40
0.8333333333333336
 40
0.8333333333333336
 40
0.8611111111111114
 40
0.8611111111111114
 40
0.8611111111111114
 40
0.8611111111111114
 40
0.8888888888888892
 40
0.8888888888888892
 40
0.8888888888888892
 40
0.8888888888888892
 40
0.916666666666667
 40
0.916666666666667
 40
0.916666666666667
 40
0.916666666666667
 40
0.9444444444444448
 40
0.9444444444444448
 40
0.9444444444444448
 40
0.9444444444444448
 40
0.9722222222222225
 40
0.9722222222222225
 40
0.9722222222222225
 40
0.9722222222222225
 40
1.0
 40
1.0
 40
1.0
 40
1.0
 10
3.8507800000000003
 20
-3.6581600000000001
 30
0.0
 10
4.0082599999999999
 20
-3.5921200000000004
 30
0.0
 10
4.5010200000000005
 20
-3.9172400000000005
 30
0.0
 10
4.4324400000000006
 20
-4.1229800000000001
 30
0.0
 10
4.4324400000000006
 20
-4.1229800000000001
 30
0.0
 10
4.3232200000000001
 20
-4.4379400000000002
 30
0.0
 10
4.33338
 20
-3.8842200000000005
 30
0.0
 10
4.17082
 20
-3.9883600000000001
 30
0.0
 10
4.17082
 20
-3.9883600000000001
 30
0.0
 10
4.0489000000000006
 20
-4.1102800000000004
 30
0.0
 10
4.0514400000000004
 20
-4.2449000000000003
 30
0.0
 10
3.8406200000000004
 20
-4.2245800000000004
 30
0.0
 10
3.8406200000000004
 20
-4.2245800000000004
 30
0.0
 10
3.5586800000000003
 20
-4.1991800000000001
 30
0.0
 10
3.1726000000000001
 20
-4.47858
 30
0.0
 10
3.1827600000000005
 20
-4.4760400000000002
 30
0.0
 10
3.1827600000000005
 20
-4.4760400000000002
 30
0.0
 10
3.3656400000000004
 20
-4.4430200000000006
 30
0.0
 10
3.6704400000000001
 20
-4.4074600000000004
 30
0.0
 10
3.8482400000000001
 20
-4.4760400000000002
 30
0.0
 10
3.8482400000000001
 20
-4.4760400000000002
 30
0.0
 10
3.8507800000000003
 20
-4.4760400000000002
 30
0.0
 10
3.8507800000000003
 20
-4.4760400000000002
 30
0.0
 10
3.8507800000000003
 20
-4.4760400000000002
 30
0.0
 10
3.8507800000000003
 20
-4.4760400000000002
 30
0.0
 10
3.9498400000000005
 20
-4.52684
 30
0.0
 10
4.0895400000000004
 20
-4.4608000000000008
 30
0.0
 10
4.1784400000000002
 20
-4.4252400000000005
 30
0.0
 10
4.1784400000000002
 20
-4.4252400000000005
 30
0.0
 10
4.3308400000000002
 20
-4.3642799999999999
 30
0.0
 10
4.3587800000000003
 20
-4.4049200000000006
 30
0.0
 10
4.4807000000000006
 20
-4.5141400000000003
 30
0.0
 10
4.4807000000000006
 20
-4.5141400000000003
 30
0.0
 10
4.7143800000000002
 20
-4.7300400000000007
 30
0.0
 10
4.6991400000000008
 20
-4.7706800000000005
 30
0.0
 10
4.5492800000000004
 20
-5.0043600000000001
 30
0.0
 10
4.5492800000000004
 20
-5.0043600000000001
 30
0.0
 10
4.41974
 20
-5.2050200000000002
 30
0.0
 10
4.5061
 20
-5.0424600000000002
 30
0.0
 10
4.4807000000000006
 20
-4.9230800000000006
 30
0.0
 10
4.4807000000000006
 20
-4.9230800000000006
 30
0.0
 10
4.4807000000000006
 20
-4.9230800000000006
 30
0.0
 10
4.4807000000000006
 20
-4.9230800000000006
 30
0.0
 10
4.4807000000000006
 20
-4.9205400000000008
 30
0.0
 10
4.4807000000000006
 20
-4.9205400000000008
 30
0.0
 10
4.3740200000000007
 20
-4.6741600000000005
 30
0.0
 10
4.2698800000000006
 20
-4.9713400000000005
 30
0.0
 10
4.1174800000000005
 20
-4.93832
 30
0.0
 10
4.1174800000000005
 20
-4.93832
 30
0.0
 10
3.8330000000000002
 20
-4.8748200000000006
 30
0.0
 10
3.5231200000000005
 20
-4.5598600000000005
 30
0.0
 10
3.2183200000000003
 20
-4.6309800000000001
 30
0.0
 10
3.2183200000000003
 20
-4.6309800000000001
 30
0.0
 10
3.1700600000000003
 20
-4.6436800000000007
 30
0.0
 10
3.0735400000000004
 20
-4.6538400000000006
 30
0.0
 10
3.1522800000000002
 20
-4.6894
 30
0.0
 10
3.1522800000000002
 20
-4.6894
 30
0.0
 10
3.3834200000000001
 20
-4.7935400000000001
 30
0.0
 10
3.7695000000000003
 20
-4.9713400000000005
 30
0.0
 10
3.9219000000000004
 20
-5.1694600000000008
 30
0.0
 10
3.9219000000000004
 20
-5.1694600000000008
 30
0.0
 10
3.9219000000000004
 20
-5.1694600000000008
 30
0.0
 10
3.9219000000000004
 20
-5.1694600000000008
 30
0.0
 10
3.9219000000000004
 20
-5.1720000000000006
 30
0.0
 10
3.9219000000000004
 20
-5.1720000000000006
 30
0.0
 10
3.9498400000000005
 20
-5.24566
 30
0.0
 10
4.0438200000000002
 20
-5.2024800000000004
 30
0.0
 10
4.08446
 20
-5.1745400000000004
 30
0.0
 10
4.08446
 20
-5.1745400000000004
 30
0.0
 10
4.1860600000000003
 20
-5.1008800000000001
 30
0.0
 10
4.4756200000000002
 20
-5.53268
 30
0.0
 10
4.1911400000000008
 20
-5.6698400000000007
 30
0.0
 10
4.1911400000000008
 20
-5.6698400000000007
 30
0.0
 10
4.1809799999999999
 20
-5.6749200000000002
 30
0.0
 10
4.0031800000000004
 20
-5.7612800000000002
 30
0.0
 10
4.0616000000000003
 20
-5.7028600000000003
 30
0.0
 10
4.0616000000000003
 20
-5.7028600000000003
 30
0.0
 10
4.1403400000000001
 20
-5.6241200000000005
 30
0.0
 10
4.1428799999999999
 20
-5.4869600000000007
 30
0.0
 10
3.9879400000000005
 20
-5.5428400000000009
 30
0.0
 10
3.9879400000000005
 20
-5.5428400000000009
 30
0.0
 10
3.7974400000000004
 20
-5.6139600000000005
 30
0.0
 10
3.7568000000000001
 20
-5.5403000000000002
 30
0.0
 10
3.6450400000000003
 20
-5.3980600000000001
 30
0.0
 10
3.6450400000000003
 20
-5.3980600000000001
 30
0.0
 10
3.3986600000000005
 20
-5.0831000000000008
 30
0.0
 10
3.2411800000000004
 20
-4.9256200000000003
 30
0.0
 10
3.1040200000000002
 20
-4.8570400000000005
 30
0.0
 10
3.1040200000000002
 20
-4.8570400000000005
 30
0.0
 10
3.0887800000000003
 20
-4.8494200000000003
 30
0.0
 10
2.9541600000000003
 20
-4.8037000000000001
 30
0.0
 10
2.9389200000000004
 20
-4.8265600000000006
 30
0.0
 10
2.9389200000000004
 20
-4.8265600000000006
 30
0.0
 10
2.9363800000000002
 20
-4.8291000000000004
 30
0.0
 10
2.9363800000000002
 20
-4.8316400000000002
 30
0.0
 10
2.9363800000000002
 20
-4.8341800000000008
 30
0.0
 10
2.9363800000000002
 20
-4.8341800000000008
 30
0.0
 10
2.9973400000000003
 20
-5.0450000000000008
 30
0.0
 10
2.6900000000000004
 20
-5.0805600000000002
 30
0.0
 10
2.5426800000000003
 20
-5.0958000000000006
 30
0.0
 10
2.5426800000000003
 20
-5.0958000000000006
 30
0.0
 10
2.4182200000000003
 20
-5.11104
 30
0.0
 10
1.2930000000000001
 20
-5.3421800000000008
 30
0.0
 10
1.7273400000000001
 20
-5.6622200000000005
 30
0.0
 10
1.7273400000000001
 20
-5.6622200000000005
 30
0.0
 10
1.7324200000000001
 20
-5.6698400000000007
 30
0.0
 10
1.7298800000000001
 20
-5.6774600000000008
 30
0.0
 10
1.7222600000000001
 20
-5.6774600000000008
 30
0.0
 10
1.7222600000000001
 20
-5.6774600000000008
 30
0.0
 10
1.52668
 20
-5.6673000000000009
 30
0.0
 10
1.4784200000000001
 20
-5.5377600000000005
 30
0.0
 10
1.4174600000000002
 20
-5.3599600000000001
 30
0.0
 10
1.4174600000000002
 20
-5.3599600000000001
 30
0.0
 10
1.32094
 20
-5.0780200000000004
 30
0.0
 10
1.4987400000000002
 20
-4.9129200000000006
 30
0.0
 10
1.7730600000000001
 20
-5.0069000000000008
 30
0.0
 10
1.7730600000000001
 20
-5.0069000000000008
 30
0.0
 10
1.9788000000000001
 20
-5.0780200000000004
 30
0.0
 10
2.2937600000000002
 20
-4.8646600000000007
 30
0.0
 10
2.2988400000000002
 20
-4.6309800000000001
 30
0.0
 10
2.2988400000000002
 20
-4.6309800000000001
 30
0.0
 10
2.2988400000000002
 20
-4.6284400000000003
 30
0.0
 10
2.2988400000000002
 20
-4.6259000000000006
 30
0.0
 10
2.3039200000000002
 20
-4.6259000000000006
 30
0.0
 10
2.3039200000000002
 20
-4.6259000000000006
 30
0.0
 10
2.3369400000000002
 20
-4.6132
 30
0.0
 10
2.5122
 20
-4.60304
 30
0.0
 10
2.5630000000000002
 20
-4.5598600000000005
 30
0.0
 10
2.5630000000000002
 20
-4.5598600000000005
 30
0.0
 10
2.6036400000000004
 20
-4.5243000000000002
 30
0.0
 10
2.7636600000000002
 20
-4.2830000000000004
 30
0.0
 10
2.7966800000000003
 20
-4.2601400000000007
 30
0.0
 10
2.7966800000000003
 20
-4.2601400000000007
 30
0.0
 10
2.8017600000000003
 20
-4.2576000000000001
 30
0.0
 10
2.8043
 20
-4.2576000000000001
 30
0.0
 10
2.8043
 20
-4.2601400000000007
 30
0.0
 10
2.8043
 20
-4.2601400000000007
 30
0.0
 10
3.1218000000000004
 20
-4.3617400000000002
 30
0.0
 10
3.5282000000000004
 20
-4.1382200000000005
 30
0.0
 10
3.6729800000000004
 20
-3.8588200000000001
 30
0.0
 10
3.6729800000000004
 20
-3.8588200000000001
 30
0.0
 10
3.7136200000000001
 20
-3.7826200000000001
 30
0.0
 10
3.7644200000000003
 20
-3.6911800000000001
 30
0.0
 10
3.8507800000000003
 20
-3.6581600000000001
 30
0.0
  0
SPLINE
  5
61
100
AcDbEntity
  8
Ebene 1
 62
     1
100
AcDbSpline
210
0.0
220
0.0
230
1.0
 70
     1
 71
     3
 72
    24
 73
    20
 74
     0
 42
0.0000000001
 43
0.0000000001
 40
0.0
 40
0.0
 40
0.0
 40
0.0
 40
0.2
 40
0.2
 40
0.2
 40
0.2
 40
0.4
 40
0.4
 40
0.4
 40
0.4
 40
0.6000000000000001
 40
0.6000000000000001
 40
0.6000000000000001
 40
0.6000000000000001
 40
0.8
 40
0.8
 40
0.8
 40
0.8
 40
1.0
 40
1.0
 40
1.0
 40
1.0
 10
4.0819200000000002
 20
-3.8029400000000004
 30
0.0
 10
4.0717600000000003
 20
-3.7953200000000002
 30
0.0
 10
4.0616000000000003
 20
-3.7902400000000003
 30
0.0
 10
4.0565199999999999
 20
-3.7877000000000005
 30
0.0
 10
4.0565199999999999
 20
-3.7877000000000005
 30
0.0
 10
4.0514400000000004
 20
-3.7826200000000001
 30
0.0
 10
4.0438200000000002
 20
-3.7877000000000005
 30
0.0
 10
4.0438200000000002
 20
-3.7927800000000005
 30
0.0
 10
4.0438200000000002
 20
-3.7927800000000005
 30
0.0
 10
4.0412800000000004
 20
-3.8994600000000004
 30
0.0
 10
3.9879400000000005
 20
-3.9147000000000003
 30
0.0
 10
3.9168200000000004
 20
-3.9782000000000002
 30
0.0
 10
3.9168200000000004
 20
-3.9782000000000002
 30
0.0
 10
3.9117400000000004
 20
-3.9832800000000002
 30
0.0
 10
3.9168200000000004
 20
-3.9959800000000003
 30
0.0
 10
3.9269800000000004
 20
-3.9909000000000003
 30
0.0
 10
3.9269800000000004
 20
-3.9909000000000003
 30
0.0
 10
3.9955600000000002
 20
-3.9680400000000002
 30
0.0
 10
4.1835200000000006
 20
-3.8537400000000002
 30
0.0
 10
4.0819200000000002
 20
-3.8029400000000004
 30
0.0
  0
SPLINE
  5
62
100
AcDbEntity
  8
Ebene 1
 62
     1
100
AcDbSpline
210
0.0
220
0.0
230
1.0
 70
     1
 71
     3
 72
    36
 73
    32
 74
     0
 42
0.0000000001
 43
0.0000000001
 40
0.0
 40
0.0
 40
0.0
 40
0.0
 40
0.125
 40
0.125
 40
0.125
 40
0.125
 40
0.25
 40
0.25
 40
0.25
 40
0.25
 40
0.375
 40
0.375
 40
0.375
 40
0.375
 40
0.5
 40
0.5
 40
0.5
 40
0.5
 40
0.625
 40
0.625
 40
0.625
 40
0.625
 40
0.75
 40
0.75
 40
0.75
 40
0.75
 40
0.875
 40
0.875
 40
0.875
 40
0.875
 40
1.0
 40
1.0
 40
1.0
 40
1.0
 10
3.0506800000000003
 20
-4.35412
 30
0.0
 10
3.0583000000000005
 20
-4.3515800000000002
 30
0.0
 10
3.0659200000000002
 20
-4.3592000000000004
 30
0.0
 10
3.0633800000000004
 20
-4.3668200000000006
 30
0.0
 10
3.0633800000000004
 20
-4.3668200000000006
 30
0.0
 10
3.0075000000000003
 20
-4.4989000000000008
 30
0.0
 10
3.1218000000000004
 20
-4.5141400000000003
 30
0.0
 10
2.9617800000000001
 20
-4.6157400000000006
 30
0.0
 10
2.9617800000000001
 20
-4.6157400000000006
 30
0.0
 10
2.8652600000000001
 20
-4.6792400000000001
 30
0.0
 10
2.8017600000000003
 20
-4.6233600000000008
 30
0.0
 10
2.7458800000000001
 20
-4.7630600000000003
 30
0.0
 10
2.7458800000000001
 20
-4.7630600000000003
 30
0.0
 10
2.6874600000000002
 20
-4.9053000000000004
 30
0.0
 10
2.6620600000000003
 20
-4.93832
 30
0.0
 10
2.4893400000000003
 20
-4.9459400000000002
 30
0.0
 10
2.4893400000000003
 20
-4.9459400000000002
 30
0.0
 10
2.1083400000000001
 20
-4.9637200000000004
 30
0.0
 10
2.4766400000000002
 20
-4.91038
 30
0.0
 10
2.4766400000000002
 20
-4.7427400000000004
 30
0.0
 10
2.4766400000000002
 20
-4.7427400000000004
 30
0.0
 10
2.4766400000000002
 20
-4.6563800000000004
 30
0.0
 10
2.8093800000000004
 20
-4.6716200000000008
 30
0.0
 10
2.8449400000000002
 20
-4.4684200000000001
 30
0.0
 10
2.8449400000000002
 20
-4.4684200000000001
 30
0.0
 10
2.8627200000000004
 20
-4.3465000000000007
 30
0.0
 10
2.9414600000000002
 20
-4.44048
 30
0.0
 10
3.0354400000000004
 20
-4.3668200000000006
 30
0.0
 10
3.0354400000000004
 20
-4.3668200000000006
 30
0.0
 10
3.0430600000000001
 20
-4.3642799999999999
 30
0.0
 10
3.0456000000000003
 20
-4.3592000000000004
 30
0.0
 10
3.0506800000000003
 20
-4.35412
 30
0.0
  0
SPLINE
  5
63
100
AcDbEntity
  8
Ebene 1
 62
     1
100
AcDbSpline
210
0.0
220
0.0
230
1.0
 70
     1
 71
     3
 72
    16
 73
    12
 74
     0
 42
0.0000000001
 43
0.0000000001
 40
0.0
 40
0.0
 40
0.0
 40
0.0
 40
0.3333333333333333
 40
0.3333333333333333
 40
0.3333333333333333
 40
0.3333333333333333
 40
0.6666666666666666
 40
0.6666666666666666
 40
0.6666666666666666
 40
0.6666666666666666
 40
1.0
 40
1.0
 40
1.0
 40
1.0
 10
4.3232200000000001
 20
-4.5344600000000002
 30
0.0
 10
4.2673399999999999
 20
-4.4912800000000006
 30
0.0
 10
4.29528
 20
-4.6182800000000004
 30
0.0
 10
4.19876
 20
-4.6640000000000006
 30
0.0
 10
4.19876
 20
-4.6640000000000006
 30
0.0
 10
4.1428799999999999
 20
-4.6919400000000007
 30
0.0
 10
4.4019600000000008
 20
-4.6513
 30
0.0
 10
4.3257600000000007
 20
-4.5344600000000002
 30
0.0
 10
4.3257600000000007
 20
-4.5344600000000002
 30
0.0
 10
4.3257600000000007
 20
-4.5344600000000002
 30
0.0
 10
4.3257600000000007
 20
-4.5344600000000002
 30
0.0
 10
4.3232200000000001
 20
-4.5344600000000002
 30
0.0
  0
SPLINE
  5
64
100
AcDbEntity
  8
Ebene 1
 62
     1
100
AcDbSpline
210
0.0
220
0.0
230
1.0
 70
     1
 71
     3
 72
    16
 73
    12
 74
     0
 42
0.0000000001
 43
0.0000000001
 40
0.0
 40
0.0
 40
0.0
 40
0.0
 40
0.3333333333333333
 40
0.3333333333333333
 40
0.3333333333333333
 40
0.3333333333333333
 40
0.6666666666666666
 40
0.6666666666666666
 40
0.6666666666666666
 40
0.6666666666666666
 40
1.0
 40
1.0
 40
1.0
 40
1.0
 10
1.4911200000000002
 20
-5.2964600000000006
 30
0.0
 10
1.5343000000000002
 20
-5.3167800000000005
 30
0.0
 10
1.5724
 20
-5.3117000000000001
 30
0.0
 10
1.6079600000000001
 20
-5.2939200000000008
 30
0.0
 10
1.6079600000000001
 20
-5.2939200000000008
 30
0.0
 10
1.6155800000000002
 20
-5.2888400000000004
 30
0.0
 10
1.6232000000000002
 20
-5.2964600000000006
 30
0.0
 10
1.6181200000000002
 20
-5.3040800000000008
 30
0.0
 10
1.6181200000000002
 20
-5.3040800000000008
 30
0.0
 10
1.5368400000000002
 20
-5.4437800000000003
 30
0.0
 10
1.36158
 20
-5.2329600000000003
 30
0.0
 10
1.4911200000000002
 20
-5.2964600000000006
 30
0.0
  0
SPLINE
  5
65
100
AcDbEntity
  8
Ebene 1
 62
     1
100
AcDbSpline
210
0.0
220
0.0
230
1.0
 70
     1
 71
     3
 72
    24
 73
    20
 74
     0
 42
0.0000000001
 43
0.0000000001
 40
0.0
 40
0.0
 40
0.0
 40
0.0
 40
0.2
 40
0.2
 40
0.2
 40
0.2
 40
0.4
 40
0.4
 40
0.4
 40
0.4
 40
0.6000000000000001
 40
0.6000000000000001
 40
0.6000000000000001
 40
0.6000000000000001
 40
0.8
 40
0.8
 40
0.8
 40
0.8
 40
1.0
 40
1.0
 40
1.0
 40
1.0
 10
4.0692200000000005
 20
-5.3320200000000009
 30
0.0
 10
4.0692200000000005
 20
-5.32186
 30
0.0
 10
4.0514400000000004
 20
-5.3015400000000001
 30
0.0
 10
4.0362
 20
-5.2888400000000004
 30
0.0
 10
4.0362
 20
-5.2888400000000004
 30
0.0
 10
4.0311200000000005
 20
-5.2812200000000002
 30
0.0
 10
4.0209600000000005
 20
-5.2863000000000007
 30
0.0
 10
4.0209600000000005
 20
-5.2939200000000008
 30
0.0
 10
4.0209600000000005
 20
-5.2939200000000008
 30
0.0
 10
4.0260400000000001
 20
-5.3523400000000008
 30
0.0
 10
4.0057200000000002
 20
-5.3879000000000001
 30
0.0
 10
3.9574600000000002
 20
-5.4158400000000002
 30
0.0
 10
3.9574600000000002
 20
-5.4158400000000002
 30
0.0
 10
3.9523800000000002
 20
-5.4209200000000006
 30
0.0
 10
3.9549200000000004
 20
-5.4310800000000006
 30
0.0
 10
3.9625400000000002
 20
-5.4310800000000006
 30
0.0
 10
3.9625400000000002
 20
-5.4310800000000006
 30
0.0
 10
4.0158800000000001
 20
-5.4336200000000003
 30
0.0
 10
4.0692200000000005
 20
-5.3904400000000008
 30
0.0
 10
4.0692200000000005
 20
-5.3320200000000009
 30
0.0
  0
SPLINE
  5
66
100
AcDbEntity
  8
Ebene 1
 62
     1
100
AcDbSpline
210
0.0
220
0.0
230
1.0
 70
     1
 71
     3
 72
    32
 73
    28
 74
     0
 42
0.0000000001
 43
0.0000000001
 40
0.0
 40
0.0
 40
0.0
 40
0.0
 40
0.1428571428571429
 40
0.1428571428571429
 40
0.1428571428571429
 40
0.1428571428571429
 40
0.2857142857142857
 40
0.2857142857142857
 40
0.2857142857142857
 40
0.2857142857142857
 40
0.4285714285714286
 40
0.4285714285714286
 40
0.4285714285714286
 40
0.4285714285714286
 40
0.5714285714285714
 40
0.5714285714285714
 40
0.5714285714285714
 40
0.5714285714285714
 40
0.7142857142857142
 40
0.7142857142857142
 40
0.7142857142857142
 40
0.7142857142857142
 40
0.857142857142857
 40
0.857142857142857
 40
0.857142857142857
 40
0.857142857142857
 40
1.0
 40
1.0
 40
1.0
 40
1.0
 10
-0.61707
 20
-3.9248600000000002
 30
0.0
 10
-0.6196100000000001
 20
-3.9172400000000005
 30
0.0
 10
-0.63485
 20
-3.9172400000000005
 30
0.0
 10
-0.63485
 20
-3.9248600000000002
 30
0.0
 10
-0.63485
 20
-3.9248600000000002
 30
0.0
 10
-0.6450100000000001
 20
-4.1001200000000004
 30
0.0
 10
-0.7059700000000001
 20
-4.3490400000000005
 30
0.0
 10
-0.7999500000000001
 20
-4.4608000000000008
 30
0.0
 10
-0.7999500000000001
 20
-4.4608000000000008
 30
0.0
 10
-0.8151900000000001
 20
-4.4760400000000002
 30
0.0
 10
-0.8151900000000001
 20
-4.4811200000000007
 30
0.0
 10
-0.8075700000000001
 20
-4.4938200000000004
 30
0.0
 10
-0.8075700000000001
 20
-4.4938200000000004
 30
0.0
 10
-0.7135900000000001
 20
-4.7021000000000006
 30
0.0
 10
-0.93203
 20
-5.0983400000000003
 30
0.0
 10
-1.03617
 20
-5.2507400000000004
 30
0.0
 10
-1.03617
 20
-5.2507400000000004
 30
0.0
 10
-1.0666500000000001
 20
-5.2964600000000006
 30
0.0
 10
-1.0691900000000001
 20
-5.2964600000000006
 30
0.0
 10
-1.0514100000000002
 20
-5.28376
 30
0.0
 10
-1.0514100000000002
 20
-5.28376
 30
0.0
 10
-0.67549
 20
-5.02468
 30
0.0
 10
-0.5637300000000001
 20
-4.4658800000000003
 30
0.0
 10
-0.6043700000000001
 20
-4.0340800000000003
 30
0.0
 10
-0.6043700000000001
 20
-4.0340800000000003
 30
0.0
 10
-0.6069100000000001
 20
-3.9985200000000005
 30
0.0
 10
-0.61199
 20
-3.9578800000000003
 30
0.0
 10
-0.61707
 20
-3.9248600000000002
 30
0.0
  0
SPLINE
  5
67
100
AcDbEntity
  8
Ebene 1
 62
     1
100
AcDbSpline
210
0.0
220
0.0
230
1.0
 70
     1
 71
     3
 72
    36
 73
    32
 74
     0
 42
0.0000000001
 43
0.0000000001
 40
0.0
 40
0.0
 40
0.0
 40
0.0
 40
0.125
 40
0.125
 40
0.125
 40
0.125
 40
0.25
 40
0.25
 40
0.25
 40
0.25
 40
0.375
 40
0.375
 40
0.375
 40
0.375
 40
0.5
 40
0.5
 40
0.5
 40
0.5
 40
0.625
 40
0.625
 40
0.625
 40
0.625
 40
0.75
 40
0.75
 40
0.75
 40
0.75
 40
0.875
 40
0.875
 40
0.875
 40
0.875
 40
1.0
 40
1.0
 40
1.0
 40
1.0
 10
0.8815200000000001
 20
-3.9197800000000003
 30
0.0
 10
0.88914
 20
-3.8639000000000001
 30
0.0
 10
0.8967600000000001
 20
-3.8613600000000003
 30
0.0
 10
0.9018400000000001
 20
-3.9197800000000003
 30
0.0
 10
0.9018400000000001
 20
-3.9197800000000003
 30
0.0
 10
0.912
 20
-4.0518600000000005
 30
0.0
 10
0.9577200000000001
 20
-4.3795200000000003
 30
0.0
 10
1.0745600000000002
 20
-4.4684200000000001
 30
0.0
 10
1.0745600000000002
 20
-4.4684200000000001
 30
0.0
 10
1.0771000000000002
 20
-4.4684200000000001
 30
0.0
 10
1.0771000000000002
 20
-4.4684200000000001
 30
0.0
 10
1.0771000000000002
 20
-4.4709600000000007
 30
0.0
 10
1.0771000000000002
 20
-4.4709600000000007
 30
0.0
 10
1.0847200000000001
 20
-4.4760400000000002
 30
0.0
 10
1.0847200000000001
 20
-4.47858
 30
0.0
 10
1.0720200000000002
 20
-4.5065200000000001
 30
0.0
 10
1.0720200000000002
 20
-4.5065200000000001
 30
0.0
 10
0.9831200000000001
 20
-4.7706800000000005
 30
0.0
 10
1.19394
 20
-5.0399200000000004
 30
0.0
 10
1.3107800000000001
 20
-5.2609000000000004
 30
0.0
 10
1.3107800000000001
 20
-5.2609000000000004
 30
0.0
 10
1.31332
 20
-5.2710600000000003
 30
0.0
 10
1.3031600000000001
 20
-5.2786800000000005
 30
0.0
 10
1.2980800000000001
 20
-5.2710600000000003
 30
0.0
 10
1.2980800000000001
 20
-5.2710600000000003
 30
0.0
 10
1.2803000000000002
 20
-5.2583600000000006
 30
0.0
 10
1.2599800000000001
 20
-5.2380400000000007
 30
0.0
 10
1.23458
 20
-5.2151800000000001
 30
0.0
 10
1.23458
 20
-5.2151800000000001
 30
0.0
 10
0.88914
 20
-4.8773600000000004
 30
0.0
 10
0.8205600000000001
 20
-4.3795200000000003
 30
0.0
 10
0.8815200000000001
 20
-3.9197800000000003
 30
0.0
  0
ENDSEC
  0
SECTION
  2
OBJECTS
  0
DICTIONARY
  5
19
100
AcDbDictionary
280
     0
281
     1
  3
ACAD_GROUP
350
1A
  3
ACAD_MLINESTYLE
350
1B
  3
ACAD_LAYOUT
350
1E
  3
ACAD_PLOTSETTINGS
350
22
  3
ACAD_PLOTSTYLENAME
350
1F
  3
ACAD_WIPEOUT_VARS
350
23
  0
DICTIONARY
  5
1A
102
{ACAD_REACTORS
330
19
102
}
100
AcDbDictionary
280
     0
281
     1
  0
DICTIONARY
  5
1B
102
{ACAD_REACTORS
330
19
102
}
100
AcDbDictionary
280
     0
281
     1
  3
Standard
350
1C
  0
MLINESTYLE
  5
1C
102
{ACAD_REACTORS
330
1B
102
}
100
AcDbMlineStyle
  2
Standard
 70
     0
  3

 62
     0
 51
90.0
 52
90.0
 71
     2
 49
0.5
 62
   256
  6
BYLAYER
 49
-0.5
 62
   256
  6
BYLAYER
  0
ACDBDICTIONARYWDFLT
  5
1F
102
{ACAD_REACTORS
330
19
102
}
100
AcDbDictionary
281
     1
  3
Normal
350
1D
100
AcDbDictionaryWithDefault
340
1D
  0
ACDBPLACEHOLDER
  5
1D
102
{ACAD_REACTORS
330
1F
102
}
  0
LAYOUT
  5
20
102
{ACAD_REACTORS
330
1E
102
}
100
AcDbPlotSettings
  1

  2

  4

  6

 40
0.0
 41
0.0
 42
0.0
 43
0.0
 44
0.0
 45
0.0
 46
0.0
 47
0.0
 48
0.0
 49
0.0
140
0.0
141
0.0
142
1.0
143
1.0
 70
  1024
 72
     0
 73
     0
 74
     0
  7

 75
     0
147
1.0
148
0.0
149
0.0
100
AcDbLayout
  1
Model
 70
     0
 71
     0
 10
0.0
 20
0.0
 11
0.0
 21
0.0
 12
0.0
 22
0.0
 32
0.0
 14
0.0
 24
0.0
 34
0.0
 15
0.0
 25
0.0
 35
0.0
146
0.0
 13
0.0
 23
0.0
 33
0.0
 16
0.0
 26
0.0
 36
0.0
 17
0.0
 27
0.0
 37
0.0
 76
     0
330
A
331
0
345
0
346
0
  0
LAYOUT
  5
21
102
{ACAD_REACTORS
330
1E
102
}
100
AcDbPlotSettings
  1

  2

  4

  6

 40
0.0
 41
0.0
 42
0.0
 43
0.0
 44
0.0
 45
0.0
 46
0.0
 47
0.0
 48
0.0
 49
0.0
140
0.0
141
0.0
142
1.0
143
1.0
 70
     0
 72
     0
 73
     0
 74
     0
  7

 75
     0
147
1.0
148
0.0
149
0.0
100
AcDbLayout
  1
Layout1
 70
     0
 71
     0
 10
0.0
 20
0.0
 11
0.0
 21
0.0
 12
0.0
 22
0.0
 32
0.0
 14
0.0
 24
0.0
 34
0.0
 15
0.0
 25
0.0
 35
0.0
146
0.0
 13
0.0
 23
0.0
 33
0.0
 16
0.0
 26
0.0
 36
0.0
 17
0.0
 27
0.0
 37
0.0
 76
     0
330
B
331
0
345
0
346
0
  0
DICTIONARY
  5
1E
102
{ACAD_REACTORS
330
19
102
}
100
AcDbDictionary
280
     0
281
     1
  3
Layout1
350
21
  3
Model
350
20
  0
DICTIONARY
  5
22
102
{ACAD_REACTORS
330
19
102
}
100
AcDbDictionary
280
     0
281
     1
  0
WIPEOUTVARIABLES
  5
23
100
AcDbWipeoutVariables
 70
     1
  0
ENDSEC
  0
EOF
