  0
SECTION
  2
HEADER
  9
$ACADVER
  1
AC1015
  9
$ACADMAINTVER
 70
     6
  9
$DWGCODEPAGE
  3
DOS850
  9
$INSBASE
 10
0.0
 20
0.0
 30
0.0
  9
$EXTMIN
 10
-13.98988
 20
-4.44802
 30
1.000000E+20
  9
$EXTMAX
 10
14.00491
 20
4.44466
 30
-1.000000E+20
  9
$LIMMIN
 10
0.0
 20
0.0
  9
$LIMMAX
 10
0.0
 20
0.0
  9
$ORTHOMODE
 70
     0
  9
$REGENMODE
 70
     1
  9
$FILLMODE
 70
     1
  9
$QTEXTMODE
 70
     0
  9
$MIRRTEXT
 70
     1
  9
$LTSCALE
 40
1.0
  9
$ATTMODE
 70
     1
  9
$TEXTSIZE
 40
0.2
  9
$TRACEWID
 40
0.05
  9
$TEXTSTYLE
  7
Standard
  9
$CLAYER
  8
0
  9
$CELTYPE
  6
Continuous
  9
$CECOLOR
 62
   256
  9
$CELTSCALE
 40
1.0
  9
$DISPSILH
 70
     0
  9
$DIMSCALE
 40
1.0
  9
$DIMASZ
 40
0.18
  9
$DIMEXO
 40
0.0625
  9
$DIMDLI
 40
0.38
  9
$DIMRND
 40
0.0
  9
$DIMDLE
 40
0.0
  9
$DIMEXE
 40
0.18
  9
$DIMTP
 40
0.0
  9
$DIMTM
 40
0.0
  9
$DIMTXT
 40
0.18
  9
$DIMCEN
 40
0.09
  9
$DIMTSZ
 40
0.0
  9
$DIMTOL
 70
     0
  9
$DIMLIM
 70
     0
  9
$DIMTIH
 70
     1
  9
$DIMTOH
 70
     1
  9
$DIMSE1
 70
     0
  9
$DIMSE2
 70
     0
  9
$DIMTAD
 70
     0
  9
$DIMZIN
 70
     0
  9
$DIMBLK
  1

  9
$DIMASO
 70
     1
  9
$DIMSHO
 70
     1
  9
$DIMPOST
  1

  9
$DIMAPOST
  1

  9
$DIMALT
 70
     0
  9
$DIMALTD
 70
     2
  9
$DIMALTF
 40
25.4
  9
$DIMLFAC
 40
1.0
  9
$DIMTOFL
 70
     0
  9
$DIMTVP
 40
0.0
  9
$DIMTIX
 70
     0
  9
$DIMSOXD
 70
     0
  9
$DIMSAH
 70
     0
  9
$DIMBLK1
  1

  9
$DIMBLK2
  1

  9
$DIMSTYLE
  2
Standard
  9
$DIMCLRD
 70
     0
  9
$DIMCLRE
 70
     0
  9
$DIMCLRT
 70
     0
  9
$DIMTFAC
 40
1.0
  9
$DIMGAP
 40
0.09
  9
$DIMJUST
 70
     0
  9
$DIMSD1
 70
     0
  9
$DIMSD2
 70
     0
  9
$DIMTOLJ
 70
     1
  9
$DIMTZIN
 70
     0
  9
$DIMALTZ
 70
     0
  9
$DIMALTTZ
 70
     0
  9
$DIMUPT
 70
     0
  9
$DIMDEC
 70
     4
  9
$DIMTDEC
 70
     4
  9
$DIMALTU
 70
     2
  9
$DIMALTTD
 70
     2
  9
$DIMTXSTY
  7
Standard
  9
$DIMAUNIT
 70
     0
  9
$DIMADEC
 70
     0
  9
$DIMALTRND
 40
0.0
  9
$DIMAZIN
 70
     0
  9
$DIMDSEP
 70
     0
  9
$DIMATFIT
 70
     3
  9
$DIMFRAC
 70
     0
  9
$DIMLDRBLK
  1

  9
$DIMLUNIT
 70
     2
  9
$DIMLWD
 70
     0
  9
$DIMLWE
 70
     0
  9
$DIMTMOVE
 70
     0
  9
$LUNITS
 70
     2
  9
$LUPREC
 70
     4
  9
$SKETCHINC
 40
0.1
  9
$FILLETRAD
 40
0.0
  9
$AUNITS
 70
     0
  9
$AUPREC
 70
     0
  9
$MENU
  1
acad
  9
$ELEVATION
 40
0.0
  9
$PELEVATION
 40
0.0
  9
$THICKNESS
 40
0.0
  9
$LIMCHECK
 70
     0
  9
$CHAMFERA
 40
0.0
  9
$CHAMFERB
 40
0.0
  9
$CHAMFERC
 40
0.0
  9
$CHAMFERD
 40
0.0
  9
$SKPOLY
 70
     0
  9
$TDCREATE
 40
0.000000000
  9
$TDUCREATE
 40
0.000000000
  9
$TDUPDATE
 40
0.000000000
  9
$TDUUPDATE
 40
0.000000000
  9
$TDINDWG
 40
0.0000000000
  9
$TDUSRTIMER
 40
0.0000000000
  9
$USRTIMER
 70
     1
  9
$ANGBASE
 50
0.0
  9
$ANGDIR
 70
     0
  9
$PDMODE
 70
     0
  9
$PDSIZE
 40
0.0
  9
$PLINEWID
 40
0.0
  9
$SPLFRAME
 70
     0
  9
$SPLINETYPE
 70
     6
  9
$SPLINESEGS
 70
     8
  9
$HANDSEED
  5
46
  9
$SURFTAB1
 70
     6
  9
$SURFTAB2
 70
     6
  9
$SURFTYPE
 70
     6
  9
$SURFU
 70
     6
  9
$SURFV
 70
     6
  9
$UCSBASE
  2

  9
$UCSNAME
  2

  9
$UCSORG
 10
0.0
 20
0.0
 30
0.0
  9
$UCSXDIR
 10
1.0
 20
0.0
 30
0.0
  9
$UCSYDIR
 10
0.0
 20
1.0
 30
0.0
  9
$UCSORTHOREF
  2

  9
$UCSORTHOVIEW
 70
     0
  9
$UCSORGTOP
 10
0.0
 20
0.0
 30
0.0
  9
$UCSORGBOTTOM
 10
0.0
 20
0.0
 30
0.0
  9
$UCSORGLEFT
 10
0.0
 20
0.0
 30
0.0
  9
$UCSORGRIGHT
 10
0.0
 20
0.0
 30
0.0
  9
$UCSORGFRONT
 10
0.0
 20
0.0
 30
0.0
  9
$UCSORGBACK
 10
0.0
 20
0.0
 30
0.0
  9
$PUCSBASE
  2

  9
$PUCSNAME
  2

  9
$PUCSORG
 10
0.0
 20
0.0
 30
0.0
  9
$PUCSXDIR
 10
1.0
 20
0.0
 30
0.0
  9
$PUCSYDIR
 10
0.0
 20
1.0
 30
0.0
  9
$PUCSORTHOREF
  2

  9
$PUCSORTHOVIEW
 70
     0
  9
$PUCSORGTOP
 10
0.0
 20
0.0
 30
0.0
  9
$PUCSORGBOTTOM
 10
0.0
 20
0.0
 30
0.0
  9
$PUCSORGLEFT
 10
0.0
 20
0.0
 30
0.0
  9
$PUCSORGRIGHT
 10
0.0
 20
0.0
 30
0.0
  9
$PUCSORGFRONT
 10
0.0
 20
0.0
 30
0.0
  9
$PUCSORGBACK
 10
0.0
 20
0.0
 30
0.0
  9
$USERI1
 70
     0
  9
$USERI2
 70
     0
  9
$USERI3
 70
     0
  9
$USERI4
 70
     0
  9
$USERI5
 70
     0
  9
$USERR1
 40
0.0
  9
$USERR2
 40
0.0
  9
$USERR3
 40
0.0
  9
$USERR4
 40
0.0
  9
$USERR5
 40
0.0
  9
$WORLDVIEW
 70
     1
  9
$SHADEDGE
 70
     3
  9
$SHADEDIF
 70
    70
  9
$TILEMODE
 70
     1
  9
$MAXACTVP
 70
    16
  9
$PINSBASE
 10
0.0
 20
0.0
 30
0.0
  9
$PLIMCHECK
 70
     0
  9
$PEXTMIN
 10
1.000000E+20
 20
1.000000E+20
 30
1.000000E+20
  9
$PEXTMAX
 10
-1.000000E+20
 20
-1.000000E+20
 30
-1.000000E+20
  9
$PLIMMIN
 10
0.0
 20
0.0
  9
$PLIMMAX
 10
12.0
 20
9.0
  9
$UNITMODE
 70
     0
  9
$VISRETAIN
 70
     0
  9
$PLINEGEN
 70
     1
  9
$PSLTSCALE
 70
     0
  9
$TREEDEPTH
 70
  3020
  9
$CMLSTYLE
  2
Standard
  9
$CMLJUST
 70
     0
  9
$CMLSCALE
 40
1.0
  9
$PROXYGRAPHICS
 70
     0
  9
$MEASUREMENT
 70
     0
  9
$CELWEIGHT
370
     0
  9
$ENDCAPS
280
     0
  9
$JOINSTYLE
280
     0
  9
$LWDISPLAY
290
     0
  9
$INSUNITS
 70
     5
  9
$HYPERLINKBASE
  1

  9
$XEDIT
290
     1
  9
$CEPSNTYPE
380
     0
  9
$PSTYLEMODE
290
     1
  9
$FINGERPRINTGUID
  2

  9
$VERSIONGUID
  2

  9
$EXTNAMES
290
     1
  9
$PSVPSCALE
 40
0.0
  0
ENDSEC
  0
SECTION
  2
CLASSES
  0
CLASS
  1
LWPOLYLINE
  2
AcDbPolyline
  3
AutoCAD 2000
 90
    32768
280
     0
281
     1
  0
CLASS
  1
IMAGE
  2
AcDbRasterImage
  3
ISM
 90
    32895
280
     0
281
     1
  0
CLASS
  1
OLE2FRAME
  2
AcDbOle2Frame
  3
AutoCAD 2000
 90
    32768
280
     0
281
     1
  0
CLASS
  1
HATCH
  2
AcDbHatch
  3
AutoCAD 2000
 90
    32768
280
     0
281
     1
  0
CLASS
  1
DICTIONARYVAR
  2
AcDbDictionaryVar
  3
AutoCAD 2000
 90
    32768
280
     0
281
     0
  0
CLASS
  1
RASTERVARIABLES
  2
AcDbRasterVariables
  3
ISM
 90
    32768
280
     0
281
     0
  0
CLASS
  1
IMAGEDEF
  2
AcDbRasterImageDef
  3
ISM
 90
    32768
280
     0
281
     0
  0
CLASS
  1
IMAGEDEF_REACTOR
  2
AcDbRasterImageDefReactor
  3
ISM
 90
    32769
280
     0
281
     0
  0
CLASS
  1
IDBUFFER
  2
AcDbIdBuffer
  3
AutoCAD 2000
 90
    32768
280
     0
281
     0
  0
CLASS
  1
SPATIAL_FILTER
  2
AcDbSpatialFilter
  3
AutoCAD 2000
 90
    32768
280
     0
281
     0
  0
CLASS
  1
XRECORD
  2
AcDbXrecord
  3
AutoCAD 2000
 90
    32768
280
     0
281
     0
  0
CLASS
  1
SORTENTSTABLE
  2
AcDbSortentsTable
  3
AutoCAD 2000
 90
    32768
280
     0
281
     0
  0
CLASS
  1
LAYER_INDEX
  2
AcDbLayerIndex
  3
AutoCAD 2000
 90
    32768
280
     0
281
     0
  0
CLASS
  1
SPATIAL_INDEX
  2
AcDbSpatialIndex
  3
AutoCAD 2000
 90
    32768
280
     0
281
     0
  0
CLASS
  1
OBJECT_PTR
  2
CAseDLPNTableRecord
  3
"ASE-LPNTableRecord"
 90
    32769
280
     0
281
     0
  0
CLASS
  1
LAYOUT
  2
AcDbLayout
  3
AutoCAD 2000
 90
        0
280
     0
281
     0
  0
CLASS
  1
PLOTSETTINGS
  2
AcDbPlotSettings
  3
AutoCAD 2000
 90
    32768
280
     0
281
     0
  0
CLASS
  1
ACDBDICTIONARYWDFLT
  2
AcDbDictionaryWithDefault
  3
AutoCAD 2000
 90
        0
280
     0
281
     0
  0
CLASS
  1
ACDBPLACEHOLDER
  2
AcDbPlaceHolder
  3
AutoCAD 2000
 90
        0
280
     0
281
     0
  0
CLASS
  1
VBA_PROJECT
  2
AcDbVbaProject
  3
acadvba
 90
    32768
280
     0
281
     0
  0
CLASS
  1
WIPEOUT
  2
AcDbWipeout
  3
WipeOut|AutoCAD Express Tool|expresstools@autodesk.com
 90
    32895
280
     0
281
     1
  0
CLASS
  1
WIPEOUTVARIABLES
  2
AcDbWipeoutVariables
  3
WipeOut|AutoCAD Express Tool|expresstools@autodesk.com
 90
        0
280
     0
281
     0
  0
CLASS
  1
RTEXT
  2
RText
  3
RText|AutoCAD Express Tool|expresstools@autodesk.com
 90
    32768
280
     0
281
     1
  0
CLASS
  1
ARCALIGNEDTEXT
  2
AcDbArcAlignedText
  3
ATEXT|AutoCAD Express Tool|expresstools@autodesk.com
 90
    32768
280
     0
281
     1
  0
ENDSEC
  0
SECTION
  2
TABLES
  0
TABLE
  2
VPORT
  5
7
100
AcDbSymbolTable
 70
     1
  0
VPORT
  5
15
100
AcDbSymbolTableRecord
100
AcDbViewportTableRecord
  2
*ACTIVE
 70
     0
 10
0.0
 20
0.0
 11
1.0
 21
1.0
 12
6.591288
 22
4.579184
 13
0.0
 23
0.0
 14
1.0
 24
1.0
 15
0.0
 25
0.0
 16
0.0
 26
0.0
 36
1.0
 17
0.0
 27
0.0
 37
0.0
 40
9.158369
 41
0.688564
 42
50.0
 43
0.0
 44
0.0
 50
0.0
 51
0.0
 71
     0
 72
   100
 73
     1
 74
     1
 75
     0
 76
     0
 77
     0
 78
     0
281
     0
 65
     0
110
0.0
120
0.0
130
0.0
111
1.0
121
0.0
131
0.0
112
0.0
122
1.0
132
0.0
345
0
346
0
 79
     0
146
0.0
  0
ENDTAB
  0
TABLE
  2
LTYPE
  5
4
100
AcDbSymbolTable
 70
     3
  0
LTYPE
  5
11
100
AcDbSymbolTableRecord
100
AcDbLinetypeTableRecord
  2
ByBlock
 70
    64
  3

 72
    65
 73
     0
 40
0.0
  0
LTYPE
  5
12
100
AcDbSymbolTableRecord
100
AcDbLinetypeTableRecord
  2
ByLayer
 70
    64
  3

 72
    65
 73
     0
 40
0.0
  0
LTYPE
  5
13
100
AcDbSymbolTableRecord
100
AcDbLinetypeTableRecord
  2
Continuous
 70
    64
  3
Solid line
 72
    65
 73
     0
 40
0.0
  0
ENDTAB
  0
TABLE
  2
LAYER
  5
2
100
AcDbSymbolTable
 70
     2
  0
LAYER
  5
14
100
AcDbSymbolTableRecord
100
AcDbLayerTableRecord
  2
0
 70
     0
 62
     7
  6
Continuous
290
     1
370
    -3
390
1D
  0
LAYER
  5
24
100
AcDbSymbolTableRecord
100
AcDbLayerTableRecord
  2
Ebene 1
 70
     0
 62
     7
  6
Continuous
290
     1
370
    -3
390
1F
  0
ENDTAB
  0
TABLE
  2
STYLE
  5
3
100
AcDbSymbolTable
 70
     1
  0
STYLE
  5
17
100
AcDbSymbolTableRecord
100
AcDbTextStyleTableRecord
  2
Standard
 70
     0
 40
0.0
 41
1.0
 50
0.0
 71
     0
 42
0.0
  3
txt
  4

  0
ENDTAB
  0
TABLE
  2
VIEW
  5
5
100
AcDbSymbolTable
 70
     0
  0
ENDTAB
  0
TABLE
  2
UCS
  5
6
100
AcDbSymbolTable
 70
     0
  0
ENDTAB
  0
TABLE
  2
APPID
  5
8
100
AcDbSymbolTable
 70
     1
  0
APPID
  5
16
100
AcDbSymbolTableRecord
100
AcDbRegAppTableRecord
  2
ACAD
 70
     0
  0
ENDTAB
  0
TABLE
  2
DIMSTYLE
  5
9
100
AcDbSymbolTable
 70
     1
100
AcDbDimStyleTable
 71
     0
  0
DIMSTYLE
105
18
100
AcDbSymbolTableRecord
100
AcDbDimStyleTableRecord
  2
Standard
 70
     0
  3

  4

 40
1.0
 41
0.18
 42
0.0625
 43
0.38
 44
0.18
 45
0.0
 46
0.0
 47
0.0
 48
0.0
 71
     0
 72
     0
 73
     1
 74
     1
 75
     0
 76
     0
 77
     0
 78
     0
 79
     0
140
0.18
141
0.09
142
0.0
143
25.4
144
1.0
145
0.0
146
1.0
147
0.09
148
0.0
170
     0
171
     2
172
     0
173
     0
174
     0
175
     0
176
     0
177
     0
178
     0
179
     0
271
     4
272
     4
273
     2
274
     2
275
     0
276
     0
277
     2
278
    46
279
     0
280
     0
281
     0
282
     0
283
     1
284
     0
285
     0
286
     0
288
     0
340
17
341
0
342
0
343
0
344
0
371
    -2
372
    -2
  0
ENDTAB
  0
TABLE
  2
BLOCK_RECORD
  5
1
100
AcDbSymbolTable
 70
     0
  0
BLOCK_RECORD
  5
A
100
AcDbSymbolTableRecord
100
AcDbBlockTableRecord
  2
*MODEL_SPACE
340
20
  0
BLOCK_RECORD
  5
B
100
AcDbSymbolTableRecord
100
AcDbBlockTableRecord
  2
*PAPER_SPACE
340
21
  0
ENDTAB
  0
ENDSEC
  0
SECTION
  2
BLOCKS
  0
BLOCK
  5
D
100
AcDbEntity
  8
0
100
AcDbBlockBegin
  2
*MODEL_SPACE
 70
     0
 10
0.0
 20
0.0
 30
0.0
  3
*MODEL_SPACE
  1

  0
ENDBLK
  5
E
100
AcDbEntity
  8
0
100
AcDbBlockEnd
  0
BLOCK
  5
F
100
AcDbEntity
 67
     1
  8
0
100
AcDbBlockBegin
  2
*PAPER_SPACE
 70
     0
 10
0.0
 20
0.0
 30
0.0
  3
*PAPER_SPACE
  1

  0
ENDBLK
  5
10
100
AcDbEntity
 67
     1
  8
0
100
AcDbBlockEnd
  0
ENDSEC
  0
SECTION
  2
ENTITIES
  0
SPLINE
  5
25
100
AcDbEntity
  8
Ebene 1
 62
     1
100
AcDbSpline
210
0.0
220
0.0
230
1.0
 70
     1
 71
     3
 72
    88
 73
    84
 74
     0
 42
0.0000000001
 43
0.0000000001
 40
0.0
 40
0.0
 40
0.0
 40
0.0
 40
0.0476190476190476
 40
0.0476190476190476
 40
0.0476190476190476
 40
0.0476190476190476
 40
0.0952380952380952
 40
0.0952380952380952
 40
0.0952380952380952
 40
0.0952380952380952
 40
0.1428571428571429
 40
0.1428571428571429
 40
0.1428571428571429
 40
0.1428571428571429
 40
0.1904761904761905
 40
0.1904761904761905
 40
0.1904761904761905
 40
0.1904761904761905
 40
0.2380952380952381
 40
0.2380952380952381
 40
0.2380952380952381
 40
0.2380952380952381
 40
0.2857142857142857
 40
0.2857142857142857
 40
0.2857142857142857
 40
0.2857142857142857
 40
0.3333333333333333
 40
0.3333333333333333
 40
0.3333333333333333
 40
0.3333333333333333
 40
0.3809523809523809
 40
0.3809523809523809
 40
0.3809523809523809
 40
0.3809523809523809
 40
0.4285714285714286
 40
0.4285714285714286
 40
0.4285714285714286
 40
0.4285714285714286
 40
0.4761904761904762
 40
0.4761904761904762
 40
0.4761904761904762
 40
0.4761904761904762
 40
0.5238095238095237
 40
0.5238095238095237
 40
0.5238095238095237
 40
0.5238095238095237
 40
0.5714285714285714
 40
0.5714285714285714
 40
0.5714285714285714
 40
0.5714285714285714
 40
0.6190476190476191
 40
0.6190476190476191
 40
0.6190476190476191
 40
0.6190476190476191
 40
0.6666666666666667
 40
0.6666666666666667
 40
0.6666666666666667
 40
0.6666666666666667
 40
0.7142857142857144
 40
0.7142857142857144
 40
0.7142857142857144
 40
0.7142857142857144
 40
0.7619047619047621
 40
0.7619047619047621
 40
0.7619047619047621
 40
0.7619047619047621
 40
0.8095238095238098
 40
0.8095238095238098
 40
0.8095238095238098
 40
0.8095238095238098
 40
0.8571428571428574
 40
0.8571428571428574
 40
0.8571428571428574
 40
0.8571428571428574
 40
0.9047619047619051
 40
0.9047619047619051
 40
0.9047619047619051
 40
0.9047619047619051
 40
0.9523809523809528
 40
0.9523809523809528
 40
0.9523809523809528
 40
0.9523809523809528
 40
1.0
 40
1.0
 40
1.0
 40
1.0
 10
12.494400000000001
 20
-1.9055600000000001
 30
0.0
 10
12.49694
 20
-1.9030200000000002
 30
0.0
 10
12.49694
 20
-1.9004800000000002
 30
0.0
 10
12.49694
 20
-1.9004800000000002
 30
0.0
 10
12.49694
 20
-1.9004800000000002
 30
0.0
 10
12.474080000000001
 20
-1.8268200000000001
 30
0.0
 10
12.451220000000001
 20
-1.7353800000000001
 30
0.0
 10
12.418200000000001
 20
-1.7988800000000003
 30
0.0
 10
12.418200000000001
 20
-1.7988800000000003
 30
0.0
 10
12.36232
 20
-1.9182600000000001
 30
0.0
 10
12.138800000000002
 20
-2.1900400000000002
 30
0.0
 10
12.049900000000001
 20
-2.3424400000000003
 30
0.0
 10
12.049900000000001
 20
-2.3424400000000003
 30
0.0
 10
11.953380000000001
 20
-2.4872200000000002
 30
0.0
 10
11.836540000000001
 20
-2.2941800000000003
 30
0.0
 10
11.67398
 20
-2.39832
 30
0.0
 10
11.67398
 20
-2.39832
 30
0.0
 10
11.67398
 20
-2.39832
 30
0.0
 10
11.67398
 20
-2.4008600000000002
 30
0.0
 10
11.67398
 20
-2.4008600000000002
 30
0.0
 10
11.67398
 20
-2.4008600000000002
 30
0.0
 10
11.52158
 20
-2.5126200000000001
 30
0.0
 10
11.361560000000001
 20
-2.4872200000000002
 30
0.0
 10
11.376800000000001
 20
-2.3754600000000003
 30
0.0
 10
11.376800000000001
 20
-2.3754600000000003
 30
0.0
 10
11.38696
 20
-2.2637
 30
0.0
 10
11.63334
 20
-1.6464800000000002
 30
0.0
 10
11.506340000000002
 20
-1.8065000000000002
 30
0.0
 10
11.506340000000002
 20
-1.8065000000000002
 30
0.0
 10
11.38696
 20
-1.9690600000000003
 30
0.0
 10
11.092320000000001
 20
-2.3907000000000003
 30
0.0
 10
10.970400000000001
 20
-2.35006
 30
0.0
 10
10.970400000000001
 20
-2.35006
 30
0.0
 10
10.970400000000001
 20
-2.35006
 30
0.0
 10
10.967860000000002
 20
-2.35006
 30
0.0
 10
10.967860000000002
 20
-2.35006
 30
0.0
 10
10.967860000000002
 20
-2.35006
 30
0.0
 10
10.85102
 20
-2.3195800000000002
 30
0.0
 10
10.744340000000001
 20
-1.8954000000000002
 30
0.0
 10
10.71386
 20
-1.7353800000000001
 30
0.0
 10
10.71386
 20
-1.7353800000000001
 30
0.0
 10
10.71386
 20
-1.7353800000000001
 30
0.0
 10
10.71386
 20
-1.7328400000000002
 30
0.0
 10
10.71386
 20
-1.7328400000000002
 30
0.0
 10
10.71386
 20
-1.7328400000000002
 30
0.0
 10
10.67576
 20
-1.5804400000000001
 30
0.0
 10
10.665600000000001
 20
-1.3442200000000002
 30
0.0
 10
10.57924
 20
-1.29088
 30
0.0
 10
10.57924
 20
-1.29088
 30
0.0
 10
10.574160000000001
 20
-1.28834
 30
0.0
 10
10.566540000000002
 20
-1.29088
 30
0.0
 10
10.564
 20
-1.2985000000000002
 30
0.0
 10
10.564
 20
-1.2985000000000002
 30
0.0
 10
10.56146
 20
-1.3061200000000002
 30
0.0
 10
10.558920000000001
 20
-1.3137400000000001
 30
0.0
 10
10.553840000000001
 20
-1.3264400000000001
 30
0.0
 10
10.553840000000001
 20
-1.3264400000000001
 30
0.0
 10
10.530980000000001
 20
-1.4966200000000001
 30
0.0
 10
10.530980000000001
 20
-1.8623800000000001
 30
0.0
 10
10.530980000000001
 20
-2.06304
 30
0.0
 10
10.530980000000001
 20
-2.06304
 30
0.0
 10
10.530980000000001
 20
-2.06304
 30
0.0
 10
10.530980000000001
 20
-2.06304
 30
0.0
 10
10.530980000000001
 20
-2.0655800000000002
 30
0.0
 10
10.530980000000001
 20
-2.0655800000000002
 30
0.0
 10
10.538600000000001
 20
-2.1113
 30
0.0
 10
10.546220000000002
 20
-2.1519400000000002
 30
0.0
 10
10.553840000000001
 20
-2.1748000000000003
 30
0.0
 10
10.553840000000001
 20
-2.1748000000000003
 30
0.0
 10
10.594480000000001
 20
-2.31196
 30
0.0
 10
11.145660000000001
 20
-2.9596600000000004
 30
0.0
 10
12.082920000000001
 20
-2.64724
 30
0.0
 10
12.082920000000001
 20
-2.64724
 30
0.0
 10
12.082920000000001
 20
-2.64724
 30
0.0
 10
12.329300000000002
 20
-2.5685000000000002
 30
0.0
 10
12.369940000000001
 20
-2.3678400000000002
 30
0.0
 10
12.369940000000001
 20
-2.3678400000000002
 30
0.0
 10
12.369940000000001
 20
-2.3678400000000002
 30
0.0
 10
12.369940000000001
 20
-2.3678400000000002
 30
0.0
 10
12.369940000000001
 20
-2.3653000000000004
 30
0.0
 10
12.369940000000001
 20
-2.3653000000000004
 30
0.0
 10
12.40042
 20
-2.1722600000000001
 30
0.0
 10
12.469000000000001
 20
-1.9512800000000001
 30
0.0
 10
12.494400000000001
 20
-1.9055600000000001
 30
0.0
  0
SPLINE
  5
26
100
AcDbEntity
  8
Ebene 1
 62
     1
100
AcDbSpline
210
0.0
220
0.0
230
1.0
 70
     1
 71
     3
 72
    32
 73
    28
 74
     0
 42
0.0000000001
 43
0.0000000001
 40
0.0
 40
0.0
 40
0.0
 40
0.0
 40
0.1428571428571429
 40
0.1428571428571429
 40
0.1428571428571429
 40
0.1428571428571429
 40
0.2857142857142857
 40
0.2857142857142857
 40
0.2857142857142857
 40
0.2857142857142857
 40
0.4285714285714286
 40
0.4285714285714286
 40
0.4285714285714286
 40
0.4285714285714286
 40
0.5714285714285714
 40
0.5714285714285714
 40
0.5714285714285714
 40
0.5714285714285714
 40
0.7142857142857142
 40
0.7142857142857142
 40
0.7142857142857142
 40
0.7142857142857142
 40
0.857142857142857
 40
0.857142857142857
 40
0.857142857142857
 40
0.857142857142857
 40
1.0
 40
1.0
 40
1.0
 40
1.0
 10
-3.4313900000000004
 20
-0.9886200000000001
 30
0.0
 10
-3.4364700000000004
 20
-0.9886200000000001
 30
0.0
 10
-3.4415500000000003
 20
-0.9886200000000001
 30
0.0
 10
-3.4440900000000001
 20
-0.9962400000000001
 30
0.0
 10
-3.4440900000000001
 20
-0.9962400000000001
 30
0.0
 10
-3.4440900000000001
 20
-1.00132
 30
0.0
 10
-3.4440900000000001
 20
-1.00386
 30
0.0
 10
-3.4364700000000004
 20
-1.0064000000000002
 30
0.0
 10
-3.4364700000000004
 20
-1.0064000000000002
 30
0.0
 10
-2.6871700000000001
 20
-1.3620000000000001
 30
0.0
 10
-2.0039100000000003
 20
-1.2629400000000002
 30
0.0
 10
-1.2825500000000001
 20
-0.9759200000000001
 30
0.0
 10
-1.2825500000000001
 20
-0.9759200000000001
 30
0.0
 10
-0.4291100000000001
 20
-0.6381
 30
0.0
 10
0.04586
 20
-0.5136400000000001
 30
0.0
 10
0.8967600000000001
 20
-0.8336800000000001
 30
0.0
 10
0.8967600000000001
 20
-0.8336800000000001
 30
0.0
 10
0.9094600000000001
 20
-0.8362200000000001
 30
0.0
 10
0.9170800000000001
 20
-0.82098
 30
0.0
 10
0.9094600000000001
 20
-0.8159000000000001
 30
0.0
 10
0.9094600000000001
 20
-0.8159000000000001
 30
0.0
 10
0.17032
 20
-0.219
 30
0.0
 10
-0.5840500000000001
 20
-0.31552
 30
0.0
 10
-1.3435100000000002
 20
-0.6076200000000001
 30
0.0
 10
-1.3435100000000002
 20
-0.6076200000000001
 30
0.0
 10
-2.0775700000000001
 20
-0.8768600000000001
 30
0.0
 10
-2.5373100000000002
 20
-1.1511800000000001
 30
0.0
 10
-3.4313900000000004
 20
-0.9886200000000001
 30
0.0
  0
SPLINE
  5
27
100
AcDbEntity
  8
Ebene 1
 62
     1
100
AcDbSpline
210
0.0
220
0.0
230
1.0
 70
     1
 71
     3
 72
    32
 73
    28
 74
     0
 42
0.0000000001
 43
0.0000000001
 40
0.0
 40
0.0
 40
0.0
 40
0.0
 40
0.1428571428571429
 40
0.1428571428571429
 40
0.1428571428571429
 40
0.1428571428571429
 40
0.2857142857142857
 40
0.2857142857142857
 40
0.2857142857142857
 40
0.2857142857142857
 40
0.4285714285714286
 40
0.4285714285714286
 40
0.4285714285714286
 40
0.4285714285714286
 40
0.5714285714285714
 40
0.5714285714285714
 40
0.5714285714285714
 40
0.5714285714285714
 40
0.7142857142857142
 40
0.7142857142857142
 40
0.7142857142857142
 40
0.7142857142857142
 40
0.857142857142857
 40
0.857142857142857
 40
0.857142857142857
 40
0.857142857142857
 40
1.0
 40
1.0
 40
1.0
 40
1.0
 10
-6.7765700000000004
 20
0.74365
 30
0.0
 10
-6.7714900000000009
 20
0.74619
 30
0.0
 10
-6.7664100000000005
 20
0.74365
 30
0.0
 10
-6.7664100000000005
 20
0.7385700000000001
 30
0.0
 10
-6.7664100000000005
 20
0.7385700000000001
 30
0.0
 10
-6.7638700000000007
 20
0.7334900000000001
 30
0.0
 10
-6.7664100000000005
 20
0.7284100000000001
 30
0.0
 10
-6.7714900000000009
 20
0.72587
 30
0.0
 10
-6.7714900000000009
 20
0.72587
 30
0.0
 10
-8.0287900000000008
 20
0.3169300000000001
 30
0.0
 10
-9.1641700000000004
 20
0.4540900000000001
 30
0.0
 10
-10.350350000000001
 20
0.8223900000000001
 30
0.0
 10
-10.350350000000001
 20
0.8223900000000001
 30
0.0
 10
-11.760050000000001
 20
1.2541900000000001
 30
0.0
 10
-12.549990000000001
 20
1.4167500000000002
 30
0.0
 10
-13.97747
 20
1.0560700000000001
 30
0.0
 10
-13.97747
 20
1.0560700000000001
 30
0.0
 10
-13.987630000000001
 20
1.0535300000000001
 30
0.0
 10
-13.99525
 20
1.06877
 30
0.0
 10
-13.985090000000001
 20
1.0763900000000002
 30
0.0
 10
-13.985090000000001
 20
1.0763900000000002
 30
0.0
 10
-12.740490000000001
 20
1.7774300000000001
 30
0.0
 10
-11.490810000000002
 20
1.6301100000000002
 30
0.0
 10
-10.230970000000001
 20
1.2618100000000001
 30
0.0
 10
-10.230970000000001
 20
1.2618100000000001
 30
0.0
 10
-9.0320900000000002
 20
0.91129
 30
0.0
 10
-8.2777100000000008
 20
0.57347
 30
0.0
 10
-6.7765700000000004
 20
0.74365
 30
0.0
  0
SPLINE
  5
28
100
AcDbEntity
  8
Ebene 1
 62
     1
100
AcDbSpline
210
0.0
220
0.0
230
1.0
 70
     1
 71
     3
 72
    28
 73
    24
 74
     0
 42
0.0000000001
 43
0.0000000001
 40
0.0
 40
0.0
 40
0.0
 40
0.0
 40
0.1666666666666667
 40
0.1666666666666667
 40
0.1666666666666667
 40
0.1666666666666667
 40
0.3333333333333333
 40
0.3333333333333333
 40
0.3333333333333333
 40
0.3333333333333333
 40
0.5
 40
0.5
 40
0.5
 40
0.5
 40
0.6666666666666666
 40
0.6666666666666666
 40
0.6666666666666666
 40
0.6666666666666666
 40
0.8333333333333333
 40
0.8333333333333333
 40
0.8333333333333333
 40
0.8333333333333333
 40
1.0
 40
1.0
 40
1.0
 40
1.0
 10
0.2516000000000001
 20
1.4167500000000002
 30
0.0
 10
0.2617600000000001
 20
1.4218300000000001
 30
0.0
 10
0.26684
 20
1.40405
 30
0.0
 10
0.25668
 20
1.39897
 30
0.0
 10
0.25668
 20
1.39897
 30
0.0
 10
-1.2241300000000002
 20
0.7131700000000001
 30
0.0
 10
-1.8057900000000002
 20
1.0027300000000001
 30
0.0
 10
-2.48143
 20
1.27705
 30
0.0
 10
-2.48143
 20
1.27705
 30
0.0
 10
-3.3907500000000002
 20
1.65551
 30
0.0
 10
-3.3551900000000003
 20
0.53283
 30
0.0
 10
-6.1491900000000008
 20
2.2803500000000003
 30
0.0
 10
-6.1491900000000008
 20
2.2803500000000003
 30
0.0
 10
-6.1593500000000008
 20
2.2879700000000001
 30
0.0
 10
-6.1491900000000008
 20
2.3006700000000002
 30
0.0
 10
-6.1364900000000002
 20
2.29813
 30
0.0
 10
-6.1364900000000002
 20
2.29813
 30
0.0
 10
-3.1418300000000001
 20
1.0103500000000001
 30
0.0
 10
-3.3043900000000002
 20
2.0339700000000001
 30
0.0
 10
-2.4585700000000004
 20
1.7113900000000002
 30
0.0
 10
-2.4585700000000004
 20
1.7113900000000002
 30
0.0
 10
-1.6406900000000002
 20
1.40405
 30
0.0
 10
-1.21143
 20
1.10687
 30
0.0
 10
0.2516000000000001
 20
1.4167500000000002
 30
0.0
  0
SPLINE
  5
29
100
AcDbEntity
  8
Ebene 1
 62
     1
100
AcDbSpline
210
0.0
220
0.0
230
1.0
 70
     1
 71
     3
 72
    36
 73
    32
 74
     0
 42
0.0000000001
 43
0.0000000001
 40
0.0
 40
0.0
 40
0.0
 40
0.0
 40
0.125
 40
0.125
 40
0.125
 40
0.125
 40
0.25
 40
0.25
 40
0.25
 40
0.25
 40
0.375
 40
0.375
 40
0.375
 40
0.375
 40
0.5
 40
0.5
 40
0.5
 40
0.5
 40
0.625
 40
0.625
 40
0.625
 40
0.625
 40
0.75
 40
0.75
 40
0.75
 40
0.75
 40
0.875
 40
0.875
 40
0.875
 40
0.875
 40
1.0
 40
1.0
 40
1.0
 40
1.0
 10
7.8538200000000007
 20
-3.5641800000000003
 30
0.0
 10
7.1654800000000005
 20
-3.1450800000000001
 30
0.0
 10
4.4019600000000008
 20
-1.6566400000000001
 30
0.0
 10
0.43448
 20
-2.01478
 30
0.0
 10
0.43448
 20
-2.01478
 30
0.0
 10
-5.5751500000000007
 20
-2.5583400000000003
 30
0.0
 10
-6.9873900000000004
 20
-0.37648
 30
0.0
 10
-7.3379100000000008
 20
0.12135
 30
0.0
 10
-7.3379100000000008
 20
0.12135
 30
0.0
 10
-7.345530000000001
 20
0.12897
 30
0.0
 10
-7.3328300000000004
 20
0.14167
 30
0.0
 10
-7.3226700000000005
 20
0.13405
 30
0.0
 10
-7.3226700000000005
 20
0.13405
 30
0.0
 10
-5.7148500000000002
 20
-1.21214
 30
0.0
 10
-4.1781500000000005
 20
-1.9995400000000001
 30
0.0
 10
0.6122800000000001
 20
-1.50424
 30
0.0
 10
0.6122800000000001
 20
-1.50424
 30
0.0
 10
4.8007400000000002
 20
-1.0673600000000001
 30
0.0
 10
7.122300000000001
 20
-2.9469600000000002
 30
0.0
 10
7.8665200000000004
 20
-3.5489400000000004
 30
0.0
 10
7.8665200000000004
 20
-3.5489400000000004
 30
0.0
 10
7.8716000000000008
 20
-3.5514800000000002
 30
0.0
 10
7.8716000000000008
 20
-3.5565600000000002
 30
0.0
 10
7.8690600000000011
 20
-3.5616400000000001
 30
0.0
 10
7.8690600000000011
 20
-3.5616400000000001
 30
0.0
 10
7.8665200000000004
 20
-3.5667200000000001
 30
0.0
 10
7.8639800000000006
 20
-3.5667200000000001
 30
0.0
 10
7.8589000000000002
 20
-3.5667200000000001
 30
0.0
 10
7.8589000000000002
 20
-3.5667200000000001
 30
0.0
 10
7.8589000000000002
 20
-3.5667200000000001
 30
0.0
 10
7.8563600000000005
 20
-3.5667200000000001
 30
0.0
 10
7.8538200000000007
 20
-3.5641800000000003
 30
0.0
  0
SPLINE
  5
2A
100
AcDbEntity
  8
Ebene 1
 62
     1
100
AcDbSpline
210
0.0
220
0.0
230
1.0
 70
     1
 71
     3
 72
    28
 73
    24
 74
     0
 42
0.0000000001
 43
0.0000000001
 40
0.0
 40
0.0
 40
0.0
 40
0.0
 40
0.1666666666666667
 40
0.1666666666666667
 40
0.1666666666666667
 40
0.1666666666666667
 40
0.3333333333333333
 40
0.3333333333333333
 40
0.3333333333333333
 40
0.3333333333333333
 40
0.5
 40
0.5
 40
0.5
 40
0.5
 40
0.6666666666666666
 40
0.6666666666666666
 40
0.6666666666666666
 40
0.6666666666666666
 40
0.8333333333333333
 40
0.8333333333333333
 40
0.8333333333333333
 40
0.8333333333333333
 40
1.0
 40
1.0
 40
1.0
 40
1.0
 10
4.25718
 20
-0.07422
 30
0.0
 10
2.6138000000000003
 20
0.68015
 30
0.0
 10
1.6841600000000001
 20
0.7512700000000001
 30
0.0
 10
-0.23353
 20
0.22803
 30
0.0
 10
-0.23353
 20
0.22803
 30
0.0
 10
-2.1105900000000002
 20
-0.27488
 30
0.0
 10
-3.9089100000000001
 20
0.06293
 30
0.0
 10
-5.4583100000000009
 20
1.4523100000000002
 30
0.0
 10
-5.4583100000000009
 20
1.4523100000000002
 30
0.0
 10
-5.4659300000000002
 20
1.4599300000000002
 30
0.0
 10
-5.4557700000000002
 20
1.4726300000000001
 30
0.0
 10
-5.4456100000000003
 20
1.4675500000000001
 30
0.0
 10
-5.4456100000000003
 20
1.4675500000000001
 30
0.0
 10
-3.9012900000000004
 20
0.48711
 30
0.0
 10
-2.3214100000000002
 20
0.16961
 30
0.0
 10
-0.47229
 20
0.68523
 30
0.0
 10
-0.47229
 20
0.68523
 30
0.0
 10
1.3006200000000001
 20
1.1754500000000001
 30
0.0
 10
3.0837000000000003
 20
1.0027300000000001
 30
0.0
 10
4.2698800000000006
 20
-0.05644
 30
0.0
 10
4.2698800000000006
 20
-0.05644
 30
0.0
 10
4.2775000000000007
 20
-0.06406
 30
0.0
 10
4.2673399999999999
 20
-0.07676
 30
0.0
 10
4.25718
 20
-0.07422
 30
0.0
  0
SPLINE
  5
2B
100
AcDbEntity
  8
Ebene 1
 62
     1
100
AcDbSpline
210
0.0
220
0.0
230
1.0
 70
     1
 71
     3
 72
    32
 73
    28
 74
     0
 42
0.0000000001
 43
0.0000000001
 40
0.0
 40
0.0
 40
0.0
 40
0.0
 40
0.1428571428571429
 40
0.1428571428571429
 40
0.1428571428571429
 40
0.1428571428571429
 40
0.2857142857142857
 40
0.2857142857142857
 40
0.2857142857142857
 40
0.2857142857142857
 40
0.4285714285714286
 40
0.4285714285714286
 40
0.4285714285714286
 40
0.4285714285714286
 40
0.5714285714285714
 40
0.5714285714285714
 40
0.5714285714285714
 40
0.5714285714285714
 40
0.7142857142857142
 40
0.7142857142857142
 40
0.7142857142857142
 40
0.7142857142857142
 40
0.857142857142857
 40
0.857142857142857
 40
0.857142857142857
 40
0.857142857142857
 40
1.0
 40
1.0
 40
1.0
 40
1.0
 10
7.1070600000000006
 20
3.0296500000000002
 30
0.0
 10
5.8548400000000003
 20
2.2295500000000001
 30
0.0
 10
4.6127800000000008
 20
2.2422500000000003
 30
0.0
 10
3.0379800000000001
 20
2.4149700000000003
 30
0.0
 10
3.0379800000000001
 20
2.4149700000000003
 30
0.0
 10
1.3895200000000001
 20
2.59531
 30
0.0
 10
-0.04049
 20
2.3235300000000003
 30
0.0
 10
-1.1174500000000001
 20
1.6504300000000001
 30
0.0
 10
-1.1174500000000001
 20
1.6504300000000001
 30
0.0
 10
-1.12761
 20
1.6428100000000001
 30
0.0
 10
-1.11999
 20
1.6275700000000002
 30
0.0
 10
-1.1072900000000001
 20
1.6301100000000002
 30
0.0
 10
-1.1072900000000001
 20
1.6301100000000002
 30
0.0
 10
0.14492
 20
2.03905
 30
0.0
 10
1.65622
 20
2.26003
 30
0.0
 10
2.9643200000000003
 20
2.03905
 30
0.0
 10
2.9643200000000003
 20
2.03905
 30
0.0
 10
4.6559600000000003
 20
1.7647300000000001
 30
0.0
 10
6.2155200000000006
 20
2.0085700000000002
 30
0.0
 10
7.1197600000000003
 20
3.0169500000000005
 30
0.0
 10
7.1197600000000003
 20
3.0169500000000005
 30
0.0
 10
7.1248400000000007
 20
3.0194900000000002
 30
0.0
 10
7.122300000000001
 20
3.0271100000000004
 30
0.0
 10
7.1197600000000003
 20
3.0296500000000002
 30
0.0
 10
7.1197600000000003
 20
3.0296500000000002
 30
0.0
 10
7.1146800000000008
 20
3.0321900000000004
 30
0.0
 10
7.1096000000000004
 20
3.0321900000000004
 30
0.0
 10
7.1070600000000006
 20
3.0296500000000002
 30
0.0
  0
SPLINE
  5
2C
100
AcDbEntity
  8
Ebene 1
 62
     1
100
AcDbSpline
210
0.0
220
0.0
230
1.0
 70
     1
 71
     3
 72
    32
 73
    28
 74
     0
 42
0.0000000001
 43
0.0000000001
 40
0.0
 40
0.0
 40
0.0
 40
0.0
 40
0.1428571428571429
 40
0.1428571428571429
 40
0.1428571428571429
 40
0.1428571428571429
 40
0.2857142857142857
 40
0.2857142857142857
 40
0.2857142857142857
 40
0.2857142857142857
 40
0.4285714285714286
 40
0.4285714285714286
 40
0.4285714285714286
 40
0.4285714285714286
 40
0.5714285714285714
 40
0.5714285714285714
 40
0.5714285714285714
 40
0.5714285714285714
 40
0.7142857142857142
 40
0.7142857142857142
 40
0.7142857142857142
 40
0.7142857142857142
 40
0.857142857142857
 40
0.857142857142857
 40
0.857142857142857
 40
0.857142857142857
 40
1.0
 40
1.0
 40
1.0
 40
1.0
 10
-2.8573500000000003
 20
-0.3942600000000001
 30
0.0
 10
-2.8548100000000001
 20
-0.3968
 30
0.0
 10
-2.8497300000000001
 20
-0.39934
 30
0.0
 10
-2.8497300000000001
 20
-0.4044200000000001
 30
0.0
 10
-2.8497300000000001
 20
-0.4044200000000001
 30
0.0
 10
-2.8497300000000001
 20
-0.4095
 30
0.0
 10
-2.8548100000000001
 20
-0.4145800000000001
 30
0.0
 10
-2.8573500000000003
 20
-0.4145800000000001
 30
0.0
 10
-2.8573500000000003
 20
-0.4145800000000001
 30
0.0
 10
-4.1857700000000007
 20
-0.54666
 30
0.0
 10
-5.19923
 20
-0.06406
 30
0.0
 10
-6.1720500000000005
 20
0.7157100000000001
 30
0.0
 10
-6.1720500000000005
 20
0.7157100000000001
 30
0.0
 10
-7.3328300000000004
 20
1.6478900000000001
 30
0.0
 10
-8.0008499999999998
 20
2.0669900000000001
 30
0.0
 10
-9.4791300000000014
 20
2.04921
 30
0.0
 10
-9.4791300000000014
 20
2.04921
 30
0.0
 10
-9.4892900000000004
 20
2.04921
 30
0.0
 10
-9.4918300000000002
 20
2.0619100000000001
 30
0.0
 10
-9.4816700000000012
 20
2.0669900000000001
 30
0.0
 10
-9.4816700000000012
 20
2.0669900000000001
 30
0.0
 10
-8.0541900000000002
 20
2.55213
 30
0.0
 10
-6.9340500000000009
 20
2.0263500000000003
 30
0.0
 10
-5.9002700000000008
 20
1.2211700000000001
 30
0.0
 10
-5.9002700000000008
 20
1.2211700000000001
 30
0.0
 10
-4.9096700000000002
 20
0.4439300000000001
 30
0.0
 10
-4.3356300000000001
 20
-0.17582
 30
0.0
 10
-2.8573500000000003
 20
-0.3942600000000001
 30
0.0
  0
SPLINE
  5
2D
100
AcDbEntity
  8
Ebene 1
 62
     1
100
AcDbSpline
210
0.0
220
0.0
230
1.0
 70
     1
 71
     3
 72
    36
 73
    32
 74
     0
 42
0.0000000001
 43
0.0000000001
 40
0.0
 40
0.0
 40
0.0
 40
0.0
 40
0.125
 40
0.125
 40
0.125
 40
0.125
 40
0.25
 40
0.25
 40
0.25
 40
0.25
 40
0.375
 40
0.375
 40
0.375
 40
0.375
 40
0.5
 40
0.5
 40
0.5
 40
0.5
 40
0.625
 40
0.625
 40
0.625
 40
0.625
 40
0.75
 40
0.75
 40
0.75
 40
0.75
 40
0.875
 40
0.875
 40
0.875
 40
0.875
 40
1.0
 40
1.0
 40
1.0
 40
1.0
 10
1.7146400000000002
 20
-0.9251200000000001
 30
0.0
 10
1.7095600000000002
 20
-0.9251200000000001
 30
0.0
 10
1.7070200000000002
 20
-0.9200400000000001
 30
0.0
 10
1.7044800000000002
 20
-0.9175000000000001
 30
0.0
 10
1.7044800000000002
 20
-0.9175000000000001
 30
0.0
 10
1.7044800000000002
 20
-0.90988
 30
0.0
 10
1.7095600000000002
 20
-0.9048000000000001
 30
0.0
 10
1.7146400000000002
 20
-0.9048000000000001
 30
0.0
 10
1.7146400000000002
 20
-0.9048000000000001
 30
0.0
 10
6.2333000000000007
 20
-0.6660400000000001
 30
0.0
 10
7.7827000000000011
 20
-2.3881600000000001
 30
0.0
 10
9.7461200000000012
 20
-3.5260800000000003
 30
0.0
 10
9.7461200000000012
 20
-3.5260800000000003
 30
0.0
 10
11.46062
 20
-4.5217600000000004
 30
0.0
 10
12.138800000000002
 20
-3.8283400000000003
 30
0.0
 10
12.293740000000001
 20
-3.6149800000000001
 30
0.0
 10
12.293740000000001
 20
-3.6149800000000001
 30
0.0
 10
12.301360000000001
 20
-3.6073600000000003
 30
0.0
 10
12.314060000000001
 20
-3.6124400000000003
 30
0.0
 10
12.311520000000002
 20
-3.6251400000000005
 30
0.0
 10
12.311520000000002
 20
-3.6251400000000005
 30
0.0
 10
12.042280000000002
 20
-4.5090600000000007
 30
0.0
 10
11.17614
 20
-4.5700200000000004
 30
0.0
 10
10.386200000000001
 20
-4.3211000000000004
 30
0.0
 10
10.386200000000001
 20
-4.3211000000000004
 30
0.0
 10
9.6978600000000004
 20
-4.0975800000000007
 30
0.0
 10
9.2482800000000012
 20
-3.6378400000000002
 30
0.0
 10
8.6818600000000004
 20
-3.2162000000000002
 30
0.0
 10
8.6818600000000004
 20
-3.2162000000000002
 30
0.0
 10
7.3458200000000007
 20
-2.2256
 30
0.0
 10
5.6719600000000003
 20
-1.0597400000000001
 30
0.0
 10
1.7146400000000002
 20
-0.9251200000000001
 30
0.0
  0
SPLINE
  5
2E
100
AcDbEntity
  8
Ebene 1
 62
     1
100
AcDbSpline
210
0.0
220
0.0
230
1.0
 70
     1
 71
     3
 72
   180
 73
   176
 74
     0
 42
0.0000000001
 43
0.0000000001
 40
0.0
 40
0.0
 40
0.0
 40
0.0
 40
0.0227272727272727
 40
0.0227272727272727
 40
0.0227272727272727
 40
0.0227272727272727
 40
0.0454545454545455
 40
0.0454545454545455
 40
0.0454545454545455
 40
0.0454545454545455
 40
0.0681818181818182
 40
0.0681818181818182
 40
0.0681818181818182
 40
0.0681818181818182
 40
0.0909090909090909
 40
0.0909090909090909
 40
0.0909090909090909
 40
0.0909090909090909
 40
0.1136363636363637
 40
0.1136363636363637
 40
0.1136363636363637
 40
0.1136363636363637
 40
0.1363636363636364
 40
0.1363636363636364
 40
0.1363636363636364
 40
0.1363636363636364
 40
0.1590909090909091
 40
0.1590909090909091
 40
0.1590909090909091
 40
0.1590909090909091
 40
0.1818181818181819
 40
0.1818181818181819
 40
0.1818181818181819
 40
0.1818181818181819
 40
0.2045454545454546
 40
0.2045454545454546
 40
0.2045454545454546
 40
0.2045454545454546
 40
0.2272727272727273
 40
0.2272727272727273
 40
0.2272727272727273
 40
0.2272727272727273
 40
0.2500000000000001
 40
0.2500000000000001
 40
0.2500000000000001
 40
0.2500000000000001
 40
0.2727272727272728
 40
0.2727272727272728
 40
0.2727272727272728
 40
0.2727272727272728
 40
0.2954545454545455
 40
0.2954545454545455
 40
0.2954545454545455
 40
0.2954545454545455
 40
0.3181818181818182
 40
0.3181818181818182
 40
0.3181818181818182
 40
0.3181818181818182
 40
0.3409090909090909
 40
0.3409090909090909
 40
0.3409090909090909
 40
0.3409090909090909
 40
0.3636363636363636
 40
0.3636363636363636
 40
0.3636363636363636
 40
0.3636363636363636
 40
0.3863636363636363
 40
0.3863636363636363
 40
0.3863636363636363
 40
0.3863636363636363
 40
0.409090909090909
 40
0.409090909090909
 40
0.409090909090909
 40
0.409090909090909
 40
0.4318181818181817
 40
0.4318181818181817
 40
0.4318181818181817
 40
0.4318181818181817
 40
0.4545454545454544
 40
0.4545454545454544
 40
0.4545454545454544
 40
0.4545454545454544
 40
0.4772727272727271
 40
0.4772727272727271
 40
0.4772727272727271
 40
0.4772727272727271
 40
0.4999999999999998
 40
0.4999999999999998
 40
0.4999999999999998
 40
0.4999999999999998
 40
0.5227272727272726
 40
0.5227272727272726
 40
0.5227272727272726
 40
0.5227272727272726
 40
0.5454545454545453
 40
0.5454545454545453
 40
0.5454545454545453
 40
0.5454545454545453
 40
0.568181818181818
 40
0.568181818181818
 40
0.568181818181818
 40
0.568181818181818
 40
0.5909090909090907
 40
0.5909090909090907
 40
0.5909090909090907
 40
0.5909090909090907
 40
0.6136363636363634
 40
0.6136363636363634
 40
0.6136363636363634
 40
0.6136363636363634
 40
0.6363636363636361
 40
0.6363636363636361
 40
0.6363636363636361
 40
0.6363636363636361
 40
0.6590909090909088
 40
0.6590909090909088
 40
0.6590909090909088
 40
0.6590909090909088
 40
0.6818181818181816
 40
0.6818181818181816
 40
0.6818181818181816
 40
0.6818181818181816
 40
0.7045454545454543
 40
0.7045454545454543
 40
0.7045454545454543
 40
0.7045454545454543
 40
0.727272727272727
 40
0.727272727272727
 40
0.727272727272727
 40
0.727272727272727
 40
0.7499999999999997
 40
0.7499999999999997
 40
0.7499999999999997
 40
0.7499999999999997
 40
0.7727272727272724
 40
0.7727272727272724
 40
0.7727272727272724
 40
0.7727272727272724
 40
0.7954545454545451
 40
0.7954545454545451
 40
0.7954545454545451
 40
0.7954545454545451
 40
0.8181818181818178
 40
0.8181818181818178
 40
0.8181818181818178
 40
0.8181818181818178
 40
0.8409090909090905
 40
0.8409090909090905
 40
0.8409090909090905
 40
0.8409090909090905
 40
0.8636363636363632
 40
0.8636363636363632
 40
0.8636363636363632
 40
0.8636363636363632
 40
0.8863636363636359
 40
0.8863636363636359
 40
0.8863636363636359
 40
0.8863636363636359
 40
0.9090909090909086
 40
0.9090909090909086
 40
0.9090909090909086
 40
0.9090909090909086
 40
0.9318181818181813
 40
0.9318181818181813
 40
0.9318181818181813
 40
0.9318181818181813
 40
0.954545454545454
 40
0.954545454545454
 40
0.954545454545454
 40
0.954545454545454
 40
0.9772727272727267
 40
0.9772727272727267
 40
0.9772727272727267
 40
0.9772727272727267
 40
1.0
 40
1.0
 40
1.0
 40
1.0
 10
8.0087600000000005
 20
3.0702900000000004
 30
0.0
 10
7.9503400000000006
 20
3.3090500000000005
 30
0.0
 10
7.9528800000000004
 20
3.5528900000000001
 30
0.0
 10
8.07226
 20
3.7738700000000005
 30
0.0
 10
8.07226
 20
3.7738700000000005
 30
0.0
 10
8.2322800000000012
 20
4.0812100000000004
 30
0.0
 10
8.5777200000000011
 20
4.0710500000000005
 30
0.0
 10
8.7682200000000012
 20
3.9135700000000004
 30
0.0
 10
8.7682200000000012
 20
3.9135700000000004
 30
0.0
 10
8.9028400000000012
 20
3.8018100000000001
 30
0.0
 10
9.0755600000000012
 20
3.6494100000000005
 30
0.0
 10
9.2279600000000013
 20
3.5325700000000002
 30
0.0
 10
9.2279600000000013
 20
3.5325700000000002
 30
0.0
 10
9.230500000000001
 20
3.5300300000000004
 30
0.0
 10
9.2355800000000006
 20
3.5300300000000004
 30
0.0
 10
9.2406600000000001
 20
3.5300300000000004
 30
0.0
 10
9.2406600000000001
 20
3.5300300000000004
 30
0.0
 10
9.824860000000001
 20
3.8449900000000001
 30
0.0
 10
10.873880000000002
 20
3.6722700000000001
 30
0.0
 10
11.115180000000001
 20
3.7510100000000004
 30
0.0
 10
11.115180000000001
 20
3.7510100000000004
 30
0.0
 10
11.338700000000001
 20
3.8297500000000002
 30
0.0
 10
11.707000000000001
 20
4.3580700000000006
 30
0.0
 10
11.7705
 20
4.4393500000000001
 30
0.0
 10
11.7705
 20
4.4393500000000001
 30
0.0
 10
11.775580000000001
 20
4.4444300000000005
 30
0.0
 10
11.780660000000001
 20
4.4469700000000003
 30
0.0
 10
11.785740000000001
 20
4.4418900000000008
 30
0.0
 10
11.785740000000001
 20
4.4418900000000008
 30
0.0
 10
11.834000000000001
 20
4.3987100000000003
 30
0.0
 10
12.05752
 20
4.16249
 30
0.0
 10
11.917820000000001
 20
3.6570300000000002
 30
0.0
 10
11.917820000000001
 20
3.6570300000000002
 30
0.0
 10
11.915280000000001
 20
3.6494100000000005
 30
0.0
 10
11.917820000000001
 20
3.6468700000000003
 30
0.0
 10
11.920360000000001
 20
3.6443300000000005
 30
0.0
 10
11.920360000000001
 20
3.6443300000000005
 30
0.0
 10
12.01942
 20
3.5986100000000003
 30
0.0
 10
12.989700000000001
 20
3.1261700000000001
 30
0.0
 10
13.210680000000002
 20
2.63341
 30
0.0
 10
13.210680000000002
 20
2.63341
 30
0.0
 10
13.210680000000002
 20
2.6308700000000003
 30
0.0
 10
13.210680000000002
 20
2.6308700000000003
 30
0.0
 10
13.210680000000002
 20
2.6283300000000001
 30
0.0
 10
13.210680000000002
 20
2.6283300000000001
 30
0.0
 10
13.210680000000002
 20
2.6283300000000001
 30
0.0
 10
13.22592
 20
2.5216500000000002
 30
0.0
 10
13.22592
 20
2.5216500000000002
 30
0.0
 10
13.22592
 20
2.5216500000000002
 30
0.0
 10
13.22592
 20
2.5191100000000004
 30
0.0
 10
13.228460000000002
 20
2.5191100000000004
 30
0.0
 10
13.228460000000002
 20
2.5165700000000002
 30
0.0
 10
13.228460000000002
 20
2.5165700000000002
 30
0.0
 10
13.421500000000002
 20
2.3082900000000004
 30
0.0
 10
13.868540000000001
 20
1.9018900000000001
 30
0.0
 10
13.947280000000001
 20
1.6453500000000001
 30
0.0
 10
13.947280000000001
 20
1.6453500000000001
 30
0.0
 10
14.020940000000001
 20
1.3811900000000001
 30
0.0
 10
14.051420000000002
 20
0.65983
 30
0.0
 10
13.868540000000001
 20
0.11627
 30
0.0
 10
13.868540000000001
 20
0.11627
 30
0.0
 10
13.66788
 20
-0.49332
 30
0.0
 10
13.708520000000002
 20
-0.58984
 30
0.0
 10
13.645020000000001
 20
-0.53396
 30
0.0
 10
13.645020000000001
 20
-0.53396
 30
0.0
 10
13.578980000000001
 20
-0.47046
 30
0.0
 10
13.347840000000001
 20
-1.0622800000000001
 30
0.0
 10
13.337680000000001
 20
-0.8616200000000001
 30
0.0
 10
13.337680000000001
 20
-0.8616200000000001
 30
0.0
 10
13.335140000000001
 20
-0.7117600000000001
 30
0.0
 10
13.241160000000001
 20
-1.0699000000000001
 30
0.0
 10
13.197980000000001
 20
-1.1816600000000002
 30
0.0
 10
13.197980000000001
 20
-1.1816600000000002
 30
0.0
 10
13.195440000000001
 20
-1.1918200000000001
 30
0.0
 10
13.180200000000001
 20
-1.1867400000000001
 30
0.0
 10
13.180200000000001
 20
-1.1765800000000002
 30
0.0
 10
13.180200000000001
 20
-1.1765800000000002
 30
0.0
 10
13.182740000000001
 20
-1.0292600000000001
 30
0.0
 10
13.03542
 20
-1.5804400000000001
 30
0.0
 10
12.971920000000001
 20
-1.3823200000000002
 30
0.0
 10
12.971920000000001
 20
-1.3823200000000002
 30
0.0
 10
12.921120000000002
 20
-1.24516
 30
0.0
 10
12.872860000000001
 20
-1.6033000000000002
 30
0.0
 10
12.844920000000002
 20
-1.7633200000000002
 30
0.0
 10
12.844920000000002
 20
-1.7633200000000002
 30
0.0
 10
12.844920000000002
 20
-1.7734800000000002
 30
0.0
 10
12.827140000000002
 20
-1.7734800000000002
 30
0.0
 10
12.827140000000002
 20
-1.7607800000000002
 30
0.0
 10
12.827140000000002
 20
-1.7607800000000002
 30
0.0
 10
12.814440000000001
 20
-1.58552
 30
0.0
 10
12.679820000000001
 20
-2.1240000000000001
 30
0.0
 10
12.634100000000002
 20
-1.9284200000000002
 30
0.0
 10
12.634100000000002
 20
-1.9284200000000002
 30
0.0
 10
12.588380000000001
 20
-1.7176000000000002
 30
0.0
 10
12.410580000000001
 20
-2.2154400000000001
 30
0.0
 10
12.466460000000001
 20
-2.3907000000000003
 30
0.0
 10
12.466460000000001
 20
-2.3907000000000003
 30
0.0
 10
12.532500000000001
 20
-2.5685000000000002
 30
0.0
 10
12.928740000000001
 20
-3.3584400000000003
 30
0.0
 10
11.836540000000001
 20
-3.5210000000000004
 30
0.0
 10
11.836540000000001
 20
-3.5210000000000004
 30
0.0
 10
10.896740000000001
 20
-3.6632400000000005
 30
0.0
 10
10.495420000000001
 20
-2.9317200000000003
 30
0.0
 10
10.434460000000001
 20
-2.3627600000000002
 30
0.0
 10
10.434460000000001
 20
-2.3627600000000002
 30
0.0
 10
10.434460000000001
 20
-2.36022
 30
0.0
 10
10.42938
 20
-2.35514
 30
0.0
 10
10.421760000000001
 20
-2.35514
 30
0.0
 10
10.421760000000001
 20
-2.35514
 30
0.0
 10
10.345560000000001
 20
-2.3754600000000003
 30
0.0
 10
10.246500000000001
 20
-2.0274800000000002
 30
0.0
 10
10.167760000000001
 20
-2.2941800000000003
 30
0.0
 10
10.167760000000001
 20
-2.2941800000000003
 30
0.0
 10
10.089020000000001
 20
-2.5837400000000001
 30
0.0
 10
9.6165800000000008
 20
-1.5829800000000001
 30
0.0
 10
9.5226000000000006
 20
-1.9106400000000001
 30
0.0
 10
9.5226000000000006
 20
-1.9106400000000001
 30
0.0
 10
9.4337
 20
-2.2383000000000002
 30
0.0
 10
9.2812999999999999
 20
-1.4305800000000002
 30
0.0
 10
9.2406600000000001
 20
-1.8471400000000002
 30
0.0
 10
9.2406600000000001
 20
-1.8471400000000002
 30
0.0
 10
9.192400000000001
 20
-2.2713200000000002
 30
0.0
 10
8.8723600000000005
 20
-1.33406
 30
0.0
 10
8.9130000000000003
 20
-1.6617200000000001
 30
0.0
 10
8.9130000000000003
 20
-1.6617200000000001
 30
0.0
 10
8.9511000000000003
 20
-1.9919200000000001
 30
0.0
 10
8.6894800000000014
 20
-1.0140200000000001
 30
0.0
 10
8.5777200000000011
 20
-1.2858000000000001
 30
0.0
 10
8.5777200000000011
 20
-1.2858000000000001
 30
0.0
 10
8.4634200000000011
 20
-1.5601200000000002
 30
0.0
 10
8.2805400000000002
 20
-0.7346200000000001
 30
0.0
 10
8.2170400000000008
 20
-1.0445
 30
0.0
 10
8.2170400000000008
 20
-1.0445
 30
0.0
 10
8.1611600000000006
 20
-1.3518400000000002
 30
0.0
 10
8.1357600000000012
 20
-0.38156
 30
0.0
 10
8.0316200000000002
 20
-0.6381
 30
0.0
 10
8.0316200000000002
 20
-0.6381
 30
0.0
 10
7.927480000000001
 20
-0.8946400000000001
 30
0.0
 10
8.0951200000000014
 20
0.08579
 30
0.0
 10
7.927480000000001
 20
0.16453
 30
0.0
 10
7.927480000000001
 20
0.16453
 30
0.0
 10
7.7700000000000005
 20
0.24327
 30
0.0
 10
7.8665200000000004
 20
0.70301
 30
0.0
 10
7.8716000000000008
 20
0.7157100000000001
 30
0.0
 10
7.8716000000000008
 20
0.7157100000000001
 30
0.0
 10
8.0443200000000008
 20
1.86633
 30
0.0
 10
8.3033999999999999
 20
2.3057500000000002
 30
0.0
 10
8.3414999999999999
 20
2.3590900000000001
 30
0.0
 10
8.3414999999999999
 20
2.3590900000000001
 30
0.0
 10
8.3440400000000015
 20
2.3641700000000001
 30
0.0
 10
8.3440400000000015
 20
2.3692500000000001
 30
0.0
 10
8.3389600000000002
 20
2.3717900000000003
 30
0.0
 10
8.3389600000000002
 20
2.3717900000000003
 30
0.0
 10
8.2424400000000002
 20
2.4937100000000001
 30
0.0
 10
8.1637000000000004
 20
2.6156300000000003
 30
0.0
 10
8.1179800000000011
 20
2.7299300000000004
 30
0.0
 10
8.1179800000000011
 20
2.7299300000000004
 30
0.0
 10
8.1154400000000013
 20
2.7350100000000004
 30
0.0
 10
8.1052800000000005
 20
2.7375500000000001
 30
0.0
 10
8.1027400000000007
 20
2.7350100000000004
 30
0.0
 10
8.1027400000000007
 20
2.7350100000000004
 30
0.0
 10
6.4339600000000008
 20
1.4319900000000001
 30
0.0
 10
4.0057200000000002
 20
1.5437500000000002
 30
0.0
 10
3.4113600000000002
 20
1.5920100000000001
 30
0.0
 10
3.4113600000000002
 20
1.5920100000000001
 30
0.0
 10
3.3986600000000005
 20
1.5945500000000001
 30
0.0
 10
3.3986600000000005
 20
1.61233
 30
0.0
 10
3.4113600000000002
 20
1.61487
 30
0.0
 10
3.4113600000000002
 20
1.61487
 30
0.0
 10
5.1563400000000001
 20
1.7088500000000002
 30
0.0
 10
6.9191000000000003
 20
2.0238100000000001
 30
0.0
 10
8.003680000000001
 20
3.0575900000000003
 30
0.0
 10
8.003680000000001
 20
3.0575900000000003
 30
0.0
 10
8.0087600000000005
 20
3.0601300000000005
 30
0.0
 10
8.0087600000000005
 20
3.0652100000000004
 30
0.0
 10
8.0087600000000005
 20
3.0702900000000004
 30
0.0
  0
SPLINE
  5
2F
100
AcDbEntity
  8
Ebene 1
 62
     1
100
AcDbSpline
210
0.0
220
0.0
230
1.0
 70
     1
 71
     3
 72
    32
 73
    28
 74
     0
 42
0.0000000001
 43
0.0000000001
 40
0.0
 40
0.0
 40
0.0
 40
0.0
 40
0.1428571428571429
 40
0.1428571428571429
 40
0.1428571428571429
 40
0.1428571428571429
 40
0.2857142857142857
 40
0.2857142857142857
 40
0.2857142857142857
 40
0.2857142857142857
 40
0.4285714285714286
 40
0.4285714285714286
 40
0.4285714285714286
 40
0.4285714285714286
 40
0.5714285714285714
 40
0.5714285714285714
 40
0.5714285714285714
 40
0.5714285714285714
 40
0.7142857142857142
 40
0.7142857142857142
 40
0.7142857142857142
 40
0.7142857142857142
 40
0.857142857142857
 40
0.857142857142857
 40
0.857142857142857
 40
0.857142857142857
 40
1.0
 40
1.0
 40
1.0
 40
1.0
 10
8.8749000000000002
 20
-1.9792200000000002
 30
0.0
 10
8.1154400000000013
 20
-1.8446000000000002
 30
0.0
 10
7.6277600000000003
 20
-1.3010400000000002
 30
0.0
 10
7.0486400000000007
 20
-0.8540000000000001
 30
0.0
 10
7.0486400000000007
 20
-0.8540000000000001
 30
0.0
 10
6.4415800000000001
 20
-0.38664
 30
0.0
 10
5.47384
 20
0.09595
 30
0.0
 10
4.7296200000000006
 20
-0.30282
 30
0.0
 10
4.7296200000000006
 20
-0.30282
 30
0.0
 10
4.7194600000000007
 20
-0.3079
 30
0.0
 10
4.7270799999999999
 20
-0.32314
 30
0.0
 10
4.7397800000000005
 20
-0.3206000000000001
 30
0.0
 10
4.7397800000000005
 20
-0.3206000000000001
 30
0.0
 10
5.4890800000000004
 20
-0.13518
 30
0.0
 10
6.3679200000000007
 20
-0.59492
 30
0.0
 10
7.2721600000000004
 20
-1.4229600000000002
 30
0.0
 10
7.2721600000000004
 20
-1.4229600000000002
 30
0.0
 10
7.9020800000000007
 20
-2.01478
 30
0.0
 10
8.6234400000000004
 20
-2.01478
 30
0.0
 10
8.8749000000000002
 20
-1.9995400000000001
 30
0.0
 10
8.8749000000000002
 20
-1.9995400000000001
 30
0.0
 10
8.8799800000000015
 20
-1.9995400000000001
 30
0.0
 10
8.8825200000000013
 20
-1.9919200000000001
 30
0.0
 10
8.8825200000000013
 20
-1.9868400000000002
 30
0.0
 10
8.8825200000000013
 20
-1.9868400000000002
 30
0.0
 10
8.8825200000000013
 20
-1.9843000000000002
 30
0.0
 10
8.87744
 20
-1.9792200000000002
 30
0.0
 10
8.8749000000000002
 20
-1.9792200000000002
 30
0.0
  0
SPLINE
  5
30
100
AcDbEntity
  8
Ebene 1
 62
     1
100
AcDbSpline
210
0.0
220
0.0
230
1.0
 70
     1
 71
     3
 72
    36
 73
    32
 74
     0
 42
0.0000000001
 43
0.0000000001
 40
0.0
 40
0.0
 40
0.0
 40
0.0
 40
0.125
 40
0.125
 40
0.125
 40
0.125
 40
0.25
 40
0.25
 40
0.25
 40
0.25
 40
0.375
 40
0.375
 40
0.375
 40
0.375
 40
0.5
 40
0.5
 40
0.5
 40
0.5
 40
0.625
 40
0.625
 40
0.625
 40
0.625
 40
0.75
 40
0.75
 40
0.75
 40
0.75
 40
0.875
 40
0.875
 40
0.875
 40
0.875
 40
1.0
 40
1.0
 40
1.0
 40
1.0
 10
8.1890999999999998
 20
-1.2807200000000001
 30
0.0
 10
7.7090400000000008
 20
-0.9352800000000001
 30
0.0
 10
7.4347200000000004
 20
-0.44252
 30
0.0
 10
7.1045200000000008
 20
0.01467
 30
0.0
 10
7.1045200000000008
 20
0.01467
 30
0.0
 10
6.8860800000000006
 20
0.30169
 30
0.0
 10
6.6549400000000007
 20
0.55823
 30
0.0
 10
6.3679200000000007
 20
0.7741300000000001
 30
0.0
 10
6.3679200000000007
 20
0.7741300000000001
 30
0.0
 10
5.8497600000000007
 20
1.15259
 30
0.0
 10
5.06236
 20
1.3761100000000002
 30
0.0
 10
4.3765600000000004
 20
1.2516500000000002
 30
0.0
 10
4.3765600000000004
 20
1.2516500000000002
 30
0.0
 10
4.3613200000000001
 20
1.2491100000000002
 30
0.0
 10
4.3638600000000007
 20
1.23387
 30
0.0
 10
4.3765600000000004
 20
1.23387
 30
0.0
 10
4.3765600000000004
 20
1.23387
 30
0.0
 10
5.31128
 20
1.23895
 30
0.0
 10
5.9996200000000002
 20
0.76905
 30
0.0
 10
6.6168400000000007
 20
0.07817
 30
0.0
 10
6.6168400000000007
 20
0.07817
 30
0.0
 10
7.0689600000000006
 20
-0.4247400000000001
 30
0.0
 10
7.4321800000000007
 20
-0.95052
 30
0.0
 10
8.176400000000001
 20
-1.2985000000000002
 30
0.0
 10
8.176400000000001
 20
-1.2985000000000002
 30
0.0
 10
8.1814800000000005
 20
-1.2985000000000002
 30
0.0
 10
8.1890999999999998
 20
-1.2985000000000002
 30
0.0
 10
8.1890999999999998
 20
-1.29342
 30
0.0
 10
8.1890999999999998
 20
-1.29342
 30
0.0
 10
8.1916400000000014
 20
-1.28834
 30
0.0
 10
8.1916400000000014
 20
-1.2832600000000001
 30
0.0
 10
8.1890999999999998
 20
-1.2807200000000001
 30
0.0
  0
SPLINE
  5
31
100
AcDbEntity
  8
Ebene 1
 62
     1
100
AcDbSpline
210
0.0
220
0.0
230
1.0
 70
     1
 71
     3
 72
   660
 73
   656
 74
     0
 42
0.0000000001
 43
0.0000000001
 40
0.0
 40
0.0
 40
0.0
 40
0.0
 40
0.0060975609756098
 40
0.0060975609756098
 40
0.0060975609756098
 40
0.0060975609756098
 40
0.0121951219512195
 40
0.0121951219512195
 40
0.0121951219512195
 40
0.0121951219512195
 40
0.0182926829268293
 40
0.0182926829268293
 40
0.0182926829268293
 40
0.0182926829268293
 40
0.024390243902439
 40
0.024390243902439
 40
0.024390243902439
 40
0.024390243902439
 40
0.0304878048780488
 40
0.0304878048780488
 40
0.0304878048780488
 40
0.0304878048780488
 40
0.0365853658536585
 40
0.0365853658536585
 40
0.0365853658536585
 40
0.0365853658536585
 40
0.0426829268292683
 40
0.0426829268292683
 40
0.0426829268292683
 40
0.0426829268292683
 40
0.048780487804878
 40
0.048780487804878
 40
0.048780487804878
 40
0.048780487804878
 40
0.0548780487804878
 40
0.0548780487804878
 40
0.0548780487804878
 40
0.0548780487804878
 40
0.0609756097560976
 40
0.0609756097560976
 40
0.0609756097560976
 40
0.0609756097560976
 40
0.0670731707317073
 40
0.0670731707317073
 40
0.0670731707317073
 40
0.0670731707317073
 40
0.0731707317073171
 40
0.0731707317073171
 40
0.0731707317073171
 40
0.0731707317073171
 40
0.0792682926829268
 40
0.0792682926829268
 40
0.0792682926829268
 40
0.0792682926829268
 40
0.0853658536585366
 40
0.0853658536585366
 40
0.0853658536585366
 40
0.0853658536585366
 40
0.0914634146341464
 40
0.0914634146341464
 40
0.0914634146341464
 40
0.0914634146341464
 40
0.0975609756097561
 40
0.0975609756097561
 40
0.0975609756097561
 40
0.0975609756097561
 40
0.1036585365853659
 40
0.1036585365853659
 40
0.1036585365853659
 40
0.1036585365853659
 40
0.1097560975609756
 40
0.1097560975609756
 40
0.1097560975609756
 40
0.1097560975609756
 40
0.1158536585365854
 40
0.1158536585365854
 40
0.1158536585365854
 40
0.1158536585365854
 40
0.1219512195121952
 40
0.1219512195121952
 40
0.1219512195121952
 40
0.1219512195121952
 40
0.1280487804878049
 40
0.1280487804878049
 40
0.1280487804878049
 40
0.1280487804878049
 40
0.1341463414634147
 40
0.1341463414634147
 40
0.1341463414634147
 40
0.1341463414634147
 40
0.1402439024390244
 40
0.1402439024390244
 40
0.1402439024390244
 40
0.1402439024390244
 40
0.1463414634146342
 40
0.1463414634146342
 40
0.1463414634146342
 40
0.1463414634146342
 40
0.152439024390244
 40
0.152439024390244
 40
0.152439024390244
 40
0.152439024390244
 40
0.1585365853658537
 40
0.1585365853658537
 40
0.1585365853658537
 40
0.1585365853658537
 40
0.1646341463414635
 40
0.1646341463414635
 40
0.1646341463414635
 40
0.1646341463414635
 40
0.1707317073170732
 40
0.1707317073170732
 40
0.1707317073170732
 40
0.1707317073170732
 40
0.176829268292683
 40
0.176829268292683
 40
0.176829268292683
 40
0.176829268292683
 40
0.1829268292682928
 40
0.1829268292682928
 40
0.1829268292682928
 40
0.1829268292682928
 40
0.1890243902439025
 40
0.1890243902439025
 40
0.1890243902439025
 40
0.1890243902439025
 40
0.1951219512195123
 40
0.1951219512195123
 40
0.1951219512195123
 40
0.1951219512195123
 40
0.2012195121951221
 40
0.2012195121951221
 40
0.2012195121951221
 40
0.2012195121951221
 40
0.2073170731707318
 40
0.2073170731707318
 40
0.2073170731707318
 40
0.2073170731707318
 40
0.2134146341463416
 40
0.2134146341463416
 40
0.2134146341463416
 40
0.2134146341463416
 40
0.2195121951219513
 40
0.2195121951219513
 40
0.2195121951219513
 40
0.2195121951219513
 40
0.2256097560975611
 40
0.2256097560975611
 40
0.2256097560975611
 40
0.2256097560975611
 40
0.2317073170731709
 40
0.2317073170731709
 40
0.2317073170731709
 40
0.2317073170731709
 40
0.2378048780487806
 40
0.2378048780487806
 40
0.2378048780487806
 40
0.2378048780487806
 40
0.2439024390243904
 40
0.2439024390243904
 40
0.2439024390243904
 40
0.2439024390243904
 40
0.2500000000000001
 40
0.2500000000000001
 40
0.2500000000000001
 40
0.2500000000000001
 40
0.2560975609756099
 40
0.2560975609756099
 40
0.2560975609756099
 40
0.2560975609756099
 40
0.2621951219512196
 40
0.2621951219512196
 40
0.2621951219512196
 40
0.2621951219512196
 40
0.2682926829268294
 40
0.2682926829268294
 40
0.2682926829268294
 40
0.2682926829268294
 40
0.2743902439024392
 40
0.2743902439024392
 40
0.2743902439024392
 40
0.2743902439024392
 40
0.2804878048780489
 40
0.2804878048780489
 40
0.2804878048780489
 40
0.2804878048780489
 40
0.2865853658536587
 40
0.2865853658536587
 40
0.2865853658536587
 40
0.2865853658536587
 40
0.2926829268292684
 40
0.2926829268292684
 40
0.2926829268292684
 40
0.2926829268292684
 40
0.2987804878048782
 40
0.2987804878048782
 40
0.2987804878048782
 40
0.2987804878048782
 40
0.304878048780488
 40
0.304878048780488
 40
0.304878048780488
 40
0.304878048780488
 40
0.3109756097560977
 40
0.3109756097560977
 40
0.3109756097560977
 40
0.3109756097560977
 40
0.3170731707317075
 40
0.3170731707317075
 40
0.3170731707317075
 40
0.3170731707317075
 40
0.3231707317073173
 40
0.3231707317073173
 40
0.3231707317073173
 40
0.3231707317073173
 40
0.329268292682927
 40
0.329268292682927
 40
0.329268292682927
 40
0.329268292682927
 40
0.3353658536585368
 40
0.3353658536585368
 40
0.3353658536585368
 40
0.3353658536585368
 40
0.3414634146341465
 40
0.3414634146341465
 40
0.3414634146341465
 40
0.3414634146341465
 40
0.3475609756097563
 40
0.3475609756097563
 40
0.3475609756097563
 40
0.3475609756097563
 40
0.3536585365853661
 40
0.3536585365853661
 40
0.3536585365853661
 40
0.3536585365853661
 40
0.3597560975609758
 40
0.3597560975609758
 40
0.3597560975609758
 40
0.3597560975609758
 40
0.3658536585365856
 40
0.3658536585365856
 40
0.3658536585365856
 40
0.3658536585365856
 40
0.3719512195121953
 40
0.3719512195121953
 40
0.3719512195121953
 40
0.3719512195121953
 40
0.3780487804878051
 40
0.3780487804878051
 40
0.3780487804878051
 40
0.3780487804878051
 40
0.3841463414634149
 40
0.3841463414634149
 40
0.3841463414634149
 40
0.3841463414634149
 40
0.3902439024390246
 40
0.3902439024390246
 40
0.3902439024390246
 40
0.3902439024390246
 40
0.3963414634146344
 40
0.3963414634146344
 40
0.3963414634146344
 40
0.3963414634146344
 40
0.4024390243902442
 40
0.4024390243902442
 40
0.4024390243902442
 40
0.4024390243902442
 40
0.4085365853658539
 40
0.4085365853658539
 40
0.4085365853658539
 40
0.4085365853658539
 40
0.4146341463414637
 40
0.4146341463414637
 40
0.4146341463414637
 40
0.4146341463414637
 40
0.4207317073170734
 40
0.4207317073170734
 40
0.4207317073170734
 40
0.4207317073170734
 40
0.4268292682926832
 40
0.4268292682926832
 40
0.4268292682926832
 40
0.4268292682926832
 40
0.432926829268293
 40
0.432926829268293
 40
0.432926829268293
 40
0.432926829268293
 40
0.4390243902439027
 40
0.4390243902439027
 40
0.4390243902439027
 40
0.4390243902439027
 40
0.4451219512195125
 40
0.4451219512195125
 40
0.4451219512195125
 40
0.4451219512195125
 40
0.4512195121951222
 40
0.4512195121951222
 40
0.4512195121951222
 40
0.4512195121951222
 40
0.457317073170732
 40
0.457317073170732
 40
0.457317073170732
 40
0.457317073170732
 40
0.4634146341463418
 40
0.4634146341463418
 40
0.4634146341463418
 40
0.4634146341463418
 40
0.4695121951219515
 40
0.4695121951219515
 40
0.4695121951219515
 40
0.4695121951219515
 40
0.4756097560975613
 40
0.4756097560975613
 40
0.4756097560975613
 40
0.4756097560975613
 40
0.4817073170731711
 40
0.4817073170731711
 40
0.4817073170731711
 40
0.4817073170731711
 40
0.4878048780487808
 40
0.4878048780487808
 40
0.4878048780487808
 40
0.4878048780487808
 40
0.4939024390243906
 40
0.4939024390243906
 40
0.4939024390243906
 40
0.4939024390243906
 40
0.5000000000000003
 40
0.5000000000000003
 40
0.5000000000000003
 40
0.5000000000000003
 40
0.5060975609756101
 40
0.5060975609756101
 40
0.5060975609756101
 40
0.5060975609756101
 40
0.5121951219512199
 40
0.5121951219512199
 40
0.5121951219512199
 40
0.5121951219512199
 40
0.5182926829268296
 40
0.5182926829268296
 40
0.5182926829268296
 40
0.5182926829268296
 40
0.5243902439024394
 40
0.5243902439024394
 40
0.5243902439024394
 40
0.5243902439024394
 40
0.5304878048780491
 40
0.5304878048780491
 40
0.5304878048780491
 40
0.5304878048780491
 40
0.5365853658536589
 40
0.5365853658536589
 40
0.5365853658536589
 40
0.5365853658536589
 40
0.5426829268292687
 40
0.5426829268292687
 40
0.5426829268292687
 40
0.5426829268292687
 40
0.5487804878048784
 40
0.5487804878048784
 40
0.5487804878048784
 40
0.5487804878048784
 40
0.5548780487804882
 40
0.5548780487804882
 40
0.5548780487804882
 40
0.5548780487804882
 40
0.560975609756098
 40
0.560975609756098
 40
0.560975609756098
 40
0.560975609756098
 40
0.5670731707317077
 40
0.5670731707317077
 40
0.5670731707317077
 40
0.5670731707317077
 40
0.5731707317073175
 40
0.5731707317073175
 40
0.5731707317073175
 40
0.5731707317073175
 40
0.5792682926829272
 40
0.5792682926829272
 40
0.5792682926829272
 40
0.5792682926829272
 40
0.585365853658537
 40
0.585365853658537
 40
0.585365853658537
 40
0.585365853658537
 40
0.5914634146341468
 40
0.5914634146341468
 40
0.5914634146341468
 40
0.5914634146341468
 40
0.5975609756097565
 40
0.5975609756097565
 40
0.5975609756097565
 40
0.5975609756097565
 40
0.6036585365853663
 40
0.6036585365853663
 40
0.6036585365853663
 40
0.6036585365853663
 40
0.609756097560976
 40
0.609756097560976
 40
0.609756097560976
 40
0.609756097560976
 40
0.6158536585365858
 40
0.6158536585365858
 40
0.6158536585365858
 40
0.6158536585365858
 40
0.6219512195121956
 40
0.6219512195121956
 40
0.6219512195121956
 40
0.6219512195121956
 40
0.6280487804878053
 40
0.6280487804878053
 40
0.6280487804878053
 40
0.6280487804878053
 40
0.6341463414634151
 40
0.6341463414634151
 40
0.6341463414634151
 40
0.6341463414634151
 40
0.6402439024390249
 40
0.6402439024390249
 40
0.6402439024390249
 40
0.6402439024390249
 40
0.6463414634146346
 40
0.6463414634146346
 40
0.6463414634146346
 40
0.6463414634146346
 40
0.6524390243902444
 40
0.6524390243902444
 40
0.6524390243902444
 40
0.6524390243902444
 40
0.6585365853658541
 40
0.6585365853658541
 40
0.6585365853658541
 40
0.6585365853658541
 40
0.6646341463414639
 40
0.6646341463414639
 40
0.6646341463414639
 40
0.6646341463414639
 40
0.6707317073170737
 40
0.6707317073170737
 40
0.6707317073170737
 40
0.6707317073170737
 40
0.6768292682926834
 40
0.6768292682926834
 40
0.6768292682926834
 40
0.6768292682926834
 40
0.6829268292682932
 40
0.6829268292682932
 40
0.6829268292682932
 40
0.6829268292682932
 40
0.6890243902439029
 40
0.6890243902439029
 40
0.6890243902439029
 40
0.6890243902439029
 40
0.6951219512195127
 40
0.6951219512195127
 40
0.6951219512195127
 40
0.6951219512195127
 40
0.7012195121951225
 40
0.7012195121951225
 40
0.7012195121951225
 40
0.7012195121951225
 40
0.7073170731707322
 40
0.7073170731707322
 40
0.7073170731707322
 40
0.7073170731707322
 40
0.713414634146342
 40
0.713414634146342
 40
0.713414634146342
 40
0.713414634146342
 40
0.7195121951219518
 40
0.7195121951219518
 40
0.7195121951219518
 40
0.7195121951219518
 40
0.7256097560975615
 40
0.7256097560975615
 40
0.7256097560975615
 40
0.7256097560975615
 40
0.7317073170731713
 40
0.7317073170731713
 40
0.7317073170731713
 40
0.7317073170731713
 40
0.737804878048781
 40
0.737804878048781
 40
0.737804878048781
 40
0.737804878048781
 40
0.7439024390243908
 40
0.7439024390243908
 40
0.7439024390243908
 40
0.7439024390243908
 40
0.7500000000000006
 40
0.7500000000000006
 40
0.7500000000000006
 40
0.7500000000000006
 40
0.7560975609756103
 40
0.7560975609756103
 40
0.7560975609756103
 40
0.7560975609756103
 40
0.7621951219512201
 40
0.7621951219512201
 40
0.7621951219512201
 40
0.7621951219512201
 40
0.7682926829268298
 40
0.7682926829268298
 40
0.7682926829268298
 40
0.7682926829268298
 40
0.7743902439024396
 40
0.7743902439024396
 40
0.7743902439024396
 40
0.7743902439024396
 40
0.7804878048780494
 40
0.7804878048780494
 40
0.7804878048780494
 40
0.7804878048780494
 40
0.7865853658536591
 40
0.7865853658536591
 40
0.7865853658536591
 40
0.7865853658536591
 40
0.7926829268292689
 40
0.7926829268292689
 40
0.7926829268292689
 40
0.7926829268292689
 40
0.7987804878048787
 40
0.7987804878048787
 40
0.7987804878048787
 40
0.7987804878048787
 40
0.8048780487804884
 40
0.8048780487804884
 40
0.8048780487804884
 40
0.8048780487804884
 40
0.8109756097560982
 40
0.8109756097560982
 40
0.8109756097560982
 40
0.8109756097560982
 40
0.8170731707317079
 40
0.8170731707317079
 40
0.8170731707317079
 40
0.8170731707317079
 40
0.8231707317073177
 40
0.8231707317073177
 40
0.8231707317073177
 40
0.8231707317073177
 40
0.8292682926829275
 40
0.8292682926829275
 40
0.8292682926829275
 40
0.8292682926829275
 40
0.8353658536585372
 40
0.8353658536585372
 40
0.8353658536585372
 40
0.8353658536585372
 40
0.841463414634147
 40
0.841463414634147
 40
0.841463414634147
 40
0.841463414634147
 40
0.8475609756097567
 40
0.8475609756097567
 40
0.8475609756097567
 40
0.8475609756097567
 40
0.8536585365853665
 40
0.8536585365853665
 40
0.8536585365853665
 40
0.8536585365853665
 40
0.8597560975609763
 40
0.8597560975609763
 40
0.8597560975609763
 40
0.8597560975609763
 40
0.865853658536586
 40
0.865853658536586
 40
0.865853658536586
 40
0.865853658536586
 40
0.8719512195121958
 40
0.8719512195121958
 40
0.8719512195121958
 40
0.8719512195121958
 40
0.8780487804878056
 40
0.8780487804878056
 40
0.8780487804878056
 40
0.8780487804878056
 40
0.8841463414634153
 40
0.8841463414634153
 40
0.8841463414634153
 40
0.8841463414634153
 40
0.8902439024390251
 40
0.8902439024390251
 40
0.8902439024390251
 40
0.8902439024390251
 40
0.8963414634146348
 40
0.8963414634146348
 40
0.8963414634146348
 40
0.8963414634146348
 40
0.9024390243902446
 40
0.9024390243902446
 40
0.9024390243902446
 40
0.9024390243902446
 40
0.9085365853658544
 40
0.9085365853658544
 40
0.9085365853658544
 40
0.9085365853658544
 40
0.9146341463414641
 40
0.9146341463414641
 40
0.9146341463414641
 40
0.9146341463414641
 40
0.9207317073170739
 40
0.9207317073170739
 40
0.9207317073170739
 40
0.9207317073170739
 40
0.9268292682926836
 40
0.9268292682926836
 40
0.9268292682926836
 40
0.9268292682926836
 40
0.9329268292682934
 40
0.9329268292682934
 40
0.9329268292682934
 40
0.9329268292682934
 40
0.9390243902439032
 40
0.9390243902439032
 40
0.9390243902439032
 40
0.9390243902439032
 40
0.9451219512195129
 40
0.9451219512195129
 40
0.9451219512195129
 40
0.9451219512195129
 40
0.9512195121951227
 40
0.9512195121951227
 40
0.9512195121951227
 40
0.9512195121951227
 40
0.9573170731707325
 40
0.9573170731707325
 40
0.9573170731707325
 40
0.9573170731707325
 40
0.9634146341463422
 40
0.9634146341463422
 40
0.9634146341463422
 40
0.9634146341463422
 40
0.969512195121952
 40
0.969512195121952
 40
0.969512195121952
 40
0.969512195121952
 40
0.9756097560975617
 40
0.9756097560975617
 40
0.9756097560975617
 40
0.9756097560975617
 40
0.9817073170731715
 40
0.9817073170731715
 40
0.9817073170731715
 40
0.9817073170731715
 40
0.9878048780487813
 40
0.9878048780487813
 40
0.9878048780487813
 40
0.9878048780487813
 40
0.993902439024391
 40
0.993902439024391
 40
0.993902439024391
 40
0.993902439024391
 40
1.0
 40
1.0
 40
1.0
 40
1.0
 10
9.4210000000000012
 20
3.3801700000000001
 30
0.0
 10
9.3879800000000007
 20
3.4081100000000002
 30
0.0
 10
9.3625800000000012
 20
3.4309700000000003
 30
0.0
 10
9.3346400000000003
 20
3.4512900000000002
 30
0.0
 10
9.3346400000000003
 20
3.4512900000000002
 30
0.0
 10
9.327020000000001
 20
3.4563700000000002
 30
0.0
 10
9.3295600000000007
 20
3.4665300000000001
 30
0.0
 10
9.3397200000000016
 20
3.4690700000000003
 30
0.0
 10
9.3397200000000016
 20
3.4690700000000003
 30
0.0
 10
9.8680400000000006
 20
3.6773500000000001
 30
0.0
 10
10.401440000000001
 20
3.6951300000000002
 30
0.0
 10
10.934840000000001
 20
3.6595700000000004
 30
0.0
 10
10.934840000000001
 20
3.6595700000000004
 30
0.0
 10
11.145660000000001
 20
3.6468700000000003
 30
0.0
 10
11.353940000000001
 20
3.6544900000000005
 30
0.0
 10
11.562220000000002
 20
3.6240100000000002
 30
0.0
 10
11.562220000000002
 20
3.6240100000000002
 30
0.0
 10
11.7705
 20
3.5909900000000001
 30
0.0
 10
11.778120000000001
 20
4.1320100000000002
 30
0.0
 10
11.757800000000001
 20
4.3377500000000007
 30
0.0
 10
11.757800000000001
 20
4.3377500000000007
 30
0.0
 10
11.755260000000002
 20
4.3479100000000006
 30
0.0
 10
11.765420000000001
 20
4.3529900000000001
 30
0.0
 10
11.773040000000002
 20
4.3479100000000006
 30
0.0
 10
11.773040000000002
 20
4.3479100000000006
 30
0.0
 10
11.818760000000001
 20
4.3072699999999999
 30
0.0
 10
11.920360000000001
 20
4.1574100000000005
 30
0.0
 10
11.82892
 20
3.6392500000000001
 30
0.0
 10
11.82892
 20
3.6392500000000001
 30
0.0
 10
11.82638
 20
3.6341700000000001
 30
0.0
 10
11.82892
 20
3.6316300000000004
 30
0.0
 10
11.834000000000001
 20
3.6290900000000001
 30
0.0
 10
11.834000000000001
 20
3.6290900000000001
 30
0.0
 10
11.861940000000001
 20
3.6163900000000004
 30
0.0
 10
11.958460000000001
 20
3.5706700000000002
 30
0.0
 10
12.088000000000001
 20
3.4944700000000002
 30
0.0
 10
12.088000000000001
 20
3.4944700000000002
 30
0.0
 10
12.098160000000002
 20
3.4919300000000004
 30
0.0
 10
12.09308
 20
3.4766900000000005
 30
0.0
 10
12.082920000000001
 20
3.4766900000000005
 30
0.0
 10
12.082920000000001
 20
3.4766900000000005
 30
0.0
 10
12.004180000000002
 20
3.4843100000000002
 30
0.0
 10
11.877180000000001
 20
3.4919300000000004
 30
0.0
 10
11.762880000000001
 20
3.4868500000000004
 30
0.0
 10
11.762880000000001
 20
3.4868500000000004
 30
0.0
 10
11.57746
 20
3.4716100000000001
 30
0.0
 10
11.785740000000001
 20
3.4538300000000004
 30
0.0
 10
11.785740000000001
 20
3.4538300000000004
 30
0.0
 10
11.785740000000001
 20
3.4538300000000004
 30
0.0
 10
11.785740000000001
 20
3.4538300000000004
 30
0.0
 10
11.994020000000001
 20
3.4385900000000005
 30
0.0
 10
12.215000000000002
 20
3.4157300000000004
 30
0.0
 10
12.215000000000002
 20
3.4157300000000004
 30
0.0
 10
12.217540000000001
 20
3.4157300000000004
 30
0.0
 10
12.220080000000001
 20
3.4157300000000004
 30
0.0
 10
12.220080000000001
 20
3.4131900000000002
 30
0.0
 10
12.220080000000001
 20
3.4131900000000002
 30
0.0
 10
12.28866
 20
3.3801700000000001
 30
0.0
 10
12.367400000000002
 20
3.3319100000000001
 30
0.0
 10
12.43852
 20
3.2836500000000002
 30
0.0
 10
12.43852
 20
3.2836500000000002
 30
0.0
 10
12.446140000000002
 20
3.2785700000000002
 30
0.0
 10
12.44106
 20
3.2658700000000001
 30
0.0
 10
12.430900000000001
 20
3.2658700000000001
 30
0.0
 10
12.430900000000001
 20
3.2658700000000001
 30
0.0
 10
12.357240000000001
 20
3.2709500000000005
 30
0.0
 10
12.215000000000002
 20
3.2861900000000004
 30
0.0
 10
12.108320000000001
 20
3.2887300000000002
 30
0.0
 10
12.108320000000001
 20
3.2887300000000002
 30
0.0
 10
12.09562
 20
3.2887300000000002
 30
0.0
 10
12.09308
 20
3.2684100000000003
 30
0.0
 10
12.105780000000001
 20
3.2684100000000003
 30
0.0
 10
12.105780000000001
 20
3.2684100000000003
 30
0.0
 10
12.225160000000001
 20
3.2531700000000003
 30
0.0
 10
12.43852
 20
3.2328500000000004
 30
0.0
 10
12.545200000000001
 20
3.2074500000000001
 30
0.0
 10
12.545200000000001
 20
3.2074500000000001
 30
0.0
 10
12.547740000000001
 20
3.2074500000000001
 30
0.0
 10
12.547740000000001
 20
3.2074500000000001
 30
0.0
 10
12.550280000000001
 20
3.2074500000000001
 30
0.0
 10
12.550280000000001
 20
3.2074500000000001
 30
0.0
 10
12.7865
 20
3.0474300000000003
 30
0.0
 10
12.992240000000001
 20
2.8645500000000004
 30
0.0
 10
13.11162
 20
2.6740500000000003
 30
0.0
 10
13.11162
 20
2.6740500000000003
 30
0.0
 10
13.114160000000002
 20
2.6715100000000001
 30
0.0
 10
13.114160000000002
 20
2.6689700000000003
 30
0.0
 10
13.114160000000002
 20
2.6664300000000001
 30
0.0
 10
13.114160000000002
 20
2.6664300000000001
 30
0.0
 10
13.114160000000002
 20
2.6664300000000001
 30
0.0
 10
13.109080000000001
 20
2.6257900000000003
 30
0.0
 10
13.109080000000001
 20
2.6257900000000003
 30
0.0
 10
13.109080000000001
 20
2.6257900000000003
 30
0.0
 10
13.109080000000001
 20
2.6207100000000003
 30
0.0
 10
13.101460000000001
 20
2.6156300000000003
 30
0.0
 10
13.096380000000002
 20
2.6181700000000001
 30
0.0
 10
13.096380000000002
 20
2.6181700000000001
 30
0.0
 10
13.060820000000001
 20
2.6232500000000001
 30
0.0
 10
12.943980000000002
 20
2.6461100000000002
 30
0.0
 10
12.916040000000001
 20
2.59023
 30
0.0
 10
12.916040000000001
 20
2.59023
 30
0.0
 10
12.883020000000002
 20
2.5343500000000003
 30
0.0
 10
12.850000000000001
 20
2.25495
 30
0.0
 10
13.07352
 20
2.2701900000000004
 30
0.0
 10
13.07352
 20
2.2701900000000004
 30
0.0
 10
13.07352
 20
2.2701900000000004
 30
0.0
 10
13.076060000000002
 20
2.2727300000000001
 30
0.0
 10
13.076060000000002
 20
2.2727300000000001
 30
0.0
 10
13.076060000000002
 20
2.2727300000000001
 30
0.0
 10
13.083680000000001
 20
2.2727300000000001
 30
0.0
 10
13.134480000000002
 20
2.2905100000000003
 30
0.0
 10
13.157340000000001
 20
2.3489300000000002
 30
0.0
 10
13.157340000000001
 20
2.3489300000000002
 30
0.0
 10
13.162420000000001
 20
2.3590900000000001
 30
0.0
 10
13.147180000000001
 20
2.3692500000000001
 30
0.0
 10
13.139560000000001
 20
2.3590900000000001
 30
0.0
 10
13.139560000000001
 20
2.3590900000000001
 30
0.0
 10
13.114160000000002
 20
2.3260700000000001
 30
0.0
 10
13.07352
 20
2.2879700000000001
 30
0.0
 10
13.027800000000001
 20
2.3006700000000002
 30
0.0
 10
13.027800000000001
 20
2.3006700000000002
 30
0.0
 10
12.946520000000001
 20
2.3336900000000003
 30
0.0
 10
12.95668
 20
2.4073500000000001
 30
0.0
 10
13.020180000000002
 20
2.4149700000000003
 30
0.0
 10
13.020180000000002
 20
2.4149700000000003
 30
0.0
 10
13.07352
 20
2.42259
 30
0.0
 10
13.1294
 20
2.4454500000000001
 30
0.0
 10
13.098920000000001
 20
2.4860900000000004
 30
0.0
 10
13.098920000000001
 20
2.4860900000000004
 30
0.0
 10
13.058280000000002
 20
2.5267300000000001
 30
0.0
 10
12.931280000000001
 20
2.5572100000000004
 30
0.0
 10
13.017640000000002
 20
2.5749900000000001
 30
0.0
 10
13.017640000000002
 20
2.5749900000000001
 30
0.0
 10
13.017640000000002
 20
2.5749900000000001
 30
0.0
 10
13.020180000000002
 20
2.5749900000000001
 30
0.0
 10
13.020180000000002
 20
2.5749900000000001
 30
0.0
 10
13.020180000000002
 20
2.5749900000000001
 30
0.0
 10
13.098920000000001
 20
2.5978500000000002
 30
0.0
 10
13.139560000000001
 20
2.5572100000000004
 30
0.0
 10
13.154800000000002
 20
2.5191100000000004
 30
0.0
 10
13.154800000000002
 20
2.5191100000000004
 30
0.0
 10
13.266560000000002
 20
2.2574900000000002
 30
0.0
 10
13.79996
 20
1.9374500000000001
 30
0.0
 10
13.868540000000001
 20
1.6580500000000002
 30
0.0
 10
13.868540000000001
 20
1.6580500000000002
 30
0.0
 10
13.868540000000001
 20
1.65551
 30
0.0
 10
13.868540000000001
 20
1.6529700000000001
 30
0.0
 10
13.866000000000001
 20
1.6504300000000001
 30
0.0
 10
13.866000000000001
 20
1.6504300000000001
 30
0.0
 10
13.840600000000002
 20
1.61233
 30
0.0
 10
13.802500000000002
 20
1.5488300000000002
 30
0.0
 10
13.772020000000001
 20
1.4954900000000002
 30
0.0
 10
13.772020000000001
 20
1.4954900000000002
 30
0.0
 10
13.769480000000001
 20
1.4929500000000002
 30
0.0
 10
13.769480000000001
 20
1.4929500000000002
 30
0.0
 10
13.769480000000001
 20
1.4929500000000002
 30
0.0
 10
13.769480000000001
 20
1.4929500000000002
 30
0.0
 10
13.728840000000002
 20
1.4294500000000001
 30
0.0
 10
13.807580000000002
 20
1.49041
 30
0.0
 10
13.868540000000001
 20
1.5589900000000001
 30
0.0
 10
13.868540000000001
 20
1.5589900000000001
 30
0.0
 10
13.87616
 20
1.5640700000000001
 30
0.0
 10
13.883780000000002
 20
1.5615300000000001
 30
0.0
 10
13.886320000000001
 20
1.5513700000000001
 30
0.0
 10
13.886320000000001
 20
1.5513700000000001
 30
0.0
 10
13.893940000000001
 20
1.4954900000000002
 30
0.0
 10
13.899020000000002
 20
1.4319900000000001
 30
0.0
 10
13.899020000000002
 20
1.3557900000000001
 30
0.0
 10
13.899020000000002
 20
1.3557900000000001
 30
0.0
 10
13.899020000000002
 20
1.3507100000000001
 30
0.0
 10
13.89648
 20
1.3481700000000001
 30
0.0
 10
13.89648
 20
1.3481700000000001
 30
0.0
 10
13.89648
 20
1.3481700000000001
 30
0.0
 10
13.845680000000002
 20
1.31515
 30
0.0
 10
13.739000000000001
 20
1.2618100000000001
 30
0.0
 10
13.716140000000001
 20
1.2211700000000001
 30
0.0
 10
13.716140000000001
 20
1.2211700000000001
 30
0.0
 10
13.700900000000001
 20
1.1983100000000002
 30
0.0
 10
13.708520000000002
 20
1.1983100000000002
 30
0.0
 10
13.731380000000001
 20
1.2059300000000002
 30
0.0
 10
13.731380000000001
 20
1.2059300000000002
 30
0.0
 10
13.76186
 20
1.2211700000000001
 30
0.0
 10
13.827900000000001
 20
1.2440300000000002
 30
0.0
 10
13.893940000000001
 20
1.27197
 30
0.0
 10
13.893940000000001
 20
1.27197
 30
0.0
 10
13.899020000000002
 20
1.27451
 30
0.0
 10
13.909180000000001
 20
1.2694300000000001
 30
0.0
 10
13.909180000000001
 20
1.2643500000000001
 30
0.0
 10
13.909180000000001
 20
1.2643500000000001
 30
0.0
 10
13.909180000000001
 20
1.2211700000000001
 30
0.0
 10
13.909180000000001
 20
1.1805300000000001
 30
0.0
 10
13.909180000000001
 20
1.1424300000000001
 30
0.0
 10
13.909180000000001
 20
1.1424300000000001
 30
0.0
 10
13.909180000000001
 20
1.1373500000000001
 30
0.0
 10
13.904100000000001
 20
1.1348100000000001
 30
0.0
 10
13.899020000000002
 20
1.1322700000000001
 30
0.0
 10
13.899020000000002
 20
1.1322700000000001
 30
0.0
 10
13.855840000000001
 20
1.1221100000000002
 30
0.0
 10
13.769480000000001
 20
1.10179
 30
0.0
 10
13.72376
 20
1.0941700000000001
 30
0.0
 10
13.72376
 20
1.0941700000000001
 30
0.0
 10
13.657720000000001
 20
1.0941700000000001
 30
0.0
 10
13.51294
 20
1.0078100000000001
 30
0.0
 10
13.89648
 20
1.06115
 30
0.0
 10
13.89648
 20
1.06115
 30
0.0
 10
13.901560000000002
 20
1.06115
 30
0.0
 10
13.909180000000001
 20
1.0560700000000001
 30
0.0
 10
13.909180000000001
 20
1.0509900000000001
 30
0.0
 10
13.909180000000001
 20
1.0509900000000001
 30
0.0
 10
13.909180000000001
 20
1.0154300000000001
 30
0.0
 10
13.909180000000001
 20
0.97733
 30
0.0
 10
13.909180000000001
 20
0.9392300000000001
 30
0.0
 10
13.909180000000001
 20
0.9392300000000001
 30
0.0
 10
13.909180000000001
 20
0.9316100000000001
 30
0.0
 10
13.901560000000002
 20
0.9265300000000001
 30
0.0
 10
13.89648
 20
0.9265300000000001
 30
0.0
 10
13.89648
 20
0.9265300000000001
 30
0.0
 10
13.845680000000002
 20
0.93415
 30
0.0
 10
13.76186
 20
0.9316100000000001
 30
0.0
 10
13.731380000000001
 20
0.9163700000000001
 30
0.0
 10
13.731380000000001
 20
0.9163700000000001
 30
0.0
 10
13.693280000000001
 20
0.9011300000000001
 30
0.0
 10
13.72376
 20
0.9011300000000001
 30
0.0
 10
13.89648
 20
0.8858900000000001
 30
0.0
 10
13.89648
 20
0.8858900000000001
 30
0.0
 10
13.904100000000001
 20
0.8858900000000001
 30
0.0
 10
13.909180000000001
 20
0.8808100000000001
 30
0.0
 10
13.906640000000001
 20
0.8757300000000001
 30
0.0
 10
13.906640000000001
 20
0.8757300000000001
 30
0.0
 10
13.899020000000002
 20
0.7588900000000001
 30
0.0
 10
13.891400000000001
 20
0.6496700000000001
 30
0.0
 10
13.87616
 20
0.55823
 30
0.0
 10
13.87616
 20
0.55823
 30
0.0
 10
13.827900000000001
 20
0.17215
 30
0.0
 10
13.764400000000002
 20
0.12643
 30
0.0
 10
13.746620000000002
 20
0.06039
 30
0.0
 10
13.746620000000002
 20
0.06039
 30
0.0
 10
13.739000000000001
 20
0.01213
 30
0.0
 10
13.612000000000002
 20
-0.21392
 30
0.0
 10
13.634860000000002
 20
-0.3333
 30
0.0
 10
13.634860000000002
 20
-0.3333
 30
0.0
 10
13.657720000000001
 20
-0.44506
 30
0.0
 10
13.612000000000002
 20
-0.5415800000000001
 30
0.0
 10
13.563740000000001
 20
-0.5009400000000001
 30
0.0
 10
13.563740000000001
 20
-0.5009400000000001
 30
0.0
 10
13.515480000000002
 20
-0.46284
 30
0.0
 10
13.355460000000001
 20
-0.9022600000000001
 30
0.0
 10
13.314820000000001
 20
-0.75748
 30
0.0
 10
13.314820000000001
 20
-0.75748
 30
0.0
 10
13.276720000000001
 20
-0.6127
 30
0.0
 10
13.180200000000001
 20
-1.2223000000000002
 30
0.0
 10
13.147180000000001
 20
-1.1003800000000001
 30
0.0
 10
13.147180000000001
 20
-1.1003800000000001
 30
0.0
 10
13.124320000000001
 20
-0.9886200000000001
 30
0.0
 10
13.020180000000002
 20
-1.4382000000000001
 30
0.0
 10
12.931280000000001
 20
-1.2705600000000001
 30
0.0
 10
12.931280000000001
 20
-1.2705600000000001
 30
0.0
 10
12.834760000000001
 20
-1.1029200000000001
 30
0.0
 10
12.811900000000001
 20
-1.7734800000000002
 30
0.0
 10
12.789040000000002
 20
-1.6464800000000002
 30
0.0
 10
12.789040000000002
 20
-1.6464800000000002
 30
0.0
 10
12.756020000000001
 20
-1.5271000000000001
 30
0.0
 10
12.700140000000001
 20
-1.9487400000000001
 30
0.0
 10
12.644260000000001
 20
-1.8471400000000002
 30
0.0
 10
12.644260000000001
 20
-1.8471400000000002
 30
0.0
 10
12.644260000000001
 20
-1.8471400000000002
 30
0.0
 10
12.644260000000001
 20
-1.8446000000000002
 30
0.0
 10
12.641720000000001
 20
-1.8446000000000002
 30
0.0
 10
12.641720000000001
 20
-1.8446000000000002
 30
0.0
 10
12.618860000000002
 20
-1.7836400000000001
 30
0.0
 10
12.580760000000001
 20
-1.79634
 30
0.0
 10
12.552820000000001
 20
-1.8268200000000001
 30
0.0
 10
12.552820000000001
 20
-1.8268200000000001
 30
0.0
 10
12.547740000000001
 20
-1.8344400000000001
 30
0.0
 10
12.53504
 20
-1.8293600000000001
 30
0.0
 10
12.53758
 20
-1.8166600000000002
 30
0.0
 10
12.53758
 20
-1.8166600000000002
 30
0.0
 10
12.550280000000001
 20
-1.6845800000000002
 30
0.0
 10
12.562980000000001
 20
-1.5220200000000002
 30
0.0
 10
12.474080000000001
 20
-1.6109200000000001
 30
0.0
 10
12.474080000000001
 20
-1.6109200000000001
 30
0.0
 10
12.354700000000001
 20
-1.7404600000000001
 30
0.0
 10
12.098160000000002
 20
-2.1748000000000003
 30
0.0
 10
12.01942
 20
-2.2865600000000001
 30
0.0
 10
12.01942
 20
-2.2865600000000001
 30
0.0
 10
11.948300000000001
 20
-2.3907000000000003
 30
0.0
 10
11.892420000000001
 20
-2.2230600000000003
 30
0.0
 10
11.707000000000001
 20
-2.2865600000000001
 30
0.0
 10
11.707000000000001
 20
-2.2865600000000001
 30
0.0
 10
11.52158
 20
-2.36022
 30
0.0
 10
11.402200000000001
 20
-2.4161000000000001
 30
0.0
 10
11.506340000000002
 20
-2.2230600000000003
 30
0.0
 10
11.506340000000002
 20
-2.2230600000000003
 30
0.0
 10
11.529200000000001
 20
-2.1849600000000002
 30
0.0
 10
11.544440000000002
 20
-2.1468600000000002
 30
0.0
 10
11.55968
 20
-2.1113
 30
0.0
 10
11.55968
 20
-2.1113
 30
0.0
 10
11.562220000000002
 20
-2.10622
 30
0.0
 10
11.564760000000001
 20
-2.1036800000000002
 30
0.0
 10
11.569840000000001
 20
-2.1036800000000002
 30
0.0
 10
11.569840000000001
 20
-2.1036800000000002
 30
0.0
 10
11.684140000000001
 20
-2.1087600000000002
 30
0.0
 10
12.024500000000002
 20
-2.0782800000000003
 30
0.0
 10
12.199760000000001
 20
-1.92334
 30
0.0
 10
12.199760000000001
 20
-1.92334
 30
0.0
 10
12.552820000000001
 20
-1.6109200000000001
 30
0.0
 10
12.461380000000002
 20
-1.1207
 30
0.0
 10
12.291200000000002
 20
-0.7498600000000001
 30
0.0
 10
12.291200000000002
 20
-0.7498600000000001
 30
0.0
 10
12.032120000000001
 20
-0.19106
 30
0.0
 10
11.97878
 20
0.18485
 30
0.0
 10
12.060060000000002
 20
0.4312300000000001
 30
0.0
 10
12.060060000000002
 20
0.4312300000000001
 30
0.0
 10
12.062600000000002
 20
0.43885
 30
0.0
 10
12.072760000000001
 20
0.4413900000000001
 30
0.0
 10
12.07784
 20
0.43631
 30
0.0
 10
12.07784
 20
0.43631
 30
0.0
 10
12.245480000000001
 20
0.28899
 30
0.0
 10
12.301360000000001
 20
-0.67366
 30
0.0
 10
12.435980000000001
 20
-0.49586
 30
0.0
 10
12.435980000000001
 20
-0.49586
 30
0.0
 10
12.435980000000001
 20
-0.49586
 30
0.0
 10
12.435980000000001
 20
-0.49332
 30
0.0
 10
12.435980000000001
 20
-0.49332
 30
0.0
 10
12.435980000000001
 20
-0.49332
 30
0.0
 10
12.562980000000001
 20
-0.3104400000000001
 30
0.0
 10
12.55536
 20
0.58109
 30
0.0
 10
12.644260000000001
 20
0.5023500000000001
 30
0.0
 10
12.644260000000001
 20
0.5023500000000001
 30
0.0
 10
12.738240000000001
 20
0.41345
 30
0.0
 10
12.789040000000002
 20
0.30931
 30
0.0
 10
12.867780000000002
 20
0.37281
 30
0.0
 10
12.867780000000002
 20
0.37281
 30
0.0
 10
12.946520000000001
 20
0.43631
 30
0.0
 10
12.979540000000002
 20
0.32455
 30
0.0
 10
13.17004
 20
0.3575700000000001
 30
0.0
 10
13.17004
 20
0.3575700000000001
 30
0.0
 10
13.370700000000001
 20
0.3804300000000001
 30
0.0
 10
13.32244
 20
0.39567
 30
0.0
 10
13.37832
 20
0.39567
 30
0.0
 10
13.37832
 20
0.39567
 30
0.0
 10
13.434200000000001
 20
0.39567
 30
0.0
 10
13.451980000000001
 20
-0.3739400000000001
 30
0.0
 10
13.507860000000001
 20
-0.3739400000000001
 30
0.0
 10
13.507860000000001
 20
-0.3739400000000001
 30
0.0
 10
13.57136
 20
-0.3739400000000001
 30
0.0
 10
13.746620000000002
 20
0.5633100000000001
 30
0.0
 10
13.779640000000001
 20
0.6928500000000001
 30
0.0
 10
13.779640000000001
 20
0.6928500000000001
 30
0.0
 10
13.802500000000002
 20
0.8223900000000001
 30
0.0
 10
13.58914
 20
0.8223900000000001
 30
0.0
 10
13.459600000000002
 20
0.8604900000000001
 30
0.0
 10
13.459600000000002
 20
0.8604900000000001
 30
0.0
 10
13.375780000000001
 20
0.8833500000000001
 30
0.0
 10
13.365620000000002
 20
0.9747900000000001
 30
0.0
 10
13.365620000000002
 20
1.03067
 30
0.0
 10
13.365620000000002
 20
1.03067
 30
0.0
 10
13.365620000000002
 20
1.0357500000000002
 30
0.0
 10
13.365620000000002
 20
1.0382900000000002
 30
0.0
 10
13.368160000000001
 20
1.0408300000000001
 30
0.0
 10
13.368160000000001
 20
1.0408300000000001
 30
0.0
 10
13.477380000000002
 20
1.10687
 30
0.0
 10
13.601840000000001
 20
1.27705
 30
0.0
 10
13.507860000000001
 20
1.27705
 30
0.0
 10
13.507860000000001
 20
1.27705
 30
0.0
 10
13.411340000000001
 20
1.27705
 30
0.0
 10
13.37832
 20
1.5005700000000002
 30
0.0
 10
13.482460000000001
 20
1.5107300000000001
 30
0.0
 10
13.482460000000001
 20
1.5107300000000001
 30
0.0
 10
13.482460000000001
 20
1.5107300000000001
 30
0.0
 10
13.485000000000001
 20
1.5107300000000001
 30
0.0
 10
13.485000000000001
 20
1.5107300000000001
 30
0.0
 10
13.485000000000001
 20
1.5107300000000001
 30
0.0
 10
13.58914
 20
1.5107300000000001
 30
0.0
 10
13.596760000000002
 20
1.5107300000000001
 30
0.0
 10
13.62724
 20
1.5183500000000001
 30
0.0
 10
13.62724
 20
1.5183500000000001
 30
0.0
 10
13.779640000000001
 20
1.5488300000000002
 30
0.0
 10
13.716140000000001
 20
1.7266300000000001
 30
0.0
 10
13.652640000000002
 20
1.8079100000000001
 30
0.0
 10
13.652640000000002
 20
1.8079100000000001
 30
0.0
 10
13.434200000000001
 20
2.0619100000000001
 30
0.0
 10
12.794120000000001
 20
2.3743300000000001
 30
0.0
 10
13.236080000000001
 20
2.0771500000000001
 30
0.0
 10
13.236080000000001
 20
2.0771500000000001
 30
0.0
 10
13.459600000000002
 20
1.9349100000000001
 30
0.0
 10
13.523100000000001
 20
1.8637900000000001
 30
0.0
 10
13.563740000000001
 20
1.78251
 30
0.0
 10
13.563740000000001
 20
1.78251
 30
0.0
 10
13.62724
 20
1.6301100000000002
 30
0.0
 10
13.563740000000001
 20
1.6224900000000002
 30
0.0
 10
13.459600000000002
 20
1.6301100000000002
 30
0.0
 10
13.459600000000002
 20
1.6301100000000002
 30
0.0
 10
13.22592
 20
1.6377300000000001
 30
0.0
 10
12.771260000000002
 20
1.6783700000000001
 30
0.0
 10
12.7484
 20
1.6224900000000002
 30
0.0
 10
12.7484
 20
1.6224900000000002
 30
0.0
 10
12.715380000000001
 20
1.5666100000000001
 30
0.0
 10
12.733160000000002
 20
1.4929500000000002
 30
0.0
 10
12.890640000000001
 20
1.5183500000000001
 30
0.0
 10
12.890640000000001
 20
1.5183500000000001
 30
0.0
 10
13.058280000000002
 20
1.5437500000000002
 30
0.0
 10
13.162420000000001
 20
1.5107300000000001
 30
0.0
 10
13.17004
 20
1.4142100000000002
 30
0.0
 10
13.17004
 20
1.4142100000000002
 30
0.0
 10
13.17004
 20
1.3253100000000002
 30
0.0
 10
13.218300000000001
 20
1.27705
 30
0.0
 10
13.020180000000002
 20
1.2694300000000001
 30
0.0
 10
13.020180000000002
 20
1.2694300000000001
 30
0.0
 10
12.885560000000002
 20
1.2618100000000001
 30
0.0
 10
13.0151
 20
1.1373500000000001
 30
0.0
 10
13.152260000000002
 20
1.07131
 30
0.0
 10
13.152260000000002
 20
1.07131
 30
0.0
 10
13.154800000000002
 20
1.06877
 30
0.0
 10
13.154800000000002
 20
1.06877
 30
0.0
 10
13.154800000000002
 20
1.06623
 30
0.0
 10
13.154800000000002
 20
1.06623
 30
0.0
 10
13.195440000000001
 20
0.9620900000000001
 30
0.0
 10
13.274180000000001
 20
0.78937
 30
0.0
 10
13.083680000000001
 20
0.74873
 30
0.0
 10
13.083680000000001
 20
0.74873
 30
0.0
 10
12.916040000000001
 20
0.7106300000000001
 30
0.0
 10
12.659500000000001
 20
0.62173
 30
0.0
 10
12.491860000000001
 20
0.5912500000000001
 30
0.0
 10
12.491860000000001
 20
0.5912500000000001
 30
0.0
 10
12.28612
 20
0.55569
 30
0.0
 10
12.103240000000001
 20
0.7588900000000001
 30
0.0
 10
11.963540000000002
 20
0.6877700000000001
 30
0.0
 10
11.963540000000002
 20
0.6877700000000001
 30
0.0
 10
11.961
 20
0.6877700000000001
 30
0.0
 10
11.961
 20
0.68523
 30
0.0
 10
11.961
 20
0.68523
 30
0.0
 10
11.961
 20
0.68523
 30
0.0
 10
11.927980000000002
 20
0.6877700000000001
 30
0.0
 10
11.879720000000001
 20
0.6928500000000001
 30
0.0
 10
11.836540000000001
 20
0.6928500000000001
 30
0.0
 10
11.836540000000001
 20
0.6928500000000001
 30
0.0
 10
11.836540000000001
 20
0.6928500000000001
 30
0.0
 10
11.836540000000001
 20
0.6928500000000001
 30
0.0
 10
11.834000000000001
 20
0.6928500000000001
 30
0.0
 10
11.834000000000001
 20
0.6928500000000001
 30
0.0
 10
11.562220000000002
 20
0.7106300000000001
 30
0.0
 10
11.394580000000001
 20
0.91129
 30
0.0
 10
11.371720000000002
 20
0.9900300000000001
 30
0.0
 10
11.371720000000002
 20
0.9900300000000001
 30
0.0
 10
11.371720000000002
 20
0.9900300000000001
 30
0.0
 10
11.376800000000001
 20
0.9900300000000001
 30
0.0
 10
11.38442
 20
0.9900300000000001
 30
0.0
 10
11.38442
 20
0.9900300000000001
 30
0.0
 10
11.38696
 20
0.9900300000000001
 30
0.0
 10
11.38696
 20
0.9900300000000001
 30
0.0
 10
11.38696
 20
0.9874900000000001
 30
0.0
 10
11.38696
 20
0.9874900000000001
 30
0.0
 10
11.493640000000001
 20
0.9417700000000001
 30
0.0
 10
11.676520000000002
 20
0.91129
 30
0.0
 10
11.88226
 20
0.91129
 30
0.0
 10
11.88226
 20
0.91129
 30
0.0
 10
12.042280000000002
 20
0.91129
 30
0.0
 10
12.25056
 20
0.9163700000000001
 30
0.0
 10
12.435980000000001
 20
0.99765
 30
0.0
 10
12.435980000000001
 20
0.99765
 30
0.0
 10
12.491860000000001
 20
1.02305
 30
0.0
 10
11.701920000000001
 20
0.9900300000000001
 30
0.0
 10
11.36918
 20
1.0992500000000001
 30
0.0
 10
11.36918
 20
1.0992500000000001
 30
0.0
 10
11.364100000000001
 20
1.10179
 30
0.0
 10
11.361560000000001
 20
1.10433
 30
0.0
 10
11.361560000000001
 20
1.10941
 30
0.0
 10
11.361560000000001
 20
1.10941
 30
0.0
 10
11.364100000000001
 20
1.15259
 30
0.0
 10
11.376800000000001
 20
1.19323
 30
0.0
 10
11.389500000000002
 20
1.2541900000000001
 30
0.0
 10
11.389500000000002
 20
1.2541900000000001
 30
0.0
 10
11.392040000000001
 20
1.2643500000000001
 30
0.0
 10
11.402200000000001
 20
1.2643500000000001
 30
0.0
 10
11.40474
 20
1.2618100000000001
 30
0.0
 10
11.40474
 20
1.2618100000000001
 30
0.0
 10
11.61556
 20
1.1271900000000001
 30
0.0
 10
12.136260000000002
 20
1.1246500000000001
 30
0.0
 10
12.331840000000001
 20
1.1424300000000001
 30
0.0
 10
12.331840000000001
 20
1.1424300000000001
 30
0.0
 10
12.342000000000001
 20
1.1424300000000001
 30
0.0
 10
12.342000000000001
 20
1.1627500000000002
 30
0.0
 10
12.331840000000001
 20
1.1627500000000002
 30
0.0
 10
12.331840000000001
 20
1.1627500000000002
 30
0.0
 10
12.09308
 20
1.1983100000000002
 30
0.0
 10
11.623180000000001
 20
1.2084700000000002
 30
0.0
 10
11.440300000000001
 20
1.3862700000000001
 30
0.0
 10
11.440300000000001
 20
1.3862700000000001
 30
0.0
 10
11.435220000000001
 20
1.3888100000000001
 30
0.0
 10
11.435220000000001
 20
1.3913500000000001
 30
0.0
 10
11.435220000000001
 20
1.3964300000000001
 30
0.0
 10
11.435220000000001
 20
1.3964300000000001
 30
0.0
 10
11.458080000000001
 20
1.4624700000000002
 30
0.0
 10
11.48094
 20
1.5234300000000001
 30
0.0
 10
11.516500000000001
 20
1.5818500000000002
 30
0.0
 10
11.516500000000001
 20
1.5818500000000002
 30
0.0
 10
11.51904
 20
1.5869300000000002
 30
0.0
 10
11.526660000000001
 20
1.5869300000000002
 30
0.0
 10
11.529200000000001
 20
1.5869300000000002
 30
0.0
 10
11.529200000000001
 20
1.5869300000000002
 30
0.0
 10
11.648580000000001
 20
1.5234300000000001
 30
0.0
 10
11.933060000000001
 20
1.4370700000000001
 30
0.0
 10
12.258180000000001
 20
1.4243700000000001
 30
0.0
 10
12.258180000000001
 20
1.4243700000000001
 30
0.0
 10
12.270880000000002
 20
1.4218300000000001
 30
0.0
 10
12.270880000000002
 20
1.44215
 30
0.0
 10
12.258180000000001
 20
1.44469
 30
0.0
 10
12.258180000000001
 20
1.44469
 30
0.0
 10
12.0753
 20
1.4777100000000001
 30
0.0
 10
11.762880000000001
 20
1.5488300000000002
 30
0.0
 10
11.69176
 20
1.65551
 30
0.0
 10
11.69176
 20
1.65551
 30
0.0
 10
11.668900000000001
 20
1.6809100000000001
 30
0.0
 10
11.651120000000001
 20
1.7012300000000002
 30
0.0
 10
11.625720000000001
 20
1.7113900000000002
 30
0.0
 10
11.625720000000001
 20
1.7113900000000002
 30
0.0
 10
11.6181
 20
1.7164700000000002
 30
0.0
 10
11.61556
 20
1.7266300000000001
 30
0.0
 10
11.623180000000001
 20
1.7291700000000001
 30
0.0
 10
11.623180000000001
 20
1.7291700000000001
 30
0.0
 10
11.67398
 20
1.78251
 30
0.0
 10
11.724780000000001
 20
1.8307700000000002
 30
0.0
 10
11.783200000000001
 20
1.86633
 30
0.0
 10
11.783200000000001
 20
1.86633
 30
0.0
 10
11.785740000000001
 20
1.8688700000000003
 30
0.0
 10
11.785740000000001
 20
1.8714100000000002
 30
0.0
 10
11.78828
 20
1.8739500000000002
 30
0.0
 10
11.78828
 20
1.8739500000000002
 30
0.0
 10
11.793360000000002
 20
1.9069700000000001
 30
0.0
 10
11.816220000000001
 20
2.08223
 30
0.0
 10
11.610480000000001
 20
1.8637900000000001
 30
0.0
 10
11.610480000000001
 20
1.8637900000000001
 30
0.0
 10
11.376800000000001
 20
1.6301100000000002
 30
0.0
 10
11.089780000000001
 20
0.99765
 30
0.0
 10
11.089780000000001
 20
0.7106300000000001
 30
0.0
 10
11.089780000000001
 20
0.7106300000000001
 30
0.0
 10
11.089780000000001
 20
0.4210700000000001
 30
0.0
 10
11.130420000000001
 20
0.3169300000000001
 30
0.0
 10
10.993260000000001
 20
0.10865
 30
0.0
 10
10.993260000000001
 20
0.10865
 30
0.0
 10
10.85102
 20
-0.092
 30
0.0
 10
11.026280000000002
 20
-0.1809
 30
0.0
 10
10.86626
 20
-0.42982
 30
0.0
 10
10.86626
 20
-0.42982
 30
0.0
 10
10.706240000000001
 20
-0.67874
 30
0.0
 10
10.553840000000001
 20
-0.8692400000000001
 30
0.0
 10
10.520820000000001
 20
-1.1511800000000001
 30
0.0
 10
10.520820000000001
 20
-1.1511800000000001
 30
0.0
 10
10.490340000000002
 20
-1.4305800000000002
 30
0.0
 10
10.475100000000001
 20
-1.5194800000000002
 30
0.0
 10
10.46494
 20
-1.7734800000000002
 30
0.0
 10
10.46494
 20
-1.7734800000000002
 30
0.0
 10
10.46494
 20
-1.8141200000000002
 30
0.0
 10
10.46494
 20
-1.8547600000000002
 30
0.0
 10
10.475100000000001
 20
-1.8928600000000002
 30
0.0
 10
10.475100000000001
 20
-1.8928600000000002
 30
0.0
 10
10.475100000000001
 20
-1.8954000000000002
 30
0.0
 10
10.475100000000001
 20
-1.8954000000000002
 30
0.0
 10
10.475100000000001
 20
-1.8979400000000002
 30
0.0
 10
10.475100000000001
 20
-1.8979400000000002
 30
0.0
 10
10.46494
 20
-1.9385800000000002
 30
0.0
 10
10.4497
 20
-2.0097
 30
0.0
 10
10.442080000000001
 20
-2.1036800000000002
 30
0.0
 10
10.442080000000001
 20
-2.1036800000000002
 30
0.0
 10
10.434460000000001
 20
-2.1494
 30
0.0
 10
10.434460000000001
 20
-2.2027400000000004
 30
0.0
 10
10.434460000000001
 20
-2.2586200000000001
 30
0.0
 10
10.434460000000001
 20
-2.2586200000000001
 30
0.0
 10
10.434460000000001
 20
-2.2611600000000003
 30
0.0
 10
10.431920000000002
 20
-2.2637
 30
0.0
 10
10.42938
 20
-2.2662400000000003
 30
0.0
 10
10.42938
 20
-2.2662400000000003
 30
0.0
 10
10.327780000000001
 20
-2.3246600000000002
 30
0.0
 10
10.287140000000001
 20
-2.0020800000000003
 30
0.0
 10
10.185540000000001
 20
-2.1748000000000003
 30
0.0
 10
10.185540000000001
 20
-2.1748000000000003
 30
0.0
 10
10.0814
 20
-2.3678400000000002
 30
0.0
 10
9.6242000000000001
 20
-1.5906000000000002
 30
0.0
 10
9.4718
 20
-1.7506200000000001
 30
0.0
 10
9.4718
 20
-1.7506200000000001
 30
0.0
 10
9.3219400000000014
 20
-1.9182600000000001
 30
0.0
 10
9.2711400000000008
 20
-1.4382000000000001
 30
0.0
 10
9.2101800000000011
 20
-1.67188
 30
0.0
 10
9.2101800000000011
 20
-1.67188
 30
0.0
 10
9.154300000000001
 20
-1.9004800000000002
 30
0.0
 10
9.0476200000000002
 20
-1.3899400000000002
 30
0.0
 10
8.8952200000000001
 20
-1.50424
 30
0.0
 10
8.8952200000000001
 20
-1.50424
 30
0.0
 10
8.7377400000000005
 20
-1.6210800000000001
 30
0.0
 10
8.9688800000000004
 20
-1.08768
 30
0.0
 10
8.694560000000001
 20
-1.1740400000000002
 30
0.0
 10
8.694560000000001
 20
-1.1740400000000002
 30
0.0
 10
8.425320000000001
 20
-1.2705600000000001
 30
0.0
 10
8.3694400000000009
 20
-0.8082800000000001
 30
0.0
 10
8.2805400000000002
 20
-0.90988
 30
0.0
 10
8.2805400000000002
 20
-0.90988
 30
0.0
 10
8.2018000000000004
 20
-1.0216400000000001
 30
0.0
 10
8.176400000000001
 20
-0.3206000000000001
 30
0.0
 10
8.1128999999999998
 20
-0.4780800000000001
 30
0.0
 10
8.1128999999999998
 20
-0.4780800000000001
 30
0.0
 10
8.1078200000000002
 20
-0.4857
 30
0.0
 10
8.0925799999999999
 20
-0.48316
 30
0.0
 10
8.0925799999999999
 20
-0.473
 30
0.0
 10
8.0925799999999999
 20
-0.473
 30
0.0
 10
8.0798800000000011
 20
-0.34092
 30
0.0
 10
8.138300000000001
 20
0.33471
 30
0.0
 10
7.9935200000000011
 20
0.33471
 30
0.0
 10
7.9935200000000011
 20
0.33471
 30
0.0
 10
7.8258800000000006
 20
0.33471
 30
0.0
 10
7.9681200000000008
 20
0.7334900000000001
 30
0.0
 10
8.0646400000000007
 20
1.23133
 30
0.0
 10
8.0646400000000007
 20
1.23133
 30
0.0
 10
8.1509999999999998
 20
1.7164700000000002
 30
0.0
 10
8.4075400000000009
 20
2.1990700000000003
 30
0.0
 10
8.4481800000000007
 20
2.3108300000000002
 30
0.0
 10
8.4481800000000007
 20
2.3108300000000002
 30
0.0
 10
8.4812000000000012
 20
2.42259
 30
0.0
 10
8.4405600000000014
 20
2.4962500000000003
 30
0.0
 10
8.3923000000000005
 20
2.5419700000000001
 30
0.0
 10
8.3923000000000005
 20
2.5419700000000001
 30
0.0
 10
8.2246600000000001
 20
2.7019900000000003
 30
0.0
 10
8.1357600000000012
 20
3.05505
 30
0.0
 10
8.1205200000000008
 20
3.2861900000000004
 30
0.0
 10
8.1205200000000008
 20
3.2861900000000004
 30
0.0
 10
8.0875000000000004
 20
3.5605100000000003
 30
0.0
 10
8.1509999999999998
 20
3.7510100000000004
 30
0.0
 10
8.2399000000000004
 20
3.8399100000000002
 30
0.0
 10
8.2399000000000004
 20
3.8399100000000002
 30
0.0
 10
8.3846800000000012
 20
3.9846900000000005
 30
0.0
 10
8.6158200000000011
 20
3.9034100000000005
 30
0.0
 10
8.8647400000000012
 20
3.6544900000000005
 30
0.0
 10
8.8647400000000012
 20
3.6544900000000005
 30
0.0
 10
9.1035000000000004
 20
3.4157300000000004
 30
0.0
 10
9.3574999999999999
 20
3.0575900000000003
 30
0.0
 10
9.3829000000000011
 20
3.1490300000000002
 30
0.0
 10
9.3829000000000011
 20
3.1490300000000002
 30
0.0
 10
9.3829000000000011
 20
3.1515700000000004
 30
0.0
 10
9.3854400000000009
 20
3.1515700000000004
 30
0.0
 10
9.3854400000000009
 20
3.1515700000000004
 30
0.0
 10
9.3854400000000009
 20
3.1515700000000004
 30
0.0
 10
9.5505400000000016
 20
3.4157300000000004
 30
0.0
 10
10.012820000000001
 20
3.5452700000000004
 30
0.0
 10
10.40652
 20
3.5935300000000003
 30
0.0
 10
10.40652
 20
3.5935300000000003
 30
0.0
 10
10.419220000000001
 20
3.5935300000000003
 30
0.0
 10
10.419220000000001
 20
3.6138500000000002
 30
0.0
 10
10.40652
 20
3.6138500000000002
 30
0.0
 10
10.40652
 20
3.6138500000000002
 30
0.0
 10
10.183000000000002
 20
3.6163900000000004
 30
0.0
 10
9.7410399999999999
 20
3.5909900000000001
 30
0.0
 10
9.4337
 20
3.3801700000000001
 30
0.0
 10
9.4337
 20
3.3801700000000001
 30
0.0
 10
9.4286200000000004
 20
3.3801700000000001
 30
0.0
 10
9.4235400000000009
 20
3.3801700000000001
 30
0.0
 10
9.4210000000000012
 20
3.3801700000000001
 30
0.0
  0
SPLINE
  5
32
100
AcDbEntity
  8
Ebene 1
 62
     1
100
AcDbSpline
210
0.0
220
0.0
230
1.0
 70
     1
 71
     3
 72
    24
 73
    20
 74
     0
 42
0.0000000001
 43
0.0000000001
 40
0.0
 40
0.0
 40
0.0
 40
0.0
 40
0.2
 40
0.2
 40
0.2
 40
0.2
 40
0.4
 40
0.4
 40
0.4
 40
0.4
 40
0.6000000000000001
 40
0.6000000000000001
 40
0.6000000000000001
 40
0.6000000000000001
 40
0.8
 40
0.8
 40
0.8
 40
0.8
 40
1.0
 40
1.0
 40
1.0
 40
1.0
 10
10.454780000000001
 20
-3.1577800000000003
 30
0.0
 10
10.462400000000001
 20
-3.15524
 30
0.0
 10
10.46494
 20
-3.1450800000000001
 30
0.0
 10
10.459860000000001
 20
-3.1400000000000001
 30
0.0
 10
10.459860000000001
 20
-3.1400000000000001
 30
0.0
 10
10.459860000000001
 20
-3.1400000000000001
 30
0.0
 10
10.459860000000001
 20
-3.1400000000000001
 30
0.0
 10
10.459860000000001
 20
-3.1374600000000004
 30
0.0
 10
10.459860000000001
 20
-3.1374600000000004
 30
0.0
 10
10.360800000000001
 20
-3.0612600000000003
 30
0.0
 10
9.7969200000000001
 20
-2.6447000000000003
 30
0.0
 10
8.5853400000000004
 20
-2.2840200000000004
 30
0.0
 10
8.5853400000000004
 20
-2.2840200000000004
 30
0.0
 10
8.5751800000000014
 20
-2.2814800000000002
 30
0.0
 10
8.5675600000000003
 20
-2.2967200000000001
 30
0.0
 10
8.5777200000000011
 20
-2.3043400000000003
 30
0.0
 10
8.5777200000000011
 20
-2.3043400000000003
 30
0.0
 10
8.9561800000000016
 20
-2.5304000000000002
 30
0.0
 10
10.1195
 20
-3.2238200000000004
 30
0.0
 10
10.454780000000001
 20
-3.1577800000000003
 30
0.0
  0
SPLINE
  5
33
100
AcDbEntity
  8
Ebene 1
 62
     1
100
AcDbSpline
210
0.0
220
0.0
230
1.0
 70
     1
 71
     3
 72
    40
 73
    36
 74
     0
 42
0.0000000001
 43
0.0000000001
 40
0.0
 40
0.0
 40
0.0
 40
0.0
 40
0.1111111111111111
 40
0.1111111111111111
 40
0.1111111111111111
 40
0.1111111111111111
 40
0.2222222222222222
 40
0.2222222222222222
 40
0.2222222222222222
 40
0.2222222222222222
 40
0.3333333333333333
 40
0.3333333333333333
 40
0.3333333333333333
 40
0.3333333333333333
 40
0.4444444444444444
 40
0.4444444444444444
 40
0.4444444444444444
 40
0.4444444444444444
 40
0.5555555555555556
 40
0.5555555555555556
 40
0.5555555555555556
 40
0.5555555555555556
 40
0.6666666666666667
 40
0.6666666666666667
 40
0.6666666666666667
 40
0.6666666666666667
 40
0.7777777777777779
 40
0.7777777777777779
 40
0.7777777777777779
 40
0.7777777777777779
 40
0.8888888888888891
 40
0.8888888888888891
 40
0.8888888888888891
 40
0.8888888888888891
 40
1.0
 40
1.0
 40
1.0
 40
1.0
 10
12.199760000000001
 20
0.5480700000000001
 30
0.0
 10
12.138800000000002
 20
0.53537
 30
0.0
 10
12.090540000000001
 20
0.53537
 30
0.0
 10
12.131180000000001
 20
0.58109
 30
0.0
 10
12.131180000000001
 20
0.58109
 30
0.0
 10
12.20992
 20
0.65983
 30
0.0
 10
11.948300000000001
 20
0.6039500000000001
 30
0.0
 10
12.01942
 20
0.5429900000000001
 30
0.0
 10
12.01942
 20
0.5429900000000001
 30
0.0
 10
12.01942
 20
0.5404500000000001
 30
0.0
 10
12.01942
 20
0.5404500000000001
 30
0.0
 10
12.01942
 20
0.5404500000000001
 30
0.0
 10
12.01942
 20
0.5404500000000001
 30
0.0
 10
12.090540000000001
 20
0.4845700000000001
 30
0.0
 10
12.146420000000001
 20
0.55823
 30
0.0
 10
12.217540000000001
 20
0.33979
 30
0.0
 10
12.217540000000001
 20
0.33979
 30
0.0
 10
12.291200000000002
 20
0.12643
 30
0.0
 10
12.329300000000002
 20
-0.45522
 30
0.0
 10
12.385180000000002
 20
-0.31806
 30
0.0
 10
12.385180000000002
 20
-0.31806
 30
0.0
 10
12.433440000000001
 20
-0.1936
 30
0.0
 10
12.42074
 20
0.39313
 30
0.0
 10
12.532500000000001
 20
0.51251
 30
0.0
 10
12.532500000000001
 20
0.51251
 30
0.0
 10
12.550280000000001
 20
0.53029
 30
0.0
 10
12.502020000000002
 20
0.5404500000000001
 30
0.0
 10
12.489320000000001
 20
0.5404500000000001
 30
0.0
 10
12.489320000000001
 20
0.5404500000000001
 30
0.0
 10
12.40296
 20
0.53283
 30
0.0
 10
12.28612
 20
0.5277500000000001
 30
0.0
 10
12.204840000000001
 20
0.5480700000000001
 30
0.0
 10
12.204840000000001
 20
0.5480700000000001
 30
0.0
 10
12.202300000000001
 20
0.5480700000000001
 30
0.0
 10
12.199760000000001
 20
0.5480700000000001
 30
0.0
 10
12.199760000000001
 20
0.5480700000000001
 30
0.0
  0
SPLINE
  5
34
100
AcDbEntity
  8
Ebene 1
 62
     1
100
AcDbSpline
210
0.0
220
0.0
230
1.0
 70
     1
 71
     3
 72
    36
 73
    32
 74
     0
 42
0.0000000001
 43
0.0000000001
 40
0.0
 40
0.0
 40
0.0
 40
0.0
 40
0.125
 40
0.125
 40
0.125
 40
0.125
 40
0.25
 40
0.25
 40
0.25
 40
0.25
 40
0.375
 40
0.375
 40
0.375
 40
0.375
 40
0.5
 40
0.5
 40
0.5
 40
0.5
 40
0.625
 40
0.625
 40
0.625
 40
0.625
 40
0.75
 40
0.75
 40
0.75
 40
0.75
 40
0.875
 40
0.875
 40
0.875
 40
0.875
 40
1.0
 40
1.0
 40
1.0
 40
1.0
 10
12.750940000000002
 20
0.5887100000000001
 30
0.0
 10
12.743320000000001
 20
0.5836300000000001
 30
0.0
 10
12.743320000000001
 20
0.57347
 30
0.0
 10
12.753480000000001
 20
0.5683900000000001
 30
0.0
 10
12.753480000000001
 20
0.5683900000000001
 30
0.0
 10
12.7865
 20
0.56077
 30
0.0
 10
12.82206
 20
0.53537
 30
0.0
 10
12.883020000000002
 20
0.49219
 30
0.0
 10
12.883020000000002
 20
0.49219
 30
0.0
 10
13.050660000000001
 20
0.37281
 30
0.0
 10
13.17004
 20
0.36519
 30
0.0
 10
13.2818
 20
0.4515500000000001
 30
0.0
 10
13.2818
 20
0.4515500000000001
 30
0.0
 10
13.393560000000001
 20
0.5404500000000001
 30
0.0
 10
13.421500000000002
 20
0.57347
 30
0.0
 10
13.467220000000001
 20
0.4210700000000001
 30
0.0
 10
13.467220000000001
 20
0.4210700000000001
 30
0.0
 10
13.515480000000002
 20
0.27883
 30
0.0
 10
13.467220000000001
 20
-0.26218
 30
0.0
 10
13.523100000000001
 20
-0.10216
 30
0.0
 10
13.523100000000001
 20
-0.10216
 30
0.0
 10
13.578980000000001
 20
0.05277
 30
0.0
 10
13.756780000000001
 20
0.6928500000000001
 30
0.0
 10
13.690740000000002
 20
0.7106300000000001
 30
0.0
 10
13.690740000000002
 20
0.7106300000000001
 30
0.0
 10
13.62724
 20
0.7334900000000001
 30
0.0
 10
13.540880000000001
 20
0.7157100000000001
 30
0.0
 10
13.307200000000002
 20
0.7157100000000001
 30
0.0
 10
13.307200000000002
 20
0.7157100000000001
 30
0.0
 10
13.14972
 20
0.7157100000000001
 30
0.0
 10
12.913500000000001
 20
0.6674500000000001
 30
0.0
 10
12.750940000000002
 20
0.5887100000000001
 30
0.0
  0
SPLINE
  5
35
100
AcDbEntity
  8
Ebene 1
 62
     1
100
AcDbSpline
210
0.0
220
0.0
230
1.0
 70
     1
 71
     3
 72
    32
 73
    28
 74
     0
 42
0.0000000001
 43
0.0000000001
 40
0.0
 40
0.0
 40
0.0
 40
0.0
 40
0.1428571428571429
 40
0.1428571428571429
 40
0.1428571428571429
 40
0.1428571428571429
 40
0.2857142857142857
 40
0.2857142857142857
 40
0.2857142857142857
 40
0.2857142857142857
 40
0.4285714285714286
 40
0.4285714285714286
 40
0.4285714285714286
 40
0.4285714285714286
 40
0.5714285714285714
 40
0.5714285714285714
 40
0.5714285714285714
 40
0.5714285714285714
 40
0.7142857142857142
 40
0.7142857142857142
 40
0.7142857142857142
 40
0.7142857142857142
 40
0.857142857142857
 40
0.857142857142857
 40
0.857142857142857
 40
0.857142857142857
 40
1.0
 40
1.0
 40
1.0
 40
1.0
 10
11.336160000000001
 20
1.7266300000000001
 30
0.0
 10
11.084700000000002
 20
1.5158100000000001
 30
0.0
 10
10.835780000000002
 20
1.1271900000000001
 30
0.0
 10
10.683380000000001
 20
0.8046100000000001
 30
0.0
 10
10.683380000000001
 20
0.8046100000000001
 30
0.0
 10
10.683380000000001
 20
0.8046100000000001
 30
0.0
 10
10.683380000000001
 20
0.8046100000000001
 30
0.0
 10
10.680840000000002
 20
0.8046100000000001
 30
0.0
 10
10.680840000000002
 20
0.8046100000000001
 30
0.0
 10
10.490340000000002
 20
0.46933
 30
0.0
 10
10.632580000000001
 20
-0.0539
 30
0.0
 10
10.65798
 20
0.4515500000000001
 30
0.0
 10
10.65798
 20
0.4515500000000001
 30
0.0
 10
10.665600000000001
 20
0.58109
 30
0.0
 10
10.706240000000001
 20
0.6928500000000001
 30
0.0
 10
10.7545
 20
0.8046100000000001
 30
0.0
 10
10.7545
 20
0.8046100000000001
 30
0.0
 10
10.90944
 20
1.15513
 30
0.0
 10
11.221860000000001
 20
1.5539100000000001
 30
0.0
 10
11.351400000000002
 20
1.7113900000000002
 30
0.0
 10
11.351400000000002
 20
1.7113900000000002
 30
0.0
 10
11.356480000000001
 20
1.7164700000000002
 30
0.0
 10
11.353940000000001
 20
1.7215500000000001
 30
0.0
 10
11.351400000000002
 20
1.7266300000000001
 30
0.0
 10
11.351400000000002
 20
1.7266300000000001
 30
0.0
 10
11.34632
 20
1.7291700000000001
 30
0.0
 10
11.341240000000001
 20
1.7291700000000001
 30
0.0
 10
11.336160000000001
 20
1.7266300000000001
 30
0.0
  0
SPLINE
  5
36
100
AcDbEntity
  8
Ebene 1
 62
     1
100
AcDbSpline
210
0.0
220
0.0
230
1.0
 70
     1
 71
     3
 72
    28
 73
    24
 74
     0
 42
0.0000000001
 43
0.0000000001
 40
0.0
 40
0.0
 40
0.0
 40
0.0
 40
0.1666666666666667
 40
0.1666666666666667
 40
0.1666666666666667
 40
0.1666666666666667
 40
0.3333333333333333
 40
0.3333333333333333
 40
0.3333333333333333
 40
0.3333333333333333
 40
0.5
 40
0.5
 40
0.5
 40
0.5
 40
0.6666666666666666
 40
0.6666666666666666
 40
0.6666666666666666
 40
0.6666666666666666
 40
0.8333333333333333
 40
0.8333333333333333
 40
0.8333333333333333
 40
0.8333333333333333
 40
1.0
 40
1.0
 40
1.0
 40
1.0
 10
12.68998
 20
2.9432900000000002
 30
0.0
 10
12.7484
 20
2.9178900000000003
 30
0.0
 10
12.834760000000001
 20
2.8543900000000004
 30
0.0
 10
12.86016
 20
2.7350100000000004
 30
0.0
 10
12.86016
 20
2.7350100000000004
 30
0.0
 10
12.875400000000001
 20
2.6156300000000003
 30
0.0
 10
12.99478
 20
2.71977
 30
0.0
 10
12.916040000000001
 20
2.8137500000000002
 30
0.0
 10
12.916040000000001
 20
2.8137500000000002
 30
0.0
 10
12.916040000000001
 20
2.8162900000000004
 30
0.0
 10
12.916040000000001
 20
2.8162900000000004
 30
0.0
 10
12.916040000000001
 20
2.8162900000000004
 30
0.0
 10
12.916040000000001
 20
2.8162900000000004
 30
0.0
 10
12.852540000000001
 20
2.9026500000000004
 30
0.0
 10
12.738240000000001
 20
2.9458300000000004
 30
0.0
 10
12.70776
 20
2.9559900000000003
 30
0.0
 10
12.70776
 20
2.9559900000000003
 30
0.0
 10
12.702680000000001
 20
2.9585300000000001
 30
0.0
 10
12.697600000000001
 20
2.9559900000000003
 30
0.0
 10
12.695060000000002
 20
2.9509100000000004
 30
0.0
 10
12.695060000000002
 20
2.9509100000000004
 30
0.0
 10
12.695060000000002
 20
2.9509100000000004
 30
0.0
 10
12.68998
 20
2.9432900000000002
 30
0.0
 10
12.68998
 20
2.9432900000000002
 30
0.0
  0
SPLINE
  5
37
100
AcDbEntity
  8
Ebene 1
 62
     1
100
AcDbSpline
210
0.0
220
0.0
230
1.0
 70
     1
 71
     3
 72
    24
 73
    20
 74
     0
 42
0.0000000001
 43
0.0000000001
 40
0.0
 40
0.0
 40
0.0
 40
0.0
 40
0.2
 40
0.2
 40
0.2
 40
0.2
 40
0.4
 40
0.4
 40
0.4
 40
0.4
 40
0.6000000000000001
 40
0.6000000000000001
 40
0.6000000000000001
 40
0.6000000000000001
 40
0.8
 40
0.8
 40
0.8
 40
0.8
 40
1.0
 40
1.0
 40
1.0
 40
1.0
 10
12.067680000000001
 20
3.0448900000000001
 30
0.0
 10
12.065140000000001
 20
3.0525100000000003
 30
0.0
 10
12.052440000000001
 20
3.0525100000000003
 30
0.0
 10
12.047360000000001
 20
3.0448900000000001
 30
0.0
 10
12.047360000000001
 20
3.0448900000000001
 30
0.0
 10
12.027040000000001
 20
3.0017100000000001
 30
0.0
 10
11.973700000000001
 20
2.8899500000000002
 30
0.0
 10
11.986400000000001
 20
2.7908900000000001
 30
0.0
 10
11.986400000000001
 20
2.7908900000000001
 30
0.0
 10
11.994020000000001
 20
2.71977
 30
0.0
 10
12.027040000000001
 20
2.7756500000000002
 30
0.0
 10
12.049900000000001
 20
2.8467700000000002
 30
0.0
 10
12.049900000000001
 20
2.8467700000000002
 30
0.0
 10
12.049900000000001
 20
2.8467700000000002
 30
0.0
 10
12.049900000000001
 20
2.8493100000000005
 30
0.0
 10
12.049900000000001
 20
2.8493100000000005
 30
0.0
 10
12.049900000000001
 20
2.8493100000000005
 30
0.0
 10
12.065140000000001
 20
2.9026500000000004
 30
0.0
 10
12.085460000000001
 20
2.9864700000000002
 30
0.0
 10
12.067680000000001
 20
3.0448900000000001
 30
0.0
  0
SPLINE
  5
38
100
AcDbEntity
  8
Ebene 1
 62
     1
100
AcDbSpline
210
0.0
220
0.0
230
1.0
 70
     1
 71
     3
 72
    16
 73
    12
 74
     0
 42
0.0000000001
 43
0.0000000001
 40
0.0
 40
0.0
 40
0.0
 40
0.0
 40
0.3333333333333333
 40
0.3333333333333333
 40
0.3333333333333333
 40
0.3333333333333333
 40
0.6666666666666666
 40
0.6666666666666666
 40
0.6666666666666666
 40
0.6666666666666666
 40
1.0
 40
1.0
 40
1.0
 40
1.0
 10
12.187060000000001
 20
3.0017100000000001
 30
0.0
 10
12.2277
 20
2.8772500000000001
 30
0.0
 10
12.40042
 20
2.7019900000000003
 30
0.0
 10
12.385180000000002
 20
2.7832700000000004
 30
0.0
 10
12.385180000000002
 20
2.7832700000000004
 30
0.0
 10
12.367400000000002
 20
2.8620100000000002
 30
0.0
 10
12.253100000000002
 20
2.9686900000000001
 30
0.0
 10
12.202300000000001
 20
3.01187
 30
0.0
 10
12.202300000000001
 20
3.01187
 30
0.0
 10
12.194680000000002
 20
3.0169500000000005
 30
0.0
 10
12.184520000000001
 20
3.01187
 30
0.0
 10
12.187060000000001
 20
3.0017100000000001
 30
0.0
  0
SPLINE
  5
39
100
AcDbEntity
  8
Ebene 1
 62
     1
100
AcDbSpline
210
0.0
220
0.0
230
1.0
 70
     1
 71
     3
 72
    20
 73
    16
 74
     0
 42
0.0000000001
 43
0.0000000001
 40
0.0
 40
0.0
 40
0.0
 40
0.0
 40
0.25
 40
0.25
 40
0.25
 40
0.25
 40
0.5
 40
0.5
 40
0.5
 40
0.5
 40
0.75
 40
0.75
 40
0.75
 40
0.75
 40
1.0
 40
1.0
 40
1.0
 40
1.0
 10
12.199760000000001
 20
3.1261700000000001
 30
0.0
 10
12.1896
 20
3.1287100000000003
 30
0.0
 10
12.194680000000002
 20
3.1261700000000001
 30
0.0
 10
12.199760000000001
 20
3.1210900000000001
 30
0.0
 10
12.199760000000001
 20
3.1210900000000001
 30
0.0
 10
12.207380000000001
 20
3.1134700000000004
 30
0.0
 10
12.215000000000002
 20
3.1033100000000005
 30
0.0
 10
12.225160000000001
 20
3.09823
 30
0.0
 10
12.225160000000001
 20
3.09823
 30
0.0
 10
12.232780000000002
 20
3.0880700000000001
 30
0.0
 10
12.245480000000001
 20
3.1109300000000002
 30
0.0
 10
12.235320000000002
 20
3.1134700000000004
 30
0.0
 10
12.235320000000002
 20
3.1134700000000004
 30
0.0
 10
12.220080000000001
 20
3.1185500000000004
 30
0.0
 10
12.20992
 20
3.1236300000000004
 30
0.0
 10
12.199760000000001
 20
3.1261700000000001
 30
0.0
  0
SPLINE
  5
3A
100
AcDbEntity
  8
Ebene 1
 62
     1
100
AcDbSpline
210
0.0
220
0.0
230
1.0
 70
     1
 71
     3
 72
    20
 73
    16
 74
     0
 42
0.0000000001
 43
0.0000000001
 40
0.0
 40
0.0
 40
0.0
 40
0.0
 40
0.25
 40
0.25
 40
0.25
 40
0.25
 40
0.5
 40
0.5
 40
0.5
 40
0.5
 40
0.75
 40
0.75
 40
0.75
 40
0.75
 40
1.0
 40
1.0
 40
1.0
 40
1.0
 10
11.935600000000001
 20
3.1337900000000003
 30
0.0
 10
11.933060000000001
 20
3.1287100000000003
 30
0.0
 10
11.927980000000002
 20
3.1210900000000001
 30
0.0
 10
11.917820000000001
 20
3.1083900000000004
 30
0.0
 10
11.917820000000001
 20
3.1083900000000004
 30
0.0
 10
11.910200000000001
 20
3.1007700000000002
 30
0.0
 10
11.933060000000001
 20
3.0880700000000001
 30
0.0
 10
11.935600000000001
 20
3.1007700000000002
 30
0.0
 10
11.935600000000001
 20
3.1007700000000002
 30
0.0
 10
11.935600000000001
 20
3.1134700000000004
 30
0.0
 10
11.938140000000001
 20
3.1236300000000004
 30
0.0
 10
11.938140000000001
 20
3.1337900000000003
 30
0.0
 10
11.938140000000001
 20
3.1337900000000003
 30
0.0
 10
11.938140000000001
 20
3.1363300000000001
 30
0.0
 10
11.938140000000001
 20
3.1363300000000001
 30
0.0
 10
11.935600000000001
 20
3.1337900000000003
 30
0.0
  0
SPLINE
  5
3B
100
AcDbEntity
  8
Ebene 1
 62
     1
100
AcDbSpline
210
0.0
220
0.0
230
1.0
 70
     1
 71
     3
 72
    20
 73
    16
 74
     0
 42
0.0000000001
 43
0.0000000001
 40
0.0
 40
0.0
 40
0.0
 40
0.0
 40
0.25
 40
0.25
 40
0.25
 40
0.25
 40
0.5
 40
0.5
 40
0.5
 40
0.5
 40
0.75
 40
0.75
 40
0.75
 40
0.75
 40
1.0
 40
1.0
 40
1.0
 40
1.0
 10
11.6943
 20
3.2074500000000001
 30
0.0
 10
11.701920000000001
 20
3.2125300000000001
 30
0.0
 10
11.6943
 20
3.2277700000000005
 30
0.0
 10
11.684140000000001
 20
3.2252300000000003
 30
0.0
 10
11.684140000000001
 20
3.2252300000000003
 30
0.0
 10
11.6181
 20
3.2099900000000003
 30
0.0
 10
11.493640000000001
 20
3.1642700000000001
 30
0.0
 10
11.402200000000001
 20
3.0220300000000004
 30
0.0
 10
11.402200000000001
 20
3.0220300000000004
 30
0.0
 10
11.33108
 20
2.9102700000000001
 30
0.0
 10
11.394580000000001
 20
2.9331300000000002
 30
0.0
 10
11.48348
 20
3.0169500000000005
 30
0.0
 10
11.48348
 20
3.0169500000000005
 30
0.0
 10
11.554600000000001
 20
3.0804500000000004
 30
0.0
 10
11.605400000000001
 20
3.1439500000000002
 30
0.0
 10
11.6943
 20
3.2074500000000001
 30
0.0
  0
SPLINE
  5
3C
100
AcDbEntity
  8
Ebene 1
 62
     1
100
AcDbSpline
210
0.0
220
0.0
230
1.0
 70
     1
 71
     3
 72
    28
 73
    24
 74
     0
 42
0.0000000001
 43
0.0000000001
 40
0.0
 40
0.0
 40
0.0
 40
0.0
 40
0.1666666666666667
 40
0.1666666666666667
 40
0.1666666666666667
 40
0.1666666666666667
 40
0.3333333333333333
 40
0.3333333333333333
 40
0.3333333333333333
 40
0.3333333333333333
 40
0.5
 40
0.5
 40
0.5
 40
0.5
 40
0.6666666666666666
 40
0.6666666666666666
 40
0.6666666666666666
 40
0.6666666666666666
 40
0.8333333333333333
 40
0.8333333333333333
 40
0.8333333333333333
 40
0.8333333333333333
 40
1.0
 40
1.0
 40
1.0
 40
1.0
 10
11.25234
 20
3.3827100000000003
 30
0.0
 10
11.259960000000001
 20
3.3852500000000001
 30
0.0
 10
11.259960000000001
 20
3.3928700000000003
 30
0.0
 10
11.259960000000001
 20
3.3954100000000005
 30
0.0
 10
11.259960000000001
 20
3.3954100000000005
 30
0.0
 10
11.257420000000002
 20
3.4004900000000005
 30
0.0
 10
11.25234
 20
3.4055700000000004
 30
0.0
 10
11.247260000000001
 20
3.4030300000000002
 30
0.0
 10
11.247260000000001
 20
3.4030300000000002
 30
0.0
 10
11.12026
 20
3.3776300000000004
 30
0.0
 10
10.858640000000001
 20
3.2988900000000001
 30
0.0
 10
10.61988
 20
3.0804500000000004
 30
0.0
 10
10.61988
 20
3.0804500000000004
 30
0.0
 10
10.61734
 20
3.0804500000000004
 30
0.0
 10
10.61734
 20
3.0779100000000001
 30
0.0
 10
10.614800000000001
 20
3.0753700000000004
 30
0.0
 10
10.614800000000001
 20
3.0753700000000004
 30
0.0
 10
10.612260000000001
 20
3.0499700000000001
 30
0.0
 10
10.574160000000001
 20
2.8823300000000001
 30
0.0
 10
10.71386
 20
3.0398100000000001
 30
0.0
 10
10.71386
 20
3.0398100000000001
 30
0.0
 10
10.79006
 20
3.1236300000000004
 30
0.0
 10
11.07708
 20
3.2963500000000003
 30
0.0
 10
11.25234
 20
3.3827100000000003
 30
0.0
  0
SPLINE
  5
3D
100
AcDbEntity
  8
Ebene 1
 62
     1
100
AcDbSpline
210
0.0
220
0.0
230
1.0
 70
     1
 71
     3
 72
    36
 73
    32
 74
     0
 42
0.0000000001
 43
0.0000000001
 40
0.0
 40
0.0
 40
0.0
 40
0.0
 40
0.125
 40
0.125
 40
0.125
 40
0.125
 40
0.25
 40
0.25
 40
0.25
 40
0.25
 40
0.375
 40
0.375
 40
0.375
 40
0.375
 40
0.5
 40
0.5
 40
0.5
 40
0.5
 40
0.625
 40
0.625
 40
0.625
 40
0.625
 40
0.75
 40
0.75
 40
0.75
 40
0.75
 40
0.875
 40
0.875
 40
0.875
 40
0.875
 40
1.0
 40
1.0
 40
1.0
 40
1.0
 10
10.919600000000001
 20
3.5224100000000003
 30
0.0
 10
10.92468
 20
3.5224100000000003
 30
0.0
 10
10.92468
 20
3.5300300000000004
 30
0.0
 10
10.92468
 20
3.5351100000000004
 30
0.0
 10
10.92468
 20
3.5351100000000004
 30
0.0
 10
10.922140000000001
 20
3.5376500000000002
 30
0.0
 10
10.917060000000001
 20
3.5427300000000002
 30
0.0
 10
10.90944
 20
3.5401900000000004
 30
0.0
 10
10.90944
 20
3.5401900000000004
 30
0.0
 10
10.759580000000001
 20
3.4919300000000004
 30
0.0
 10
10.470020000000002
 20
3.3827100000000003
 30
0.0
 10
10.297300000000002
 20
3.1845900000000005
 30
0.0
 10
10.297300000000002
 20
3.1845900000000005
 30
0.0
 10
10.297300000000002
 20
3.1845900000000005
 30
0.0
 10
10.297300000000002
 20
3.1845900000000005
 30
0.0
 10
10.297300000000002
 20
3.1820500000000003
 30
0.0
 10
10.297300000000002
 20
3.1820500000000003
 30
0.0
 10
10.29222
 20
3.1718900000000003
 30
0.0
 10
10.2719
 20
3.1160100000000002
 30
0.0
 10
10.327780000000001
 20
3.0956900000000003
 30
0.0
 10
10.327780000000001
 20
3.0956900000000003
 30
0.0
 10
10.33032
 20
3.0956900000000003
 30
0.0
 10
10.33032
 20
3.0956900000000003
 30
0.0
 10
10.33032
 20
3.0956900000000003
 30
0.0
 10
10.33032
 20
3.0956900000000003
 30
0.0
 10
10.358260000000001
 20
3.0753700000000004
 30
0.0
 10
10.500500000000001
 20
3.2557100000000001
 30
0.0
 10
10.673220000000001
 20
3.3827100000000003
 30
0.0
 10
10.673220000000001
 20
3.3827100000000003
 30
0.0
 10
10.777360000000002
 20
3.4614500000000001
 30
0.0
 10
10.85102
 20
3.4919300000000004
 30
0.0
 10
10.919600000000001
 20
3.5224100000000003
 30
0.0
  0
SPLINE
  5
3E
100
AcDbEntity
  8
Ebene 1
 62
     1
100
AcDbSpline
210
0.0
220
0.0
230
1.0
 70
     1
 71
     3
 72
    60
 73
    56
 74
     0
 42
0.0000000001
 43
0.0000000001
 40
0.0
 40
0.0
 40
0.0
 40
0.0
 40
0.0714285714285714
 40
0.0714285714285714
 40
0.0714285714285714
 40
0.0714285714285714
 40
0.1428571428571429
 40
0.1428571428571429
 40
0.1428571428571429
 40
0.1428571428571429
 40
0.2142857142857143
 40
0.2142857142857143
 40
0.2142857142857143
 40
0.2142857142857143
 40
0.2857142857142857
 40
0.2857142857142857
 40
0.2857142857142857
 40
0.2857142857142857
 40
0.3571428571428571
 40
0.3571428571428571
 40
0.3571428571428571
 40
0.3571428571428571
 40
0.4285714285714285
 40
0.4285714285714285
 40
0.4285714285714285
 40
0.4285714285714285
 40
0.4999999999999999
 40
0.4999999999999999
 40
0.4999999999999999
 40
0.4999999999999999
 40
0.5714285714285713
 40
0.5714285714285713
 40
0.5714285714285713
 40
0.5714285714285713
 40
0.6428571428571427
 40
0.6428571428571427
 40
0.6428571428571427
 40
0.6428571428571427
 40
0.7142857142857141
 40
0.7142857142857141
 40
0.7142857142857141
 40
0.7142857142857141
 40
0.7857142857142855
 40
0.7857142857142855
 40
0.7857142857142855
 40
0.7857142857142855
 40
0.8571428571428569
 40
0.8571428571428569
 40
0.8571428571428569
 40
0.8571428571428569
 40
0.9285714285714283
 40
0.9285714285714283
 40
0.9285714285714283
 40
0.9285714285714283
 40
1.0
 40
1.0
 40
1.0
 40
1.0
 10
11.013580000000001
 20
3.0321900000000004
 30
0.0
 10
11.011040000000001
 20
3.0398100000000001
 30
0.0
 10
11.00342
 20
3.0448900000000001
 30
0.0
 10
10.998340000000001
 20
3.0398100000000001
 30
0.0
 10
10.998340000000001
 20
3.0398100000000001
 30
0.0
 10
10.942460000000001
 20
3.0017100000000001
 30
0.0
 10
10.708780000000001
 20
2.8569300000000002
 30
0.0
 10
10.5259
 20
2.5673700000000004
 30
0.0
 10
10.5259
 20
2.5673700000000004
 30
0.0
 10
10.518280000000001
 20
2.5597500000000002
 30
0.0
 10
10.5259
 20
2.55213
 30
0.0
 10
10.533520000000001
 20
2.5546700000000002
 30
0.0
 10
10.533520000000001
 20
2.5546700000000002
 30
0.0
 10
10.574160000000001
 20
2.5572100000000004
 30
0.0
 10
10.65798
 20
2.5724500000000003
 30
0.0
 10
10.688460000000001
 20
2.6130900000000001
 30
0.0
 10
10.688460000000001
 20
2.6130900000000001
 30
0.0
 10
10.688460000000001
 20
2.6156300000000003
 30
0.0
 10
10.688460000000001
 20
2.6156300000000003
 30
0.0
 10
10.688460000000001
 20
2.6156300000000003
 30
0.0
 10
10.688460000000001
 20
2.6156300000000003
 30
0.0
 10
10.721480000000001
 20
2.6689700000000003
 30
0.0
 10
10.71386
 20
2.5572100000000004
 30
0.0
 10
10.721480000000001
 20
2.5191100000000004
 30
0.0
 10
10.721480000000001
 20
2.5191100000000004
 30
0.0
 10
10.729100000000001
 20
2.4784700000000002
 30
0.0
 10
10.960240000000001
 20
2.5343500000000003
 30
0.0
 10
10.929760000000002
 20
2.5978500000000002
 30
0.0
 10
10.929760000000002
 20
2.5978500000000002
 30
0.0
 10
10.896740000000001
 20
2.6537300000000004
 30
0.0
 10
10.833240000000002
 20
2.5419700000000001
 30
0.0
 10
10.795140000000002
 20
2.6130900000000001
 30
0.0
 10
10.795140000000002
 20
2.6130900000000001
 30
0.0
 10
10.795140000000002
 20
2.6156300000000003
 30
0.0
 10
10.795140000000002
 20
2.6156300000000003
 30
0.0
 10
10.7926
 20
2.6156300000000003
 30
0.0
 10
10.7926
 20
2.6156300000000003
 30
0.0
 10
10.746880000000001
 20
2.6715100000000001
 30
0.0
 10
10.88912
 20
2.9026500000000004
 30
0.0
 10
10.911980000000002
 20
2.8543900000000004
 30
0.0
 10
10.911980000000002
 20
2.8543900000000004
 30
0.0
 10
10.911980000000002
 20
2.8543900000000004
 30
0.0
 10
10.914520000000001
 20
2.8543900000000004
 30
0.0
 10
10.914520000000001
 20
2.8543900000000004
 30
0.0
 10
10.914520000000001
 20
2.8543900000000004
 30
0.0
 10
10.939920000000001
 20
2.7985100000000003
 30
0.0
 10
10.896740000000001
 20
2.6867500000000004
 30
0.0
 10
10.945
 20
2.6867500000000004
 30
0.0
 10
10.945
 20
2.6867500000000004
 30
0.0
 10
10.945
 20
2.6867500000000004
 30
0.0
 10
10.94754
 20
2.6867500000000004
 30
0.0
 10
10.94754
 20
2.6867500000000004
 30
0.0
 10
10.94754
 20
2.6867500000000004
 30
0.0
 10
11.04152
 20
2.6715100000000001
 30
0.0
 10
11.031360000000001
 20
2.9458300000000004
 30
0.0
 10
11.013580000000001
 20
3.0321900000000004
 30
0.0
  0
SPLINE
  5
3F
100
AcDbEntity
  8
Ebene 1
 62
     1
100
AcDbSpline
210
0.0
220
0.0
230
1.0
 70
     1
 71
     3
 72
   308
 73
   304
 74
     0
 42
0.0000000001
 43
0.0000000001
 40
0.0
 40
0.0
 40
0.0
 40
0.0
 40
0.0131578947368421
 40
0.0131578947368421
 40
0.0131578947368421
 40
0.0131578947368421
 40
0.0263157894736842
 40
0.0263157894736842
 40
0.0263157894736842
 40
0.0263157894736842
 40
0.0394736842105263
 40
0.0394736842105263
 40
0.0394736842105263
 40
0.0394736842105263
 40
0.0526315789473684
 40
0.0526315789473684
 40
0.0526315789473684
 40
0.0526315789473684
 40
0.0657894736842105
 40
0.0657894736842105
 40
0.0657894736842105
 40
0.0657894736842105
 40
0.0789473684210526
 40
0.0789473684210526
 40
0.0789473684210526
 40
0.0789473684210526
 40
0.0921052631578947
 40
0.0921052631578947
 40
0.0921052631578947
 40
0.0921052631578947
 40
0.1052631578947368
 40
0.1052631578947368
 40
0.1052631578947368
 40
0.1052631578947368
 40
0.1184210526315789
 40
0.1184210526315789
 40
0.1184210526315789
 40
0.1184210526315789
 40
0.1315789473684211
 40
0.1315789473684211
 40
0.1315789473684211
 40
0.1315789473684211
 40
0.1447368421052632
 40
0.1447368421052632
 40
0.1447368421052632
 40
0.1447368421052632
 40
0.1578947368421053
 40
0.1578947368421053
 40
0.1578947368421053
 40
0.1578947368421053
 40
0.1710526315789474
 40
0.1710526315789474
 40
0.1710526315789474
 40
0.1710526315789474
 40
0.1842105263157894
 40
0.1842105263157894
 40
0.1842105263157894
 40
0.1842105263157894
 40
0.1973684210526315
 40
0.1973684210526315
 40
0.1973684210526315
 40
0.1973684210526315
 40
0.2105263157894736
 40
0.2105263157894736
 40
0.2105263157894736
 40
0.2105263157894736
 40
0.2236842105263157
 40
0.2236842105263157
 40
0.2236842105263157
 40
0.2236842105263157
 40
0.2368421052631578
 40
0.2368421052631578
 40
0.2368421052631578
 40
0.2368421052631578
 40
0.2499999999999999
 40
0.2499999999999999
 40
0.2499999999999999
 40
0.2499999999999999
 40
0.263157894736842
 40
0.263157894736842
 40
0.263157894736842
 40
0.263157894736842
 40
0.2763157894736841
 40
0.2763157894736841
 40
0.2763157894736841
 40
0.2763157894736841
 40
0.2894736842105262
 40
0.2894736842105262
 40
0.2894736842105262
 40
0.2894736842105262
 40
0.3026315789473683
 40
0.3026315789473683
 40
0.3026315789473683
 40
0.3026315789473683
 40
0.3157894736842103
 40
0.3157894736842103
 40
0.3157894736842103
 40
0.3157894736842103
 40
0.3289473684210524
 40
0.3289473684210524
 40
0.3289473684210524
 40
0.3289473684210524
 40
0.3421052631578945
 40
0.3421052631578945
 40
0.3421052631578945
 40
0.3421052631578945
 40
0.3552631578947366
 40
0.3552631578947366
 40
0.3552631578947366
 40
0.3552631578947366
 40
0.3684210526315787
 40
0.3684210526315787
 40
0.3684210526315787
 40
0.3684210526315787
 40
0.3815789473684208
 40
0.3815789473684208
 40
0.3815789473684208
 40
0.3815789473684208
 40
0.3947368421052629
 40
0.3947368421052629
 40
0.3947368421052629
 40
0.3947368421052629
 40
0.407894736842105
 40
0.407894736842105
 40
0.407894736842105
 40
0.407894736842105
 40
0.4210526315789471
 40
0.4210526315789471
 40
0.4210526315789471
 40
0.4210526315789471
 40
0.4342105263157892
 40
0.4342105263157892
 40
0.4342105263157892
 40
0.4342105263157892
 40
0.4473684210526313
 40
0.4473684210526313
 40
0.4473684210526313
 40
0.4473684210526313
 40
0.4605263157894733
 40
0.4605263157894733
 40
0.4605263157894733
 40
0.4605263157894733
 40
0.4736842105263154
 40
0.4736842105263154
 40
0.4736842105263154
 40
0.4736842105263154
 40
0.4868421052631575
 40
0.4868421052631575
 40
0.4868421052631575
 40
0.4868421052631575
 40
0.4999999999999996
 40
0.4999999999999996
 40
0.4999999999999996
 40
0.4999999999999996
 40
0.5131578947368417
 40
0.5131578947368417
 40
0.5131578947368417
 40
0.5131578947368417
 40
0.5263157894736839
 40
0.5263157894736839
 40
0.5263157894736839
 40
0.5263157894736839
 40
0.539473684210526
 40
0.539473684210526
 40
0.539473684210526
 40
0.539473684210526
 40
0.5526315789473681
 40
0.5526315789473681
 40
0.5526315789473681
 40
0.5526315789473681
 40
0.5657894736842103
 40
0.5657894736842103
 40
0.5657894736842103
 40
0.5657894736842103
 40
0.5789473684210524
 40
0.5789473684210524
 40
0.5789473684210524
 40
0.5789473684210524
 40
0.5921052631578946
 40
0.5921052631578946
 40
0.5921052631578946
 40
0.5921052631578946
 40
0.6052631578947367
 40
0.6052631578947367
 40
0.6052631578947367
 40
0.6052631578947367
 40
0.6184210526315789
 40
0.6184210526315789
 40
0.6184210526315789
 40
0.6184210526315789
 40
0.631578947368421
 40
0.631578947368421
 40
0.631578947368421
 40
0.631578947368421
 40
0.6447368421052632
 40
0.6447368421052632
 40
0.6447368421052632
 40
0.6447368421052632
 40
0.6578947368421053
 40
0.6578947368421053
 40
0.6578947368421053
 40
0.6578947368421053
 40
0.6710526315789475
 40
0.6710526315789475
 40
0.6710526315789475
 40
0.6710526315789475
 40
0.6842105263157896
 40
0.6842105263157896
 40
0.6842105263157896
 40
0.6842105263157896
 40
0.6973684210526318
 40
0.6973684210526318
 40
0.6973684210526318
 40
0.6973684210526318
 40
0.7105263157894739
 40
0.7105263157894739
 40
0.7105263157894739
 40
0.7105263157894739
 40
0.723684210526316
 40
0.723684210526316
 40
0.723684210526316
 40
0.723684210526316
 40
0.7368421052631582
 40
0.7368421052631582
 40
0.7368421052631582
 40
0.7368421052631582
 40
0.7500000000000003
 40
0.7500000000000003
 40
0.7500000000000003
 40
0.7500000000000003
 40
0.7631578947368425
 40
0.7631578947368425
 40
0.7631578947368425
 40
0.7631578947368425
 40
0.7763157894736846
 40
0.7763157894736846
 40
0.7763157894736846
 40
0.7763157894736846
 40
0.7894736842105268
 40
0.7894736842105268
 40
0.7894736842105268
 40
0.7894736842105268
 40
0.8026315789473689
 40
0.8026315789473689
 40
0.8026315789473689
 40
0.8026315789473689
 40
0.8157894736842111
 40
0.8157894736842111
 40
0.8157894736842111
 40
0.8157894736842111
 40
0.8289473684210532
 40
0.8289473684210532
 40
0.8289473684210532
 40
0.8289473684210532
 40
0.8421052631578954
 40
0.8421052631578954
 40
0.8421052631578954
 40
0.8421052631578954
 40
0.8552631578947375
 40
0.8552631578947375
 40
0.8552631578947375
 40
0.8552631578947375
 40
0.8684210526315797
 40
0.8684210526315797
 40
0.8684210526315797
 40
0.8684210526315797
 40
0.8815789473684218
 40
0.8815789473684218
 40
0.8815789473684218
 40
0.8815789473684218
 40
0.8947368421052639
 40
0.8947368421052639
 40
0.8947368421052639
 40
0.8947368421052639
 40
0.9078947368421061
 40
0.9078947368421061
 40
0.9078947368421061
 40
0.9078947368421061
 40
0.9210526315789482
 40
0.9210526315789482
 40
0.9210526315789482
 40
0.9210526315789482
 40
0.9342105263157904
 40
0.9342105263157904
 40
0.9342105263157904
 40
0.9342105263157904
 40
0.9473684210526325
 40
0.9473684210526325
 40
0.9473684210526325
 40
0.9473684210526325
 40
0.9605263157894747
 40
0.9605263157894747
 40
0.9605263157894747
 40
0.9605263157894747
 40
0.9736842105263168
 40
0.9736842105263168
 40
0.9736842105263168
 40
0.9736842105263168
 40
0.986842105263159
 40
0.986842105263159
 40
0.986842105263159
 40
0.986842105263159
 40
1.0
 40
1.0
 40
1.0
 40
1.0
 10
10.00774
 20
3.2684100000000003
 30
0.0
 10
10.12204
 20
3.3242900000000004
 30
0.0
 10
10.050920000000001
 20
3.1922100000000002
 30
0.0
 10
9.9569400000000012
 20
3.0525100000000003
 30
0.0
 10
9.9569400000000012
 20
3.0525100000000003
 30
0.0
 10
9.9544000000000015
 20
3.0474300000000003
 30
0.0
 10
9.9544000000000015
 20
3.0448900000000001
 30
0.0
 10
9.9569400000000012
 20
3.0423500000000003
 30
0.0
 10
9.9569400000000012
 20
3.0423500000000003
 30
0.0
 10
9.9798000000000009
 20
2.9839300000000004
 30
0.0
 10
10.010280000000002
 20
2.8340700000000001
 30
0.0
 10
10.017900000000001
 20
2.6537300000000004
 30
0.0
 10
10.017900000000001
 20
2.6537300000000004
 30
0.0
 10
10.02552
 20
2.4073500000000001
 30
0.0
 10
10.597020000000001
 20
2.3159100000000001
 30
0.0
 10
10.77228
 20
2.4124300000000001
 30
0.0
 10
10.77228
 20
2.4124300000000001
 30
0.0
 10
10.955160000000001
 20
2.4987900000000001
 30
0.0
 10
11.145660000000001
 20
2.5013300000000003
 30
0.0
 10
11.318380000000001
 20
2.2041500000000003
 30
0.0
 10
11.318380000000001
 20
2.2041500000000003
 30
0.0
 10
11.320920000000001
 20
2.2016100000000001
 30
0.0
 10
11.323460000000001
 20
2.1990700000000003
 30
0.0
 10
11.326000000000001
 20
2.1965300000000001
 30
0.0
 10
11.326000000000001
 20
2.1965300000000001
 30
0.0
 10
11.34886
 20
2.1914500000000001
 30
0.0
 10
11.455540000000001
 20
2.1762100000000002
 30
0.0
 10
11.48348
 20
2.3006700000000002
 30
0.0
 10
11.48348
 20
2.3006700000000002
 30
0.0
 10
11.513960000000001
 20
2.4454500000000001
 30
0.0
 10
11.130420000000001
 20
2.4632300000000003
 30
0.0
 10
11.186300000000001
 20
2.7096100000000001
 30
0.0
 10
11.186300000000001
 20
2.7096100000000001
 30
0.0
 10
11.23202
 20
2.9610700000000003
 30
0.0
 10
11.226940000000001
 20
2.7604100000000003
 30
0.0
 10
11.33108
 20
2.5978500000000002
 30
0.0
 10
11.33108
 20
2.5978500000000002
 30
0.0
 10
11.44284
 20
2.4403700000000002
 30
0.0
 10
11.49872
 20
2.4073500000000001
 30
0.0
 10
11.63588
 20
2.47085
 30
0.0
 10
11.63588
 20
2.47085
 30
0.0
 10
11.778120000000001
 20
2.5343500000000003
 30
0.0
 10
11.651120000000001
 20
2.2143100000000002
 30
0.0
 10
11.897500000000001
 20
2.3286100000000003
 30
0.0
 10
11.897500000000001
 20
2.3286100000000003
 30
0.0
 10
12.156580000000002
 20
2.4454500000000001
 30
0.0
 10
12.131180000000001
 20
2.4302100000000002
 30
0.0
 10
12.194680000000002
 20
2.2778100000000001
 30
0.0
 10
12.194680000000002
 20
2.2778100000000001
 30
0.0
 10
12.194680000000002
 20
2.2701900000000004
 30
0.0
 10
12.197220000000002
 20
2.2651100000000004
 30
0.0
 10
12.202300000000001
 20
2.2727300000000001
 30
0.0
 10
12.202300000000001
 20
2.2727300000000001
 30
0.0
 10
12.291200000000002
 20
2.3438500000000002
 30
0.0
 10
12.418200000000001
 20
2.4454500000000001
 30
0.0
 10
12.578220000000002
 20
2.3743300000000001
 30
0.0
 10
12.578220000000002
 20
2.3743300000000001
 30
0.0
 10
12.778880000000001
 20
2.2778100000000001
 30
0.0
 10
13.411340000000001
 20
1.8866500000000002
 30
0.0
 10
13.154800000000002
 20
1.9806300000000001
 30
0.0
 10
13.154800000000002
 20
1.9806300000000001
 30
0.0
 10
12.905880000000002
 20
2.0771500000000001
 30
0.0
 10
12.705220000000001
 20
2.2143100000000002
 30
0.0
 10
12.867780000000002
 20
2.0695300000000003
 30
0.0
 10
12.867780000000002
 20
2.0695300000000003
 30
0.0
 10
13.020180000000002
 20
1.9247500000000002
 30
0.0
 10
13.2437
 20
1.7901300000000002
 30
0.0
 10
13.050660000000001
 20
1.7672700000000001
 30
0.0
 10
13.050660000000001
 20
1.7672700000000001
 30
0.0
 10
12.867780000000002
 20
1.7418700000000003
 30
0.0
 10
12.53758
 20
2.1330300000000002
 30
0.0
 10
12.61124
 20
1.9907900000000001
 30
0.0
 10
12.61124
 20
1.9907900000000001
 30
0.0
 10
12.682360000000001
 20
1.8460100000000002
 30
0.0
 10
12.99478
 20
1.6072500000000001
 30
0.0
 10
12.733160000000002
 20
1.7190100000000001
 30
0.0
 10
12.733160000000002
 20
1.7190100000000001
 30
0.0
 10
12.466460000000001
 20
1.8307700000000002
 30
0.0
 10
12.443600000000002
 20
1.9806300000000001
 30
0.0
 10
12.298820000000001
 20
1.8714100000000002
 30
0.0
 10
12.298820000000001
 20
1.8714100000000002
 30
0.0
 10
12.298820000000001
 20
1.8688700000000003
 30
0.0
 10
12.298820000000001
 20
1.8688700000000003
 30
0.0
 10
12.298820000000001
 20
1.8688700000000003
 30
0.0
 10
12.298820000000001
 20
1.8688700000000003
 30
0.0
 10
12.202300000000001
 20
1.8079100000000001
 30
0.0
 10
12.156580000000002
 20
1.9018900000000001
 30
0.0
 10
12.01942
 20
1.9806300000000001
 30
0.0
 10
12.01942
 20
1.9806300000000001
 30
0.0
 10
12.01942
 20
1.9806300000000001
 30
0.0
 10
12.01942
 20
1.9831700000000001
 30
0.0
 10
12.01688
 20
1.9831700000000001
 30
0.0
 10
12.01688
 20
1.9831700000000001
 30
0.0
 10
11.722240000000001
 20
2.0212700000000003
 30
0.0
 10
11.52158
 20
2.1330300000000002
 30
0.0
 10
11.417440000000001
 20
1.9806300000000001
 30
0.0
 10
11.417440000000001
 20
1.9806300000000001
 30
0.0
 10
11.315840000000001
 20
1.82315
 30
0.0
 10
11.298060000000001
 20
2.03905
 30
0.0
 10
11.2498
 20
2.12033
 30
0.0
 10
11.2498
 20
2.12033
 30
0.0
 10
11.204080000000001
 20
2.1990700000000003
 30
0.0
 10
11.132960000000001
 20
2.1558900000000003
 30
0.0
 10
11.07708
 20
2.1330300000000002
 30
0.0
 10
11.07708
 20
2.1330300000000002
 30
0.0
 10
11.07708
 20
2.1330300000000002
 30
0.0
 10
11.074540000000001
 20
2.1330300000000002
 30
0.0
 10
11.074540000000001
 20
2.1330300000000002
 30
0.0
 10
11.074540000000001
 20
2.1330300000000002
 30
0.0
 10
11.011040000000001
 20
2.1076300000000003
 30
0.0
 10
11.132960000000001
 20
2.1711300000000002
 30
0.0
 10
11.13804
 20
2.2422500000000003
 30
0.0
 10
11.13804
 20
2.2422500000000003
 30
0.0
 10
11.148200000000001
 20
2.3159100000000001
 30
0.0
 10
11.130420000000001
 20
2.3514700000000004
 30
0.0
 10
11.089780000000001
 20
2.2955900000000002
 30
0.0
 10
11.089780000000001
 20
2.2955900000000002
 30
0.0
 10
11.04152
 20
2.2295500000000001
 30
0.0
 10
10.980560000000001
 20
2.2397100000000001
 30
0.0
 10
10.94754
 20
2.2879700000000001
 30
0.0
 10
10.94754
 20
2.2879700000000001
 30
0.0
 10
10.945
 20
2.2879700000000001
 30
0.0
 10
10.945
 20
2.2879700000000001
 30
0.0
 10
10.945
 20
2.2879700000000001
 30
0.0
 10
10.945
 20
2.2879700000000001
 30
0.0
 10
10.922140000000001
 20
2.3336900000000003
 30
0.0
 10
10.945
 20
2.3743300000000001
 30
0.0
 10
10.978020000000001
 20
2.3895700000000004
 30
0.0
 10
10.978020000000001
 20
2.3895700000000004
 30
0.0
 10
11.008500000000002
 20
2.4073500000000001
 30
0.0
 10
10.98564
 20
2.4556100000000001
 30
0.0
 10
10.896740000000001
 20
2.4073500000000001
 30
0.0
 10
10.896740000000001
 20
2.4073500000000001
 30
0.0
 10
10.825620000000001
 20
2.3616300000000003
 30
0.0
 10
10.749420000000001
 20
2.3260700000000001
 30
0.0
 10
10.779900000000001
 20
2.2625700000000002
 30
0.0
 10
10.779900000000001
 20
2.2625700000000002
 30
0.0
 10
10.800220000000001
 20
2.21685
 30
0.0
 10
10.87134
 20
2.16351
 30
0.0
 10
10.919600000000001
 20
2.1508100000000003
 30
0.0
 10
10.919600000000001
 20
2.1508100000000003
 30
0.0
 10
10.939920000000001
 20
2.1457300000000004
 30
0.0
 10
10.945
 20
2.1406500000000004
 30
0.0
 10
10.90944
 20
2.1431900000000002
 30
0.0
 10
10.90944
 20
2.1431900000000002
 30
0.0
 10
10.87134
 20
2.1457300000000004
 30
0.0
 10
10.807840000000001
 20
2.1584300000000001
 30
0.0
 10
10.7545
 20
2.1990700000000003
 30
0.0
 10
10.7545
 20
2.1990700000000003
 30
0.0
 10
10.65798
 20
2.2701900000000004
 30
0.0
 10
10.65798
 20
2.3184500000000003
 30
0.0
 10
10.553840000000001
 20
2.2778100000000001
 30
0.0
 10
10.553840000000001
 20
2.2778100000000001
 30
0.0
 10
10.457320000000001
 20
2.2397100000000001
 30
0.0
 10
10.61734
 20
2.0314300000000003
 30
0.0
 10
10.833240000000002
 20
1.9653900000000002
 30
0.0
 10
10.833240000000002
 20
1.9653900000000002
 30
0.0
 10
11.0593
 20
1.9018900000000001
 30
0.0
 10
11.12026
 20
1.8383900000000002
 30
0.0
 10
11.089780000000001
 20
1.78251
 30
0.0
 10
11.089780000000001
 20
1.78251
 30
0.0
 10
11.0593
 20
1.7266300000000001
 30
0.0
 10
10.98564
 20
1.8460100000000002
 30
0.0
 10
10.858640000000001
 20
1.9018900000000001
 30
0.0
 10
10.858640000000001
 20
1.9018900000000001
 30
0.0
 10
10.856100000000001
 20
1.9018900000000001
 30
0.0
 10
10.856100000000001
 20
1.9018900000000001
 30
0.0
 10
10.856100000000001
 20
1.9018900000000001
 30
0.0
 10
10.856100000000001
 20
1.9018900000000001
 30
0.0
 10
10.721480000000001
 20
1.9501500000000001
 30
0.0
 10
10.48526
 20
2.1177900000000003
 30
0.0
 10
10.46748
 20
2.1812900000000002
 30
0.0
 10
10.46748
 20
2.1812900000000002
 30
0.0
 10
10.442080000000001
 20
2.2371700000000003
 30
0.0
 10
10.36842
 20
2.3108300000000002
 30
0.0
 10
10.31508
 20
2.21685
 30
0.0
 10
10.31508
 20
2.21685
 30
0.0
 10
10.31254
 20
2.21685
 30
0.0
 10
10.31254
 20
2.2143100000000002
 30
0.0
 10
10.31254
 20
2.2143100000000002
 30
0.0
 10
10.31254
 20
2.2143100000000002
 30
0.0
 10
10.27444
 20
2.1101700000000001
 30
0.0
 10
10.172840000000001
 20
1.7469500000000002
 30
0.0
 10
10.741800000000001
 20
1.7418700000000003
 30
0.0
 10
10.741800000000001
 20
1.7418700000000003
 30
0.0
 10
10.75196
 20
1.7418700000000003
 30
0.0
 10
10.757040000000002
 20
1.7317100000000001
 30
0.0
 10
10.749420000000001
 20
1.7266300000000001
 30
0.0
 10
10.749420000000001
 20
1.7266300000000001
 30
0.0
 10
10.73672
 20
1.7139300000000002
 30
0.0
 10
10.711320000000001
 20
1.69869
 30
0.0
 10
10.65798
 20
1.6707500000000002
 30
0.0
 10
10.65798
 20
1.6707500000000002
 30
0.0
 10
10.530980000000001
 20
1.5894700000000002
 30
0.0
 10
10.513200000000001
 20
1.52851
 30
0.0
 10
10.475100000000001
 20
1.4954900000000002
 30
0.0
 10
10.475100000000001
 20
1.4954900000000002
 30
0.0
 10
10.475100000000001
 20
1.4954900000000002
 30
0.0
 10
10.475100000000001
 20
1.4929500000000002
 30
0.0
 10
10.472560000000001
 20
1.4929500000000002
 30
0.0
 10
10.472560000000001
 20
1.4929500000000002
 30
0.0
 10
10.42684
 20
1.4726300000000001
 30
0.0
 10
10.442080000000001
 20
1.5843900000000002
 30
0.0
 10
10.50558
 20
1.6377300000000001
 30
0.0
 10
10.50558
 20
1.6377300000000001
 30
0.0
 10
10.576700000000001
 20
1.7012300000000002
 30
0.0
 10
10.475100000000001
 20
1.6859900000000001
 30
0.0
 10
10.393820000000002
 20
1.7012300000000002
 30
0.0
 10
10.393820000000002
 20
1.7012300000000002
 30
0.0
 10
10.307460000000001
 20
1.7190100000000001
 30
0.0
 10
10.175380000000001
 20
1.8104500000000001
 30
0.0
 10
10.167760000000001
 20
1.9806300000000001
 30
0.0
 10
10.167760000000001
 20
1.9806300000000001
 30
0.0
 10
10.167760000000001
 20
1.9806300000000001
 30
0.0
 10
10.167760000000001
 20
1.9831700000000001
 30
0.0
 10
10.167760000000001
 20
1.9831700000000001
 30
0.0
 10
10.167760000000001
 20
1.9831700000000001
 30
0.0
 10
10.167760000000001
 20
2.12541
 30
0.0
 10
10.249040000000001
 20
2.2143100000000002
 30
0.0
 10
10.106800000000002
 20
2.2397100000000001
 30
0.0
 10
10.106800000000002
 20
2.2397100000000001
 30
0.0
 10
10.106800000000002
 20
2.2397100000000001
 30
0.0
 10
10.10426
 20
2.2397100000000001
 30
0.0
 10
10.10426
 20
2.2397100000000001
 30
0.0
 10
10.10426
 20
2.2397100000000001
 30
0.0
 10
9.9620200000000008
 20
2.25495
 30
0.0
 10
9.7258000000000013
 20
2.2625700000000002
 30
0.0
 10
9.6902400000000011
 20
2.25495
 30
0.0
 10
9.6902400000000011
 20
2.25495
 30
0.0
 10
9.6877000000000013
 20
2.25495
 30
0.0
 10
9.6877000000000013
 20
2.25495
 30
0.0
 10
9.6851600000000015
 20
2.2574900000000002
 30
0.0
 10
9.6851600000000015
 20
2.2574900000000002
 30
0.0
 10
9.6470600000000015
 20
2.2727300000000001
 30
0.0
 10
9.6318200000000012
 20
2.51403
 30
0.0
 10
9.7461200000000012
 20
2.59023
 30
0.0
 10
9.7461200000000012
 20
2.59023
 30
0.0
 10
9.8528000000000002
 20
2.6664300000000001
 30
0.0
 10
9.9518599999999999
 20
2.8289900000000001
 30
0.0
 10
9.9188400000000012
 20
2.9686900000000001
 30
0.0
 10
9.9188400000000012
 20
2.9686900000000001
 30
0.0
 10
9.9163000000000014
 20
2.9788500000000004
 30
0.0
 10
9.9061400000000006
 20
2.9813900000000002
 30
0.0
 10
9.9010600000000011
 20
2.97377
 30
0.0
 10
9.9010600000000011
 20
2.97377
 30
0.0
 10
9.8223200000000013
 20
2.8569300000000002
 30
0.0
 10
9.7131000000000007
 20
2.71977
 30
0.0
 10
9.5607000000000006
 20
2.5597500000000002
 30
0.0
 10
9.5607000000000006
 20
2.5597500000000002
 30
0.0
 10
9.154300000000001
 20
2.12033
 30
0.0
 10
9.2482800000000012
 20
1.6859900000000001
 30
0.0
 10
9.33718
 20
1.4700900000000001
 30
0.0
 10
9.33718
 20
1.4700900000000001
 30
0.0
 10
9.4235400000000009
 20
1.2541900000000001
 30
0.0
 10
9.2330400000000008
 20
1.0865500000000001
 30
0.0
 10
9.1847799999999999
 20
1.2059300000000002
 30
0.0
 10
9.1847799999999999
 20
1.2059300000000002
 30
0.0
 10
9.1289000000000016
 20
1.31769
 30
0.0
 10
9.0806400000000007
 20
1.10179
 30
0.0
 10
9.0806400000000007
 20
0.99765
 30
0.0
 10
9.0806400000000007
 20
0.99765
 30
0.0
 10
9.0806400000000007
 20
0.89351
 30
0.0
 10
9.2101800000000011
 20
0.87065
 30
0.0
 10
9.2152600000000007
 20
0.5658500000000001
 30
0.0
 10
9.2152600000000007
 20
0.5658500000000001
 30
0.0
 10
9.2254200000000015
 20
0.26105
 30
0.0
 10
9.3600400000000015
 20
0.17215
 30
0.0
 10
9.6800800000000002
 20
-0.3333
 30
0.0
 10
9.6800800000000002
 20
-0.3333
 30
0.0
 10
10.000120000000001
 20
-0.84638
 30
0.0
 10
10.02552
 20
-0.28758
 30
0.0
 10
10.25666
 20
-0.6228600000000001
 30
0.0
 10
10.25666
 20
-0.6228600000000001
 30
0.0
 10
10.490340000000002
 20
-0.9581400000000001
 30
0.0
 10
10.21856
 20
-1.9284200000000002
 30
0.0
 10
10.25666
 20
-1.4534400000000001
 30
0.0
 10
10.25666
 20
-1.4534400000000001
 30
0.0
 10
10.289680000000001
 20
-0.9886200000000001
 30
0.0
 10
10.144900000000002
 20
-1.3188200000000001
 30
0.0
 10
10.056000000000001
 20
-0.9835400000000001
 30
0.0
 10
10.056000000000001
 20
-0.9835400000000001
 30
0.0
 10
9.9696400000000001
 20
-0.65334
 30
0.0
 10
9.5048200000000005
 20
-0.78288
 30
0.0
 10
9.4235400000000009
 20
-0.5568200000000001
 30
0.0
 10
9.4235400000000009
 20
-0.5568200000000001
 30
0.0
 10
9.3448000000000011
 20
-0.32568
 30
0.0
 10
9.1365200000000009
 20
-0.36632
 30
0.0
 10
9.1441400000000002
 20
-0.07676
 30
0.0
 10
9.1441400000000002
 20
-0.07676
 30
0.0
 10
9.154300000000001
 20
0.22041
 30
0.0
 10
8.8977599999999999
 20
0.11627
 30
0.0
 10
8.9130000000000003
 20
0.30931
 30
0.0
 10
8.9130000000000003
 20
0.30931
 30
0.0
 10
8.9206200000000013
 20
0.50997
 30
0.0
 10
8.8495000000000008
 20
0.47949
 30
0.0
 10
8.7936200000000007
 20
0.8782700000000001
 30
0.0
 10
8.7936200000000007
 20
0.8782700000000001
 30
0.0
 10
8.7275800000000014
 20
1.27705
 30
0.0
 10
9.1365200000000009
 20
2.0542899999999999
 30
0.0
 10
9.154300000000001
 20
2.2295500000000001
 30
0.0
 10
9.154300000000001
 20
2.2295500000000001
 30
0.0
 10
9.1695400000000014
 20
2.3997300000000004
 30
0.0
 10
9.8858200000000007
 20
3.2074500000000001
 30
0.0
 10
10.00774
 20
3.2684100000000003
 30
0.0
  0
SPLINE
  5
40
100
AcDbEntity
  8
Ebene 1
 62
     1
100
AcDbSpline
210
0.0
220
0.0
230
1.0
 70
     1
 71
     3
 72
   104
 73
   100
 74
     0
 42
0.0000000001
 43
0.0000000001
 40
0.0
 40
0.0
 40
0.0
 40
0.0
 40
0.04
 40
0.04
 40
0.04
 40
0.04
 40
0.08
 40
0.08
 40
0.08
 40
0.08
 40
0.12
 40
0.12
 40
0.12
 40
0.12
 40
0.16
 40
0.16
 40
0.16
 40
0.16
 40
0.2
 40
0.2
 40
0.2
 40
0.2
 40
0.24
 40
0.24
 40
0.24
 40
0.24
 40
0.28
 40
0.28
 40
0.28
 40
0.28
 40
0.32
 40
0.32
 40
0.32
 40
0.32
 40
0.36
 40
0.36
 40
0.36
 40
0.36
 40
0.4
 40
0.4
 40
0.4
 40
0.4
 40
0.44
 40
0.44
 40
0.44
 40
0.44
 40
0.4799999999999999
 40
0.4799999999999999
 40
0.4799999999999999
 40
0.4799999999999999
 40
0.5199999999999999
 40
0.5199999999999999
 40
0.5199999999999999
 40
0.5199999999999999
 40
0.5599999999999999
 40
0.5599999999999999
 40
0.5599999999999999
 40
0.5599999999999999
 40
0.6
 40
0.6
 40
0.6
 40
0.6
 40
0.64
 40
0.64
 40
0.64
 40
0.64
 40
0.6800000000000001
 40
0.6800000000000001
 40
0.6800000000000001
 40
0.6800000000000001
 40
0.7200000000000001
 40
0.7200000000000001
 40
0.7200000000000001
 40
0.7200000000000001
 40
0.7600000000000001
 40
0.7600000000000001
 40
0.7600000000000001
 40
0.7600000000000001
 40
0.8000000000000002
 40
0.8000000000000002
 40
0.8000000000000002
 40
0.8000000000000002
 40
0.8400000000000002
 40
0.8400000000000002
 40
0.8400000000000002
 40
0.8400000000000002
 40
0.8800000000000002
 40
0.8800000000000002
 40
0.8800000000000002
 40
0.8800000000000002
 40
0.9200000000000003
 40
0.9200000000000003
 40
0.9200000000000003
 40
0.9200000000000003
 40
0.9600000000000003
 40
0.9600000000000003
 40
0.9600000000000003
 40
0.9600000000000003
 40
1.0
 40
1.0
 40
1.0
 40
1.0
 10
11.0593
 20
1.5996300000000001
 30
0.0
 10
11.064380000000002
 20
1.6097900000000001
 30
0.0
 10
11.054220000000001
 20
1.6224900000000002
 30
0.0
 10
11.044060000000002
 20
1.61487
 30
0.0
 10
11.044060000000002
 20
1.61487
 30
0.0
 10
10.998340000000001
 20
1.5843900000000002
 30
0.0
 10
10.90944
 20
1.49041
 30
0.0
 10
10.81038
 20
1.3659500000000002
 30
0.0
 10
10.81038
 20
1.3659500000000002
 30
0.0
 10
10.665600000000001
 20
1.23133
 30
0.0
 10
10.365880000000001
 20
1.23133
 30
0.0
 10
10.337940000000001
 20
1.19069
 30
0.0
 10
10.337940000000001
 20
1.19069
 30
0.0
 10
10.337940000000001
 20
1.19069
 30
0.0
 10
10.335400000000002
 20
1.19069
 30
0.0
 10
10.335400000000002
 20
1.19069
 30
0.0
 10
10.335400000000002
 20
1.19069
 30
0.0
 10
10.299840000000001
 20
1.10941
 30
0.0
 10
10.38874
 20
1.0509900000000001
 30
0.0
 10
10.518280000000001
 20
1.06623
 30
0.0
 10
10.518280000000001
 20
1.06623
 30
0.0
 10
10.5259
 20
1.06623
 30
0.0
 10
10.530980000000001
 20
1.0535300000000001
 30
0.0
 10
10.5259
 20
1.0484500000000001
 30
0.0
 10
10.5259
 20
1.0484500000000001
 30
0.0
 10
10.459860000000001
 20
0.9747900000000001
 30
0.0
 10
10.403980000000001
 20
0.9062100000000001
 30
0.0
 10
10.348100000000001
 20
0.8173100000000001
 30
0.0
 10
10.348100000000001
 20
0.8173100000000001
 30
0.0
 10
10.343020000000001
 20
0.8122300000000001
 30
0.0
 10
10.335400000000002
 20
0.8147700000000001
 30
0.0
 10
10.33032
 20
0.8198500000000001
 30
0.0
 10
10.33032
 20
0.8198500000000001
 30
0.0
 10
10.307460000000001
 20
0.87065
 30
0.0
 10
10.266820000000001
 20
0.8858900000000001
 30
0.0
 10
10.208400000000001
 20
0.9011300000000001
 30
0.0
 10
10.208400000000001
 20
0.9011300000000001
 30
0.0
 10
10.053460000000001
 20
0.9214500000000001
 30
0.0
 10
10.017900000000001
 20
0.93669
 30
0.0
 10
10.000120000000001
 20
0.9417700000000001
 30
0.0
 10
10.000120000000001
 20
0.9417700000000001
 30
0.0
 10
9.997580000000001
 20
0.9417700000000001
 30
0.0
 10
9.9925000000000015
 20
0.9443100000000001
 30
0.0
 10
9.9925000000000015
 20
0.9519300000000001
 30
0.0
 10
9.9925000000000015
 20
0.9519300000000001
 30
0.0
 10
9.9950400000000013
 20
1.0535300000000001
 30
0.0
 10
9.9925000000000015
 20
1.8155300000000001
 30
0.0
 10
9.7537400000000005
 20
1.9095100000000003
 30
0.0
 10
9.7537400000000005
 20
1.9095100000000003
 30
0.0
 10
9.5048200000000005
 20
1.9984100000000002
 30
0.0
 10
9.5124400000000016
 20
1.9806300000000001
 30
0.0
 10
9.6572200000000006
 20
1.4370700000000001
 30
0.0
 10
9.6572200000000006
 20
1.4370700000000001
 30
0.0
 10
9.7918400000000005
 20
0.9011300000000001
 30
0.0
 10
10.20078
 20
0.5912500000000001
 30
0.0
 10
10.000120000000001
 20
0.49219
 30
0.0
 10
10.000120000000001
 20
0.49219
 30
0.0
 10
9.8096200000000007
 20
0.39567
 30
0.0
 10
9.6470600000000015
 20
0.8376300000000001
 30
0.0
 10
9.6165800000000008
 20
0.63697
 30
0.0
 10
9.6165800000000008
 20
0.63697
 30
0.0
 10
9.5861000000000001
 20
0.43631
 30
0.0
 10
9.6800800000000002
 20
0.14929
 30
0.0
 10
10.017900000000001
 20
-0.04628
 30
0.0
 10
10.017900000000001
 20
-0.04628
 30
0.0
 10
10.241420000000002
 20
-0.17582
 30
0.0
 10
10.355720000000002
 20
-0.25202
 30
0.0
 10
10.40906
 20
-0.28758
 30
0.0
 10
10.40906
 20
-0.28758
 30
0.0
 10
10.419220000000001
 20
-0.2952
 30
0.0
 10
10.431920000000002
 20
-0.28504
 30
0.0
 10
10.424300000000001
 20
-0.27488
 30
0.0
 10
10.424300000000001
 20
-0.27488
 30
0.0
 10
10.340480000000001
 20
-0.14026
 30
0.0
 10
10.106800000000002
 20
0.17977
 30
0.0
 10
10.017900000000001
 20
0.07817
 30
0.0
 10
10.017900000000001
 20
0.07817
 30
0.0
 10
10.017900000000001
 20
0.07817
 30
0.0
 10
10.017900000000001
 20
0.07817
 30
0.0
 10
10.015360000000001
 20
0.07563
 30
0.0
 10
10.015360000000001
 20
0.07563
 30
0.0
 10
9.9061400000000006
 20
-0.01326
 30
0.0
 10
10.2338
 20
0.5480700000000001
 30
0.0
 10
10.289680000000001
 20
0.43631
 30
0.0
 10
10.289680000000001
 20
0.43631
 30
0.0
 10
10.35318
 20
0.33471
 30
0.0
 10
10.490340000000002
 20
0.03753
 30
0.0
 10
10.419220000000001
 20
0.29407
 30
0.0
 10
10.419220000000001
 20
0.29407
 30
0.0
 10
10.376040000000001
 20
0.4210700000000001
 30
0.0
 10
10.376040000000001
 20
0.5709300000000001
 30
0.0
 10
10.363340000000001
 20
0.6877700000000001
 30
0.0
 10
10.363340000000001
 20
0.6877700000000001
 30
0.0
 10
10.363340000000001
 20
0.6903100000000001
 30
0.0
 10
10.363340000000001
 20
0.6953900000000001
 30
0.0
 10
10.363340000000001
 20
0.6979300000000001
 30
0.0
 10
10.363340000000001
 20
0.6979300000000001
 30
0.0
 10
10.59956
 20
0.9951100000000001
 30
0.0
 10
10.840860000000001
 20
1.2922900000000002
 30
0.0
 10
11.0593
 20
1.5996300000000001
 30
0.0
  0
SPLINE
  5
41
100
AcDbEntity
  8
Ebene 1
 62
     1
100
AcDbSpline
210
0.0
220
0.0
230
1.0
 70
     1
 71
     3
 72
    36
 73
    32
 74
     0
 42
0.0000000001
 43
0.0000000001
 40
0.0
 40
0.0
 40
0.0
 40
0.0
 40
0.125
 40
0.125
 40
0.125
 40
0.125
 40
0.25
 40
0.25
 40
0.25
 40
0.25
 40
0.375
 40
0.375
 40
0.375
 40
0.375
 40
0.5
 40
0.5
 40
0.5
 40
0.5
 40
0.625
 40
0.625
 40
0.625
 40
0.625
 40
0.75
 40
0.75
 40
0.75
 40
0.75
 40
0.875
 40
0.875
 40
0.875
 40
0.875
 40
1.0
 40
1.0
 40
1.0
 40
1.0
 10
10.57924
 20
-1.2172200000000002
 30
0.0
 10
10.627500000000001
 20
-1.00132
 30
0.0
 10
10.729100000000001
 20
-0.69398
 30
0.0
 10
10.784980000000001
 20
-0.8387600000000001
 30
0.0
 10
10.784980000000001
 20
-0.8387600000000001
 30
0.0
 10
10.85102
 20
-1.0064000000000002
 30
0.0
 10
10.922140000000001
 20
-0.5822200000000001
 30
0.0
 10
10.939920000000001
 20
-1.11816
 30
0.0
 10
10.939920000000001
 20
-1.11816
 30
0.0
 10
10.952620000000001
 20
-1.6337800000000002
 30
0.0
 10
11.066920000000001
 20
-1.9208000000000001
 30
0.0
 10
11.25234
 20
-1.9843000000000002
 30
0.0
 10
11.25234
 20
-1.9843000000000002
 30
0.0
 10
11.259960000000001
 20
-1.9893800000000001
 30
0.0
 10
11.259960000000001
 20
-1.9970000000000001
 30
0.0
 10
11.257420000000002
 20
-2.0020800000000003
 30
0.0
 10
11.257420000000002
 20
-2.0020800000000003
 30
0.0
 10
11.19392
 20
-2.0706600000000002
 30
0.0
 10
11.1355
 20
-2.13924
 30
0.0
 10
11.074540000000001
 20
-2.19258
 30
0.0
 10
11.074540000000001
 20
-2.19258
 30
0.0
 10
10.896740000000001
 20
-2.36022
 30
0.0
 10
10.777360000000002
 20
-1.9741400000000002
 30
0.0
 10
10.762120000000001
 20
-1.6769600000000002
 30
0.0
 10
10.762120000000001
 20
-1.6769600000000002
 30
0.0
 10
10.739260000000002
 20
-1.3950200000000001
 30
0.0
 10
10.691000000000001
 20
-1.33406
 30
0.0
 10
10.58178
 20
-1.2273800000000001
 30
0.0
 10
10.58178
 20
-1.2273800000000001
 30
0.0
 10
10.57924
 20
-1.2248400000000002
 30
0.0
 10
10.576700000000001
 20
-1.2197600000000002
 30
0.0
 10
10.57924
 20
-1.2172200000000002
 30
0.0
  0
SPLINE
  5
42
100
AcDbEntity
  8
Ebene 1
 62
     1
100
AcDbSpline
210
0.0
220
0.0
230
1.0
 70
     1
 71
     3
 72
    52
 73
    48
 74
     0
 42
0.0000000001
 43
0.0000000001
 40
0.0
 40
0.0
 40
0.0
 40
0.0
 40
0.0833333333333333
 40
0.0833333333333333
 40
0.0833333333333333
 40
0.0833333333333333
 40
0.1666666666666667
 40
0.1666666666666667
 40
0.1666666666666667
 40
0.1666666666666667
 40
0.25
 40
0.25
 40
0.25
 40
0.25
 40
0.3333333333333333
 40
0.3333333333333333
 40
0.3333333333333333
 40
0.3333333333333333
 40
0.4166666666666666
 40
0.4166666666666666
 40
0.4166666666666666
 40
0.4166666666666666
 40
0.4999999999999999
 40
0.4999999999999999
 40
0.4999999999999999
 40
0.4999999999999999
 40
0.5833333333333333
 40
0.5833333333333333
 40
0.5833333333333333
 40
0.5833333333333333
 40
0.6666666666666666
 40
0.6666666666666666
 40
0.6666666666666666
 40
0.6666666666666666
 40
0.75
 40
0.75
 40
0.75
 40
0.75
 40
0.8333333333333334
 40
0.8333333333333334
 40
0.8333333333333334
 40
0.8333333333333334
 40
0.9166666666666667
 40
0.9166666666666667
 40
0.9166666666666667
 40
0.9166666666666667
 40
1.0
 40
1.0
 40
1.0
 40
1.0
 10
11.29044
 20
-1.9487400000000001
 30
0.0
 10
11.219320000000002
 20
-1.9258800000000003
 30
0.0
 10
10.978020000000001
 20
-1.7734800000000002
 30
0.0
 10
10.978020000000001
 20
-0.9987800000000001
 30
0.0
 10
10.978020000000001
 20
-0.9987800000000001
 30
0.0
 10
10.98564
 20
-0.092
 30
0.0
 10
11.226940000000001
 20
-0.6863600000000001
 30
0.0
 10
11.394580000000001
 20
-0.8082800000000001
 30
0.0
 10
11.394580000000001
 20
-0.8082800000000001
 30
0.0
 10
11.554600000000001
 20
-0.9327400000000001
 30
0.0
 10
11.658740000000002
 20
-0.7651000000000001
 30
0.0
 10
11.714620000000002
 20
-1.1334000000000002
 30
0.0
 10
11.714620000000002
 20
-1.1334000000000002
 30
0.0
 10
11.778120000000001
 20
-1.4940800000000001
 30
0.0
 10
11.778120000000001
 20
-1.1334000000000002
 30
0.0
 10
11.752720000000002
 20
-0.8133600000000001
 30
0.0
 10
11.752720000000002
 20
-0.8133600000000001
 30
0.0
 10
11.72986
 20
-0.49332
 30
0.0
 10
11.752720000000002
 20
-0.69398
 30
0.0
 10
11.897500000000001
 20
-0.8133600000000001
 30
0.0
 10
11.897500000000001
 20
-0.8133600000000001
 30
0.0
 10
12.034660000000001
 20
-0.9327400000000001
 30
0.0
 10
12.11594
 20
-0.90988
 30
0.0
 10
12.146420000000001
 20
-0.7651000000000001
 30
0.0
 10
12.146420000000001
 20
-0.7651000000000001
 30
0.0
 10
12.187060000000001
 20
-0.6127
 30
0.0
 10
12.369940000000001
 20
-1.12832
 30
0.0
 10
12.380100000000001
 20
-1.3670800000000001
 30
0.0
 10
12.380100000000001
 20
-1.3670800000000001
 30
0.0
 10
12.395340000000001
 20
-1.6058400000000002
 30
0.0
 10
12.26834
 20
-2.0655800000000002
 30
0.0
 10
11.590160000000001
 20
-2.02494
 30
0.0
 10
11.590160000000001
 20
-2.02494
 30
0.0
 10
11.582540000000002
 20
-2.02494
 30
0.0
 10
11.58
 20
-2.0173200000000002
 30
0.0
 10
11.582540000000002
 20
-2.0122400000000003
 30
0.0
 10
11.582540000000002
 20
-2.0122400000000003
 30
0.0
 10
11.63588
 20
-1.7887200000000001
 30
0.0
 10
11.640960000000002
 20
-1.5372600000000001
 30
0.0
 10
11.562220000000002
 20
-1.63124
 30
0.0
 10
11.562220000000002
 20
-1.63124
 30
0.0
 10
11.49872
 20
-1.6947400000000001
 30
0.0
 10
11.40474
 20
-1.8192000000000002
 30
0.0
 10
11.303140000000001
 20
-1.9462000000000002
 30
0.0
 10
11.303140000000001
 20
-1.9462000000000002
 30
0.0
 10
11.300600000000001
 20
-1.9487400000000001
 30
0.0
 10
11.295520000000002
 20
-1.9512800000000001
 30
0.0
 10
11.29044
 20
-1.9487400000000001
 30
0.0
  0
SPLINE
  5
43
100
AcDbEntity
  8
Ebene 1
 62
     1
100
AcDbSpline
210
0.0
220
0.0
230
1.0
 70
     1
 71
     3
 72
    68
 73
    64
 74
     0
 42
0.0000000001
 43
0.0000000001
 40
0.0
 40
0.0
 40
0.0
 40
0.0
 40
0.0625
 40
0.0625
 40
0.0625
 40
0.0625
 40
0.125
 40
0.125
 40
0.125
 40
0.125
 40
0.1875
 40
0.1875
 40
0.1875
 40
0.1875
 40
0.25
 40
0.25
 40
0.25
 40
0.25
 40
0.3125
 40
0.3125
 40
0.3125
 40
0.3125
 40
0.375
 40
0.375
 40
0.375
 40
0.375
 40
0.4375
 40
0.4375
 40
0.4375
 40
0.4375
 40
0.5
 40
0.5
 40
0.5
 40
0.5
 40
0.5625
 40
0.5625
 40
0.5625
 40
0.5625
 40
0.625
 40
0.625
 40
0.625
 40
0.625
 40
0.6875
 40
0.6875
 40
0.6875
 40
0.6875
 40
0.75
 40
0.75
 40
0.75
 40
0.75
 40
0.8125
 40
0.8125
 40
0.8125
 40
0.8125
 40
0.875
 40
0.875
 40
0.875
 40
0.875
 40
0.9375
 40
0.9375
 40
0.9375
 40
0.9375
 40
1.0
 40
1.0
 40
1.0
 40
1.0
 10
8.3033999999999999
 20
3.6951300000000002
 30
0.0
 10
8.2957800000000006
 20
3.6621100000000002
 30
0.0
 10
8.2627600000000001
 20
3.6316300000000004
 30
0.0
 10
8.2475200000000015
 20
3.5833700000000004
 30
0.0
 10
8.2475200000000015
 20
3.5833700000000004
 30
0.0
 10
8.1205200000000008
 20
3.1515700000000004
 30
0.0
 10
8.3033999999999999
 20
2.8950300000000002
 30
0.0
 10
8.4481800000000007
 20
2.6232500000000001
 30
0.0
 10
8.4481800000000007
 20
2.6232500000000001
 30
0.0
 10
8.4964400000000015
 20
2.5267300000000001
 30
0.0
 10
8.6488399999999999
 20
2.55213
 30
0.0
 10
8.7682200000000012
 20
2.6638900000000003
 30
0.0
 10
8.7682200000000012
 20
2.6638900000000003
 30
0.0
 10
8.8901400000000006
 20
2.7654900000000002
 30
0.0
 10
8.7453600000000016
 20
2.6638900000000003
 30
0.0
 10
8.6640800000000002
 20
2.6461100000000002
 30
0.0
 10
8.6640800000000002
 20
2.6461100000000002
 30
0.0
 10
8.5828000000000007
 20
2.6308700000000003
 30
0.0
 10
8.559940000000001
 20
2.6943700000000002
 30
0.0
 10
8.6640800000000002
 20
2.7756500000000002
 30
0.0
 10
8.6640800000000002
 20
2.7756500000000002
 30
0.0
 10
8.6640800000000002
 20
2.7756500000000002
 30
0.0
 10
8.66662
 20
2.7756500000000002
 30
0.0
 10
8.66662
 20
2.7756500000000002
 30
0.0
 10
8.66662
 20
2.7756500000000002
 30
0.0
 10
8.7783800000000003
 20
2.8543900000000004
 30
0.0
 10
8.7783800000000003
 20
2.9331300000000002
 30
0.0
 10
8.6894800000000014
 20
2.88741
 30
0.0
 10
8.6894800000000014
 20
2.88741
 30
0.0
 10
8.6005800000000008
 20
2.8391500000000001
 30
0.0
 10
8.4812000000000012
 20
2.8772500000000001
 30
0.0
 10
8.6158200000000011
 20
2.9890100000000004
 30
0.0
 10
8.6158200000000011
 20
2.9890100000000004
 30
0.0
 10
8.6158200000000011
 20
2.9915500000000002
 30
0.0
 10
8.6158200000000011
 20
2.9915500000000002
 30
0.0
 10
8.6158200000000011
 20
2.9915500000000002
 30
0.0
 10
8.6158200000000011
 20
2.9915500000000002
 30
0.0
 10
8.7606000000000002
 20
3.0956900000000003
 30
0.0
 10
8.8622000000000014
 20
3.1972900000000002
 30
0.0
 10
8.694560000000001
 20
3.1515700000000004
 30
0.0
 10
8.694560000000001
 20
3.1515700000000004
 30
0.0
 10
8.5269200000000005
 20
3.1109300000000002
 30
0.0
 10
8.3288000000000011
 20
3.0956900000000003
 30
0.0
 10
8.4812000000000012
 20
3.2074500000000001
 30
0.0
 10
8.4812000000000012
 20
3.2074500000000001
 30
0.0
 10
8.6386800000000008
 20
3.3192100000000004
 30
0.0
 10
8.7453600000000016
 20
3.4792300000000003
 30
0.0
 10
8.6005800000000008
 20
3.4081100000000002
 30
0.0
 10
8.6005800000000008
 20
3.4081100000000002
 30
0.0
 10
8.4481800000000007
 20
3.3369900000000001
 30
0.0
 10
8.2399000000000004
 20
3.2633300000000003
 30
0.0
 10
8.3846800000000012
 20
3.3928700000000003
 30
0.0
 10
8.3846800000000012
 20
3.3928700000000003
 30
0.0
 10
8.5193000000000012
 20
3.5198700000000005
 30
0.0
 10
8.6082000000000001
 20
3.6240100000000002
 30
0.0
 10
8.4812000000000012
 20
3.5833700000000004
 30
0.0
 10
8.4812000000000012
 20
3.5833700000000004
 30
0.0
 10
8.3516600000000007
 20
3.5503500000000003
 30
0.0
 10
8.2881600000000013
 20
3.5351100000000004
 30
0.0
 10
8.3288000000000011
 20
3.5909900000000001
 30
0.0
 10
8.3288000000000011
 20
3.5909900000000001
 30
0.0
 10
8.3745200000000004
 20
3.6468700000000003
 30
0.0
 10
8.3516600000000007
 20
3.8170500000000005
 30
0.0
 10
8.3033999999999999
 20
3.6951300000000002
 30
0.0
  0
SPLINE
  5
44
100
AcDbEntity
  8
Ebene 1
 62
     1
100
AcDbSpline
210
0.0
220
0.0
230
1.0
 70
     1
 71
     3
 72
    32
 73
    28
 74
     0
 42
0.0000000001
 43
0.0000000001
 40
0.0
 40
0.0
 40
0.0
 40
0.0
 40
0.1428571428571429
 40
0.1428571428571429
 40
0.1428571428571429
 40
0.1428571428571429
 40
0.2857142857142857
 40
0.2857142857142857
 40
0.2857142857142857
 40
0.2857142857142857
 40
0.4285714285714286
 40
0.4285714285714286
 40
0.4285714285714286
 40
0.4285714285714286
 40
0.5714285714285714
 40
0.5714285714285714
 40
0.5714285714285714
 40
0.5714285714285714
 40
0.7142857142857142
 40
0.7142857142857142
 40
0.7142857142857142
 40
0.7142857142857142
 40
0.857142857142857
 40
0.857142857142857
 40
0.857142857142857
 40
0.857142857142857
 40
1.0
 40
1.0
 40
1.0
 40
1.0
 10
12.410580000000001
 20
-2.4821400000000002
 30
0.0
 10
12.413120000000001
 20
-2.4745200000000001
 30
0.0
 10
12.425820000000002
 20
-2.4745200000000001
 30
0.0
 10
12.425820000000002
 20
-2.48468
 30
0.0
 10
12.425820000000002
 20
-2.48468
 30
0.0
 10
12.466460000000001
 20
-2.5837400000000001
 30
0.0
 10
12.606160000000001
 20
-3.03078
 30
0.0
 10
12.217540000000001
 20
-3.2720800000000003
 30
0.0
 10
12.217540000000001
 20
-3.2720800000000003
 30
0.0
 10
11.785740000000001
 20
-3.5438600000000005
 30
0.0
 10
11.107560000000001
 20
-3.4321000000000002
 30
0.0
 10
10.81038
 20
-3.0333200000000002
 30
0.0
 10
10.81038
 20
-3.0333200000000002
 30
0.0
 10
10.515740000000001
 20
-2.6320000000000001
 30
0.0
 10
10.442080000000001
 20
-2.1595600000000004
 30
0.0
 10
10.513200000000001
 20
-2.27894
 30
0.0
 10
10.513200000000001
 20
-2.27894
 30
0.0
 10
10.56146
 20
-2.35006
 30
0.0
 10
10.706240000000001
 20
-2.52786
 30
0.0
 10
10.88912
 20
-2.6574000000000004
 30
0.0
 10
10.88912
 20
-2.6574000000000004
 30
0.0
 10
11.163440000000001
 20
-2.8479000000000001
 30
0.0
 10
11.856860000000001
 20
-2.9037800000000002
 30
0.0
 10
12.138800000000002
 20
-2.7590000000000003
 30
0.0
 10
12.138800000000002
 20
-2.7590000000000003
 30
0.0
 10
12.245480000000001
 20
-2.7132800000000001
 30
0.0
 10
12.331840000000001
 20
-2.6243800000000004
 30
0.0
 10
12.410580000000001
 20
-2.4821400000000002
 30
0.0
  0
SPLINE
  5
45
100
AcDbEntity
  8
Ebene 1
 62
     1
100
AcDbSpline
210
0.0
220
0.0
230
1.0
 70
     1
 71
     3
 72
    16
 73
    12
 74
     0
 42
0.0000000001
 43
0.0000000001
 40
0.0
 40
0.0
 40
0.0
 40
0.0
 40
0.3333333333333333
 40
0.3333333333333333
 40
0.3333333333333333
 40
0.3333333333333333
 40
0.6666666666666666
 40
0.6666666666666666
 40
0.6666666666666666
 40
0.6666666666666666
 40
1.0
 40
1.0
 40
1.0
 40
1.0
 10
11.625720000000001
 20
4.0405700000000007
 30
0.0
 10
11.625720000000001
 20
4.1523300000000001
 30
0.0
 10
11.640960000000002
 20
4.1599500000000003
 30
0.0
 10
11.569840000000001
 20
4.0710500000000005
 30
0.0
 10
11.569840000000001
 20
4.0710500000000005
 30
0.0
 10
11.513960000000001
 20
4.0075500000000002
 30
0.0
 10
11.450460000000001
 20
3.9186500000000004
 30
0.0
 10
11.427600000000002
 20
3.8703900000000004
 30
0.0
 10
11.427600000000002
 20
3.8703900000000004
 30
0.0
 10
11.38696
 20
3.8018100000000001
 30
0.0
 10
11.59524
 20
3.8475300000000003
 30
0.0
 10
11.625720000000001
 20
4.0405700000000007
 30
0.0
  0
ENDSEC
  0
SECTION
  2
OBJECTS
  0
DICTIONARY
  5
19
100
AcDbDictionary
280
     0
281
     1
  3
ACAD_GROUP
350
1A
  3
ACAD_MLINESTYLE
350
1B
  3
ACAD_LAYOUT
350
1E
  3
ACAD_PLOTSETTINGS
350
22
  3
ACAD_PLOTSTYLENAME
350
1F
  3
ACAD_WIPEOUT_VARS
350
23
  0
DICTIONARY
  5
1A
102
{ACAD_REACTORS
330
19
102
}
100
AcDbDictionary
280
     0
281
     1
  0
DICTIONARY
  5
1B
102
{ACAD_REACTORS
330
19
102
}
100
AcDbDictionary
280
     0
281
     1
  3
Standard
350
1C
  0
MLINESTYLE
  5
1C
102
{ACAD_REACTORS
330
1B
102
}
100
AcDbMlineStyle
  2
Standard
 70
     0
  3

 62
     0
 51
90.0
 52
90.0
 71
     2
 49
0.5
 62
   256
  6
BYLAYER
 49
-0.5
 62
   256
  6
BYLAYER
  0
ACDBDICTIONARYWDFLT
  5
1F
102
{ACAD_REACTORS
330
19
102
}
100
AcDbDictionary
281
     1
  3
Normal
350
1D
100
AcDbDictionaryWithDefault
340
1D
  0
ACDBPLACEHOLDER
  5
1D
102
{ACAD_REACTORS
330
1F
102
}
  0
LAYOUT
  5
20
102
{ACAD_REACTORS
330
1E
102
}
100
AcDbPlotSettings
  1

  2

  4

  6

 40
0.0
 41
0.0
 42
0.0
 43
0.0
 44
0.0
 45
0.0
 46
0.0
 47
0.0
 48
0.0
 49
0.0
140
0.0
141
0.0
142
1.0
143
1.0
 70
  1024
 72
     0
 73
     0
 74
     0
  7

 75
     0
147
1.0
148
0.0
149
0.0
100
AcDbLayout
  1
Model
 70
     0
 71
     0
 10
0.0
 20
0.0
 11
0.0
 21
0.0
 12
0.0
 22
0.0
 32
0.0
 14
0.0
 24
0.0
 34
0.0
 15
0.0
 25
0.0
 35
0.0
146
0.0
 13
0.0
 23
0.0
 33
0.0
 16
0.0
 26
0.0
 36
0.0
 17
0.0
 27
0.0
 37
0.0
 76
     0
330
A
331
0
345
0
346
0
  0
LAYOUT
  5
21
102
{ACAD_REACTORS
330
1E
102
}
100
AcDbPlotSettings
  1

  2

  4

  6

 40
0.0
 41
0.0
 42
0.0
 43
0.0
 44
0.0
 45
0.0
 46
0.0
 47
0.0
 48
0.0
 49
0.0
140
0.0
141
0.0
142
1.0
143
1.0
 70
     0
 72
     0
 73
     0
 74
     0
  7

 75
     0
147
1.0
148
0.0
149
0.0
100
AcDbLayout
  1
Layout1
 70
     0
 71
     0
 10
0.0
 20
0.0
 11
0.0
 21
0.0
 12
0.0
 22
0.0
 32
0.0
 14
0.0
 24
0.0
 34
0.0
 15
0.0
 25
0.0
 35
0.0
146
0.0
 13
0.0
 23
0.0
 33
0.0
 16
0.0
 26
0.0
 36
0.0
 17
0.0
 27
0.0
 37
0.0
 76
     0
330
B
331
0
345
0
346
0
  0
DICTIONARY
  5
1E
102
{ACAD_REACTORS
330
19
102
}
100
AcDbDictionary
280
     0
281
     1
  3
Layout1
350
21
  3
Model
350
20
  0
DICTIONARY
  5
22
102
{ACAD_REACTORS
330
19
102
}
100
AcDbDictionary
280
     0
281
     1
  0
WIPEOUTVARIABLES
  5
23
100
AcDbWipeoutVariables
 70
     1
  0
ENDSEC
  0
EOF
