  0
SECTION
  2
HEADER
  9
$ACADVER
  1
AC1009
  9
$INSBASE
 10
0.0
 20
0.0
 30
0.0
  9
$EXTMIN
 10
21.692094163327202
 20
11.133342696873839
 30
0.0
  9
$EXTMAX
 10
106.8587608299938
 20
261.35556491909608
 30
0.0
  9
$LIMMIN
 10
0.0
 20
0.0
  9
$LIMMAX
 10
420.0
 20
297.0
  9
$ORTHOMODE
 70
     0
  9
$REGENMODE
 70
     1
  9
$FILLMODE
 70
     1
  9
$QTEXTMODE
 70
     0
  9
$MIRRTEXT
 70
     0
  9
$DRAGMODE
 70
     2
  9
$LTSCALE
 40
1.0
  9
$OSMODE
 70
    37
  9
$ATTMODE
 70
     1
  9
$TEXTSIZE
 40
2.5
  9
$TRACEWID
 40
1.0
  9
$TEXTSTYLE
  7
STANDARD
  9
$CLAYER
  8
0
  9
$CELTYPE
  6
BYLAYER
  9
$CECOLOR
 62
   256
  9
$DIMSCALE
 40
1.0
  9
$DIMASZ
 40
2.5
  9
$DIMEXO
 40
0.625
  9
$DIMDLI
 40
3.75
  9
$DIMRND
 40
0.0
  9
$DIMDLE
 40
0.0
  9
$DIMEXE
 40
1.25
  9
$DIMTP
 40
0.0
  9
$DIMTM
 40
0.0
  9
$DIMTXT
 40
2.5
  9
$DIMCEN
 40
2.5
  9
$DIMTSZ
 40
0.0
  9
$DIMTOL
 70
     0
  9
$DIMLIM
 70
     0
  9
$DIMTIH
 70
     0
  9
$DIMTOH
 70
     0
  9
$DIMSE1
 70
     0
  9
$DIMSE2
 70
     0
  9
$DIMTAD
 70
     1
  9
$DIMZIN
 70
     8
  9
$DIMBLK
  1

  9
$DIMASO
 70
     1
  9
$DIMSHO
 70
     1
  9
$DIMPOST
  1

  9
$DIMAPOST
  1

  9
$DIMALT
 70
     0
  9
$DIMALTD
 70
     3
  9
$DIMALTF
 40
0.03937007874016
  9
$DIMLFAC
 40
1.0
  9
$DIMTOFL
 70
     1
  9
$DIMTVP
 40
0.0
  9
$DIMTIX
 70
     0
  9
$DIMSOXD
 70
     0
  9
$DIMSAH
 70
     0
  9
$DIMBLK1
  1

  9
$DIMBLK2
  1

  9
$DIMSTYLE
  2
ISO-25
  9
$DIMCLRD
 70
     0
  9
$DIMCLRE
 70
     0
  9
$DIMCLRT
 70
     0
  9
$DIMTFAC
 40
1.0
  9
$DIMGAP
 40
0.625
  9
$LUNITS
 70
     2
  9
$LUPREC
 70
     4
  9
$SKETCHINC
 40
1.0
  9
$FILLETRAD
 40
0.0
  9
$AUNITS
 70
     0
  9
$AUPREC
 70
     0
  9
$MENU
  1
.
  9
$ELEVATION
 40
0.0
  9
$PELEVATION
 40
0.0
  9
$THICKNESS
 40
0.0
  9
$LIMCHECK
 70
     0
  9
$BLIPMODE
 70
     0
  9
$CHAMFERA
 40
0.0
  9
$CHAMFERB
 40
0.0
  9
$SKPOLY
 70
     0
  9
$TDCREATE
 40
2454494.7844373849
  9
$TDUPDATE
 40
2454494.803150312
  9
$TDINDWG
 40
0.0137208912
  9
$TDUSRTIMER
 40
0.0137165509
  9
$USRTIMER
 70
     1
  9
$ANGBASE
 50
0.0
  9
$ANGDIR
 70
     0
  9
$PDMODE
 70
     0
  9
$PDSIZE
 40
0.0
  9
$PLINEWID
 40
0.0
  9
$COORDS
 70
     1
  9
$SPLFRAME
 70
     0
  9
$SPLINETYPE
 70
     6
  9
$SPLINESEGS
 70
     8
  9
$ATTDIA
 70
     0
  9
$ATTREQ
 70
     1
  9
$HANDLING
 70
     1
  9
$HANDSEED
  5
1B40
  9
$SURFTAB1
 70
     6
  9
$SURFTAB2
 70
     6
  9
$SURFTYPE
 70
     6
  9
$SURFU
 70
     6
  9
$SURFV
 70
     6
  9
$UCSNAME
  2

  9
$UCSORG
 10
0.0
 20
0.0
 30
0.0
  9
$UCSXDIR
 10
1.0
 20
0.0
 30
0.0
  9
$UCSYDIR
 10
0.0
 20
1.0
 30
0.0
  9
$PUCSNAME
  2

  9
$PUCSORG
 10
0.0
 20
0.0
 30
0.0
  9
$PUCSXDIR
 10
1.0
 20
0.0
 30
0.0
  9
$PUCSYDIR
 10
0.0
 20
1.0
 30
0.0
  9
$USERI1
 70
     0
  9
$USERI2
 70
     0
  9
$USERI3
 70
     0
  9
$USERI4
 70
     0
  9
$USERI5
 70
     0
  9
$USERR1
 40
0.0
  9
$USERR2
 40
0.0
  9
$USERR3
 40
0.0
  9
$USERR4
 40
0.0
  9
$USERR5
 40
0.0
  9
$WORLDVIEW
 70
     1
  9
$SHADEDGE
 70
     3
  9
$SHADEDIF
 70
    70
  9
$TILEMODE
 70
     1
  9
$MAXACTVP
 70
    64
  9
$PLIMCHECK
 70
     0
  9
$PEXTMIN
 10
0.0
 20
0.0
 30
0.0
  9
$PEXTMAX
 10
0.0
 20
0.0
 30
0.0
  9
$PLIMMIN
 10
0.0
 20
0.0
  9
$PLIMMAX
 10
12.0
 20
9.0
  9
$UNITMODE
 70
     0
  9
$VISRETAIN
 70
     1
  9
$PLINEGEN
 70
     0
  9
$PSLTSCALE
 70
     1
  0
ENDSEC
  0
SECTION
  2
TABLES
  0
TABLE
  2
VPORT
 70
     1
  0
VPORT
  2
*ACTIVE
 70
     0
 10
0.0
 20
0.0
 11
1.0
 21
1.0
 12
99.63386092811777
 22
177.57049145800519
 13
0.0
 23
0.0
 14
10.0
 24
10.0
 15
10.0
 25
10.0
 16
0.0
 26
0.0
 36
1.0
 17
0.0
 27
0.0
 37
0.0
 40
180.511237219745
 41
1.8032786885245899
 42
50.0
 43
0.0
 44
0.0
 50
0.0
 51
0.0
 71
     0
 72
  1000
 73
     1
 74
     3
 75
     0
 76
     0
 77
     0
 78
     0
  0
ENDTAB
  0
TABLE
  2
LTYPE
 70
     2
  0
LTYPE
  2
CONTINUOUS
 70
     0
  3
Solid line
 72
    65
 73
     0
 40
0.0
  0
ENDTAB
  0
TABLE
  2
LAYER
 70
     2
  0
LAYER
  2
0
 70
     0
 62
     7
  6
CONTINUOUS
  0
LAYER
  2
P
 70
     0
 62
   250
  6
CONTINUOUS
  0
ENDTAB
  0
TABLE
  2
STYLE
 70
     4
  0
STYLE
  2
STANDARD
 70
     0
 40
0.0
 41
1.0
 50
0.0
 71
     0
 42
2.5
  3
txt.shx
  4

  0
STYLE
  2
ANNOTATIVE
 70
     0
 40
0.0
 41
1.0
 50
0.0
 71
     0
 42
0.2
  3
txt
  4

  0
STYLE
  2
ANNOTATIVA
 70
     0
 40
0.0
 41
1.0
 50
0.0
 71
     0
 42
2.5
  3
txt.shx
  4

  0
STYLE
  2
ROMAN
 70
     0
 40
0.0
 41
1.0
 50
0.0
 71
     0
 42
0.2
  3
txt
  4

  0
ENDTAB
  0
TABLE
  2
VIEW
 70
     0
  0
ENDTAB
  0
TABLE
  2
UCS
 70
     0
  0
ENDTAB
  0
TABLE
  2
APPID
 70
     7
  0
APPID
  2
ACAD
 70
     0
  0
APPID
  2
ACADANNOTATIVE
 70
     0
  0
APPID
  2
ACAD_MLEADERVER
 70
     0
  0
APPID
  2
ACAD_PSEXT
 70
     0
  0
APPID
  2
ACADANNOPO
 70
     0
  0
APPID
  2
ACAD_DSTYLE_DIMJAG
 70
     0
  0
APPID
  2
ACAD_DSTYLE_DIMTALN
 70
     0
  0
ENDTAB
  0
TABLE
  2
DIMSTYLE
 70
     5
  0
DIMSTYLE
  2
STANDARD
 70
     0
  3

  4

  5

  6

  7

 40
1.0
 41
1.0
 42
1.0
 43
3.75
 44
1.0
 45
0.0
 46
0.0
 47
0.0
 48
0.0
140
1.0
141
2.5
142
0.0
143
0.03937007874016
144
1.0
145
0.0
146
1.0
147
1.0
 71
     0
 72
     0
 73
     0
 74
     0
 75
     0
 76
     0
 77
     1
 78
     8
170
     0
171
     3
172
     1
173
     0
174
     0
175
     0
176
     0
177
     0
178
     0
  0
DIMSTYLE
  2
ANNOTATIVE
 70
     0
  3

  4

  5

  6

  7

 40
1.0
 41
0.18
 42
0.0625
 43
0.38
 44
0.18
 45
0.0
 46
0.0
 47
0.0
 48
0.0
140
0.18
141
0.09
142
0.0
143
25.399999999999999
144
1.0
145
0.0
146
1.0
147
0.09
 71
     0
 72
     0
 73
     1
 74
     1
 75
     0
 76
     0
 77
     0
 78
     0
170
     0
171
     2
172
     0
173
     0
174
     0
175
     0
176
     0
177
     0
178
     0
  0
DIMSTYLE
  2
ISO-25
 70
     0
  3

  4

  5

  6

  7

 40
1.0
 41
2.5
 42
0.625
 43
3.75
 44
1.25
 45
0.0
 46
0.0
 47
0.0
 48
0.0
140
2.5
141
2.5
142
0.0
143
0.03937007874016
144
1.0
145
0.0
146
1.0
147
0.625
 71
     0
 72
     0
 73
     0
 74
     0
 75
     0
 76
     0
 77
     1
 78
     8
170
     0
171
     3
172
     1
173
     0
174
     0
175
     0
176
     0
177
     0
178
     0
  0
DIMSTYLE
  2
ANNOTATIVA
 70
     0
  3

  4

  5

  6

  7

 40
0.0
 41
2.5
 42
0.625
 43
3.75
 44
1.25
 45
0.0
 46
0.0
 47
0.0
 48
0.0
140
2.5
141
2.5
142
0.0
143
0.03937007874016
144
1.0
145
0.0
146
1.0
147
0.625
 71
     0
 72
     0
 73
     0
 74
     0
 75
     0
 76
     0
 77
     1
 78
     8
170
     0
171
     3
172
     1
173
     0
174
     0
175
     0
176
     0
177
     0
178
     0
  0
ENDTAB
  0
ENDSEC
  0
SECTION
  2
BLOCKS
  0
BLOCK
  8
0
  2
$MODEL_SPACE
 70
     0
 10
0.0
 20
0.0
 30
0.0
  3
$MODEL_SPACE
  1

  0
ENDBLK
  5
189A
  8
0
  0
BLOCK
 67
     1
  8
0
  2
$PAPER_SPACE
 70
     0
 10
0.0
 20
0.0
 30
0.0
  3
$PAPER_SPACE
  1

  0
ENDBLK
  5
1896
 67
     1
  8
0
  0
ENDSEC
  0
SECTION
  2
ENTITIES
  0
POLYLINE
  5
1BB
  8
P
  6
CONTINUOUS
 62
    19
 66
     1
 10
0.0
 20
0.0
 30
0.0
  0
VERTEX
  5
18C4
  8
P
  6
CONTINUOUS
 62
    19
 10
62.636538607771612
 20
11.133342696873839
 30
0.0
  0
VERTEX
  5
18C5
  8
P
  6
CONTINUOUS
 62
    19
 10
68.818540923746696
 20
11.133342696873839
 30
0.0
  0
SEQEND
  5
18C6
  8
P
  6
CONTINUOUS
 62
    19
  0
POLYLINE
  5
1BE
  8
P
  6
CONTINUOUS
 62
    19
 66
     1
 10
0.0
 20
0.0
 30
0.0
  0
VERTEX
  5
18C7
  8
P
  6
CONTINUOUS
 62
    19
 10
84.192094163327184
 20
245.02223158576271
 30
0.0
  0
VERTEX
  5
18C8
  8
P
  6
CONTINUOUS
 62
    19
 10
84.080983052216084
 20
245.30000936354051
 30
0.0
  0
VERTEX
  5
18C9
  8
P
  6
CONTINUOUS
 62
    19
 10
83.969871941104984
 20
245.6333426968738
 30
0.0
  0
VERTEX
  5
18CA
  8
P
  6
CONTINUOUS
 62
    19
 10
83.914316385549427
 20
245.9111204746516
 30
0.0
  0
VERTEX
  5
18CB
  8
P
  6
CONTINUOUS
 62
    19
 10
83.803205274438298
 20
246.244453807985
 30
0.0
  0
VERTEX
  5
18CC
  8
P
  6
CONTINUOUS
 62
    19
 10
83.692094163327198
 20
246.52223158576271
 30
0.0
  0
VERTEX
  5
18CD
  8
P
  6
CONTINUOUS
 62
    19
 10
83.636538607771584
 20
246.85556491909611
 30
0.0
  0
VERTEX
  5
18CE
  8
P
  6
CONTINUOUS
 62
    19
 10
83.580983052216084
 20
247.1888982524294
 30
0.0
  0
VERTEX
  5
18CF
  8
P
  6
CONTINUOUS
 62
    19
 10
83.469871941104984
 20
247.5222315857628
 30
0.0
  0
VERTEX
  5
18D0
  8
P
  6
CONTINUOUS
 62
    19
 10
83.414316385549427
 20
247.85556491909611
 30
0.0
  0
VERTEX
  5
18D1
  8
P
  6
CONTINUOUS
 62
    19
 10
83.358760829993884
 20
248.1333426968738
 30
0.0
  0
VERTEX
  5
18D2
  8
P
  6
CONTINUOUS
 62
    19
 10
83.30320527443827
 20
248.4666760302072
 30
0.0
  0
VERTEX
  5
18D3
  8
P
  6
CONTINUOUS
 62
    19
 10
83.247649718882727
 20
248.80000936354051
 30
0.0
  0
VERTEX
  5
18D4
  8
P
  6
CONTINUOUS
 62
    19
 10
83.192094163327212
 20
249.1333426968738
 30
0.0
  0
VERTEX
  5
18D5
  8
P
  6
CONTINUOUS
 62
    19
 10
83.136538607771627
 20
249.4666760302072
 30
0.0
  0
VERTEX
  5
18D6
  8
P
  6
CONTINUOUS
 62
    19
 10
83.080983052216084
 20
249.8000093635404
 30
0.0
  0
VERTEX
  5
18D7
  8
P
  6
CONTINUOUS
 62
    19
 10
83.025427496660541
 20
250.1333426968738
 30
0.0
  0
VERTEX
  5
18D8
  8
P
  6
CONTINUOUS
 62
    19
 10
82.969871941104984
 20
250.4666760302072
 30
0.0
  0
VERTEX
  5
18D9
  8
P
  6
CONTINUOUS
 62
    19
 10
82.914316385549427
 20
250.80000936354051
 30
0.0
  0
VERTEX
  5
18DA
  8
P
  6
CONTINUOUS
 62
    19
 10
82.858760829993855
 20
251.1333426968738
 30
0.0
  0
VERTEX
  5
18DB
  8
P
  6
CONTINUOUS
 62
    19
 10
82.803205274438298
 20
251.52223158576271
 30
0.0
  0
VERTEX
  5
18DC
  8
P
  6
CONTINUOUS
 62
    19
 10
82.747649718882727
 20
251.85556491909611
 30
0.0
  0
VERTEX
  5
18DD
  8
P
  6
CONTINUOUS
 62
    19
 10
82.692094163327184
 20
252.1333426968738
 30
0.0
  0
VERTEX
  5
18DE
  8
P
  6
CONTINUOUS
 62
    19
 10
82.636538607771627
 20
252.4666760302072
 30
0.0
  0
VERTEX
  5
18DF
  8
P
  6
CONTINUOUS
 62
    19
 10
82.580983052216084
 20
252.80000936354051
 30
0.0
  0
VERTEX
  5
18E0
  8
P
  6
CONTINUOUS
 62
    19
 10
82.525427496660527
 20
253.1333426968738
 30
0.0
  0
VERTEX
  5
18E1
  8
P
  6
CONTINUOUS
 62
    19
 10
82.469871941104984
 20
253.4666760302072
 30
0.0
  0
VERTEX
  5
18E2
  8
P
  6
CONTINUOUS
 62
    19
 10
82.414316385549427
 20
253.80000936354051
 30
0.0
  0
VERTEX
  5
18E3
  8
P
  6
CONTINUOUS
 62
    19
 10
82.358760829993884
 20
254.1333426968738
 30
0.0
  0
VERTEX
  5
18E4
  8
P
  6
CONTINUOUS
 62
    19
 10
82.247649718882755
 20
254.4111204746516
 30
0.0
  0
VERTEX
  5
18E5
  8
P
  6
CONTINUOUS
 62
    19
 10
82.192094163327226
 20
254.744453807985
 30
0.0
  0
VERTEX
  5
18E6
  8
P
  6
CONTINUOUS
 62
    19
 10
82.080983052216084
 20
255.07778714131831
 30
0.0
  0
VERTEX
  5
18E7
  8
P
  6
CONTINUOUS
 62
    19
 10
82.025427496660541
 20
255.35556491909611
 30
0.0
  0
VERTEX
  5
18E8
  8
P
  6
CONTINUOUS
 62
    19
 10
81.914316385549427
 20
255.6333426968738
 30
0.0
  0
VERTEX
  5
18E9
  8
P
  6
CONTINUOUS
 62
    19
 10
81.803205274438298
 20
255.96667603020711
 30
0.0
  0
VERTEX
  5
18EA
  8
P
  6
CONTINUOUS
 62
    19
 10
81.747649718882727
 20
256.244453807985
 30
0.0
  0
VERTEX
  5
18EB
  8
P
  6
CONTINUOUS
 62
    19
 10
81.636538607771627
 20
256.52223158576271
 30
0.0
  0
VERTEX
  5
18EC
  8
P
  6
CONTINUOUS
 62
    19
 10
81.525427496660541
 20
256.80000936354048
 30
0.0
  0
VERTEX
  5
18ED
  8
P
  6
CONTINUOUS
 62
    19
 10
81.358760829993855
 20
257.07778714131831
 30
0.0
  0
VERTEX
  5
18EE
  8
P
  6
CONTINUOUS
 62
    19
 10
81.247649718882727
 20
257.35556491909608
 30
0.0
  0
VERTEX
  5
18EF
  8
P
  6
CONTINUOUS
 62
    19
 10
81.080983052216084
 20
257.63334269687391
 30
0.0
  0
VERTEX
  5
18F0
  8
P
  6
CONTINUOUS
 62
    19
 10
80.969871941104984
 20
257.85556491909608
 30
0.0
  0
VERTEX
  5
18F1
  8
P
  6
CONTINUOUS
 62
    19
 10
80.80320527443827
 20
258.13334269687391
 30
0.0
  0
VERTEX
  5
18F2
  8
P
  6
CONTINUOUS
 62
    19
 10
80.636538607771627
 20
258.35556491909608
 30
0.0
  0
VERTEX
  5
18F3
  8
P
  6
CONTINUOUS
 62
    19
 10
80.469871941104984
 20
258.63334269687391
 30
0.0
  0
VERTEX
  5
18F4
  8
P
  6
CONTINUOUS
 62
    19
 10
80.247649718882727
 20
258.85556491909608
 30
0.0
  0
VERTEX
  5
18F5
  8
P
  6
CONTINUOUS
 62
    19
 10
80.080983052216084
 20
259.07778714131831
 30
0.0
  0
VERTEX
  5
18F6
  8
P
  6
CONTINUOUS
 62
    19
 10
79.858760829993884
 20
259.244453807985
 30
0.0
  0
VERTEX
  5
18F7
  8
P
  6
CONTINUOUS
 62
    19
 10
79.636538607771627
 20
259.46667603020722
 30
0.0
  0
VERTEX
  5
18F8
  8
P
  6
CONTINUOUS
 62
    19
 10
79.414316385549427
 20
259.68889825242962
 30
0.0
  0
VERTEX
  5
18F9
  8
P
  6
CONTINUOUS
 62
    19
 10
79.192094163327184
 20
259.85556491909608
 30
0.0
  0
VERTEX
  5
18FA
  8
P
  6
CONTINUOUS
 62
    19
 10
78.914316385549427
 20
260.02223158576271
 30
0.0
  0
VERTEX
  5
18FB
  8
P
  6
CONTINUOUS
 62
    19
 10
78.636538607771627
 20
260.18889825242962
 30
0.0
  0
VERTEX
  5
18FC
  8
P
  6
CONTINUOUS
 62
    19
 10
78.358760829993884
 20
260.35556491909608
 30
0.0
  0
VERTEX
  5
18FD
  8
P
  6
CONTINUOUS
 62
    19
 10
78.080983052216084
 20
260.46667603020722
 30
0.0
  0
VERTEX
  5
18FE
  8
P
  6
CONTINUOUS
 62
    19
 10
77.747649718882727
 20
260.63334269687391
 30
0.0
  0
VERTEX
  5
18FF
  8
P
  6
CONTINUOUS
 62
    19
 10
77.469871941104984
 20
260.744453807985
 30
0.0
  0
VERTEX
  5
1900
  8
P
  6
CONTINUOUS
 62
    19
 10
77.136538607771627
 20
260.85556491909608
 30
0.0
  0
VERTEX
  5
1901
  8
P
  6
CONTINUOUS
 62
    19
 10
76.747649718882727
 20
260.96667603020722
 30
0.0
  0
VERTEX
  5
1902
  8
P
  6
CONTINUOUS
 62
    19
 10
76.414316385549427
 20
261.07778714131831
 30
0.0
  0
VERTEX
  5
1903
  8
P
  6
CONTINUOUS
 62
    19
 10
76.025427496660512
 20
261.13334269687391
 30
0.0
  0
VERTEX
  5
1904
  8
P
  6
CONTINUOUS
 62
    19
 10
75.636538607771627
 20
261.18889825242962
 30
0.0
  0
VERTEX
  5
1905
  8
P
  6
CONTINUOUS
 62
    19
 10
75.192094163327212
 20
261.244453807985
 30
0.0
  0
VERTEX
  5
1906
  8
P
  6
CONTINUOUS
 62
    19
 10
74.803205274438284
 20
261.3000093635406
 30
0.0
  0
VERTEX
  5
1907
  8
P
  6
CONTINUOUS
 62
    19
 10
74.358760829993855
 20
261.35556491909608
 30
0.0
  0
VERTEX
  5
1908
  8
P
  6
CONTINUOUS
 62
    19
 10
32.192094163327198
 20
253.85556491909611
 30
0.0
  0
VERTEX
  5
1909
  8
P
  6
CONTINUOUS
 62
    19
 10
32.192094163327198
 20
244.57778714131831
 30
0.0
  0
VERTEX
  5
190A
  8
P
  6
CONTINUOUS
 62
    19
 10
33.636538607771641
 20
244.57778714131831
 30
0.0
  0
SEQEND
  5
190B
  8
P
  6
CONTINUOUS
 62
    19
  0
LINE
  5
A6D
  8
0
 10
62.636538607771612
 20
11.133342696873839
 30
0.0
 11
62.636538607771612
 21
11.133342696873839
 31
0.0
  0
LINE
  5
A6E
  8
0
 10
68.818540923746696
 20
32.975856899131493
 30
0.0
 11
68.818540923746696
 21
11.133342696873839
 31
0.0
  0
LINE
  5
A6F
  8
0
 10
68.818540923746696
 20
11.133342696873839
 30
0.0
 11
68.818540923746696
 21
32.975856899131493
 31
0.0
  0
LINE
  5
A70
  8
0
 10
68.818540923746696
 20
32.975856899131493
 30
0.0
 11
75.697349486035804
 21
32.975856899131493
 31
0.0
  0
LINE
  5
A71
  8
0
 10
75.697349486035804
 20
32.975856899131493
 30
0.0
 11
75.697349486035804
 21
11.133342696873839
 31
0.0
  0
POLYLINE
  5
A72
  8
P
  6
CONTINUOUS
 62
    19
 66
     1
 10
0.0
 20
0.0
 30
0.0
  0
VERTEX
  5
190C
  8
P
  6
CONTINUOUS
 62
    19
 10
75.697349486035804
 20
11.133342696873839
 30
0.0
  0
VERTEX
  5
190D
  8
P
  6
CONTINUOUS
 62
    19
 10
81.803205274438298
 20
11.133342696873839
 30
0.0
  0
VERTEX
  5
190E
  8
P
  6
CONTINUOUS
 62
    19
 10
82.192094163327184
 20
12.91112047465165
 30
0.0
  0
VERTEX
  5
190F
  8
P
  6
CONTINUOUS
 62
    19
 10
86.414316385549412
 20
12.91112047465165
 30
0.0
  0
VERTEX
  5
1910
  8
P
  6
CONTINUOUS
 62
    19
 10
86.747649718882698
 20
13.688898252429411
 30
0.0
  0
VERTEX
  5
1911
  8
P
  6
CONTINUOUS
 62
    19
 10
87.025427496660512
 20
14.57778714131828
 30
0.0
  0
VERTEX
  5
1912
  8
P
  6
CONTINUOUS
 62
    19
 10
87.303205274438284
 20
15.41112047465165
 30
0.0
  0
VERTEX
  5
1913
  8
P
  6
CONTINUOUS
 62
    19
 10
87.636538607771627
 20
16.300009363540521
 30
0.0
  0
VERTEX
  5
1914
  8
P
  6
CONTINUOUS
 62
    19
 10
87.914316385549412
 20
17.133342696873839
 30
0.0
  0
VERTEX
  5
1915
  8
P
  6
CONTINUOUS
 62
    19
 10
88.192094163327184
 20
18.077787141318279
 30
0.0
  0
VERTEX
  5
1916
  8
P
  6
CONTINUOUS
 62
    19
 10
88.469871941104955
 20
18.9666760302072
 30
0.0
  0
VERTEX
  5
1917
  8
P
  6
CONTINUOUS
 62
    19
 10
88.747649718882712
 20
19.8555649190961
 30
0.0
  0
VERTEX
  5
1918
  8
P
  6
CONTINUOUS
 62
    19
 10
88.969871941104941
 20
20.800009363540529
 30
0.0
  0
VERTEX
  5
1919
  8
P
  6
CONTINUOUS
 62
    19
 10
89.247649718882698
 20
21.744453807984971
 30
0.0
  0
VERTEX
  5
191A
  8
P
  6
CONTINUOUS
 62
    19
 10
89.469871941104941
 20
22.688898252429428
 30
0.0
  0
VERTEX
  5
191B
  8
P
  6
CONTINUOUS
 62
    19
 10
89.747649718882712
 20
23.633342696873839
 30
0.0
  0
VERTEX
  5
191C
  8
P
  6
CONTINUOUS
 62
    19
 10
89.969871941104927
 20
24.63334269687385
 30
0.0
  0
VERTEX
  5
191D
  8
P
  6
CONTINUOUS
 62
    19
 10
90.192094163327184
 20
25.577787141318289
 30
0.0
  0
VERTEX
  5
191E
  8
P
  6
CONTINUOUS
 62
    19
 10
90.414316385549412
 20
26.577787141318279
 30
0.0
  0
VERTEX
  5
191F
  8
P
  6
CONTINUOUS
 62
    19
 10
90.636538607771584
 20
27.577787141318279
 30
0.0
  0
VERTEX
  5
1920
  8
P
  6
CONTINUOUS
 62
    19
 10
90.858760829993841
 20
28.577787141318279
 30
0.0
  0
VERTEX
  5
1921
  8
P
  6
CONTINUOUS
 62
    19
 10
91.080983052216084
 20
29.577787141318279
 30
0.0
  0
VERTEX
  5
1922
  8
P
  6
CONTINUOUS
 62
    19
 10
91.303205274438284
 20
30.577787141318279
 30
0.0
  0
VERTEX
  5
1923
  8
P
  6
CONTINUOUS
 62
    19
 10
91.469871941104984
 20
31.633342696873839
 30
0.0
  0
VERTEX
  5
1924
  8
P
  6
CONTINUOUS
 62
    19
 10
91.692094163327184
 20
32.688898252429411
 30
0.0
  0
VERTEX
  5
1925
  8
P
  6
CONTINUOUS
 62
    19
 10
91.858760829993827
 20
33.688898252429411
 30
0.0
  0
VERTEX
  5
1926
  8
P
  6
CONTINUOUS
 62
    19
 10
92.080983052216069
 20
34.744453807984968
 30
0.0
  0
VERTEX
  5
1927
  8
P
  6
CONTINUOUS
 62
    19
 10
92.247649718882712
 20
35.800009363540532
 30
0.0
  0
VERTEX
  5
1928
  8
P
  6
CONTINUOUS
 62
    19
 10
92.414316385549398
 20
36.855564919096103
 30
0.0
  0
VERTEX
  5
1929
  8
P
  6
CONTINUOUS
 62
    19
 10
92.580983052216055
 20
37.966676030207211
 30
0.0
  0
VERTEX
  5
192A
  8
P
  6
CONTINUOUS
 62
    19
 10
92.747649718882727
 20
39.022231585762732
 30
0.0
  0
VERTEX
  5
192B
  8
P
  6
CONTINUOUS
 62
    19
 10
92.914316385549412
 20
40.077787141318311
 30
0.0
  0
VERTEX
  5
192C
  8
P
  6
CONTINUOUS
 62
    19
 10
93.080983052216069
 20
41.188898252429397
 30
0.0
  0
VERTEX
  5
192D
  8
P
  6
CONTINUOUS
 62
    19
 10
93.247649718882712
 20
42.300009363540518
 30
0.0
  0
VERTEX
  5
192E
  8
P
  6
CONTINUOUS
 62
    19
 10
93.358760829993841
 20
43.355564919096089
 30
0.0
  0
VERTEX
  5
192F
  8
P
  6
CONTINUOUS
 62
    19
 10
93.525427496660555
 20
44.466676030207189
 30
0.0
  0
VERTEX
  5
1930
  8
P
  6
CONTINUOUS
 62
    19
 10
93.692094163327184
 20
45.577787141318289
 30
0.0
  0
VERTEX
  5
1931
  8
P
  6
CONTINUOUS
 62
    19
 10
93.803205274438284
 20
46.688898252429411
 30
0.0
  0
VERTEX
  5
1932
  8
P
  6
CONTINUOUS
 62
    19
 10
93.969871941104984
 20
47.800009363540497
 30
0.0
  0
VERTEX
  5
1933
  8
P
  6
CONTINUOUS
 62
    19
 10
94.080983052216055
 20
48.911120474651632
 30
0.0
  0
VERTEX
  5
1934
  8
P
  6
CONTINUOUS
 62
    19
 10
94.192094163327184
 20
50.022231585762739
 30
0.0
  0
VERTEX
  5
1935
  8
P
  6
CONTINUOUS
 62
    19
 10
94.303205274438284
 20
51.133342696873846
 30
0.0
  0
VERTEX
  5
1936
  8
P
  6
CONTINUOUS
 62
    19
 10
94.469871941104941
 20
52.244453807984961
 30
0.0
  0
VERTEX
  5
1937
  8
P
  6
CONTINUOUS
 62
    19
 10
94.580983052216069
 20
53.411120474651632
 30
0.0
  0
VERTEX
  5
1938
  8
P
  6
CONTINUOUS
 62
    19
 10
94.692094163327184
 20
54.522231585762732
 30
0.0
  0
VERTEX
  5
1939
  8
P
  6
CONTINUOUS
 62
    19
 10
94.803205274438284
 20
55.633342696873846
 30
0.0
  0
VERTEX
  5
193A
  8
P
  6
CONTINUOUS
 62
    19
 10
94.914316385549398
 20
56.744453807984982
 30
0.0
  0
VERTEX
  5
193B
  8
P
  6
CONTINUOUS
 62
    19
 10
94.969871941104984
 20
57.911120474651611
 30
0.0
  0
VERTEX
  5
193C
  8
P
  6
CONTINUOUS
 62
    19
 10
95.080983052216055
 20
59.022231585762739
 30
0.0
  0
VERTEX
  5
193D
  8
P
  6
CONTINUOUS
 62
    19
 10
95.192094163327184
 20
60.133342696873846
 30
0.0
  0
VERTEX
  5
193E
  8
P
  6
CONTINUOUS
 62
    19
 10
95.303205274438284
 20
61.300009363540518
 30
0.0
  0
VERTEX
  5
193F
  8
P
  6
CONTINUOUS
 62
    19
 10
95.358760829993855
 20
62.411120474651611
 30
0.0
  0
VERTEX
  5
1940
  8
P
  6
CONTINUOUS
 62
    19
 10
95.469871941104984
 20
63.522231585762739
 30
0.0
  0
VERTEX
  5
1941
  8
P
  6
CONTINUOUS
 62
    19
 10
95.580983052216069
 20
64.688898252429411
 30
0.0
  0
VERTEX
  5
1942
  8
P
  6
CONTINUOUS
 62
    19
 10
95.636538607771584
 20
65.800009363540525
 30
0.0
  0
VERTEX
  5
1943
  8
P
  6
CONTINUOUS
 62
    19
 10
95.692094163327184
 20
66.911120474651639
 30
0.0
  0
VERTEX
  5
1944
  8
P
  6
CONTINUOUS
 62
    19
 10
95.803205274438284
 20
68.022231585762739
 30
0.0
  0
VERTEX
  5
1945
  8
P
  6
CONTINUOUS
 62
    19
 10
95.858760829993841
 20
69.133342696873854
 30
0.0
  0
VERTEX
  5
1946
  8
P
  6
CONTINUOUS
 62
    19
 10
95.969871941104955
 20
70.300009363540539
 30
0.0
  0
VERTEX
  5
1947
  8
P
  6
CONTINUOUS
 62
    19
 10
96.025427496660555
 20
71.411120474651625
 30
0.0
  0
VERTEX
  5
1948
  8
P
  6
CONTINUOUS
 62
    19
 10
96.080983052216084
 20
72.522231585762754
 30
0.0
  0
VERTEX
  5
1949
  8
P
  6
CONTINUOUS
 62
    19
 10
96.136538607771627
 20
73.633342696873854
 30
0.0
  0
VERTEX
  5
194A
  8
P
  6
CONTINUOUS
 62
    19
 10
96.247649718882712
 20
74.688898252429397
 30
0.0
  0
VERTEX
  5
194B
  8
P
  6
CONTINUOUS
 62
    19
 10
96.303205274438284
 20
75.800009363540511
 30
0.0
  0
VERTEX
  5
194C
  8
P
  6
CONTINUOUS
 62
    19
 10
96.358760829993841
 20
76.911120474651668
 30
0.0
  0
VERTEX
  5
194D
  8
P
  6
CONTINUOUS
 62
    19
 10
96.414316385549412
 20
78.022231585762754
 30
0.0
  0
VERTEX
  5
194E
  8
P
  6
CONTINUOUS
 62
    19
 10
96.469871941104984
 20
79.077787141318296
 30
0.0
  0
VERTEX
  5
194F
  8
P
  6
CONTINUOUS
 62
    19
 10
96.525427496660541
 20
80.188898252429397
 30
0.0
  0
VERTEX
  5
1950
  8
P
  6
CONTINUOUS
 62
    19
 10
97.025427496660541
 20
98.855564919096068
 30
0.0
  0
VERTEX
  5
1951
  8
P
  6
CONTINUOUS
 62
    19
 10
98.192094163327184
 20
98.855564919096068
 30
0.0
  0
VERTEX
  5
1952
  8
P
  6
CONTINUOUS
 62
    19
 10
99.192094163327184
 20
97.800009363540511
 30
0.0
  0
VERTEX
  5
1953
  8
P
  6
CONTINUOUS
 62
    19
 10
105.2476497188827
 20
97.800009363540511
 30
0.0
  0
VERTEX
  5
1954
  8
P
  6
CONTINUOUS
 62
    19
 10
105.3587608299938
 20
97.966676030207196
 30
0.0
  0
VERTEX
  5
1955
  8
P
  6
CONTINUOUS
 62
    19
 10
105.4698719411049
 20
98.188898252429411
 30
0.0
  0
VERTEX
  5
1956
  8
P
  6
CONTINUOUS
 62
    19
 10
105.5809830522161
 20
98.411120474651653
 30
0.0
  0
VERTEX
  5
1957
  8
P
  6
CONTINUOUS
 62
    19
 10
105.6365386077716
 20
98.577787141318282
 30
0.0
  0
VERTEX
  5
1958
  8
P
  6
CONTINUOUS
 62
    19
 10
105.7476497188827
 20
98.800009363540511
 30
0.0
  0
VERTEX
  5
1959
  8
P
  6
CONTINUOUS
 62
    19
 10
105.8587608299938
 20
98.966676030207196
 30
0.0
  0
VERTEX
  5
195A
  8
P
  6
CONTINUOUS
 62
    19
 10
105.9143163855494
 20
99.188898252429425
 30
0.0
  0
VERTEX
  5
195B
  8
P
  6
CONTINUOUS
 62
    19
 10
106.0254274966605
 20
99.411120474651682
 30
0.0
  0
VERTEX
  5
195C
  8
P
  6
CONTINUOUS
 62
    19
 10
106.080983052216
 20
99.633342696873854
 30
0.0
  0
VERTEX
  5
195D
  8
P
  6
CONTINUOUS
 62
    19
 10
106.1365386077716
 20
99.800009363540525
 30
0.0
  0
VERTEX
  5
195E
  8
P
  6
CONTINUOUS
 62
    19
 10
106.1920941633271
 20
100.0222315857627
 30
0.0
  0
VERTEX
  5
195F
  8
P
  6
CONTINUOUS
 62
    19
 10
106.3032052744383
 20
100.2444538079849
 30
0.0
  0
VERTEX
  5
1960
  8
P
  6
CONTINUOUS
 62
    19
 10
106.3587608299938
 20
100.4666760302072
 30
0.0
  0
VERTEX
  5
1961
  8
P
  6
CONTINUOUS
 62
    19
 10
106.4143163855494
 20
100.6888982524294
 30
0.0
  0
VERTEX
  5
1962
  8
P
  6
CONTINUOUS
 62
    19
 10
106.4143163855494
 20
100.9111204746516
 30
0.0
  0
VERTEX
  5
1963
  8
P
  6
CONTINUOUS
 62
    19
 10
106.4698719411049
 20
101.1333426968738
 30
0.0
  0
VERTEX
  5
1964
  8
P
  6
CONTINUOUS
 62
    19
 10
106.5254274966605
 20
101.355564919096
 30
0.0
  0
VERTEX
  5
1965
  8
P
  6
CONTINUOUS
 62
    19
 10
106.580983052216
 20
101.5777871413183
 30
0.0
  0
VERTEX
  5
1966
  8
P
  6
CONTINUOUS
 62
    19
 10
106.580983052216
 20
101.8000093635405
 30
0.0
  0
VERTEX
  5
1967
  8
P
  6
CONTINUOUS
 62
    19
 10
106.6365386077716
 20
102.0222315857627
 30
0.0
  0
VERTEX
  5
1968
  8
P
  6
CONTINUOUS
 62
    19
 10
106.6920941633272
 20
102.2444538079849
 30
0.0
  0
VERTEX
  5
1969
  8
P
  6
CONTINUOUS
 62
    19
 10
106.6920941633272
 20
102.4666760302072
 30
0.0
  0
VERTEX
  5
196A
  8
P
  6
CONTINUOUS
 62
    19
 10
106.7476497188827
 20
102.7444538079849
 30
0.0
  0
VERTEX
  5
196B
  8
P
  6
CONTINUOUS
 62
    19
 10
106.7476497188827
 20
102.9666760302072
 30
0.0
  0
VERTEX
  5
196C
  8
P
  6
CONTINUOUS
 62
    19
 10
106.7476497188827
 20
103.2444538079849
 30
0.0
  0
VERTEX
  5
196D
  8
P
  6
CONTINUOUS
 62
    19
 10
106.8032052744383
 20
103.4666760302072
 30
0.0
  0
VERTEX
  5
196E
  8
P
  6
CONTINUOUS
 62
    19
 10
106.8032052744383
 20
103.7444538079849
 30
0.0
  0
VERTEX
  5
196F
  8
P
  6
CONTINUOUS
 62
    19
 10
106.8032052744383
 20
103.9666760302072
 30
0.0
  0
VERTEX
  5
1970
  8
P
  6
CONTINUOUS
 62
    19
 10
106.8587608299938
 20
104.2444538079849
 30
0.0
  0
VERTEX
  5
1971
  8
P
  6
CONTINUOUS
 62
    19
 10
106.8587608299938
 20
104.5222315857627
 30
0.0
  0
VERTEX
  5
1972
  8
P
  6
CONTINUOUS
 62
    19
 10
106.8587608299938
 20
104.8000093635405
 30
0.0
  0
VERTEX
  5
1973
  8
P
  6
CONTINUOUS
 62
    19
 10
106.8587608299938
 20
105.0222315857627
 30
0.0
  0
VERTEX
  5
1974
  8
P
  6
CONTINUOUS
 62
    19
 10
106.8587608299938
 20
115.8000093635405
 30
0.0
  0
VERTEX
  5
1975
  8
P
  6
CONTINUOUS
 62
    19
 10
106.8032052744383
 20
117.0222315857627
 30
0.0
  0
VERTEX
  5
1976
  8
P
  6
CONTINUOUS
 62
    19
 10
106.6920941633272
 20
118.2444538079849
 30
0.0
  0
VERTEX
  5
1977
  8
P
  6
CONTINUOUS
 62
    19
 10
106.6365386077716
 20
119.4666760302072
 30
0.0
  0
VERTEX
  5
1978
  8
P
  6
CONTINUOUS
 62
    19
 10
106.5254274966605
 20
120.6888982524294
 30
0.0
  0
VERTEX
  5
1979
  8
P
  6
CONTINUOUS
 62
    19
 10
106.4143163855494
 20
121.9111204746516
 30
0.0
  0
VERTEX
  5
197A
  8
P
  6
CONTINUOUS
 62
    19
 10
106.3032052744383
 20
123.1333426968738
 30
0.0
  0
VERTEX
  5
197B
  8
P
  6
CONTINUOUS
 62
    19
 10
106.1920941633271
 20
124.3555649190961
 30
0.0
  0
VERTEX
  5
197C
  8
P
  6
CONTINUOUS
 62
    19
 10
106.0254274966605
 20
125.5222315857627
 30
0.0
  0
VERTEX
  5
197D
  8
P
  6
CONTINUOUS
 62
    19
 10
105.9143163855494
 20
126.744453807985
 30
0.0
  0
VERTEX
  5
197E
  8
P
  6
CONTINUOUS
 62
    19
 10
105.8032052744383
 20
127.9666760302072
 30
0.0
  0
VERTEX
  5
197F
  8
P
  6
CONTINUOUS
 62
    19
 10
105.6365386077716
 20
129.1888982524294
 30
0.0
  0
VERTEX
  5
1980
  8
P
  6
CONTINUOUS
 62
    19
 10
105.5254274966605
 20
130.4111204746516
 30
0.0
  0
VERTEX
  5
1981
  8
P
  6
CONTINUOUS
 62
    19
 10
105.3587608299938
 20
131.6333426968738
 30
0.0
  0
VERTEX
  5
1982
  8
P
  6
CONTINUOUS
 62
    19
 10
105.1920941633271
 20
132.80000936354051
 30
0.0
  0
VERTEX
  5
1983
  8
P
  6
CONTINUOUS
 62
    19
 10
105.0254274966605
 20
134.02223158576271
 30
0.0
  0
VERTEX
  5
1984
  8
P
  6
CONTINUOUS
 62
    19
 10
104.8587608299938
 20
135.24445380798491
 30
0.0
  0
VERTEX
  5
1985
  8
P
  6
CONTINUOUS
 62
    19
 10
104.6920941633272
 20
136.4666760302072
 30
0.0
  0
VERTEX
  5
1986
  8
P
  6
CONTINUOUS
 62
    19
 10
104.5254274966605
 20
137.6888982524294
 30
0.0
  0
VERTEX
  5
1987
  8
P
  6
CONTINUOUS
 62
    19
 10
104.3587608299938
 20
138.9111204746516
 30
0.0
  0
VERTEX
  5
1988
  8
P
  6
CONTINUOUS
 62
    19
 10
104.1920941633272
 20
140.07778714131831
 30
0.0
  0
VERTEX
  5
1989
  8
P
  6
CONTINUOUS
 62
    19
 10
103.969871941105
 20
141.30000936354051
 30
0.0
  0
VERTEX
  5
198A
  8
P
  6
CONTINUOUS
 62
    19
 10
103.8032052744383
 20
142.52223158576271
 30
0.0
  0
VERTEX
  5
198B
  8
P
  6
CONTINUOUS
 62
    19
 10
103.6365386077715
 20
143.74445380798491
 30
0.0
  0
VERTEX
  5
198C
  8
P
  6
CONTINUOUS
 62
    19
 10
103.4143163855494
 20
144.9111204746516
 30
0.0
  0
VERTEX
  5
198D
  8
P
  6
CONTINUOUS
 62
    19
 10
103.1920941633271
 20
146.1333426968738
 30
0.0
  0
VERTEX
  5
198E
  8
P
  6
CONTINUOUS
 62
    19
 10
103.0254274966605
 20
147.35556491909611
 30
0.0
  0
VERTEX
  5
198F
  8
P
  6
CONTINUOUS
 62
    19
 10
102.8032052744383
 20
148.57778714131831
 30
0.0
  0
VERTEX
  5
1990
  8
P
  6
CONTINUOUS
 62
    19
 10
102.5809830522161
 20
149.74445380798491
 30
0.0
  0
VERTEX
  5
1991
  8
P
  6
CONTINUOUS
 62
    19
 10
102.4143163855494
 20
150.9666760302072
 30
0.0
  0
VERTEX
  5
1992
  8
P
  6
CONTINUOUS
 62
    19
 10
102.1920941633272
 20
152.1888982524294
 30
0.0
  0
VERTEX
  5
1993
  8
P
  6
CONTINUOUS
 62
    19
 10
101.969871941105
 20
153.4111204746516
 30
0.0
  0
VERTEX
  5
1994
  8
P
  6
CONTINUOUS
 62
    19
 10
101.7476497188827
 20
154.57778714131831
 30
0.0
  0
VERTEX
  5
1995
  8
P
  6
CONTINUOUS
 62
    19
 10
101.5254274966605
 20
155.80000936354051
 30
0.0
  0
VERTEX
  5
1996
  8
P
  6
CONTINUOUS
 62
    19
 10
101.3032052744383
 20
157.02223158576271
 30
0.0
  0
VERTEX
  5
1997
  8
P
  6
CONTINUOUS
 62
    19
 10
101.0809830522161
 20
158.24445380798491
 30
0.0
  0
VERTEX
  5
1998
  8
P
  6
CONTINUOUS
 62
    19
 10
100.8587608299938
 20
159.4111204746516
 30
0.0
  0
VERTEX
  5
1999
  8
P
  6
CONTINUOUS
 62
    19
 10
100.6365386077715
 20
160.6333426968738
 30
0.0
  0
VERTEX
  5
199A
  8
P
  6
CONTINUOUS
 62
    19
 10
100.4143163855494
 20
161.85556491909611
 30
0.0
  0
VERTEX
  5
199B
  8
P
  6
CONTINUOUS
 62
    19
 10
100.1920941633272
 20
163.02223158576271
 30
0.0
  0
VERTEX
  5
199C
  8
P
  6
CONTINUOUS
 62
    19
 10
99.914316385549427
 20
164.244453807985
 30
0.0
  0
VERTEX
  5
199D
  8
P
  6
CONTINUOUS
 62
    19
 10
99.692094163327198
 20
165.4666760302072
 30
0.0
  0
VERTEX
  5
199E
  8
P
  6
CONTINUOUS
 62
    19
 10
99.469871941104984
 20
166.6333426968738
 30
0.0
  0
VERTEX
  5
199F
  8
P
  6
CONTINUOUS
 62
    19
 10
99.247649718882727
 20
167.855564919096
 30
0.0
  0
VERTEX
  5
19A0
  8
P
  6
CONTINUOUS
 62
    19
 10
99.025427496660555
 20
169.07778714131831
 30
0.0
  0
VERTEX
  5
19A1
  8
P
  6
CONTINUOUS
 62
    19
 10
98.747649718882769
 20
170.24445380798491
 30
0.0
  0
VERTEX
  5
19A2
  8
P
  6
CONTINUOUS
 62
    19
 10
98.525427496660555
 20
171.4666760302072
 30
0.0
  0
VERTEX
  5
19A3
  8
P
  6
CONTINUOUS
 62
    19
 10
98.303205274438312
 20
172.6888982524294
 30
0.0
  0
VERTEX
  5
19A4
  8
P
  6
CONTINUOUS
 62
    19
 10
98.080983052216069
 20
173.85556491909611
 30
0.0
  0
VERTEX
  5
19A5
  8
P
  6
CONTINUOUS
 62
    19
 10
97.803205274438298
 20
175.07778714131831
 30
0.0
  0
VERTEX
  5
19A6
  8
P
  6
CONTINUOUS
 62
    19
 10
97.580983052216084
 20
176.30000936354051
 30
0.0
  0
VERTEX
  5
19A7
  8
P
  6
CONTINUOUS
 62
    19
 10
97.358760829993841
 20
177.46667603020711
 30
0.0
  0
VERTEX
  5
19A8
  8
P
  6
CONTINUOUS
 62
    19
 10
97.080983052216069
 20
178.6888982524294
 30
0.0
  0
VERTEX
  5
19A9
  8
P
  6
CONTINUOUS
 62
    19
 10
96.858760829993855
 20
179.9111204746516
 30
0.0
  0
VERTEX
  5
19AA
  8
P
  6
CONTINUOUS
 62
    19
 10
96.636538607771584
 20
181.07778714131831
 30
0.0
  0
VERTEX
  5
19AB
  8
P
  6
CONTINUOUS
 62
    19
 10
96.414316385549427
 20
182.3000093635404
 30
0.0
  0
VERTEX
  5
19AC
  8
P
  6
CONTINUOUS
 62
    19
 10
96.192094163327198
 20
183.52223158576271
 30
0.0
  0
VERTEX
  5
19AD
  8
P
  6
CONTINUOUS
 62
    19
 10
95.914316385549427
 20
184.6888982524294
 30
0.0
  0
VERTEX
  5
19AE
  8
P
  6
CONTINUOUS
 62
    19
 10
95.692094163327198
 20
185.9111204746516
 30
0.0
  0
VERTEX
  5
19AF
  8
P
  6
CONTINUOUS
 62
    19
 10
95.469871941104984
 20
187.07778714131831
 30
0.0
  0
VERTEX
  5
19B0
  8
P
  6
CONTINUOUS
 62
    19
 10
95.247649718882727
 20
188.3000093635404
 30
0.0
  0
VERTEX
  5
19B1
  8
P
  6
CONTINUOUS
 62
    19
 10
95.025427496660512
 20
189.52223158576271
 30
0.0
  0
VERTEX
  5
19B2
  8
P
  6
CONTINUOUS
 62
    19
 10
94.803205274438284
 20
190.6888982524294
 30
0.0
  0
VERTEX
  5
19B3
  8
P
  6
CONTINUOUS
 62
    19
 10
94.580983052216069
 20
191.9111204746516
 30
0.0
  0
VERTEX
  5
19B4
  8
P
  6
CONTINUOUS
 62
    19
 10
94.358760829993827
 20
193.1333426968738
 30
0.0
  0
VERTEX
  5
19B5
  8
P
  6
CONTINUOUS
 62
    19
 10
92.192094163327198
 20
193.1333426968738
 30
0.0
  0
VERTEX
  5
19B6
  8
P
  6
CONTINUOUS
 62
    19
 10
88.636538607771584
 20
203.4666760302072
 30
0.0
  0
VERTEX
  5
19B7
  8
P
  6
CONTINUOUS
 62
    19
 10
88.636538607771584
 20
214.1333426968738
 30
0.0
  0
VERTEX
  5
19B8
  8
P
  6
CONTINUOUS
 62
    19
 10
88.580983052216084
 20
214.744453807985
 30
0.0
  0
VERTEX
  5
19B9
  8
P
  6
CONTINUOUS
 62
    19
 10
88.525427496660555
 20
215.30000936354051
 30
0.0
  0
VERTEX
  5
19BA
  8
P
  6
CONTINUOUS
 62
    19
 10
88.469871941104984
 20
215.9111204746516
 30
0.0
  0
VERTEX
  5
19BB
  8
P
  6
CONTINUOUS
 62
    19
 10
88.414316385549427
 20
216.5222315857628
 30
0.0
  0
VERTEX
  5
19BC
  8
P
  6
CONTINUOUS
 62
    19
 10
88.358760829993884
 20
217.1333426968738
 30
0.0
  0
VERTEX
  5
19BD
  8
P
  6
CONTINUOUS
 62
    19
 10
88.30320527443827
 20
217.744453807985
 30
0.0
  0
VERTEX
  5
19BE
  8
P
  6
CONTINUOUS
 62
    19
 10
88.247649718882727
 20
218.4111204746516
 30
0.0
  0
VERTEX
  5
19BF
  8
P
  6
CONTINUOUS
 62
    19
 10
88.192094163327198
 20
219.02223158576271
 30
0.0
  0
VERTEX
  5
19C0
  8
P
  6
CONTINUOUS
 62
    19
 10
88.136538607771627
 20
219.6888982524294
 30
0.0
  0
VERTEX
  5
19C1
  8
P
  6
CONTINUOUS
 62
    19
 10
88.025427496660541
 20
220.30000936354051
 30
0.0
  0
VERTEX
  5
19C2
  8
P
  6
CONTINUOUS
 62
    19
 10
87.969871941104984
 20
220.9666760302072
 30
0.0
  0
VERTEX
  5
19C3
  8
P
  6
CONTINUOUS
 62
    19
 10
87.914316385549427
 20
221.6333426968738
 30
0.0
  0
VERTEX
  5
19C4
  8
P
  6
CONTINUOUS
 62
    19
 10
87.803205274438298
 20
222.30000936354051
 30
0.0
  0
VERTEX
  5
19C5
  8
P
  6
CONTINUOUS
 62
    19
 10
87.747649718882727
 20
222.9666760302072
 30
0.0
  0
VERTEX
  5
19C6
  8
P
  6
CONTINUOUS
 62
    19
 10
87.636538607771627
 20
223.6333426968738
 30
0.0
  0
VERTEX
  5
19C7
  8
P
  6
CONTINUOUS
 62
    19
 10
87.580983052216055
 20
224.30000936354051
 30
0.0
  0
VERTEX
  5
19C8
  8
P
  6
CONTINUOUS
 62
    19
 10
87.469871941104984
 20
224.9666760302072
 30
0.0
  0
VERTEX
  5
19C9
  8
P
  6
CONTINUOUS
 62
    19
 10
87.414316385549427
 20
225.6333426968738
 30
0.0
  0
VERTEX
  5
19CA
  8
P
  6
CONTINUOUS
 62
    19
 10
87.303205274438284
 20
226.35556491909611
 30
0.0
  0
VERTEX
  5
19CB
  8
P
  6
CONTINUOUS
 62
    19
 10
87.192094163327198
 20
227.0222315857628
 30
0.0
  0
VERTEX
  5
19CC
  8
P
  6
CONTINUOUS
 62
    19
 10
87.136538607771627
 20
227.6888982524294
 30
0.0
  0
VERTEX
  5
19CD
  8
P
  6
CONTINUOUS
 62
    19
 10
87.025427496660541
 20
228.4111204746516
 30
0.0
  0
VERTEX
  5
19CE
  8
P
  6
CONTINUOUS
 62
    19
 10
86.914316385549427
 20
229.07778714131831
 30
0.0
  0
VERTEX
  5
19CF
  8
P
  6
CONTINUOUS
 62
    19
 10
86.803205274438298
 20
229.80000936354051
 30
0.0
  0
VERTEX
  5
19D0
  8
P
  6
CONTINUOUS
 62
    19
 10
86.692094163327184
 20
230.4666760302072
 30
0.0
  0
VERTEX
  5
19D1
  8
P
  6
CONTINUOUS
 62
    19
 10
86.636538607771627
 20
231.1888982524294
 30
0.0
  0
VERTEX
  5
19D2
  8
P
  6
CONTINUOUS
 62
    19
 10
86.525427496660541
 20
231.85556491909611
 30
0.0
  0
VERTEX
  5
19D3
  8
P
  6
CONTINUOUS
 62
    19
 10
86.414316385549427
 20
232.57778714131831
 30
0.0
  0
VERTEX
  5
19D4
  8
P
  6
CONTINUOUS
 62
    19
 10
86.303205274438298
 20
233.3000093635404
 30
0.0
  0
VERTEX
  5
19D5
  8
P
  6
CONTINUOUS
 62
    19
 10
86.192094163327198
 20
233.9666760302072
 30
0.0
  0
VERTEX
  5
19D6
  8
P
  6
CONTINUOUS
 62
    19
 10
86.080983052216084
 20
234.6888982524294
 30
0.0
  0
VERTEX
  5
19D7
  8
P
  6
CONTINUOUS
 62
    19
 10
85.969871941104984
 20
235.35556491909611
 30
0.0
  0
VERTEX
  5
19D8
  8
P
  6
CONTINUOUS
 62
    19
 10
85.858760829993884
 20
236.07778714131831
 30
0.0
  0
VERTEX
  5
19D9
  8
P
  6
CONTINUOUS
 62
    19
 10
85.747649718882727
 20
236.744453807985
 30
0.0
  0
VERTEX
  5
19DA
  8
P
  6
CONTINUOUS
 62
    19
 10
85.580983052216084
 20
237.4666760302072
 30
0.0
  0
VERTEX
  5
19DB
  8
P
  6
CONTINUOUS
 62
    19
 10
85.469871941104984
 20
238.1333426968738
 30
0.0
  0
VERTEX
  5
19DC
  8
P
  6
CONTINUOUS
 62
    19
 10
85.358760829993855
 20
238.85556491909611
 30
0.0
  0
VERTEX
  5
19DD
  8
P
  6
CONTINUOUS
 62
    19
 10
85.247649718882727
 20
239.5222315857628
 30
0.0
  0
VERTEX
  5
19DE
  8
P
  6
CONTINUOUS
 62
    19
 10
85.136538607771627
 20
240.244453807985
 30
0.0
  0
VERTEX
  5
19DF
  8
P
  6
CONTINUOUS
 62
    19
 10
84.969871941104984
 20
240.9111204746516
 30
0.0
  0
VERTEX
  5
19E0
  8
P
  6
CONTINUOUS
 62
    19
 10
84.858760829993884
 20
241.57778714131831
 30
0.0
  0
VERTEX
  5
19E1
  8
P
  6
CONTINUOUS
 62
    19
 10
84.747649718882755
 20
242.30000936354051
 30
0.0
  0
VERTEX
  5
19E2
  8
P
  6
CONTINUOUS
 62
    19
 10
84.636538607771627
 20
242.9666760302072
 30
0.0
  0
VERTEX
  5
19E3
  8
P
  6
CONTINUOUS
 62
    19
 10
84.469871941104984
 20
243.6333426968738
 30
0.0
  0
VERTEX
  5
19E4
  8
P
  6
CONTINUOUS
 62
    19
 10
84.358760829993884
 20
244.3000093635404
 30
0.0
  0
VERTEX
  5
19E5
  8
P
  6
CONTINUOUS
 62
    19
 10
84.192094163327184
 20
244.9666760302072
 30
0.0
  0
VERTEX
  5
19E6
  8
P
  6
CONTINUOUS
 62
    19
 10
84.080983052216084
 20
245.6333426968738
 30
0.0
  0
VERTEX
  5
19E7
  8
P
  6
CONTINUOUS
 62
    19
 10
83.969871941104984
 20
246.3000093635404
 30
0.0
  0
VERTEX
  5
19E8
  8
P
  6
CONTINUOUS
 62
    19
 10
83.803205274438298
 20
246.9111204746516
 30
0.0
  0
VERTEX
  5
19E9
  8
P
  6
CONTINUOUS
 62
    19
 10
83.692094163327198
 20
247.57778714131831
 30
0.0
  0
VERTEX
  5
19EA
  8
P
  6
CONTINUOUS
 62
    19
 10
83.525427496660555
 20
248.1888982524294
 30
0.0
  0
VERTEX
  5
19EB
  8
P
  6
CONTINUOUS
 62
    19
 10
83.414316385549427
 20
248.85556491909611
 30
0.0
  0
VERTEX
  5
19EC
  8
P
  6
CONTINUOUS
 62
    19
 10
83.247649718882727
 20
249.4666760302072
 30
0.0
  0
VERTEX
  5
19ED
  8
P
  6
CONTINUOUS
 62
    19
 10
83.136538607771627
 20
250.07778714131831
 30
0.0
  0
VERTEX
  5
19EE
  8
P
  6
CONTINUOUS
 62
    19
 10
82.969871941104984
 20
250.6888982524294
 30
0.0
  0
VERTEX
  5
19EF
  8
P
  6
CONTINUOUS
 62
    19
 10
82.803205274438298
 20
251.30000936354051
 30
0.0
  0
VERTEX
  5
19F0
  8
P
  6
CONTINUOUS
 62
    19
 10
82.692094163327184
 20
251.9111204746516
 30
0.0
  0
VERTEX
  5
19F1
  8
P
  6
CONTINUOUS
 62
    19
 10
82.525427496660527
 20
252.52223158576271
 30
0.0
  0
VERTEX
  5
19F2
  8
P
  6
CONTINUOUS
 62
    19
 10
82.414316385549427
 20
253.07778714131831
 30
0.0
  0
VERTEX
  5
19F3
  8
P
  6
CONTINUOUS
 62
    19
 10
82.247649718882755
 20
253.6333426968738
 30
0.0
  0
VERTEX
  5
19F4
  8
P
  6
CONTINUOUS
 62
    19
 10
82.080983052216084
 20
254.244453807985
 30
0.0
  0
VERTEX
  5
19F5
  8
P
  6
CONTINUOUS
 62
    19
 10
81.969871941104984
 20
254.80000936354051
 30
0.0
  0
VERTEX
  5
19F6
  8
P
  6
CONTINUOUS
 62
    19
 10
81.803205274438298
 20
255.35556491909611
 30
0.0
  0
VERTEX
  5
19F7
  8
P
  6
CONTINUOUS
 62
    19
 10
81.636538607771627
 20
255.85556491909611
 30
0.0
  0
VERTEX
  5
19F8
  8
P
  6
CONTINUOUS
 62
    19
 10
81.580983052216084
 20
256.02223158576271
 30
0.0
  0
VERTEX
  5
19F9
  8
P
  6
CONTINUOUS
 62
    19
 10
81.525427496660541
 20
256.1888982524294
 30
0.0
  0
VERTEX
  5
19FA
  8
P
  6
CONTINUOUS
 62
    19
 10
81.469871941104984
 20
256.35556491909608
 30
0.0
  0
VERTEX
  5
19FB
  8
P
  6
CONTINUOUS
 62
    19
 10
81.414316385549427
 20
256.52223158576271
 30
0.0
  0
VERTEX
  5
19FC
  8
P
  6
CONTINUOUS
 62
    19
 10
81.358760829993855
 20
256.6888982524294
 30
0.0
  0
VERTEX
  5
19FD
  8
P
  6
CONTINUOUS
 62
    19
 10
81.303205274438298
 20
256.85556491909608
 30
0.0
  0
VERTEX
  5
19FE
  8
P
  6
CONTINUOUS
 62
    19
 10
81.247649718882727
 20
257.02223158576271
 30
0.0
  0
VERTEX
  5
19FF
  8
P
  6
CONTINUOUS
 62
    19
 10
81.192094163327198
 20
257.18889825242962
 30
0.0
  0
VERTEX
  5
1A00
  8
P
  6
CONTINUOUS
 62
    19
 10
81.136538607771584
 20
257.3000093635406
 30
0.0
  0
VERTEX
  5
1A01
  8
P
  6
CONTINUOUS
 62
    19
 10
81.025427496660555
 20
257.46667603020722
 30
0.0
  0
VERTEX
  5
1A02
  8
P
  6
CONTINUOUS
 62
    19
 10
80.858760829993884
 20
257.744453807985
 30
0.0
  0
VERTEX
  5
1A03
  8
P
  6
CONTINUOUS
 62
    19
 10
80.747649718882727
 20
258.02223158576271
 30
0.0
  0
VERTEX
  5
1A04
  8
P
  6
CONTINUOUS
 62
    19
 10
80.525427496660541
 20
258.30000936354048
 30
0.0
  0
VERTEX
  5
1A05
  8
P
  6
CONTINUOUS
 62
    19
 10
80.358760829993855
 20
258.57778714131831
 30
0.0
  0
VERTEX
  5
1A06
  8
P
  6
CONTINUOUS
 62
    19
 10
80.136538607771627
 20
258.80000936354048
 30
0.0
  0
VERTEX
  5
1A07
  8
P
  6
CONTINUOUS
 62
    19
 10
79.969871941104984
 20
259.07778714131831
 30
0.0
  0
VERTEX
  5
1A08
  8
P
  6
CONTINUOUS
 62
    19
 10
79.747649718882727
 20
259.3000093635406
 30
0.0
  0
VERTEX
  5
1A09
  8
P
  6
CONTINUOUS
 62
    19
 10
79.525427496660541
 20
259.52223158576271
 30
0.0
  0
VERTEX
  5
1A0A
  8
P
  6
CONTINUOUS
 62
    19
 10
79.247649718882727
 20
259.68889825242962
 30
0.0
  0
VERTEX
  5
1A0B
  8
P
  6
CONTINUOUS
 62
    19
 10
79.025427496660541
 20
259.91112047465163
 30
0.0
  0
VERTEX
  5
1A0C
  8
P
  6
CONTINUOUS
 62
    19
 10
78.747649718882727
 20
260.0777871413182
 30
0.0
  0
VERTEX
  5
1A0D
  8
P
  6
CONTINUOUS
 62
    19
 10
78.525427496660541
 20
260.244453807985
 30
0.0
  0
VERTEX
  5
1A0E
  8
P
  6
CONTINUOUS
 62
    19
 10
78.247649718882727
 20
260.41112047465163
 30
0.0
  0
VERTEX
  5
1A0F
  8
P
  6
CONTINUOUS
 62
    19
 10
77.914316385549427
 20
260.57778714131831
 30
0.0
  0
VERTEX
  5
1A10
  8
P
  6
CONTINUOUS
 62
    19
 10
77.636538607771627
 20
260.6888982524294
 30
0.0
  0
VERTEX
  5
1A11
  8
P
  6
CONTINUOUS
 62
    19
 10
77.469871941104984
 20
260.744453807985
 30
0.0
  0
VERTEX
  5
1A12
  8
P
  6
CONTINUOUS
 62
    19
 10
77.358760829993884
 20
260.80000936354048
 30
0.0
  0
VERTEX
  5
1A13
  8
P
  6
CONTINUOUS
 62
    19
 10
77.192094163327212
 20
260.85556491909608
 30
0.0
  0
VERTEX
  5
1A14
  8
P
  6
CONTINUOUS
 62
    19
 10
77.025427496660541
 20
260.91112047465163
 30
0.0
  0
VERTEX
  5
1A15
  8
P
  6
CONTINUOUS
 62
    19
 10
76.858760829993884
 20
260.96667603020722
 30
0.0
  0
VERTEX
  5
1A16
  8
P
  6
CONTINUOUS
 62
    19
 10
76.692094163327184
 20
261.02223158576271
 30
0.0
  0
VERTEX
  5
1A17
  8
P
  6
CONTINUOUS
 62
    19
 10
76.525427496660541
 20
261.07778714131831
 30
0.0
  0
VERTEX
  5
1A18
  8
P
  6
CONTINUOUS
 62
    19
 10
76.358760829993884
 20
261.13334269687391
 30
0.0
  0
VERTEX
  5
1A19
  8
P
  6
CONTINUOUS
 62
    19
 10
76.192094163327184
 20
261.13334269687391
 30
0.0
  0
VERTEX
  5
1A1A
  8
P
  6
CONTINUOUS
 62
    19
 10
76.025427496660512
 20
261.18889825242962
 30
0.0
  0
VERTEX
  5
1A1B
  8
P
  6
CONTINUOUS
 62
    19
 10
75.803205274438298
 20
261.18889825242962
 30
0.0
  0
VERTEX
  5
1A1C
  8
P
  6
CONTINUOUS
 62
    19
 10
75.636538607771627
 20
261.244453807985
 30
0.0
  0
VERTEX
  5
1A1D
  8
P
  6
CONTINUOUS
 62
    19
 10
75.469871941104984
 20
261.244453807985
 30
0.0
  0
VERTEX
  5
1A1E
  8
P
  6
CONTINUOUS
 62
    19
 10
75.303205274438298
 20
261.3000093635406
 30
0.0
  0
VERTEX
  5
1A1F
  8
P
  6
CONTINUOUS
 62
    19
 10
75.080983052216084
 20
261.3000093635406
 30
0.0
  0
VERTEX
  5
1A20
  8
P
  6
CONTINUOUS
 62
    19
 10
74.914316385549427
 20
261.3000093635406
 30
0.0
  0
VERTEX
  5
1A21
  8
P
  6
CONTINUOUS
 62
    19
 10
74.692094163327212
 20
261.3000093635406
 30
0.0
  0
VERTEX
  5
1A22
  8
P
  6
CONTINUOUS
 62
    19
 10
74.525427496660512
 20
261.3000093635406
 30
0.0
  0
VERTEX
  5
1A23
  8
P
  6
CONTINUOUS
 62
    19
 10
74.303205274438284
 20
261.35556491909608
 30
0.0
  0
VERTEX
  5
1A24
  8
P
  6
CONTINUOUS
 62
    19
 10
74.136538607771627
 20
261.3000093635406
 30
0.0
  0
VERTEX
  5
1A25
  8
P
  6
CONTINUOUS
 62
    19
 10
73.914316385549427
 20
261.3000093635406
 30
0.0
  0
VERTEX
  5
1A26
  8
P
  6
CONTINUOUS
 62
    19
 10
73.747649718882727
 20
261.3000093635406
 30
0.0
  0
VERTEX
  5
1A27
  8
P
  6
CONTINUOUS
 62
    19
 10
73.525427496660512
 20
261.3000093635406
 30
0.0
  0
VERTEX
  5
1A28
  8
P
  6
CONTINUOUS
 62
    19
 10
73.303205274438298
 20
261.3000093635406
 30
0.0
  0
VERTEX
  5
1A29
  8
P
  6
CONTINUOUS
 62
    19
 10
22.969871941104969
 20
252.1888982524294
 30
0.0
  0
VERTEX
  5
1A2A
  8
P
  6
CONTINUOUS
 62
    19
 10
22.914316385549409
 20
251.9111204746516
 30
0.0
  0
VERTEX
  5
1A2B
  8
P
  6
CONTINUOUS
 62
    19
 10
22.858760829993859
 20
251.6888982524294
 30
0.0
  0
VERTEX
  5
1A2C
  8
P
  6
CONTINUOUS
 62
    19
 10
22.803205274438309
 20
251.4666760302072
 30
0.0
  0
VERTEX
  5
1A2D
  8
P
  6
CONTINUOUS
 62
    19
 10
22.747649718882752
 20
251.1888982524294
 30
0.0
  0
VERTEX
  5
1A2E
  8
P
  6
CONTINUOUS
 62
    19
 10
22.692094163327202
 20
250.9666760302072
 30
0.0
  0
VERTEX
  5
1A2F
  8
P
  6
CONTINUOUS
 62
    19
 10
22.636538607771641
 20
250.744453807985
 30
0.0
  0
VERTEX
  5
1A30
  8
P
  6
CONTINUOUS
 62
    19
 10
22.58098305221608
 20
250.4666760302072
 30
0.0
  0
VERTEX
  5
1A31
  8
P
  6
CONTINUOUS
 62
    19
 10
22.52542749666053
 20
250.244453807985
 30
0.0
  0
VERTEX
  5
1A32
  8
P
  6
CONTINUOUS
 62
    19
 10
22.469871941104969
 20
250.02223158576271
 30
0.0
  0
VERTEX
  5
1A33
  8
P
  6
CONTINUOUS
 62
    19
 10
22.469871941104969
 20
249.8000093635404
 30
0.0
  0
VERTEX
  5
1A34
  8
P
  6
CONTINUOUS
 62
    19
 10
22.414316385549409
 20
249.5222315857628
 30
0.0
  0
VERTEX
  5
1A35
  8
P
  6
CONTINUOUS
 62
    19
 10
22.358760829993859
 20
249.30000936354051
 30
0.0
  0
VERTEX
  5
1A36
  8
P
  6
CONTINUOUS
 62
    19
 10
22.303205274438309
 20
249.07778714131831
 30
0.0
  0
VERTEX
  5
1A37
  8
P
  6
CONTINUOUS
 62
    19
 10
22.303205274438309
 20
248.80000936354051
 30
0.0
  0
VERTEX
  5
1A38
  8
P
  6
CONTINUOUS
 62
    19
 10
22.247649718882759
 20
248.57778714131831
 30
0.0
  0
VERTEX
  5
1A39
  8
P
  6
CONTINUOUS
 62
    19
 10
22.192094163327202
 20
248.35556491909611
 30
0.0
  0
VERTEX
  5
1A3A
  8
P
  6
CONTINUOUS
 62
    19
 10
22.192094163327202
 20
248.1333426968738
 30
0.0
  0
VERTEX
  5
1A3B
  8
P
  6
CONTINUOUS
 62
    19
 10
22.136538607771641
 20
247.85556491909611
 30
0.0
  0
VERTEX
  5
1A3C
  8
P
  6
CONTINUOUS
 62
    19
 10
22.08098305221608
 20
247.6333426968738
 30
0.0
  0
VERTEX
  5
1A3D
  8
P
  6
CONTINUOUS
 62
    19
 10
22.08098305221608
 20
247.4111204746516
 30
0.0
  0
VERTEX
  5
1A3E
  8
P
  6
CONTINUOUS
 62
    19
 10
22.02542749666053
 20
247.1333426968738
 30
0.0
  0
VERTEX
  5
1A3F
  8
P
  6
CONTINUOUS
 62
    19
 10
22.02542749666053
 20
246.9111204746516
 30
0.0
  0
VERTEX
  5
1A40
  8
P
  6
CONTINUOUS
 62
    19
 10
21.969871941104969
 20
246.6888982524294
 30
0.0
  0
VERTEX
  5
1A41
  8
P
  6
CONTINUOUS
 62
    19
 10
21.969871941104969
 20
246.4666760302072
 30
0.0
  0
VERTEX
  5
1A42
  8
P
  6
CONTINUOUS
 62
    19
 10
21.914316385549409
 20
246.1888982524294
 30
0.0
  0
VERTEX
  5
1A43
  8
P
  6
CONTINUOUS
 62
    19
 10
21.914316385549409
 20
245.9666760302072
 30
0.0
  0
VERTEX
  5
1A44
  8
P
  6
CONTINUOUS
 62
    19
 10
21.858760829993852
 20
245.744453807985
 30
0.0
  0
VERTEX
  5
1A45
  8
P
  6
CONTINUOUS
 62
    19
 10
21.858760829993852
 20
245.46667603020711
 30
0.0
  0
VERTEX
  5
1A46
  8
P
  6
CONTINUOUS
 62
    19
 10
21.858760829993852
 20
245.244453807985
 30
0.0
  0
VERTEX
  5
1A47
  8
P
  6
CONTINUOUS
 62
    19
 10
21.803205274438309
 20
245.02223158576271
 30
0.0
  0
VERTEX
  5
1A48
  8
P
  6
CONTINUOUS
 62
    19
 10
21.803205274438309
 20
244.80000936354051
 30
0.0
  0
VERTEX
  5
1A49
  8
P
  6
CONTINUOUS
 62
    19
 10
21.803205274438309
 20
244.52223158576271
 30
0.0
  0
VERTEX
  5
1A4A
  8
P
  6
CONTINUOUS
 62
    19
 10
21.803205274438309
 20
244.3000093635404
 30
0.0
  0
VERTEX
  5
1A4B
  8
P
  6
CONTINUOUS
 62
    19
 10
21.747649718882759
 20
244.07778714131831
 30
0.0
  0
VERTEX
  5
1A4C
  8
P
  6
CONTINUOUS
 62
    19
 10
21.747649718882759
 20
243.8000093635404
 30
0.0
  0
VERTEX
  5
1A4D
  8
P
  6
CONTINUOUS
 62
    19
 10
21.747649718882759
 20
243.57778714131831
 30
0.0
  0
VERTEX
  5
1A4E
  8
P
  6
CONTINUOUS
 62
    19
 10
21.747649718882759
 20
243.35556491909611
 30
0.0
  0
VERTEX
  5
1A4F
  8
P
  6
CONTINUOUS
 62
    19
 10
21.747649718882759
 20
243.1333426968738
 30
0.0
  0
VERTEX
  5
1A50
  8
P
  6
CONTINUOUS
 62
    19
 10
21.747649718882759
 20
242.85556491909611
 30
0.0
  0
VERTEX
  5
1A51
  8
P
  6
CONTINUOUS
 62
    19
 10
21.747649718882759
 20
242.6333426968738
 30
0.0
  0
VERTEX
  5
1A52
  8
P
  6
CONTINUOUS
 62
    19
 10
21.692094163327202
 20
242.4111204746516
 30
0.0
  0
VERTEX
  5
1A53
  8
P
  6
CONTINUOUS
 62
    19
 10
21.692094163327202
 20
242.1333426968738
 30
0.0
  0
VERTEX
  5
1A54
  8
P
  6
CONTINUOUS
 62
    19
 10
21.692094163327202
 20
241.9111204746516
 30
0.0
  0
VERTEX
  5
1A55
  8
P
  6
CONTINUOUS
 62
    19
 10
21.692094163327202
 20
241.6888982524294
 30
0.0
  0
VERTEX
  5
1A56
  8
P
  6
CONTINUOUS
 62
    19
 10
21.747649718882759
 20
241.4111204746516
 30
0.0
  0
VERTEX
  5
1A57
  8
P
  6
CONTINUOUS
 62
    19
 10
21.747649718882759
 20
241.1888982524294
 30
0.0
  0
VERTEX
  5
1A58
  8
P
  6
CONTINUOUS
 62
    19
 10
21.747649718882759
 20
240.9666760302072
 30
0.0
  0
VERTEX
  5
1A59
  8
P
  6
CONTINUOUS
 62
    19
 10
21.747649718882759
 20
240.6888982524294
 30
0.0
  0
VERTEX
  5
1A5A
  8
P
  6
CONTINUOUS
 62
    19
 10
21.747649718882759
 20
240.4666760302072
 30
0.0
  0
VERTEX
  5
1A5B
  8
P
  6
CONTINUOUS
 62
    19
 10
21.747649718882759
 20
240.244453807985
 30
0.0
  0
VERTEX
  5
1A5C
  8
P
  6
CONTINUOUS
 62
    19
 10
21.747649718882759
 20
239.9666760302072
 30
0.0
  0
VERTEX
  5
1A5D
  8
P
  6
CONTINUOUS
 62
    19
 10
21.803205274438309
 20
239.744453807985
 30
0.0
  0
VERTEX
  5
1A5E
  8
P
  6
CONTINUOUS
 62
    19
 10
21.803205274438309
 20
239.5222315857628
 30
0.0
  0
VERTEX
  5
1A5F
  8
P
  6
CONTINUOUS
 62
    19
 10
21.803205274438309
 20
239.244453807985
 30
0.0
  0
VERTEX
  5
1A60
  8
P
  6
CONTINUOUS
 62
    19
 10
21.803205274438309
 20
239.02223158576271
 30
0.0
  0
VERTEX
  5
1A61
  8
P
  6
CONTINUOUS
 62
    19
 10
21.858760829993852
 20
238.80000936354051
 30
0.0
  0
VERTEX
  5
1A62
  8
P
  6
CONTINUOUS
 62
    19
 10
21.858760829993852
 20
238.52223158576271
 30
0.0
  0
VERTEX
  5
1A63
  8
P
  6
CONTINUOUS
 62
    19
 10
21.858760829993852
 20
238.30000936354051
 30
0.0
  0
VERTEX
  5
1A64
  8
P
  6
CONTINUOUS
 62
    19
 10
21.914316385549409
 20
238.07778714131831
 30
0.0
  0
VERTEX
  5
1A65
  8
P
  6
CONTINUOUS
 62
    19
 10
21.914316385549409
 20
237.8000093635404
 30
0.0
  0
VERTEX
  5
1A66
  8
P
  6
CONTINUOUS
 62
    19
 10
21.969871941104969
 20
237.57778714131831
 30
0.0
  0
VERTEX
  5
1A67
  8
P
  6
CONTINUOUS
 62
    19
 10
21.969871941104969
 20
237.3000093635404
 30
0.0
  0
VERTEX
  5
1A68
  8
P
  6
CONTINUOUS
 62
    19
 10
22.02542749666053
 20
237.07778714131831
 30
0.0
  0
VERTEX
  5
1A69
  8
P
  6
CONTINUOUS
 62
    19
 10
22.02542749666053
 20
236.85556491909611
 30
0.0
  0
VERTEX
  5
1A6A
  8
P
  6
CONTINUOUS
 62
    19
 10
22.303205274438309
 20
236.57778714131831
 30
0.0
  0
VERTEX
  5
1A6B
  8
P
  6
CONTINUOUS
 62
    19
 10
22.636538607771641
 20
236.30000936354051
 30
0.0
  0
VERTEX
  5
1A6C
  8
P
  6
CONTINUOUS
 62
    19
 10
23.02542749666053
 20
236.02223158576271
 30
0.0
  0
VERTEX
  5
1A6D
  8
P
  6
CONTINUOUS
 62
    19
 10
23.469871941104969
 20
235.744453807985
 30
0.0
  0
VERTEX
  5
1A6E
  8
P
  6
CONTINUOUS
 62
    19
 10
23.858760829993859
 20
235.4666760302072
 30
0.0
  0
VERTEX
  5
1A6F
  8
P
  6
CONTINUOUS
 62
    19
 10
24.358760829993852
 20
235.244453807985
 30
0.0
  0
VERTEX
  5
1A70
  8
P
  6
CONTINUOUS
 62
    19
 10
24.858760829993859
 20
234.96667603020711
 30
0.0
  0
VERTEX
  5
1A71
  8
P
  6
CONTINUOUS
 62
    19
 10
25.414316385549419
 20
234.6888982524294
 30
0.0
  0
VERTEX
  5
1A72
  8
P
  6
CONTINUOUS
 62
    19
 10
25.969871941104969
 20
234.4111204746516
 30
0.0
  0
VERTEX
  5
1A73
  8
P
  6
CONTINUOUS
 62
    19
 10
26.525427496660541
 20
234.1333426968738
 30
0.0
  0
VERTEX
  5
1A74
  8
P
  6
CONTINUOUS
 62
    19
 10
27.136538607771641
 20
233.85556491909611
 30
0.0
  0
VERTEX
  5
1A75
  8
P
  6
CONTINUOUS
 62
    19
 10
27.803205274438309
 20
233.6333426968738
 30
0.0
  0
VERTEX
  5
1A76
  8
P
  6
CONTINUOUS
 62
    19
 10
28.469871941104969
 20
233.35556491909611
 30
0.0
  0
VERTEX
  5
1A77
  8
P
  6
CONTINUOUS
 62
    19
 10
29.136538607771641
 20
233.07778714131831
 30
0.0
  0
VERTEX
  5
1A78
  8
P
  6
CONTINUOUS
 62
    19
 10
29.803205274438309
 20
232.80000936354051
 30
0.0
  0
VERTEX
  5
1A79
  8
P
  6
CONTINUOUS
 62
    19
 10
30.52542749666053
 20
232.52223158576271
 30
0.0
  0
VERTEX
  5
1A7A
  8
P
  6
CONTINUOUS
 62
    19
 10
31.303205274438309
 20
232.24445380798491
 30
0.0
  0
VERTEX
  5
1A7B
  8
P
  6
CONTINUOUS
 62
    19
 10
32.025427496660527
 20
231.9666760302072
 30
0.0
  0
VERTEX
  5
1A7C
  8
P
  6
CONTINUOUS
 62
    19
 10
32.803205274438312
 20
231.6888982524294
 30
0.0
  0
VERTEX
  5
1A7D
  8
P
  6
CONTINUOUS
 62
    19
 10
33.580983052216077
 20
231.4111204746516
 30
0.0
  0
VERTEX
  5
1A7E
  8
P
  6
CONTINUOUS
 62
    19
 10
34.414316385549412
 20
231.1333426968738
 30
0.0
  0
VERTEX
  5
1A7F
  8
P
  6
CONTINUOUS
 62
    19
 10
35.192094163327212
 20
230.85556491909611
 30
0.0
  0
VERTEX
  5
1A80
  8
P
  6
CONTINUOUS
 62
    19
 10
36.025427496660527
 20
230.57778714131831
 30
0.0
  0
VERTEX
  5
1A81
  8
P
  6
CONTINUOUS
 62
    19
 10
36.858760829993848
 20
230.30000936354051
 30
0.0
  0
VERTEX
  5
1A82
  8
P
  6
CONTINUOUS
 62
    19
 10
37.692094163327212
 20
230.02223158576271
 30
0.0
  0
VERTEX
  5
1A83
  8
P
  6
CONTINUOUS
 62
    19
 10
38.525427496660527
 20
229.744453807985
 30
0.0
  0
VERTEX
  5
1A84
  8
P
  6
CONTINUOUS
 62
    19
 10
39.358760829993848
 20
229.4666760302072
 30
0.0
  0
VERTEX
  5
1A85
  8
P
  6
CONTINUOUS
 62
    19
 10
40.192094163327198
 20
229.1888982524294
 30
0.0
  0
VERTEX
  5
1A86
  8
P
  6
CONTINUOUS
 62
    19
 10
41.025427496660519
 20
228.9111204746516
 30
0.0
  0
VERTEX
  5
1A87
  8
P
  6
CONTINUOUS
 62
    19
 10
41.914316385549412
 20
228.6333426968738
 30
0.0
  0
VERTEX
  5
1A88
  8
P
  6
CONTINUOUS
 62
    19
 10
42.747649718882741
 20
228.30000936354051
 30
0.0
  0
VERTEX
  5
1A89
  8
P
  6
CONTINUOUS
 62
    19
 10
43.580983052216077
 20
228.02223158576271
 30
0.0
  0
VERTEX
  5
1A8A
  8
P
  6
CONTINUOUS
 62
    19
 10
44.414316385549412
 20
227.744453807985
 30
0.0
  0
VERTEX
  5
1A8B
  8
P
  6
CONTINUOUS
 62
    19
 10
45.247649718882741
 20
227.4111204746516
 30
0.0
  0
VERTEX
  5
1A8C
  8
P
  6
CONTINUOUS
 62
    19
 10
46.080983052216077
 20
227.1333426968738
 30
0.0
  0
VERTEX
  5
1A8D
  8
P
  6
CONTINUOUS
 62
    19
 10
46.914316385549412
 20
226.85556491909611
 30
0.0
  0
VERTEX
  5
1A8E
  8
P
  6
CONTINUOUS
 62
    19
 10
47.747649718882741
 20
226.52223158576271
 30
0.0
  0
VERTEX
  5
1A8F
  8
P
  6
CONTINUOUS
 62
    19
 10
48.525427496660527
 20
226.1888982524294
 30
0.0
  0
VERTEX
  5
1A90
  8
P
  6
CONTINUOUS
 62
    19
 10
49.303205274438312
 20
225.9111204746516
 30
0.0
  0
VERTEX
  5
1A91
  8
P
  6
CONTINUOUS
 62
    19
 10
50.080983052216077
 20
225.57778714131831
 30
0.0
  0
VERTEX
  5
1A92
  8
P
  6
CONTINUOUS
 62
    19
 10
50.858760829993841
 20
225.3000093635404
 30
0.0
  0
VERTEX
  5
1A93
  8
P
  6
CONTINUOUS
 62
    19
 10
51.636538607771648
 20
224.9666760302072
 30
0.0
  0
VERTEX
  5
1A94
  8
P
  6
CONTINUOUS
 62
    19
 10
52.358760829993862
 20
224.6333426968738
 30
0.0
  0
VERTEX
  5
1A95
  8
P
  6
CONTINUOUS
 62
    19
 10
53.080983052216091
 20
224.30000936354051
 30
0.0
  0
VERTEX
  5
1A96
  8
P
  6
CONTINUOUS
 62
    19
 10
53.803205274438312
 20
223.9666760302072
 30
0.0
  0
VERTEX
  5
1A97
  8
P
  6
CONTINUOUS
 62
    19
 10
54.469871941104962
 20
223.6333426968738
 30
0.0
  0
VERTEX
  5
1A98
  8
P
  6
CONTINUOUS
 62
    19
 10
55.136538607771641
 20
223.3000093635404
 30
0.0
  0
VERTEX
  5
1A99
  8
P
  6
CONTINUOUS
 62
    19
 10
55.747649718882741
 20
222.9666760302072
 30
0.0
  0
VERTEX
  5
1A9A
  8
P
  6
CONTINUOUS
 62
    19
 10
56.358760829993841
 20
222.6333426968738
 30
0.0
  0
VERTEX
  5
1A9B
  8
P
  6
CONTINUOUS
 62
    19
 10
56.969871941104962
 20
222.30000936354051
 30
0.0
  0
VERTEX
  5
1A9C
  8
P
  6
CONTINUOUS
 62
    19
 10
57.525427496660519
 20
221.9666760302072
 30
0.0
  0
VERTEX
  5
1A9D
  8
P
  6
CONTINUOUS
 62
    19
 10
58.025427496660519
 20
221.57778714131831
 30
0.0
  0
VERTEX
  5
1A9E
  8
P
  6
CONTINUOUS
 62
    19
 10
58.525427496660527
 20
221.244453807985
 30
0.0
  0
VERTEX
  5
1A9F
  8
P
  6
CONTINUOUS
 62
    19
 10
59.025427496660527
 20
220.85556491909611
 30
0.0
  0
VERTEX
  5
1AA0
  8
P
  6
CONTINUOUS
 62
    19
 10
59.414316385549412
 20
220.5222315857628
 30
0.0
  0
VERTEX
  5
1AA1
  8
P
  6
CONTINUOUS
 62
    19
 10
59.858760829993862
 20
220.1333426968738
 30
0.0
  0
VERTEX
  5
1AA2
  8
P
  6
CONTINUOUS
 62
    19
 10
60.192094163327212
 20
219.80000936354051
 30
0.0
  0
VERTEX
  5
1AA3
  8
P
  6
CONTINUOUS
 62
    19
 10
60.525427496660519
 20
219.4111204746516
 30
0.0
  0
VERTEX
  5
1AA4
  8
P
  6
CONTINUOUS
 62
    19
 10
60.858760829993841
 20
219.02223158576271
 30
0.0
  0
VERTEX
  5
1AA5
  8
P
  6
CONTINUOUS
 62
    19
 10
61.080983052216077
 20
218.6333426968738
 30
0.0
  0
VERTEX
  5
1AA6
  8
P
  6
CONTINUOUS
 62
    19
 10
61.303205274438312
 20
218.244453807985
 30
0.0
  0
VERTEX
  5
1AA7
  8
P
  6
CONTINUOUS
 62
    19
 10
61.469871941104962
 20
217.85556491909611
 30
0.0
  0
VERTEX
  5
1AA8
  8
P
  6
CONTINUOUS
 62
    19
 10
61.636538607771648
 20
217.4666760302072
 30
0.0
  0
VERTEX
  5
1AA9
  8
P
  6
CONTINUOUS
 62
    19
 10
61.692094163327191
 20
217.02223158576271
 30
0.0
  0
VERTEX
  5
1AAA
  8
P
  6
CONTINUOUS
 62
    19
 10
62.025427496660527
 20
178.4111204746516
 30
0.0
  0
VERTEX
  5
1AAB
  8
P
  6
CONTINUOUS
 62
    19
 10
57.747649718882741
 20
142.6333426968738
 30
0.0
  0
VERTEX
  5
1AAC
  8
P
  6
CONTINUOUS
 62
    19
 10
57.414316385549398
 20
142.1333426968738
 30
0.0
  0
VERTEX
  5
1AAD
  8
P
  6
CONTINUOUS
 62
    19
 10
57.080983052216069
 20
141.57778714131831
 30
0.0
  0
VERTEX
  5
1AAE
  8
P
  6
CONTINUOUS
 62
    19
 10
56.747649718882762
 20
141.07778714131831
 30
0.0
  0
VERTEX
  5
1AAF
  8
P
  6
CONTINUOUS
 62
    19
 10
56.414316385549412
 20
140.52223158576271
 30
0.0
  0
VERTEX
  5
1AB0
  8
P
  6
CONTINUOUS
 62
    19
 10
56.080983052216069
 20
140.02223158576271
 30
0.0
  0
VERTEX
  5
1AB1
  8
P
  6
CONTINUOUS
 62
    19
 10
55.747649718882741
 20
139.4666760302072
 30
0.0
  0
VERTEX
  5
1AB2
  8
P
  6
CONTINUOUS
 62
    19
 10
55.414316385549398
 20
138.9666760302072
 30
0.0
  0
VERTEX
  5
1AB3
  8
P
  6
CONTINUOUS
 62
    19
 10
55.136538607771641
 20
138.4111204746516
 30
0.0
  0
VERTEX
  5
1AB4
  8
P
  6
CONTINUOUS
 62
    19
 10
54.858760829993862
 20
137.9111204746516
 30
0.0
  0
VERTEX
  5
1AB5
  8
P
  6
CONTINUOUS
 62
    19
 10
54.525427496660527
 20
137.35556491909611
 30
0.0
  0
VERTEX
  5
1AB6
  8
P
  6
CONTINUOUS
 62
    19
 10
54.247649718882762
 20
136.85556491909611
 30
0.0
  0
VERTEX
  5
1AB7
  8
P
  6
CONTINUOUS
 62
    19
 10
53.969871941104962
 20
136.30000936354051
 30
0.0
  0
VERTEX
  5
1AB8
  8
P
  6
CONTINUOUS
 62
    19
 10
53.747649718882741
 20
135.80000936354051
 30
0.0
  0
VERTEX
  5
1AB9
  8
P
  6
CONTINUOUS
 62
    19
 10
53.469871941104962
 20
135.24445380798491
 30
0.0
  0
VERTEX
  5
1ABA
  8
P
  6
CONTINUOUS
 62
    19
 10
53.192094163327212
 20
134.74445380798491
 30
0.0
  0
VERTEX
  5
1ABB
  8
P
  6
CONTINUOUS
 62
    19
 10
52.969871941104962
 20
134.1888982524294
 30
0.0
  0
VERTEX
  5
1ABC
  8
P
  6
CONTINUOUS
 62
    19
 10
52.692094163327212
 20
133.6888982524294
 30
0.0
  0
VERTEX
  5
1ABD
  8
P
  6
CONTINUOUS
 62
    19
 10
52.469871941104962
 20
133.1333426968738
 30
0.0
  0
VERTEX
  5
1ABE
  8
P
  6
CONTINUOUS
 62
    19
 10
52.247649718882762
 20
132.6333426968738
 30
0.0
  0
VERTEX
  5
1ABF
  8
P
  6
CONTINUOUS
 62
    19
 10
52.025427496660527
 20
132.07778714131831
 30
0.0
  0
VERTEX
  5
1AC0
  8
P
  6
CONTINUOUS
 62
    19
 10
51.803205274438312
 20
131.52223158576271
 30
0.0
  0
VERTEX
  5
1AC1
  8
P
  6
CONTINUOUS
 62
    19
 10
51.580983052216077
 20
131.02223158576271
 30
0.0
  0
VERTEX
  5
1AC2
  8
P
  6
CONTINUOUS
 62
    19
 10
51.358760829993841
 20
130.4666760302072
 30
0.0
  0
VERTEX
  5
1AC3
  8
P
  6
CONTINUOUS
 62
    19
 10
51.192094163327191
 20
129.9666760302072
 30
0.0
  0
VERTEX
  5
1AC4
  8
P
  6
CONTINUOUS
 62
    19
 10
50.969871941104962
 20
129.4111204746516
 30
0.0
  0
VERTEX
  5
1AC5
  8
P
  6
CONTINUOUS
 62
    19
 10
50.803205274438312
 20
128.85556491909611
 30
0.0
  0
VERTEX
  5
1AC6
  8
P
  6
CONTINUOUS
 62
    19
 10
50.636538607771648
 20
128.355564919096
 30
0.0
  0
VERTEX
  5
1AC7
  8
P
  6
CONTINUOUS
 62
    19
 10
50.414316385549398
 20
127.8000093635405
 30
0.0
  0
VERTEX
  5
1AC8
  8
P
  6
CONTINUOUS
 62
    19
 10
50.247649718882741
 20
127.2444538079849
 30
0.0
  0
VERTEX
  5
1AC9
  8
P
  6
CONTINUOUS
 62
    19
 10
50.080983052216077
 20
126.744453807985
 30
0.0
  0
VERTEX
  5
1ACA
  8
P
  6
CONTINUOUS
 62
    19
 10
49.914316385549398
 20
126.1888982524294
 30
0.0
  0
VERTEX
  5
1ACB
  8
P
  6
CONTINUOUS
 62
    19
 10
49.747649718882762
 20
125.6333426968738
 30
0.0
  0
VERTEX
  5
1ACC
  8
P
  6
CONTINUOUS
 62
    19
 10
49.636538607771641
 20
125.0777871413183
 30
0.0
  0
VERTEX
  5
1ACD
  8
P
  6
CONTINUOUS
 62
    19
 10
49.469871941104962
 20
124.5222315857627
 30
0.0
  0
VERTEX
  5
1ACE
  8
P
  6
CONTINUOUS
 62
    19
 10
49.303205274438312
 20
124.0222315857627
 30
0.0
  0
VERTEX
  5
1ACF
  8
P
  6
CONTINUOUS
 62
    19
 10
49.192094163327191
 20
123.4666760302072
 30
0.0
  0
VERTEX
  5
1AD0
  8
P
  6
CONTINUOUS
 62
    19
 10
49.025427496660527
 20
122.9111204746516
 30
0.0
  0
VERTEX
  5
1AD1
  8
P
  6
CONTINUOUS
 62
    19
 10
48.914316385549412
 20
122.3555649190961
 30
0.0
  0
VERTEX
  5
1AD2
  8
P
  6
CONTINUOUS
 62
    19
 10
48.803205274438312
 20
121.8000093635405
 30
0.0
  0
VERTEX
  5
1AD3
  8
P
  6
CONTINUOUS
 62
    19
 10
48.692094163327191
 20
121.2444538079849
 30
0.0
  0
VERTEX
  5
1AD4
  8
P
  6
CONTINUOUS
 62
    19
 10
48.580983052216077
 20
120.6888982524294
 30
0.0
  0
VERTEX
  5
1AD5
  8
P
  6
CONTINUOUS
 62
    19
 10
48.469871941104962
 20
120.1333426968738
 30
0.0
  0
VERTEX
  5
1AD6
  8
P
  6
CONTINUOUS
 62
    19
 10
48.358760829993841
 20
119.5777871413183
 30
0.0
  0
VERTEX
  5
1AD7
  8
P
  6
CONTINUOUS
 62
    19
 10
48.247649718882741
 20
119.0222315857627
 30
0.0
  0
VERTEX
  5
1AD8
  8
P
  6
CONTINUOUS
 62
    19
 10
48.136538607771648
 20
118.4111204746516
 30
0.0
  0
VERTEX
  5
1AD9
  8
P
  6
CONTINUOUS
 62
    19
 10
48.025427496660519
 20
117.8555649190961
 30
0.0
  0
VERTEX
  5
1ADA
  8
P
  6
CONTINUOUS
 62
    19
 10
47.969871941104948
 20
117.3000093635405
 30
0.0
  0
VERTEX
  5
1ADB
  8
P
  6
CONTINUOUS
 62
    19
 10
47.858760829993841
 20
116.7444538079849
 30
0.0
  0
VERTEX
  5
1ADC
  8
P
  6
CONTINUOUS
 62
    19
 10
47.803205274438277
 20
116.1333426968738
 30
0.0
  0
VERTEX
  5
1ADD
  8
P
  6
CONTINUOUS
 62
    19
 10
47.69209416332717
 20
115.5777871413183
 30
0.0
  0
VERTEX
  5
1ADE
  8
P
  6
CONTINUOUS
 62
    19
 10
47.63653860777162
 20
114.9666760302072
 30
0.0
  0
VERTEX
  5
1ADF
  8
P
  6
CONTINUOUS
 62
    19
 10
47.525427496660512
 20
114.4111204746516
 30
0.0
  0
VERTEX
  5
1AE0
  8
P
  6
CONTINUOUS
 62
    19
 10
47.469871941104948
 20
113.8000093635405
 30
0.0
  0
VERTEX
  5
1AE1
  8
P
  6
CONTINUOUS
 62
    19
 10
47.414316385549391
 20
113.244453807985
 30
0.0
  0
VERTEX
  5
1AE2
  8
P
  6
CONTINUOUS
 62
    19
 10
47.358760829993841
 20
112.6333426968738
 30
0.0
  0
VERTEX
  5
1AE3
  8
P
  6
CONTINUOUS
 62
    19
 10
47.303205274438277
 20
112.0777871413183
 30
0.0
  0
VERTEX
  5
1AE4
  8
P
  6
CONTINUOUS
 62
    19
 10
47.247649718882741
 20
111.4666760302072
 30
0.0
  0
VERTEX
  5
1AE5
  8
P
  6
CONTINUOUS
 62
    19
 10
47.19209416332717
 20
110.8555649190961
 30
0.0
  0
VERTEX
  5
1AE6
  8
P
  6
CONTINUOUS
 62
    19
 10
47.13653860777162
 20
110.2444538079849
 30
0.0
  0
VERTEX
  5
1AE7
  8
P
  6
CONTINUOUS
 62
    19
 10
47.080983052216062
 20
109.6888982524294
 30
0.0
  0
VERTEX
  5
1AE8
  8
P
  6
CONTINUOUS
 62
    19
 10
47.025427496660512
 20
109.0777871413183
 30
0.0
  0
VERTEX
  5
1AE9
  8
P
  6
CONTINUOUS
 62
    19
 10
46.969871941104948
 20
108.4666760302072
 30
0.0
  0
VERTEX
  5
1AEA
  8
P
  6
CONTINUOUS
 62
    19
 10
46.914316385549412
 20
107.8555649190961
 30
0.0
  0
VERTEX
  5
1AEB
  8
P
  6
CONTINUOUS
 62
    19
 10
46.914316385549412
 20
107.2444538079849
 30
0.0
  0
VERTEX
  5
1AEC
  8
P
  6
CONTINUOUS
 62
    19
 10
46.914316385549412
 20
101.4111204746516
 30
0.0
  0
VERTEX
  5
1AED
  8
P
  6
CONTINUOUS
 62
    19
 10
46.969871941104948
 20
101.0777871413183
 30
0.0
  0
VERTEX
  5
1AEE
  8
P
  6
CONTINUOUS
 62
    19
 10
47.025427496660512
 20
100.6888982524294
 30
0.0
  0
VERTEX
  5
1AEF
  8
P
  6
CONTINUOUS
 62
    19
 10
47.080983052216062
 20
100.355564919096
 30
0.0
  0
VERTEX
  5
1AF0
  8
P
  6
CONTINUOUS
 62
    19
 10
47.13653860777162
 20
100.0222315857627
 30
0.0
  0
VERTEX
  5
1AF1
  8
P
  6
CONTINUOUS
 62
    19
 10
47.247649718882741
 20
99.688898252429411
 30
0.0
  0
VERTEX
  5
1AF2
  8
P
  6
CONTINUOUS
 62
    19
 10
47.303205274438277
 20
99.300009363540511
 30
0.0
  0
VERTEX
  5
1AF3
  8
P
  6
CONTINUOUS
 62
    19
 10
47.414316385549391
 20
98.966676030207196
 30
0.0
  0
VERTEX
  5
1AF4
  8
P
  6
CONTINUOUS
 62
    19
 10
47.525427496660512
 20
98.633342696873854
 30
0.0
  0
VERTEX
  5
1AF5
  8
P
  6
CONTINUOUS
 62
    19
 10
47.580983052216069
 20
98.300009363540525
 30
0.0
  0
VERTEX
  5
1AF6
  8
P
  6
CONTINUOUS
 62
    19
 10
47.69209416332717
 20
97.966676030207196
 30
0.0
  0
VERTEX
  5
1AF7
  8
P
  6
CONTINUOUS
 62
    19
 10
47.803205274438277
 20
97.633342696873825
 30
0.0
  0
VERTEX
  5
1AF8
  8
P
  6
CONTINUOUS
 62
    19
 10
47.914316385549377
 20
97.300009363540525
 30
0.0
  0
VERTEX
  5
1AF9
  8
P
  6
CONTINUOUS
 62
    19
 10
48.025427496660512
 20
96.966676030207211
 30
0.0
  0
VERTEX
  5
1AFA
  8
P
  6
CONTINUOUS
 62
    19
 10
48.192094163327177
 20
96.633342696873839
 30
0.0
  0
VERTEX
  5
1AFB
  8
P
  6
CONTINUOUS
 62
    19
 10
48.303205274438298
 20
96.300009363540511
 30
0.0
  0
VERTEX
  5
1AFC
  8
P
  6
CONTINUOUS
 62
    19
 10
48.414316385549398
 20
96.022231585762725
 30
0.0
  0
VERTEX
  5
1AFD
  8
P
  6
CONTINUOUS
 62
    19
 10
48.525427496660512
 20
95.688898252429411
 30
0.0
  0
VERTEX
  5
1AFE
  8
P
  6
CONTINUOUS
 62
    19
 10
48.692094163327191
 20
95.355564919096068
 30
0.0
  0
VERTEX
  5
1AFF
  8
P
  6
CONTINUOUS
 62
    19
 10
48.803205274438298
 20
95.022231585762725
 30
0.0
  0
VERTEX
  5
1B00
  8
P
  6
CONTINUOUS
 62
    19
 10
48.969871941104948
 20
94.744453807984968
 30
0.0
  0
VERTEX
  5
1B01
  8
P
  6
CONTINUOUS
 62
    19
 10
49.13653860777162
 20
94.411120474651653
 30
0.0
  0
VERTEX
  5
1B02
  8
P
  6
CONTINUOUS
 62
    19
 10
49.247649718882741
 20
94.077787141318268
 30
0.0
  0
VERTEX
  5
1B03
  8
P
  6
CONTINUOUS
 62
    19
 10
49.414316385549412
 20
93.800009363540511
 30
0.0
  0
VERTEX
  5
1B04
  8
P
  6
CONTINUOUS
 62
    19
 10
49.580983052216069
 20
93.466676030207196
 30
0.0
  0
VERTEX
  5
1B05
  8
P
  6
CONTINUOUS
 62
    19
 10
49.747649718882741
 20
93.188898252429411
 30
0.0
  0
VERTEX
  5
1B06
  8
P
  6
CONTINUOUS
 62
    19
 10
49.858760829993841
 20
92.855564919096068
 30
0.0
  0
VERTEX
  5
1B07
  8
P
  6
CONTINUOUS
 62
    19
 10
50.025427496660512
 20
92.522231585762725
 30
0.0
  0
VERTEX
  5
1B08
  8
P
  6
CONTINUOUS
 62
    19
 10
50.19209416332717
 20
92.244453807984968
 30
0.0
  0
VERTEX
  5
1B09
  8
P
  6
CONTINUOUS
 62
    19
 10
50.358760829993841
 20
91.911120474651653
 30
0.0
  0
VERTEX
  5
1B0A
  8
P
  6
CONTINUOUS
 62
    19
 10
50.525427496660512
 20
91.633342696873839
 30
0.0
  0
VERTEX
  5
1B0B
  8
P
  6
CONTINUOUS
 62
    19
 10
50.692094163327177
 20
91.300009363540511
 30
0.0
  0
VERTEX
  5
1B0C
  8
P
  6
CONTINUOUS
 62
    19
 10
50.858760829993841
 20
91.022231585762725
 30
0.0
  0
VERTEX
  5
1B0D
  8
P
  6
CONTINUOUS
 62
    19
 10
51.025427496660512
 20
90.688898252429411
 30
0.0
  0
VERTEX
  5
1B0E
  8
P
  6
CONTINUOUS
 62
    19
 10
51.192094163327191
 20
90.411120474651668
 30
0.0
  0
VERTEX
  5
1B0F
  8
P
  6
CONTINUOUS
 62
    19
 10
51.414316385549412
 20
90.133342696873825
 30
0.0
  0
VERTEX
  5
1B10
  8
P
  6
CONTINUOUS
 62
    19
 10
51.580983052216062
 20
89.800009363540553
 30
0.0
  0
VERTEX
  5
1B11
  8
P
  6
CONTINUOUS
 62
    19
 10
51.747649718882741
 20
89.522231585762725
 30
0.0
  0
VERTEX
  5
1B12
  8
P
  6
CONTINUOUS
 62
    19
 10
51.914316385549412
 20
89.188898252429397
 30
0.0
  0
VERTEX
  5
1B13
  8
P
  6
CONTINUOUS
 62
    19
 10
52.080983052216069
 20
88.911120474651625
 30
0.0
  0
VERTEX
  5
1B14
  8
P
  6
CONTINUOUS
 62
    19
 10
52.247649718882741
 20
88.633342696873854
 30
0.0
  0
VERTEX
  5
1B15
  8
P
  6
CONTINUOUS
 62
    19
 10
52.469871941104948
 20
88.300009363540525
 30
0.0
  0
VERTEX
  5
1B16
  8
P
  6
CONTINUOUS
 62
    19
 10
52.63653860777162
 20
88.022231585762711
 30
0.0
  0
VERTEX
  5
1B17
  8
P
  6
CONTINUOUS
 62
    19
 10
52.803205274438298
 20
87.688898252429397
 30
0.0
  0
VERTEX
  5
1B18
  8
P
  6
CONTINUOUS
 62
    19
 10
52.969871941104962
 20
87.411120474651625
 30
0.0
  0
VERTEX
  5
1B19
  8
P
  6
CONTINUOUS
 62
    19
 10
53.136538607771612
 20
87.133342696873854
 30
0.0
  0
VERTEX
  5
1B1A
  8
P
  6
CONTINUOUS
 62
    19
 10
53.358760829993841
 20
86.800009363540511
 30
0.0
  0
VERTEX
  5
1B1B
  8
P
  6
CONTINUOUS
 62
    19
 10
53.525427496660512
 20
86.522231585762739
 30
0.0
  0
VERTEX
  5
1B1C
  8
P
  6
CONTINUOUS
 62
    19
 10
53.692094163327191
 20
86.188898252429397
 30
0.0
  0
VERTEX
  5
1B1D
  8
P
  6
CONTINUOUS
 62
    19
 10
53.858760829993841
 20
85.911120474651653
 30
0.0
  0
VERTEX
  5
1B1E
  8
P
  6
CONTINUOUS
 62
    19
 10
54.025427496660512
 20
85.633342696873854
 30
0.0
  0
VERTEX
  5
1B1F
  8
P
  6
CONTINUOUS
 62
    19
 10
54.192094163327177
 20
85.300009363540539
 30
0.0
  0
VERTEX
  5
1B20
  8
P
  6
CONTINUOUS
 62
    19
 10
54.358760829993841
 20
85.022231585762754
 30
0.0
  0
VERTEX
  5
1B21
  8
P
  6
CONTINUOUS
 62
    19
 10
54.580983052216069
 20
84.688898252429397
 30
0.0
  0
VERTEX
  5
1B22
  8
P
  6
CONTINUOUS
 62
    19
 10
54.747649718882741
 20
84.411120474651653
 30
0.0
  0
VERTEX
  5
1B23
  8
P
  6
CONTINUOUS
 62
    19
 10
54.914316385549391
 20
84.077787141318296
 30
0.0
  0
VERTEX
  5
1B24
  8
P
  6
CONTINUOUS
 62
    19
 10
55.080983052216069
 20
83.800009363540539
 30
0.0
  0
VERTEX
  5
1B25
  8
P
  6
CONTINUOUS
 62
    19
 10
55.247649718882741
 20
83.466676030207168
 30
0.0
  0
VERTEX
  5
1B26
  8
P
  6
CONTINUOUS
 62
    19
 10
55.414316385549398
 20
83.188898252429397
 30
0.0
  0
VERTEX
  5
1B27
  8
P
  6
CONTINUOUS
 62
    19
 10
55.525427496660519
 20
82.855564919096054
 30
0.0
  0
VERTEX
  5
1B28
  8
P
  6
CONTINUOUS
 62
    19
 10
55.692094163327177
 20
82.577787141318296
 30
0.0
  0
VERTEX
  5
1B29
  8
P
  6
CONTINUOUS
 62
    19
 10
55.858760829993841
 20
82.244453807984954
 30
0.0
  0
VERTEX
  5
1B2A
  8
P
  6
CONTINUOUS
 62
    19
 10
56.025427496660527
 20
81.966676030207196
 30
0.0
  0
VERTEX
  5
1B2B
  8
P
  6
CONTINUOUS
 62
    19
 10
56.192094163327191
 20
81.633342696873854
 30
0.0
  0
VERTEX
  5
1B2C
  8
P
  6
CONTINUOUS
 62
    19
 10
56.303205274438298
 20
81.300009363540539
 30
0.0
  0
VERTEX
  5
1B2D
  8
P
  6
CONTINUOUS
 62
    19
 10
62.636538607771612
 20
11.133342696873839
 30
0.0
  0
SEQEND
  5
1B2E
  8
P
  6
CONTINUOUS
 62
    19
  0
ARC
  5
A82
  8
0
 10
503.15839497514838
 20
49.021978544264293
 30
0.0
 40
428.14893789597357
 50
168.42636075109269
 51
177.46617713880309
  0
LINE
  5
A8A
  8
0
 10
72.747075920619864
 20
241.9165818859629
 30
0.0
 11
72.747075920619864
 21
241.9165818859629
 31
0.0
  0
LINE
  5
A8C
  8
0
 10
70.066092732326069
 20
241.9165818859629
 30
0.0
 11
70.066092732326069
 21
205.52223158576271
 31
0.0
  0
LINE
  5
A8D
  8
0
 10
72.747075920619864
 20
241.9165818859629
 30
0.0
 11
72.747075920619864
 21
205.76653436141811
 31
0.0
  0
LINE
  5
A8E
  8
0
 10
72.747075920619864
 20
205.76653436141811
 30
0.0
 11
72.747075920619864
 21
205.52223158576271
 31
0.0
  0
LINE
  5
A8F
  8
0
 10
72.747075920619864
 20
205.52223158576271
 30
0.0
 11
70.066092732326069
 21
205.52223158576271
 31
0.0
  0
LINE
  5
A90
  8
0
 10
72.747075920619864
 20
241.9165818859629
 30
0.0
 11
70.066092732326069
 21
241.9165818859629
 31
0.0
  0
POLYLINE
  5
18B2
  8
P
  6
CONTINUOUS
 62
    19
 66
     1
 10
0.0
 20
0.0
 30
0.0
  0
VERTEX
  5
1B3D
  8
P
  6
CONTINUOUS
 62
    19
 10
32.192094163327198
 20
244.57778714131831
 30
0.0
  0
VERTEX
  5
1B3E
  8
P
  6
CONTINUOUS
 62
    19
 10
84.192094163327184
 20
245.02223158576271
 30
0.0
  0
SEQEND
  5
1B3F
  8
P
  6
CONTINUOUS
 62
    19
  0
ENDSEC
  0
EOF
