  0
SECTION
  2
HEADER
  9
$ACADVER
  1
AC1018
  9
$ACADMAINTVER
 70
     0
  9
$DWGCODEPAGE
  3
ANSI_1252
  9
$INSBASE
 10
0.0
 20
0.0
 30
0.0
  9
$EXTMIN
 10
-51.00000000000001
 20
-57.73502691896257
 30
0.0
  9
$EXTMAX
 10
51.00000000000001
 20
57.73502691896259
 30
0.0
  9
$LIMMIN
 10
0.0
 20
0.0
  9
$LIMMAX
 10
12.0
 20
9.0
  9
$ORTHOMODE
 70
     0
  9
$REGENMODE
 70
     1
  9
$FILLMODE
 70
     1
  9
$QTEXTMODE
 70
     0
  9
$MIRRTEXT
 70
     1
  9
$LTSCALE
 40
1.0
  9
$ATTMODE
 70
     1
  9
$TEXTSIZE
 40
0.2
  9
$TRACEWID
 40
0.05
  9
$TEXTSTYLE
  7
Standard
  9
$CLAYER
  8
Default
  9
$CELTYPE
  6
ByLayer
  9
$CECOLOR
 62
   256
  9
$CELTSCALE
 40
1.0
  9
$DISPSILH
 70
     0
  9
$DIMSCALE
 40
1.0
  9
$DIMASZ
 40
0.18
  9
$DIMEXO
 40
0.0625
  9
$DIMDLI
 40
0.38
  9
$DIMRND
 40
0.0
  9
$DIMDLE
 40
0.0
  9
$DIMEXE
 40
0.18
  9
$DIMTP
 40
0.0
  9
$DIMTM
 40
0.0
  9
$DIMTXT
 40
0.18
  9
$DIMCEN
 40
0.09
  9
$DIMTSZ
 40
0.0
  9
$DIMTOL
 70
     0
  9
$DIMLIM
 70
     0
  9
$DIMTIH
 70
     1
  9
$DIMTOH
 70
     1
  9
$DIMSE1
 70
     0
  9
$DIMSE2
 70
     0
  9
$DIMTAD
 70
     0
  9
$DIMZIN
 70
     0
  9
$DIMBLK
  1

  9
$DIMASO
 70
     1
  9
$DIMSHO
 70
     1
  9
$DIMPOST
  1

  9
$DIMAPOST
  1

  9
$DIMALT
 70
     0
  9
$DIMALTD
 70
     2
  9
$DIMALTF
 40
25.4
  9
$DIMLFAC
 40
1.0
  9
$DIMTOFL
 70
     0
  9
$DIMTVP
 40
0.0
  9
$DIMTIX
 70
     0
  9
$DIMSOXD
 70
     0
  9
$DIMSAH
 70
     0
  9
$DIMBLK1
  1

  9
$DIMBLK2
  1

  9
$DIMSTYLE
  2
Standard
  9
$DIMCLRD
 70
     0
  9
$DIMCLRE
 70
     0
  9
$DIMCLRT
 70
     0
  9
$DIMTFAC
 40
1.0
  9
$DIMGAP
 40
0.09
  9
$DIMJUST
 70
     0
  9
$DIMSD1
 70
     0
  9
$DIMSD2
 70
     0
  9
$DIMTOLJ
 70
     1
  9
$DIMTZIN
 70
     0
  9
$DIMALTZ
 70
     0
  9
$DIMALTTZ
 70
     0
  9
$DIMUPT
 70
     0
  9
$DIMDEC
 70
     4
  9
$DIMTDEC
 70
     4
  9
$DIMALTU
 70
     2
  9
$DIMALTTD
 70
     2
  9
$DIMTXSTY
  7
Standard
  9
$DIMAUNIT
 70
     0
  9
$DIMADEC
 70
     0
  9
$DIMALTRND
 40
0.0
  9
$DIMAZIN
 70
     0
  9
$DIMDSEP
 70
    46
  9
$DIMATFIT
 70
     3
  9
$DIMFRAC
 70
     0
  9
$DIMLDRBLK
  1

  9
$DIMLUNIT
 70
     2
  9
$DIMLWD
 70
    -2
  9
$DIMLWE
 70
    -2
  9
$DIMTMOVE
 70
     2
  9
$LUNITS
 70
     2
  9
$LUPREC
 70
     3
  9
$SKETCHINC
 40
0.1
  9
$FILLETRAD
 40
0.5
  9
$AUNITS
 70
     0
  9
$AUPREC
 70
     0
  9
$MENU
  1
.
  9
$ELEVATION
 40
0.0
  9
$PELEVATION
 40
0.0
  9
$THICKNESS
 40
0.0
  9
$LIMCHECK
 70
     0
  9
$CHAMFERA
 40
0.5
  9
$CHAMFERB
 40
0.5
  9
$CHAMFERC
 40
1.0
  9
$CHAMFERD
 40
0.0
  9
$SKPOLY
 70
     0
  9
$TDCREATE
 40
2456276.757154838
  9
$TDUCREATE
 40
2456276.715488171
  9
$TDUPDATE
 40
2456276.757154849
  9
$TDUUPDATE
 40
2456276.715488183
  9
$TDINDWG
 40
0.0000000116
  9
$TDUSRTIMER
 40
0.0000000116
  9
$USRTIMER
 70
     1
  9
$ANGBASE
 50
0.0
  9
$ANGDIR
 70
     0
  9
$PDMODE
 70
     0
  9
$PDSIZE
 40
0.0
  9
$PLINEWID
 40
0.0
  9
$SPLFRAME
 70
     0
  9
$SPLINETYPE
 70
     6
  9
$SPLINESEGS
 70
     8
  9
$HANDSEED
  5
2EA
  9
$SURFTAB1
 70
     6
  9
$SURFTAB2
 70
     6
  9
$SURFTYPE
 70
     6
  9
$SURFU
 70
     6
  9
$SURFV
 70
     6
  9
$UCSBASE
  2

  9
$UCSNAME
  2

  9
$UCSORG
 10
0.0
 20
0.0
 30
0.0
  9
$UCSXDIR
 10
1.0
 20
0.0
 30
0.0
  9
$UCSYDIR
 10
0.0
 20
1.0
 30
0.0
  9
$UCSORTHOREF
  2

  9
$UCSORTHOVIEW
 70
     0
  9
$UCSORGTOP
 10
0.0
 20
0.0
 30
0.0
  9
$UCSORGBOTTOM
 10
0.0
 20
0.0
 30
0.0
  9
$UCSORGLEFT
 10
0.0
 20
0.0
 30
0.0
  9
$UCSORGRIGHT
 10
0.0
 20
0.0
 30
0.0
  9
$UCSORGFRONT
 10
0.0
 20
0.0
 30
0.0
  9
$UCSORGBACK
 10
0.0
 20
0.0
 30
0.0
  9
$PUCSBASE
  2

  9
$PUCSNAME
  2

  9
$PUCSORG
 10
0.0
 20
0.0
 30
0.0
  9
$PUCSXDIR
 10
1.0
 20
0.0
 30
0.0
  9
$PUCSYDIR
 10
0.0
 20
1.0
 30
0.0
  9
$PUCSORTHOREF
  2

  9
$PUCSORTHOVIEW
 70
     0
  9
$PUCSORGTOP
 10
0.0
 20
0.0
 30
0.0
  9
$PUCSORGBOTTOM
 10
0.0
 20
0.0
 30
0.0
  9
$PUCSORGLEFT
 10
0.0
 20
0.0
 30
0.0
  9
$PUCSORGRIGHT
 10
0.0
 20
0.0
 30
0.0
  9
$PUCSORGFRONT
 10
0.0
 20
0.0
 30
0.0
  9
$PUCSORGBACK
 10
0.0
 20
0.0
 30
0.0
  9
$USERI1
 70
     0
  9
$USERI2
 70
     0
  9
$USERI3
 70
     0
  9
$USERI4
 70
     0
  9
$USERI5
 70
     0
  9
$USERR1
 40
0.0
  9
$USERR2
 40
0.0
  9
$USERR3
 40
0.0
  9
$USERR4
 40
0.0
  9
$USERR5
 40
0.0
  9
$WORLDVIEW
 70
     1
  9
$SHADEDGE
 70
     3
  9
$SHADEDIF
 70
    70
  9
$TILEMODE
 70
     1
  9
$MAXACTVP
 70
    64
  9
$PINSBASE
 10
0.0
 20
0.0
 30
0.0
  9
$PLIMCHECK
 70
     0
  9
$PEXTMIN
 10
1.000000000000000E+20
 20
1.000000000000000E+20
 30
1.000000000000000E+20
  9
$PEXTMAX
 10
-1.000000000000000E+20
 20
-1.000000000000000E+20
 30
-1.000000000000000E+20
  9
$PLIMMIN
 10
0.0
 20
0.0
  9
$PLIMMAX
 10
12.0
 20
9.0
  9
$UNITMODE
 70
     0
  9
$VISRETAIN
 70
     1
  9
$PLINEGEN
 70
     0
  9
$PSLTSCALE
 70
     1
  9
$TREEDEPTH
 70
  3020
  9
$CMLSTYLE
  2
Standard
  9
$CMLJUST
 70
     0
  9
$CMLSCALE
 40
1.0
  9
$PROXYGRAPHICS
 70
     1
  9
$MEASUREMENT
 70
     0
  9
$CELWEIGHT
370
    -1
  9
$ENDCAPS
280
     0
  9
$JOINSTYLE
280
     0
  9
$LWDISPLAY
290
     0
  9
$INSUNITS
 70
     4
  9
$HYPERLINKBASE
  1

  9
$STYLESHEET
  1

  9
$XEDIT
290
     1
  9
$CEPSNTYPE
380
     0
  9
$PSTYLEMODE
290
     1
  9
$FINGERPRINTGUID
  2
{C2160B3B-A0B3-4DE4-8218-C69C47DA8EAA}
  9
$VERSIONGUID
  2
{FAEB1C32-E019-11D5-929B-00C0DF256EC4}
  9
$EXTNAMES
290
     1
  9
$PSVPSCALE
 40
0.0
  9
$OLESTARTUP
290
     0
  9
$SORTENTS
280
   127
  9
$INDEXCTL
280
     0
  9
$HIDETEXT
280
     1
  9
$XCLIPFRAME
290
     0
  9
$HALOGAP
280
     0
  9
$OBSCOLOR
 70
   257
  9
$OBSLTYPE
280
     0
  9
$INTERSECTIONDISPLAY
280
     0
  9
$INTERSECTIONCOLOR
 70
   257
  9
$DIMASSOC
280
     2
  9
$PROJECTNAME
  1

  0
ENDSEC
  0
SECTION
  2
CLASSES
  0
CLASS
  1
ACDBDICTIONARYWDFLT
  2
AcDbDictionaryWithDefault
  3
ObjectDBX Classes
 90
        0
 91
        4
280
     0
281
     0
  0
CLASS
  1
VISUALSTYLE
  2
AcDbVisualStyle
  3
ObjectDBX Classes
 90
     4095
 91
        4
280
     0
281
     0
  0
ENDSEC
  0
SECTION
  2
TABLES
  0
TABLE
  2
VPORT
  5
8
330
0
100
AcDbSymbolTable
 70
     1
  0
VPORT
  5
29
330
8
100
AcDbSymbolTableRecord
100
AcDbViewportTableRecord
  2
*Active
 70
     0
 10
0.0
 20
0.0
 11
1.0
 21
1.0
 12
0.0
 22
0.0
 13
0.0
 23
0.0
 14
0.5
 24
0.5
 15
0.5
 25
0.5
 16
0.0
 26
0.0
 36
1.0
 17
0.0
 27
0.0000000000000071
 37
0.0
 40
117.7794549146837
 41
0.8833459118601275
 42
50.0
 43
0.0
 44
0.0
 50
0.0
 51
0.0
 71
     0
 72
   100
 73
     1
 74
     3
 75
     0
 76
     0
 77
     0
 78
     0
281
     0
 65
     1
110
0.0
120
0.0
130
0.0
111
1.0
121
0.0
131
0.0
112
0.0
122
1.0
132
0.0
 79
     0
146
0.0
  0
ENDTAB
  0
TABLE
  2
LTYPE
  5
5
330
0
100
AcDbSymbolTable
 70
     1
  0
LTYPE
  5
14
330
5
100
AcDbSymbolTableRecord
100
AcDbLinetypeTableRecord
  2
ByBlock
 70
     0
  3

 72
    65
 73
     0
 40
0.0
  0
LTYPE
  5
15
330
5
100
AcDbSymbolTableRecord
100
AcDbLinetypeTableRecord
  2
ByLayer
 70
     0
  3

 72
    65
 73
     0
 40
0.0
  0
LTYPE
  5
16
330
5
100
AcDbSymbolTableRecord
100
AcDbLinetypeTableRecord
  2
Continuous
 70
     0
  3
Solid line
 72
    65
 73
     0
 40
0.0
  0
ENDTAB
  0
TABLE
  2
LAYER
  5
2
330
0
100
AcDbSymbolTable
 70
     2
  0
LAYER
  5
10
330
2
100
AcDbSymbolTableRecord
100
AcDbLayerTableRecord
  2
0
 70
     0
 62
     7
  6
Continuous
370
    -3
390
F
  0
LAYER
  5
3B
330
2
100
AcDbSymbolTableRecord
100
AcDbLayerTableRecord
  2
Default
 70
     0
 62
     7
  6
Continuous
370
    -3
390
F
  0
ENDTAB
  0
TABLE
  2
STYLE
  5
3
330
0
100
AcDbSymbolTable
 70
     1
  0
STYLE
  5
11
330
3
100
AcDbSymbolTableRecord
100
AcDbTextStyleTableRecord
  2
Standard
 70
     0
 40
0.0
 41
1.0
 50
0.0
 71
     0
 42
0.2
  3
txt
  4

  0
ENDTAB
  0
TABLE
  2
VIEW
  5
6
330
0
100
AcDbSymbolTable
 70
     0
  0
ENDTAB
  0
TABLE
  2
UCS
  5
7
330
0
100
AcDbSymbolTable
 70
     0
  0
ENDTAB
  0
TABLE
  2
APPID
  5
9
330
0
100
AcDbSymbolTable
 70
     1
  0
APPID
  5
12
330
9
100
AcDbSymbolTableRecord
100
AcDbRegAppTableRecord
  2
ACAD
 70
     0
  0
ENDTAB
  0
TABLE
  2
DIMSTYLE
  5
A
330
0
100
AcDbSymbolTable
 70
     1
100
AcDbDimStyleTable
  0
DIMSTYLE
105
27
330
A
100
AcDbSymbolTableRecord
100
AcDbDimStyleTableRecord
  2
Standard
 70
     0
340
11
  0
ENDTAB
  0
TABLE
  2
BLOCK_RECORD
  5
1
330
0
100
AcDbSymbolTable
 70
     1
  0
BLOCK_RECORD
  5
1F
330
1
100
AcDbSymbolTableRecord
100
AcDbBlockTableRecord
  2
*Model_Space
340
22
  0
BLOCK_RECORD
  5
1B
330
1
100
AcDbSymbolTableRecord
100
AcDbBlockTableRecord
  2
*Paper_Space
340
1E
  0
BLOCK_RECORD
  5
23
330
1
100
AcDbSymbolTableRecord
100
AcDbBlockTableRecord
  2
*Paper_Space0
340
26
  0
ENDTAB
  0
ENDSEC
  0
SECTION
  2
BLOCKS
  0
BLOCK
  5
20
330
1F
100
AcDbEntity
  8
0
100
AcDbBlockBegin
  2
*Model_Space
 70
     0
 10
0.0
 20
0.0
 30
0.0
  3
*Model_Space
  1

  0
ENDBLK
  5
21
330
1F
100
AcDbEntity
  8
0
100
AcDbBlockEnd
  0
BLOCK
  5
1C
330
1B
100
AcDbEntity
 67
     1
  8
0
100
AcDbBlockBegin
  2
*Paper_Space
 70
     0
 10
0.0
 20
0.0
 30
0.0
  3
*Paper_Space
  1

  0
ENDBLK
  5
1D
330
1B
100
AcDbEntity
 67
     1
  8
0
100
AcDbBlockEnd
  0
BLOCK
  5
24
330
23
100
AcDbEntity
  8
0
100
AcDbBlockBegin
  2
*Paper_Space0
 70
     0
 10
0.0
 20
0.0
 30
0.0
  3
*Paper_Space0
  1

  0
ENDBLK
  5
25
330
23
100
AcDbEntity
  8
0
100
AcDbBlockEnd
  0
ENDSEC
  0
SECTION
  2
ENTITIES
  0
POLYLINE
  5
3C
330
1F
100
AcDbEntity
  8
Default
100
AcDb2dPolyline
 66
     1
 10
0.0
 20
0.0
 30
0.0
  0
VERTEX
  5
3D
330
3C
100
AcDbEntity
  8
Default
100
AcDbVertex
100
AcDb2dVertex
 10
-29.12907461239252
 20
-3.904489524164647
 30
0.0
  0
VERTEX
  5
3E
330
3C
100
AcDbEntity
  8
Default
100
AcDbVertex
100
AcDb2dVertex
 10
-33.12907461239253
 20
-6.21389060092315
 30
0.0
  0
SEQEND
  5
3F
330
3C
100
AcDbEntity
  8
Default
  0
POLYLINE
  5
40
330
1F
100
AcDbEntity
  8
Default
100
AcDb2dPolyline
 66
     1
 10
0.0
 20
0.0
 30
0.0
  0
VERTEX
  5
41
330
40
100
AcDbEntity
  8
Default
100
AcDbVertex
100
AcDb2dVertex
 10
-33.12907461239253
 20
-6.21389060092315
 30
0.0
  0
VERTEX
  5
42
330
40
100
AcDbEntity
  8
Default
100
AcDbVertex
100
AcDb2dVertex
 10
-23.94592442293307
 20
-11.51578483481633
 30
0.0
  0
SEQEND
  5
43
330
40
100
AcDbEntity
  8
Default
  0
POLYLINE
  5
44
330
1F
100
AcDbEntity
  8
Default
100
AcDb2dPolyline
 66
     1
 10
0.0
 20
0.0
 30
0.0
  0
VERTEX
  5
45
330
44
100
AcDbEntity
  8
Default
100
AcDbVertex
100
AcDb2dVertex
 10
-23.94592442293307
 20
-11.51578483481633
 30
0.0
  0
VERTEX
  5
46
330
44
100
AcDbEntity
  8
Default
100
AcDbVertex
100
AcDb2dVertex
 10
-25.67908288841932
 20
-12.5164243414131
 30
0.0
  0
VERTEX
  5
47
330
44
100
AcDbEntity
  8
Default
100
AcDbVertex
100
AcDb2dVertex
 10
-28.39747053829675
 20
-14.08588618283159
 30
0.0
  0
SEQEND
  5
48
330
44
100
AcDbEntity
  8
Default
  0
POLYLINE
  5
49
330
1F
100
AcDbEntity
  8
Default
100
AcDb2dPolyline
 66
     1
 10
0.0
 20
0.0
 30
0.0
  0
VERTEX
  5
4A
330
49
100
AcDbEntity
  8
Default
100
AcDbVertex
100
AcDb2dVertex
 10
-28.39747053829675
 20
-14.08588618283159
 30
0.0
  0
VERTEX
  5
4B
330
49
100
AcDbEntity
  8
Default
100
AcDbVertex
100
AcDb2dVertex
 10
-45.97408104417143
 20
-4.195253197751008
 30
0.0
  0
SEQEND
  5
4C
330
49
100
AcDbEntity
  8
Default
  0
POLYLINE
  5
4D
330
1F
100
AcDbEntity
  8
Default
100
AcDb2dPolyline
 66
     1
 10
0.0
 20
0.0
 30
0.0
  0
VERTEX
  5
4E
330
4D
100
AcDbEntity
  8
Default
100
AcDbVertex
100
AcDb2dVertex
 10
-45.97408104417143
 20
-4.195253197751008
 30
0.0
  0
VERTEX
  5
4F
330
4D
100
AcDbEntity
  8
Default
100
AcDbVertex
100
AcDb2dVertex
 10
-50.00000000000001
 20
-6.519618590634249
 30
0.0
  0
SEQEND
  5
50
330
4D
100
AcDbEntity
  8
Default
  0
POLYLINE
  5
51
330
1F
100
AcDbEntity
  8
Default
100
AcDb2dPolyline
 66
     1
 10
0.0
 20
0.0
 30
0.0
  0
VERTEX
  5
52
330
51
100
AcDbEntity
  8
Default
100
AcDbVertex
100
AcDb2dVertex
 10
-50.00000000000001
 20
-6.519618590634249
 30
0.0
  0
VERTEX
  5
53
330
51
100
AcDbEntity
  8
Default
100
AcDbVertex
100
AcDb2dVertex
 10
-32.42338949412531
 20
-16.41025157571482
 30
0.0
  0
SEQEND
  5
54
330
51
100
AcDbEntity
  8
Default
  0
POLYLINE
  5
55
330
1F
100
AcDbEntity
  8
Default
100
AcDb2dPolyline
 66
     1
 10
0.0
 20
0.0
 30
0.0
  0
VERTEX
  5
56
330
55
100
AcDbEntity
  8
Default
100
AcDbVertex
100
AcDb2dVertex
 10
-32.42338949412531
 20
-16.41025157571482
 30
0.0
  0
VERTEX
  5
57
330
55
100
AcDbEntity
  8
Default
100
AcDbVertex
100
AcDb2dVertex
 10
-37.35225533522183
 20
-19.25593359587145
 30
0.0
  0
SEQEND
  5
58
330
55
100
AcDbEntity
  8
Default
  0
POLYLINE
  5
59
330
1F
100
AcDbEntity
  8
Default
100
AcDb2dPolyline
 66
     1
 10
0.0
 20
0.0
 30
0.0
  0
VERTEX
  5
5A
330
59
100
AcDbEntity
  8
Default
100
AcDbVertex
100
AcDb2dVertex
 10
-37.35225533522183
 20
-19.25593359587145
 30
0.0
  0
VERTEX
  5
5B
330
59
100
AcDbEntity
  8
Default
100
AcDbVertex
100
AcDb2dVertex
 10
-45.97408104417144
 20
-14.40429774036617
 30
0.0
  0
SEQEND
  5
5C
330
59
100
AcDbEntity
  8
Default
  0
POLYLINE
  5
5D
330
1F
100
AcDbEntity
  8
Default
100
AcDb2dPolyline
 66
     1
 10
0.0
 20
0.0
 30
0.0
  0
VERTEX
  5
5E
330
5D
100
AcDbEntity
  8
Default
100
AcDbVertex
100
AcDb2dVertex
 10
-45.97408104417144
 20
-14.40429774036617
 30
0.0
  0
VERTEX
  5
5F
330
5D
100
AcDbEntity
  8
Default
100
AcDbVertex
100
AcDb2dVertex
 10
-50.00000000000001
 20
-16.72866313324941
 30
0.0
  0
SEQEND
  5
60
330
5D
100
AcDbEntity
  8
Default
  0
POLYLINE
  5
61
330
1F
100
AcDbEntity
  8
Default
100
AcDb2dPolyline
 66
     1
 10
0.0
 20
0.0
 30
0.0
  0
VERTEX
  5
62
330
61
100
AcDbEntity
  8
Default
100
AcDbVertex
100
AcDb2dVertex
 10
-50.00000000000001
 20
-16.72866313324941
 30
0.0
  0
VERTEX
  5
63
330
61
100
AcDbEntity
  8
Default
100
AcDbVertex
100
AcDb2dVertex
 10
-41.37817429105039
 20
-21.58029898875468
 30
0.0
  0
SEQEND
  5
64
330
61
100
AcDbEntity
  8
Default
  0
POLYLINE
  5
65
330
1F
100
AcDbEntity
  8
Default
100
AcDb2dPolyline
 66
     1
 10
0.0
 20
0.0
 30
0.0
  0
VERTEX
  5
66
330
65
100
AcDbEntity
  8
Default
100
AcDbVertex
100
AcDb2dVertex
 10
-41.37817429105039
 20
-21.58029898875468
 30
0.0
  0
VERTEX
  5
67
330
65
100
AcDbEntity
  8
Default
100
AcDbVertex
100
AcDb2dVertex
 10
-51.00000000000001
 20
-27.13546265191241
 30
0.0
  0
SEQEND
  5
68
330
65
100
AcDbEntity
  8
Default
  0
POLYLINE
  5
69
330
1F
100
AcDbEntity
  8
Default
100
AcDb2dPolyline
 66
     1
 10
0.0
 20
0.0
 30
0.0
  0
VERTEX
  5
6A
330
69
100
AcDbEntity
  8
Default
100
AcDbVertex
100
AcDb2dVertex
 10
-51.00000000000001
 20
-27.13546265191241
 30
0.0
  0
VERTEX
  5
6B
330
69
100
AcDbEntity
  8
Default
100
AcDbVertex
100
AcDb2dVertex
 10
-50.00000000000001
 20
-28.86751345948128
 30
0.0
  0
SEQEND
  5
6C
330
69
100
AcDbEntity
  8
Default
  0
POLYLINE
  5
6D
330
1F
100
AcDbEntity
  8
Default
100
AcDb2dPolyline
 66
     1
 10
0.0
 20
0.0
 30
0.0
  0
VERTEX
  5
6E
330
6D
100
AcDbEntity
  8
Default
100
AcDbVertex
100
AcDb2dVertex
 10
-50.00000000000001
 20
-28.86751345948128
 30
0.0
  0
VERTEX
  5
6F
330
6D
100
AcDbEntity
  8
Default
100
AcDbVertex
100
AcDb2dVertex
 10
-49.00000000000001
 20
-30.59956426705016
 30
0.0
  0
SEQEND
  5
70
330
6D
100
AcDbEntity
  8
Default
  0
POLYLINE
  5
71
330
1F
100
AcDbEntity
  8
Default
100
AcDb2dPolyline
 66
     1
 10
0.0
 20
0.0
 30
0.0
  0
VERTEX
  5
72
330
71
100
AcDbEntity
  8
Default
100
AcDbVertex
100
AcDb2dVertex
 10
-49.00000000000001
 20
-30.59956426705016
 30
0.0
  0
VERTEX
  5
73
330
71
100
AcDbEntity
  8
Default
100
AcDbVertex
100
AcDb2dVertex
 10
-39.37817429105039
 20
-25.04440060389244
 30
0.0
  0
SEQEND
  5
74
330
71
100
AcDbEntity
  8
Default
  0
POLYLINE
  5
75
330
1F
100
AcDbEntity
  8
Default
100
AcDb2dPolyline
 66
     1
 10
0.0
 20
0.0
 30
0.0
  0
VERTEX
  5
76
330
75
100
AcDbEntity
  8
Default
100
AcDbVertex
100
AcDb2dVertex
 10
-39.37817429105039
 20
-25.04440060389244
 30
0.0
  0
VERTEX
  5
77
330
75
100
AcDbEntity
  8
Default
100
AcDbVertex
100
AcDb2dVertex
 10
-39.48744724474618
 20
-34.93693862259722
 30
0.0
  0
SEQEND
  5
78
330
75
100
AcDbEntity
  8
Default
  0
POLYLINE
  5
79
330
1F
100
AcDbEntity
  8
Default
100
AcDb2dPolyline
 66
     1
 10
0.0
 20
0.0
 30
0.0
  0
VERTEX
  5
7A
330
79
100
AcDbEntity
  8
Default
100
AcDbVertex
100
AcDb2dVertex
 10
-39.48744724474618
 20
-34.93693862259722
 30
0.0
  0
VERTEX
  5
7B
330
79
100
AcDbEntity
  8
Default
100
AcDbVertex
100
AcDb2dVertex
 10
-35.46152828891761
 20
-32.61257322971399
 30
0.0
  0
SEQEND
  5
7C
330
79
100
AcDbEntity
  8
Default
  0
POLYLINE
  5
7D
330
1F
100
AcDbEntity
  8
Default
100
AcDb2dPolyline
 66
     1
 10
0.0
 20
0.0
 30
0.0
  0
VERTEX
  5
7E
330
7D
100
AcDbEntity
  8
Default
100
AcDbVertex
100
AcDb2dVertex
 10
-35.46152828891761
 20
-32.61257322971399
 30
0.0
  0
VERTEX
  5
7F
330
7D
100
AcDbEntity
  8
Default
100
AcDbVertex
100
AcDb2dVertex
 10
-35.35225533522183
 20
-22.7200352110092
 30
0.0
  0
SEQEND
  5
80
330
7D
100
AcDbEntity
  8
Default
  0
POLYLINE
  5
81
330
1F
100
AcDbEntity
  8
Default
100
AcDb2dPolyline
 66
     1
 10
0.0
 20
0.0
 30
0.0
  0
VERTEX
  5
82
330
81
100
AcDbEntity
  8
Default
100
AcDbVertex
100
AcDb2dVertex
 10
-35.35225533522183
 20
-22.7200352110092
 30
0.0
  0
VERTEX
  5
83
330
81
100
AcDbEntity
  8
Default
100
AcDbVertex
100
AcDb2dVertex
 10
-30.42338949412531
 20
-19.87435319085257
 30
0.0
  0
SEQEND
  5
84
330
81
100
AcDbEntity
  8
Default
  0
POLYLINE
  5
85
330
1F
100
AcDbEntity
  8
Default
100
AcDb2dPolyline
 66
     1
 10
0.0
 20
0.0
 30
0.0
  0
VERTEX
  5
86
330
85
100
AcDbEntity
  8
Default
100
AcDbVertex
100
AcDb2dVertex
 10
-30.42338949412531
 20
-19.87435319085257
 30
0.0
  0
VERTEX
  5
87
330
85
100
AcDbEntity
  8
Default
100
AcDbVertex
100
AcDb2dVertex
 10
-30.64615532247457
 20
-40.04146089390481
 30
0.0
  0
SEQEND
  5
88
330
85
100
AcDbEntity
  8
Default
  0
POLYLINE
  5
89
330
1F
100
AcDbEntity
  8
Default
100
AcDb2dPolyline
 66
     1
 10
0.0
 20
0.0
 30
0.0
  0
VERTEX
  5
8A
330
89
100
AcDbEntity
  8
Default
100
AcDbVertex
100
AcDb2dVertex
 10
-30.64615532247457
 20
-40.04146089390481
 30
0.0
  0
VERTEX
  5
8B
330
89
100
AcDbEntity
  8
Default
100
AcDbVertex
100
AcDb2dVertex
 10
-26.620236366646
 20
-37.71709550102156
 30
0.0
  0
SEQEND
  5
8C
330
89
100
AcDbEntity
  8
Default
  0
POLYLINE
  5
8D
330
1F
100
AcDbEntity
  8
Default
100
AcDb2dPolyline
 66
     1
 10
0.0
 20
0.0
 30
0.0
  0
VERTEX
  5
8E
330
8D
100
AcDbEntity
  8
Default
100
AcDbVertex
100
AcDb2dVertex
 10
-26.620236366646
 20
-37.71709550102156
 30
0.0
  0
VERTEX
  5
8F
330
8D
100
AcDbEntity
  8
Default
100
AcDbVertex
100
AcDb2dVertex
 10
-26.39747053829675
 20
-17.54998779796933
 30
0.0
  0
SEQEND
  5
90
330
8D
100
AcDbEntity
  8
Default
  0
POLYLINE
  5
91
330
1F
100
AcDbEntity
  8
Default
100
AcDb2dPolyline
 66
     1
 10
0.0
 20
0.0
 30
0.0
  0
VERTEX
  5
92
330
91
100
AcDbEntity
  8
Default
100
AcDbVertex
100
AcDb2dVertex
 10
-26.39747053829675
 20
-17.54998779796933
 30
0.0
  0
VERTEX
  5
93
330
91
100
AcDbEntity
  8
Default
100
AcDbVertex
100
AcDb2dVertex
 10
-23.67908288841932
 20
-15.98052595655085
 30
0.0
  0
VERTEX
  5
94
330
91
100
AcDbEntity
  8
Default
100
AcDbVertex
100
AcDb2dVertex
 10
-21.94592442293307
 20
-14.97988644995408
 30
0.0
  0
SEQEND
  5
95
330
91
100
AcDbEntity
  8
Default
  0
POLYLINE
  5
96
330
1F
100
AcDbEntity
  8
Default
100
AcDb2dPolyline
 66
     1
 10
0.0
 20
0.0
 30
0.0
  0
VERTEX
  5
97
330
96
100
AcDbEntity
  8
Default
100
AcDbVertex
100
AcDb2dVertex
 10
-21.94592442293307
 20
-14.97988644995408
 30
0.0
  0
VERTEX
  5
98
330
96
100
AcDbEntity
  8
Default
100
AcDbVertex
100
AcDb2dVertex
 10
-21.94592442293307
 20
-25.58367491774045
 30
0.0
  0
SEQEND
  5
99
330
96
100
AcDbEntity
  8
Default
  0
POLYLINE
  5
9A
330
1F
100
AcDbEntity
  8
Default
100
AcDb2dPolyline
 66
     1
 10
0.0
 20
0.0
 30
0.0
  0
VERTEX
  5
9B
330
9A
100
AcDbEntity
  8
Default
100
AcDbVertex
100
AcDb2dVertex
 10
-21.94592442293307
 20
-25.58367491774045
 30
0.0
  0
VERTEX
  5
9C
330
9A
100
AcDbEntity
  8
Default
100
AcDbVertex
100
AcDb2dVertex
 10
-17.94592442293307
 20
-23.27427384098194
 30
0.0
  0
SEQEND
  5
9D
330
9A
100
AcDbEntity
  8
Default
  0
POLYLINE
  5
9E
330
1F
100
AcDbEntity
  8
Default
100
AcDb2dPolyline
 66
     1
 10
0.0
 20
0.0
 30
0.0
  0
VERTEX
  5
9F
330
9E
100
AcDbEntity
  8
Default
100
AcDbVertex
100
AcDb2dVertex
 10
-17.94592442293307
 20
-23.27427384098194
 30
0.0
  0
VERTEX
  5
A0
330
9E
100
AcDbEntity
  8
Default
100
AcDbVertex
100
AcDb2dVertex
 10
-17.94592442293306
 20
-12.67048537319558
 30
0.0
  0
SEQEND
  5
A1
330
9E
100
AcDbEntity
  8
Default
  0
POLYLINE
  5
A2
330
1F
100
AcDbEntity
  8
Default
100
AcDb2dPolyline
 66
     1
 10
0.0
 20
0.0
 30
0.0
  0
VERTEX
  5
A3
330
A2
100
AcDbEntity
  8
Default
100
AcDbVertex
100
AcDb2dVertex
 10
-17.94592442293306
 20
-12.67048537319558
 30
0.0
  0
VERTEX
  5
A4
330
A2
100
AcDbEntity
  8
Default
100
AcDbVertex
100
AcDb2dVertex
 10
-2.000000000000012
 20
-3.46410161513775
 30
0.0
  0
SEQEND
  5
A5
330
A2
100
AcDbEntity
  8
Default
  0
POLYLINE
  5
A6
330
1F
100
AcDbEntity
  8
Default
100
AcDb2dPolyline
 66
     1
 10
0.0
 20
0.0
 30
0.0
  0
VERTEX
  5
A7
330
A6
100
AcDbEntity
  8
Default
100
AcDbVertex
100
AcDb2dVertex
 10
-2.000000000000012
 20
-3.46410161513775
 30
0.0
  0
VERTEX
  5
A8
330
A6
100
AcDbEntity
  8
Default
100
AcDbVertex
100
AcDb2dVertex
 10
-2.000000000000006
 20
-21.87686913125341
 30
0.0
  0
SEQEND
  5
A9
330
A6
100
AcDbEntity
  8
Default
  0
POLYLINE
  5
AA
330
1F
100
AcDbEntity
  8
Default
100
AcDb2dPolyline
 66
     1
 10
0.0
 20
0.0
 30
0.0
  0
VERTEX
  5
AB
330
AA
100
AcDbEntity
  8
Default
100
AcDbVertex
100
AcDb2dVertex
 10
-2.000000000000006
 20
-21.87686913125341
 30
0.0
  0
VERTEX
  5
AC
330
AA
100
AcDbEntity
  8
Default
100
AcDbVertex
100
AcDb2dVertex
 10
-11.18315018945946
 20
-27.17876336514659
 30
0.0
  0
SEQEND
  5
AD
330
AA
100
AcDbEntity
  8
Default
  0
POLYLINE
  5
AE
330
1F
100
AcDbEntity
  8
Default
100
AcDb2dPolyline
 66
     1
 10
0.0
 20
0.0
 30
0.0
  0
VERTEX
  5
AF
330
AE
100
AcDbEntity
  8
Default
100
AcDbVertex
100
AcDb2dVertex
 10
-11.18315018945946
 20
-27.17876336514659
 30
0.0
  0
VERTEX
  5
B0
330
AE
100
AcDbEntity
  8
Default
100
AcDbVertex
100
AcDb2dVertex
 10
-11.18315018945946
 20
-31.7975655186636
 30
0.0
  0
SEQEND
  5
B1
330
AE
100
AcDbEntity
  8
Default
  0
POLYLINE
  5
B2
330
1F
100
AcDbEntity
  8
Default
100
AcDb2dPolyline
 66
     1
 10
0.0
 20
0.0
 30
0.0
  0
VERTEX
  5
B3
330
B2
100
AcDbEntity
  8
Default
100
AcDbVertex
100
AcDb2dVertex
 10
-11.18315018945946
 20
-31.7975655186636
 30
0.0
  0
VERTEX
  5
B4
330
B2
100
AcDbEntity
  8
Default
100
AcDbVertex
100
AcDb2dVertex
 10
-2.000000000000007
 20
-26.49567128477042
 30
0.0
  0
SEQEND
  5
B5
330
B2
100
AcDbEntity
  8
Default
  0
POLYLINE
  5
B6
330
1F
100
AcDbEntity
  8
Default
100
AcDb2dPolyline
 66
     1
 10
0.0
 20
0.0
 30
0.0
  0
VERTEX
  5
B7
330
B6
100
AcDbEntity
  8
Default
100
AcDbVertex
100
AcDb2dVertex
 10
-2.000000000000007
 20
-26.49567128477042
 30
0.0
  0
VERTEX
  5
B8
330
B6
100
AcDbEntity
  8
Default
100
AcDbVertex
100
AcDb2dVertex
 10
-2.000000000000007
 20
-28.49695029796395
 30
0.0
  0
VERTEX
  5
B9
330
B6
100
AcDbEntity
  8
Default
100
AcDbVertex
100
AcDb2dVertex
 10
-2.0
 20
-31.63587398080093
 30
0.0
  0
SEQEND
  5
BA
330
B6
100
AcDbEntity
  8
Default
  0
POLYLINE
  5
BB
330
1F
100
AcDbEntity
  8
Default
100
AcDb2dPolyline
 66
     1
 10
0.0
 20
0.0
 30
0.0
  0
VERTEX
  5
BC
330
BB
100
AcDbEntity
  8
Default
100
AcDbVertex
100
AcDb2dVertex
 10
-2.0
 20
-31.63587398080093
 30
0.0
  0
VERTEX
  5
BD
330
BB
100
AcDbEntity
  8
Default
100
AcDbVertex
100
AcDb2dVertex
 10
-19.35384467752544
 20
-41.91234869877257
 30
0.0
  0
SEQEND
  5
BE
330
BB
100
AcDbEntity
  8
Default
  0
POLYLINE
  5
BF
330
1F
100
AcDbEntity
  8
Default
100
AcDb2dPolyline
 66
     1
 10
0.0
 20
0.0
 30
0.0
  0
VERTEX
  5
C0
330
BF
100
AcDbEntity
  8
Default
100
AcDbVertex
100
AcDb2dVertex
 10
-19.35384467752544
 20
-41.91234869877257
 30
0.0
  0
VERTEX
  5
C1
330
BF
100
AcDbEntity
  8
Default
100
AcDbVertex
100
AcDb2dVertex
 10
-19.35384467752545
 20
-46.56107948453906
 30
0.0
  0
SEQEND
  5
C2
330
BF
100
AcDbEntity
  8
Default
  0
POLYLINE
  5
C3
330
1F
100
AcDbEntity
  8
Default
100
AcDb2dPolyline
 66
     1
 10
0.0
 20
0.0
 30
0.0
  0
VERTEX
  5
C4
330
C3
100
AcDbEntity
  8
Default
100
AcDbVertex
100
AcDb2dVertex
 10
-19.35384467752545
 20
-46.56107948453906
 30
0.0
  0
VERTEX
  5
C5
330
C3
100
AcDbEntity
  8
Default
100
AcDbVertex
100
AcDb2dVertex
 10
-2.000000000000009
 20
-36.2846047665674
 30
0.0
  0
SEQEND
  5
C6
330
C3
100
AcDbEntity
  8
Default
  0
POLYLINE
  5
C7
330
1F
100
AcDbEntity
  8
Default
100
AcDb2dPolyline
 66
     1
 10
0.0
 20
0.0
 30
0.0
  0
VERTEX
  5
C8
330
C7
100
AcDbEntity
  8
Default
100
AcDbVertex
100
AcDb2dVertex
 10
-2.000000000000009
 20
-36.2846047665674
 30
0.0
  0
VERTEX
  5
C9
330
C7
100
AcDbEntity
  8
Default
100
AcDbVertex
100
AcDb2dVertex
 10
-2.000000000000009
 20
-41.97596880688066
 30
0.0
  0
SEQEND
  5
CA
330
C7
100
AcDbEntity
  8
Default
  0
POLYLINE
  5
CB
330
1F
100
AcDbEntity
  8
Default
100
AcDb2dPolyline
 66
     1
 10
0.0
 20
0.0
 30
0.0
  0
VERTEX
  5
CC
330
CB
100
AcDbEntity
  8
Default
100
AcDbVertex
100
AcDb2dVertex
 10
-2.000000000000009
 20
-41.97596880688066
 30
0.0
  0
VERTEX
  5
CD
330
CB
100
AcDbEntity
  8
Default
100
AcDbVertex
100
AcDb2dVertex
 10
-10.51255275525384
 20
-47.01687097008016
 30
0.0
  0
SEQEND
  5
CE
330
CB
100
AcDbEntity
  8
Default
  0
POLYLINE
  5
CF
330
1F
100
AcDbEntity
  8
Default
100
AcDb2dPolyline
 66
     1
 10
0.0
 20
0.0
 30
0.0
  0
VERTEX
  5
D0
330
CF
100
AcDbEntity
  8
Default
100
AcDbVertex
100
AcDb2dVertex
 10
-10.51255275525384
 20
-47.01687097008016
 30
0.0
  0
VERTEX
  5
D1
330
CF
100
AcDbEntity
  8
Default
100
AcDbVertex
100
AcDb2dVertex
 10
-10.51255275525384
 20
-51.66560175584664
 30
0.0
  0
SEQEND
  5
D2
330
CF
100
AcDbEntity
  8
Default
  0
POLYLINE
  5
D3
330
1F
100
AcDbEntity
  8
Default
100
AcDb2dPolyline
 66
     1
 10
0.0
 20
0.0
 30
0.0
  0
VERTEX
  5
D4
330
D3
100
AcDbEntity
  8
Default
100
AcDbVertex
100
AcDb2dVertex
 10
-10.51255275525384
 20
-51.66560175584664
 30
0.0
  0
VERTEX
  5
D5
330
D3
100
AcDbEntity
  8
Default
100
AcDbVertex
100
AcDb2dVertex
 10
-2.000000000000009
 20
-46.62469959264713
 30
0.0
  0
SEQEND
  5
D6
330
D3
100
AcDbEntity
  8
Default
  0
POLYLINE
  5
D7
330
1F
100
AcDbEntity
  8
Default
100
AcDb2dPolyline
 66
     1
 10
0.0
 20
0.0
 30
0.0
  0
VERTEX
  5
D8
330
D7
100
AcDbEntity
  8
Default
100
AcDbVertex
100
AcDb2dVertex
 10
-2.000000000000009
 20
-46.62469959264713
 30
0.0
  0
VERTEX
  5
D9
330
D7
100
AcDbEntity
  8
Default
100
AcDbVertex
100
AcDb2dVertex
 10
-2.000000000000011
 20
-57.73502691896257
 30
0.0
  0
SEQEND
  5
DA
330
D7
100
AcDbEntity
  8
Default
  0
POLYLINE
  5
DB
330
1F
100
AcDbEntity
  8
Default
100
AcDb2dPolyline
 66
     1
 10
0.0
 20
0.0
 30
0.0
  0
VERTEX
  5
DC
330
DB
100
AcDbEntity
  8
Default
100
AcDbVertex
100
AcDb2dVertex
 10
-2.000000000000011
 20
-57.73502691896257
 30
0.0
  0
VERTEX
  5
DD
330
DB
100
AcDbEntity
  8
Default
100
AcDbVertex
100
AcDb2dVertex
 10
-0.0000000000000106
 20
-57.73502691896257
 30
0.0
  0
SEQEND
  5
DE
330
DB
100
AcDbEntity
  8
Default
  0
POLYLINE
  5
DF
330
1F
100
AcDbEntity
  8
Default
100
AcDb2dPolyline
 66
     1
 10
0.0
 20
0.0
 30
0.0
  0
VERTEX
  5
E0
330
DF
100
AcDbEntity
  8
Default
100
AcDbVertex
100
AcDb2dVertex
 10
-0.0000000000000106
 20
-57.73502691896257
 30
0.0
  0
VERTEX
  5
E1
330
DF
100
AcDbEntity
  8
Default
100
AcDbVertex
100
AcDb2dVertex
 10
1.999999999999989
 20
-57.73502691896257
 30
0.0
  0
SEQEND
  5
E2
330
DF
100
AcDbEntity
  8
Default
  0
POLYLINE
  5
E3
330
1F
100
AcDbEntity
  8
Default
100
AcDb2dPolyline
 66
     1
 10
0.0
 20
0.0
 30
0.0
  0
VERTEX
  5
E4
330
E3
100
AcDbEntity
  8
Default
100
AcDbVertex
100
AcDb2dVertex
 10
1.999999999999989
 20
-57.73502691896257
 30
0.0
  0
VERTEX
  5
E5
330
E3
100
AcDbEntity
  8
Default
100
AcDbVertex
100
AcDb2dVertex
 10
1.999999999999991
 20
-46.62469959264713
 30
0.0
  0
SEQEND
  5
E6
330
E3
100
AcDbEntity
  8
Default
  0
POLYLINE
  5
E7
330
1F
100
AcDbEntity
  8
Default
100
AcDb2dPolyline
 66
     1
 10
0.0
 20
0.0
 30
0.0
  0
VERTEX
  5
E8
330
E7
100
AcDbEntity
  8
Default
100
AcDbVertex
100
AcDb2dVertex
 10
1.999999999999991
 20
-46.62469959264713
 30
0.0
  0
VERTEX
  5
E9
330
E7
100
AcDbEntity
  8
Default
100
AcDbVertex
100
AcDb2dVertex
 10
10.51255275525382
 20
-51.66560175584664
 30
0.0
  0
SEQEND
  5
EA
330
E7
100
AcDbEntity
  8
Default
  0
POLYLINE
  5
EB
330
1F
100
AcDbEntity
  8
Default
100
AcDb2dPolyline
 66
     1
 10
0.0
 20
0.0
 30
0.0
  0
VERTEX
  5
EC
330
EB
100
AcDbEntity
  8
Default
100
AcDbVertex
100
AcDb2dVertex
 10
10.51255275525382
 20
-51.66560175584664
 30
0.0
  0
VERTEX
  5
ED
330
EB
100
AcDbEntity
  8
Default
100
AcDbVertex
100
AcDb2dVertex
 10
10.51255275525382
 20
-47.01687097008016
 30
0.0
  0
SEQEND
  5
EE
330
EB
100
AcDbEntity
  8
Default
  0
POLYLINE
  5
EF
330
1F
100
AcDbEntity
  8
Default
100
AcDb2dPolyline
 66
     1
 10
0.0
 20
0.0
 30
0.0
  0
VERTEX
  5
F0
330
EF
100
AcDbEntity
  8
Default
100
AcDbVertex
100
AcDb2dVertex
 10
10.51255275525382
 20
-47.01687097008016
 30
0.0
  0
VERTEX
  5
F1
330
EF
100
AcDbEntity
  8
Default
100
AcDbVertex
100
AcDb2dVertex
 10
1.999999999999992
 20
-41.97596880688066
 30
0.0
  0
SEQEND
  5
F2
330
EF
100
AcDbEntity
  8
Default
  0
POLYLINE
  5
F3
330
1F
100
AcDbEntity
  8
Default
100
AcDb2dPolyline
 66
     1
 10
0.0
 20
0.0
 30
0.0
  0
VERTEX
  5
F4
330
F3
100
AcDbEntity
  8
Default
100
AcDbVertex
100
AcDb2dVertex
 10
1.999999999999992
 20
-41.97596880688066
 30
0.0
  0
VERTEX
  5
F5
330
F3
100
AcDbEntity
  8
Default
100
AcDbVertex
100
AcDb2dVertex
 10
1.999999999999993
 20
-36.2846047665674
 30
0.0
  0
SEQEND
  5
F6
330
F3
100
AcDbEntity
  8
Default
  0
POLYLINE
  5
F7
330
1F
100
AcDbEntity
  8
Default
100
AcDb2dPolyline
 66
     1
 10
0.0
 20
0.0
 30
0.0
  0
VERTEX
  5
F8
330
F7
100
AcDbEntity
  8
Default
100
AcDbVertex
100
AcDb2dVertex
 10
1.999999999999993
 20
-36.2846047665674
 30
0.0
  0
VERTEX
  5
F9
330
F7
100
AcDbEntity
  8
Default
100
AcDbVertex
100
AcDb2dVertex
 10
19.35384467752543
 20
-46.56107948453906
 30
0.0
  0
SEQEND
  5
FA
330
F7
100
AcDbEntity
  8
Default
  0
POLYLINE
  5
FB
330
1F
100
AcDbEntity
  8
Default
100
AcDb2dPolyline
 66
     1
 10
0.0
 20
0.0
 30
0.0
  0
VERTEX
  5
FC
330
FB
100
AcDbEntity
  8
Default
100
AcDbVertex
100
AcDb2dVertex
 10
19.35384467752543
 20
-46.56107948453906
 30
0.0
  0
VERTEX
  5
FD
330
FB
100
AcDbEntity
  8
Default
100
AcDbVertex
100
AcDb2dVertex
 10
19.35384467752543
 20
-41.91234869877258
 30
0.0
  0
SEQEND
  5
FE
330
FB
100
AcDbEntity
  8
Default
  0
POLYLINE
  5
FF
330
1F
100
AcDbEntity
  8
Default
100
AcDb2dPolyline
 66
     1
 10
0.0
 20
0.0
 30
0.0
  0
VERTEX
  5
100
330
FF
100
AcDbEntity
  8
Default
100
AcDbVertex
100
AcDb2dVertex
 10
19.35384467752543
 20
-41.91234869877258
 30
0.0
  0
VERTEX
  5
101
330
FF
100
AcDbEntity
  8
Default
100
AcDbVertex
100
AcDb2dVertex
 10
1.999999999999985
 20
-31.63587398080093
 30
0.0
  0
SEQEND
  5
102
330
FF
100
AcDbEntity
  8
Default
  0
POLYLINE
  5
103
330
1F
100
AcDbEntity
  8
Default
100
AcDb2dPolyline
 66
     1
 10
0.0
 20
0.0
 30
0.0
  0
VERTEX
  5
104
330
103
100
AcDbEntity
  8
Default
100
AcDbVertex
100
AcDb2dVertex
 10
1.999999999999985
 20
-31.63587398080093
 30
0.0
  0
VERTEX
  5
105
330
103
100
AcDbEntity
  8
Default
100
AcDbVertex
100
AcDb2dVertex
 10
1.999999999999993
 20
-28.49695029796395
 30
0.0
  0
VERTEX
  5
106
330
103
100
AcDbEntity
  8
Default
100
AcDbVertex
100
AcDb2dVertex
 10
1.999999999999993
 20
-26.49567128477042
 30
0.0
  0
SEQEND
  5
107
330
103
100
AcDbEntity
  8
Default
  0
POLYLINE
  5
108
330
1F
100
AcDbEntity
  8
Default
100
AcDb2dPolyline
 66
     1
 10
0.0
 20
0.0
 30
0.0
  0
VERTEX
  5
109
330
108
100
AcDbEntity
  8
Default
100
AcDbVertex
100
AcDb2dVertex
 10
1.999999999999993
 20
-26.49567128477042
 30
0.0
  0
VERTEX
  5
10A
330
108
100
AcDbEntity
  8
Default
100
AcDbVertex
100
AcDb2dVertex
 10
11.18315018945945
 20
-31.7975655186636
 30
0.0
  0
SEQEND
  5
10B
330
108
100
AcDbEntity
  8
Default
  0
POLYLINE
  5
10C
330
1F
100
AcDbEntity
  8
Default
100
AcDb2dPolyline
 66
     1
 10
0.0
 20
0.0
 30
0.0
  0
VERTEX
  5
10D
330
10C
100
AcDbEntity
  8
Default
100
AcDbVertex
100
AcDb2dVertex
 10
11.18315018945945
 20
-31.7975655186636
 30
0.0
  0
VERTEX
  5
10E
330
10C
100
AcDbEntity
  8
Default
100
AcDbVertex
100
AcDb2dVertex
 10
11.18315018945945
 20
-27.17876336514659
 30
0.0
  0
SEQEND
  5
10F
330
10C
100
AcDbEntity
  8
Default
  0
POLYLINE
  5
110
330
1F
100
AcDbEntity
  8
Default
100
AcDb2dPolyline
 66
     1
 10
0.0
 20
0.0
 30
0.0
  0
VERTEX
  5
111
330
110
100
AcDbEntity
  8
Default
100
AcDbVertex
100
AcDb2dVertex
 10
11.18315018945945
 20
-27.17876336514659
 30
0.0
  0
VERTEX
  5
112
330
110
100
AcDbEntity
  8
Default
100
AcDbVertex
100
AcDb2dVertex
 10
1.999999999999994
 20
-21.87686913125341
 30
0.0
  0
SEQEND
  5
113
330
110
100
AcDbEntity
  8
Default
  0
POLYLINE
  5
114
330
1F
100
AcDbEntity
  8
Default
100
AcDb2dPolyline
 66
     1
 10
0.0
 20
0.0
 30
0.0
  0
VERTEX
  5
115
330
114
100
AcDbEntity
  8
Default
100
AcDbVertex
100
AcDb2dVertex
 10
1.999999999999994
 20
-21.87686913125341
 30
0.0
  0
VERTEX
  5
116
330
114
100
AcDbEntity
  8
Default
100
AcDbVertex
100
AcDb2dVertex
 10
1.999999999999997
 20
-3.464101615137758
 30
0.0
  0
SEQEND
  5
117
330
114
100
AcDbEntity
  8
Default
  0
POLYLINE
  5
118
330
1F
100
AcDbEntity
  8
Default
100
AcDb2dPolyline
 66
     1
 10
0.0
 20
0.0
 30
0.0
  0
VERTEX
  5
119
330
118
100
AcDbEntity
  8
Default
100
AcDbVertex
100
AcDb2dVertex
 10
1.999999999999997
 20
-3.464101615137758
 30
0.0
  0
VERTEX
  5
11A
330
118
100
AcDbEntity
  8
Default
100
AcDbVertex
100
AcDb2dVertex
 10
17.94592442293305
 20
-12.67048537319558
 30
0.0
  0
SEQEND
  5
11B
330
118
100
AcDbEntity
  8
Default
  0
POLYLINE
  5
11C
330
1F
100
AcDbEntity
  8
Default
100
AcDb2dPolyline
 66
     1
 10
0.0
 20
0.0
 30
0.0
  0
VERTEX
  5
11D
330
11C
100
AcDbEntity
  8
Default
100
AcDbVertex
100
AcDb2dVertex
 10
17.94592442293305
 20
-12.67048537319558
 30
0.0
  0
VERTEX
  5
11E
330
11C
100
AcDbEntity
  8
Default
100
AcDbVertex
100
AcDb2dVertex
 10
17.94592442293306
 20
-23.27427384098194
 30
0.0
  0
SEQEND
  5
11F
330
11C
100
AcDbEntity
  8
Default
  0
POLYLINE
  5
120
330
1F
100
AcDbEntity
  8
Default
100
AcDb2dPolyline
 66
     1
 10
0.0
 20
0.0
 30
0.0
  0
VERTEX
  5
121
330
120
100
AcDbEntity
  8
Default
100
AcDbVertex
100
AcDb2dVertex
 10
17.94592442293306
 20
-23.27427384098194
 30
0.0
  0
VERTEX
  5
122
330
120
100
AcDbEntity
  8
Default
100
AcDbVertex
100
AcDb2dVertex
 10
21.94592442293306
 20
-25.58367491774045
 30
0.0
  0
SEQEND
  5
123
330
120
100
AcDbEntity
  8
Default
  0
POLYLINE
  5
124
330
1F
100
AcDbEntity
  8
Default
100
AcDb2dPolyline
 66
     1
 10
0.0
 20
0.0
 30
0.0
  0
VERTEX
  5
125
330
124
100
AcDbEntity
  8
Default
100
AcDbVertex
100
AcDb2dVertex
 10
21.94592442293306
 20
-25.58367491774045
 30
0.0
  0
VERTEX
  5
126
330
124
100
AcDbEntity
  8
Default
100
AcDbVertex
100
AcDb2dVertex
 10
21.94592442293306
 20
-14.97988644995409
 30
0.0
  0
SEQEND
  5
127
330
124
100
AcDbEntity
  8
Default
  0
POLYLINE
  5
128
330
1F
100
AcDbEntity
  8
Default
100
AcDb2dPolyline
 66
     1
 10
0.0
 20
0.0
 30
0.0
  0
VERTEX
  5
129
330
128
100
AcDbEntity
  8
Default
100
AcDbVertex
100
AcDb2dVertex
 10
21.94592442293306
 20
-14.97988644995409
 30
0.0
  0
VERTEX
  5
12A
330
128
100
AcDbEntity
  8
Default
100
AcDbVertex
100
AcDb2dVertex
 10
23.67908288841931
 20
-15.98052595655086
 30
0.0
  0
VERTEX
  5
12B
330
128
100
AcDbEntity
  8
Default
100
AcDbVertex
100
AcDb2dVertex
 10
26.39747053829674
 20
-17.54998779796934
 30
0.0
  0
SEQEND
  5
12C
330
128
100
AcDbEntity
  8
Default
  0
POLYLINE
  5
12D
330
1F
100
AcDbEntity
  8
Default
100
AcDb2dPolyline
 66
     1
 10
0.0
 20
0.0
 30
0.0
  0
VERTEX
  5
12E
330
12D
100
AcDbEntity
  8
Default
100
AcDbVertex
100
AcDb2dVertex
 10
26.39747053829674
 20
-17.54998779796934
 30
0.0
  0
VERTEX
  5
12F
330
12D
100
AcDbEntity
  8
Default
100
AcDbVertex
100
AcDb2dVertex
 10
26.62023636664598
 20
-37.71709550102156
 30
0.0
  0
SEQEND
  5
130
330
12D
100
AcDbEntity
  8
Default
  0
POLYLINE
  5
131
330
1F
100
AcDbEntity
  8
Default
100
AcDb2dPolyline
 66
     1
 10
0.0
 20
0.0
 30
0.0
  0
VERTEX
  5
132
330
131
100
AcDbEntity
  8
Default
100
AcDbVertex
100
AcDb2dVertex
 10
26.62023636664598
 20
-37.71709550102156
 30
0.0
  0
VERTEX
  5
133
330
131
100
AcDbEntity
  8
Default
100
AcDbVertex
100
AcDb2dVertex
 10
30.64615532247456
 20
-40.04146089390481
 30
0.0
  0
SEQEND
  5
134
330
131
100
AcDbEntity
  8
Default
  0
POLYLINE
  5
135
330
1F
100
AcDbEntity
  8
Default
100
AcDb2dPolyline
 66
     1
 10
0.0
 20
0.0
 30
0.0
  0
VERTEX
  5
136
330
135
100
AcDbEntity
  8
Default
100
AcDbVertex
100
AcDb2dVertex
 10
30.64615532247456
 20
-40.04146089390481
 30
0.0
  0
VERTEX
  5
137
330
135
100
AcDbEntity
  8
Default
100
AcDbVertex
100
AcDb2dVertex
 10
30.4233894941253
 20
-19.87435319085258
 30
0.0
  0
SEQEND
  5
138
330
135
100
AcDbEntity
  8
Default
  0
POLYLINE
  5
139
330
1F
100
AcDbEntity
  8
Default
100
AcDb2dPolyline
 66
     1
 10
0.0
 20
0.0
 30
0.0
  0
VERTEX
  5
13A
330
139
100
AcDbEntity
  8
Default
100
AcDbVertex
100
AcDb2dVertex
 10
30.4233894941253
 20
-19.87435319085258
 30
0.0
  0
VERTEX
  5
13B
330
139
100
AcDbEntity
  8
Default
100
AcDbVertex
100
AcDb2dVertex
 10
35.35225533522182
 20
-22.72003521100921
 30
0.0
  0
SEQEND
  5
13C
330
139
100
AcDbEntity
  8
Default
  0
POLYLINE
  5
13D
330
1F
100
AcDbEntity
  8
Default
100
AcDb2dPolyline
 66
     1
 10
0.0
 20
0.0
 30
0.0
  0
VERTEX
  5
13E
330
13D
100
AcDbEntity
  8
Default
100
AcDbVertex
100
AcDb2dVertex
 10
35.35225533522182
 20
-22.72003521100921
 30
0.0
  0
VERTEX
  5
13F
330
13D
100
AcDbEntity
  8
Default
100
AcDbVertex
100
AcDb2dVertex
 10
35.4615282889176
 20
-32.61257322971399
 30
0.0
  0
SEQEND
  5
140
330
13D
100
AcDbEntity
  8
Default
  0
POLYLINE
  5
141
330
1F
100
AcDbEntity
  8
Default
100
AcDb2dPolyline
 66
     1
 10
0.0
 20
0.0
 30
0.0
  0
VERTEX
  5
142
330
141
100
AcDbEntity
  8
Default
100
AcDbVertex
100
AcDb2dVertex
 10
35.4615282889176
 20
-32.61257322971399
 30
0.0
  0
VERTEX
  5
143
330
141
100
AcDbEntity
  8
Default
100
AcDbVertex
100
AcDb2dVertex
 10
39.48744724474616
 20
-34.93693862259724
 30
0.0
  0
SEQEND
  5
144
330
141
100
AcDbEntity
  8
Default
  0
POLYLINE
  5
145
330
1F
100
AcDbEntity
  8
Default
100
AcDb2dPolyline
 66
     1
 10
0.0
 20
0.0
 30
0.0
  0
VERTEX
  5
146
330
145
100
AcDbEntity
  8
Default
100
AcDbVertex
100
AcDb2dVertex
 10
39.48744724474616
 20
-34.93693862259724
 30
0.0
  0
VERTEX
  5
147
330
145
100
AcDbEntity
  8
Default
100
AcDbVertex
100
AcDb2dVertex
 10
39.37817429105039
 20
-25.04440060389245
 30
0.0
  0
SEQEND
  5
148
330
145
100
AcDbEntity
  8
Default
  0
POLYLINE
  5
149
330
1F
100
AcDbEntity
  8
Default
100
AcDb2dPolyline
 66
     1
 10
0.0
 20
0.0
 30
0.0
  0
VERTEX
  5
14A
330
149
100
AcDbEntity
  8
Default
100
AcDbVertex
100
AcDb2dVertex
 10
39.37817429105039
 20
-25.04440060389245
 30
0.0
  0
VERTEX
  5
14B
330
149
100
AcDbEntity
  8
Default
100
AcDbVertex
100
AcDb2dVertex
 10
48.99999999999999
 20
-30.59956426705017
 30
0.0
  0
SEQEND
  5
14C
330
149
100
AcDbEntity
  8
Default
  0
POLYLINE
  5
14D
330
1F
100
AcDbEntity
  8
Default
100
AcDb2dPolyline
 66
     1
 10
0.0
 20
0.0
 30
0.0
  0
VERTEX
  5
14E
330
14D
100
AcDbEntity
  8
Default
100
AcDbVertex
100
AcDb2dVertex
 10
48.99999999999999
 20
-30.59956426705017
 30
0.0
  0
VERTEX
  5
14F
330
14D
100
AcDbEntity
  8
Default
100
AcDbVertex
100
AcDb2dVertex
 10
49.99999999999999
 20
-28.8675134594813
 30
0.0
  0
SEQEND
  5
150
330
14D
100
AcDbEntity
  8
Default
  0
POLYLINE
  5
151
330
1F
100
AcDbEntity
  8
Default
100
AcDb2dPolyline
 66
     1
 10
0.0
 20
0.0
 30
0.0
  0
VERTEX
  5
152
330
151
100
AcDbEntity
  8
Default
100
AcDbVertex
100
AcDb2dVertex
 10
49.99999999999999
 20
-28.8675134594813
 30
0.0
  0
VERTEX
  5
153
330
151
100
AcDbEntity
  8
Default
100
AcDbVertex
100
AcDb2dVertex
 10
50.99999999999999
 20
-27.13546265191242
 30
0.0
  0
SEQEND
  5
154
330
151
100
AcDbEntity
  8
Default
  0
POLYLINE
  5
155
330
1F
100
AcDbEntity
  8
Default
100
AcDb2dPolyline
 66
     1
 10
0.0
 20
0.0
 30
0.0
  0
VERTEX
  5
156
330
155
100
AcDbEntity
  8
Default
100
AcDbVertex
100
AcDb2dVertex
 10
50.99999999999999
 20
-27.13546265191242
 30
0.0
  0
VERTEX
  5
157
330
155
100
AcDbEntity
  8
Default
100
AcDbVertex
100
AcDb2dVertex
 10
41.37817429105039
 20
-21.58029898875469
 30
0.0
  0
SEQEND
  5
158
330
155
100
AcDbEntity
  8
Default
  0
POLYLINE
  5
159
330
1F
100
AcDbEntity
  8
Default
100
AcDb2dPolyline
 66
     1
 10
0.0
 20
0.0
 30
0.0
  0
VERTEX
  5
15A
330
159
100
AcDbEntity
  8
Default
100
AcDbVertex
100
AcDb2dVertex
 10
41.37817429105039
 20
-21.58029898875469
 30
0.0
  0
VERTEX
  5
15B
330
159
100
AcDbEntity
  8
Default
100
AcDbVertex
100
AcDb2dVertex
 10
50.0
 20
-16.72866313324942
 30
0.0
  0
SEQEND
  5
15C
330
159
100
AcDbEntity
  8
Default
  0
POLYLINE
  5
15D
330
1F
100
AcDbEntity
  8
Default
100
AcDb2dPolyline
 66
     1
 10
0.0
 20
0.0
 30
0.0
  0
VERTEX
  5
15E
330
15D
100
AcDbEntity
  8
Default
100
AcDbVertex
100
AcDb2dVertex
 10
50.0
 20
-16.72866313324942
 30
0.0
  0
VERTEX
  5
15F
330
15D
100
AcDbEntity
  8
Default
100
AcDbVertex
100
AcDb2dVertex
 10
45.97408104417143
 20
-14.40429774036618
 30
0.0
  0
SEQEND
  5
160
330
15D
100
AcDbEntity
  8
Default
  0
POLYLINE
  5
161
330
1F
100
AcDbEntity
  8
Default
100
AcDb2dPolyline
 66
     1
 10
0.0
 20
0.0
 30
0.0
  0
VERTEX
  5
162
330
161
100
AcDbEntity
  8
Default
100
AcDbVertex
100
AcDb2dVertex
 10
45.97408104417143
 20
-14.40429774036618
 30
0.0
  0
VERTEX
  5
163
330
161
100
AcDbEntity
  8
Default
100
AcDbVertex
100
AcDb2dVertex
 10
37.35225533522182
 20
-19.25593359587146
 30
0.0
  0
SEQEND
  5
164
330
161
100
AcDbEntity
  8
Default
  0
POLYLINE
  5
165
330
1F
100
AcDbEntity
  8
Default
100
AcDb2dPolyline
 66
     1
 10
0.0
 20
0.0
 30
0.0
  0
VERTEX
  5
166
330
165
100
AcDbEntity
  8
Default
100
AcDbVertex
100
AcDb2dVertex
 10
37.35225533522182
 20
-19.25593359587146
 30
0.0
  0
VERTEX
  5
167
330
165
100
AcDbEntity
  8
Default
100
AcDbVertex
100
AcDb2dVertex
 10
32.4233894941253
 20
-16.41025157571482
 30
0.0
  0
SEQEND
  5
168
330
165
100
AcDbEntity
  8
Default
  0
POLYLINE
  5
169
330
1F
100
AcDbEntity
  8
Default
100
AcDb2dPolyline
 66
     1
 10
0.0
 20
0.0
 30
0.0
  0
VERTEX
  5
16A
330
169
100
AcDbEntity
  8
Default
100
AcDbVertex
100
AcDb2dVertex
 10
32.4233894941253
 20
-16.41025157571482
 30
0.0
  0
VERTEX
  5
16B
330
169
100
AcDbEntity
  8
Default
100
AcDbVertex
100
AcDb2dVertex
 10
50.00000000000001
 20
-6.519618590634263
 30
0.0
  0
SEQEND
  5
16C
330
169
100
AcDbEntity
  8
Default
  0
POLYLINE
  5
16D
330
1F
100
AcDbEntity
  8
Default
100
AcDb2dPolyline
 66
     1
 10
0.0
 20
0.0
 30
0.0
  0
VERTEX
  5
16E
330
16D
100
AcDbEntity
  8
Default
100
AcDbVertex
100
AcDb2dVertex
 10
50.00000000000001
 20
-6.519618590634263
 30
0.0
  0
VERTEX
  5
16F
330
16D
100
AcDbEntity
  8
Default
100
AcDbVertex
100
AcDb2dVertex
 10
45.97408104417143
 20
-4.19525319775102
 30
0.0
  0
SEQEND
  5
170
330
16D
100
AcDbEntity
  8
Default
  0
POLYLINE
  5
171
330
1F
100
AcDbEntity
  8
Default
100
AcDb2dPolyline
 66
     1
 10
0.0
 20
0.0
 30
0.0
  0
VERTEX
  5
172
330
171
100
AcDbEntity
  8
Default
100
AcDbVertex
100
AcDb2dVertex
 10
45.97408104417143
 20
-4.19525319775102
 30
0.0
  0
VERTEX
  5
173
330
171
100
AcDbEntity
  8
Default
100
AcDbVertex
100
AcDb2dVertex
 10
28.39747053829674
 20
-14.0858861828316
 30
0.0
  0
SEQEND
  5
174
330
171
100
AcDbEntity
  8
Default
  0
POLYLINE
  5
175
330
1F
100
AcDbEntity
  8
Default
100
AcDb2dPolyline
 66
     1
 10
0.0
 20
0.0
 30
0.0
  0
VERTEX
  5
176
330
175
100
AcDbEntity
  8
Default
100
AcDbVertex
100
AcDb2dVertex
 10
28.39747053829674
 20
-14.0858861828316
 30
0.0
  0
VERTEX
  5
177
330
175
100
AcDbEntity
  8
Default
100
AcDbVertex
100
AcDb2dVertex
 10
25.67908288841931
 20
-12.5164243414131
 30
0.0
  0
VERTEX
  5
178
330
175
100
AcDbEntity
  8
Default
100
AcDbVertex
100
AcDb2dVertex
 10
23.94592442293306
 20
-11.51578483481633
 30
0.0
  0
SEQEND
  5
179
330
175
100
AcDbEntity
  8
Default
  0
POLYLINE
  5
17A
330
1F
100
AcDbEntity
  8
Default
100
AcDb2dPolyline
 66
     1
 10
0.0
 20
0.0
 30
0.0
  0
VERTEX
  5
17B
330
17A
100
AcDbEntity
  8
Default
100
AcDbVertex
100
AcDb2dVertex
 10
23.94592442293306
 20
-11.51578483481633
 30
0.0
  0
VERTEX
  5
17C
330
17A
100
AcDbEntity
  8
Default
100
AcDbVertex
100
AcDb2dVertex
 10
33.12907461239252
 20
-6.213890600923158
 30
0.0
  0
SEQEND
  5
17D
330
17A
100
AcDbEntity
  8
Default
  0
POLYLINE
  5
17E
330
1F
100
AcDbEntity
  8
Default
100
AcDb2dPolyline
 66
     1
 10
0.0
 20
0.0
 30
0.0
  0
VERTEX
  5
17F
330
17E
100
AcDbEntity
  8
Default
100
AcDbVertex
100
AcDb2dVertex
 10
33.12907461239252
 20
-6.213890600923158
 30
0.0
  0
VERTEX
  5
180
330
17E
100
AcDbEntity
  8
Default
100
AcDbVertex
100
AcDb2dVertex
 10
29.12907461239251
 20
-3.904489524164655
 30
0.0
  0
SEQEND
  5
181
330
17E
100
AcDbEntity
  8
Default
  0
POLYLINE
  5
182
330
1F
100
AcDbEntity
  8
Default
100
AcDb2dPolyline
 66
     1
 10
0.0
 20
0.0
 30
0.0
  0
VERTEX
  5
183
330
182
100
AcDbEntity
  8
Default
100
AcDbVertex
100
AcDb2dVertex
 10
29.12907461239251
 20
-3.904489524164655
 30
0.0
  0
VERTEX
  5
184
330
182
100
AcDbEntity
  8
Default
100
AcDbVertex
100
AcDb2dVertex
 10
19.94592442293305
 20
-9.206383758057827
 30
0.0
  0
SEQEND
  5
185
330
182
100
AcDbEntity
  8
Default
  0
POLYLINE
  5
186
330
1F
100
AcDbEntity
  8
Default
100
AcDb2dPolyline
 66
     1
 10
0.0
 20
0.0
 30
0.0
  0
VERTEX
  5
187
330
186
100
AcDbEntity
  8
Default
100
AcDbVertex
100
AcDb2dVertex
 10
19.94592442293305
 20
-9.206383758057827
 30
0.0
  0
VERTEX
  5
188
330
186
100
AcDbEntity
  8
Default
100
AcDbVertex
100
AcDb2dVertex
 10
4.000000000000003
 20
0.0000000000000007
 30
0.0
  0
SEQEND
  5
189
330
186
100
AcDbEntity
  8
Default
  0
POLYLINE
  5
18A
330
1F
100
AcDbEntity
  8
Default
100
AcDb2dPolyline
 66
     1
 10
0.0
 20
0.0
 30
0.0
  0
VERTEX
  5
18B
330
18A
100
AcDbEntity
  8
Default
100
AcDbVertex
100
AcDb2dVertex
 10
4.000000000000003
 20
0.0000000000000007
 30
0.0
  0
VERTEX
  5
18C
330
18A
100
AcDbEntity
  8
Default
100
AcDbVertex
100
AcDb2dVertex
 10
19.94592442293306
 20
9.20638375805783
 30
0.0
  0
SEQEND
  5
18D
330
18A
100
AcDbEntity
  8
Default
  0
POLYLINE
  5
18E
330
1F
100
AcDbEntity
  8
Default
100
AcDb2dPolyline
 66
     1
 10
0.0
 20
0.0
 30
0.0
  0
VERTEX
  5
18F
330
18E
100
AcDbEntity
  8
Default
100
AcDbVertex
100
AcDb2dVertex
 10
19.94592442293306
 20
9.20638375805783
 30
0.0
  0
VERTEX
  5
190
330
18E
100
AcDbEntity
  8
Default
100
AcDbVertex
100
AcDb2dVertex
 10
29.12907461239251
 20
3.904489524164651
 30
0.0
  0
SEQEND
  5
191
330
18E
100
AcDbEntity
  8
Default
  0
POLYLINE
  5
192
330
1F
100
AcDbEntity
  8
Default
100
AcDb2dPolyline
 66
     1
 10
0.0
 20
0.0
 30
0.0
  0
VERTEX
  5
193
330
192
100
AcDbEntity
  8
Default
100
AcDbVertex
100
AcDb2dVertex
 10
29.12907461239251
 20
3.904489524164651
 30
0.0
  0
VERTEX
  5
194
330
192
100
AcDbEntity
  8
Default
100
AcDbVertex
100
AcDb2dVertex
 10
33.12907461239252
 20
6.213890600923153
 30
0.0
  0
SEQEND
  5
195
330
192
100
AcDbEntity
  8
Default
  0
POLYLINE
  5
196
330
1F
100
AcDbEntity
  8
Default
100
AcDb2dPolyline
 66
     1
 10
0.0
 20
0.0
 30
0.0
  0
VERTEX
  5
197
330
196
100
AcDbEntity
  8
Default
100
AcDbVertex
100
AcDb2dVertex
 10
33.12907461239252
 20
6.213890600923153
 30
0.0
  0
VERTEX
  5
198
330
196
100
AcDbEntity
  8
Default
100
AcDbVertex
100
AcDb2dVertex
 10
23.94592442293306
 20
11.51578483481633
 30
0.0
  0
SEQEND
  5
199
330
196
100
AcDbEntity
  8
Default
  0
POLYLINE
  5
19A
330
1F
100
AcDbEntity
  8
Default
100
AcDb2dPolyline
 66
     1
 10
0.0
 20
0.0
 30
0.0
  0
VERTEX
  5
19B
330
19A
100
AcDbEntity
  8
Default
100
AcDbVertex
100
AcDb2dVertex
 10
23.94592442293306
 20
11.51578483481633
 30
0.0
  0
VERTEX
  5
19C
330
19A
100
AcDbEntity
  8
Default
100
AcDbVertex
100
AcDb2dVertex
 10
25.67908288841932
 20
12.5164243414131
 30
0.0
  0
VERTEX
  5
19D
330
19A
100
AcDbEntity
  8
Default
100
AcDbVertex
100
AcDb2dVertex
 10
28.39747053829674
 20
14.08588618283159
 30
0.0
  0
SEQEND
  5
19E
330
19A
100
AcDbEntity
  8
Default
  0
POLYLINE
  5
19F
330
1F
100
AcDbEntity
  8
Default
100
AcDb2dPolyline
 66
     1
 10
0.0
 20
0.0
 30
0.0
  0
VERTEX
  5
1A0
330
19F
100
AcDbEntity
  8
Default
100
AcDbVertex
100
AcDb2dVertex
 10
28.39747053829674
 20
14.08588618283159
 30
0.0
  0
VERTEX
  5
1A1
330
19F
100
AcDbEntity
  8
Default
100
AcDbVertex
100
AcDb2dVertex
 10
45.97408104417143
 20
4.195253197751006
 30
0.0
  0
SEQEND
  5
1A2
330
19F
100
AcDbEntity
  8
Default
  0
POLYLINE
  5
1A3
330
1F
100
AcDbEntity
  8
Default
100
AcDb2dPolyline
 66
     1
 10
0.0
 20
0.0
 30
0.0
  0
VERTEX
  5
1A4
330
1A3
100
AcDbEntity
  8
Default
100
AcDbVertex
100
AcDb2dVertex
 10
45.97408104417143
 20
4.195253197751006
 30
0.0
  0
VERTEX
  5
1A5
330
1A3
100
AcDbEntity
  8
Default
100
AcDbVertex
100
AcDb2dVertex
 10
50.0
 20
6.519618590634246
 30
0.0
  0
SEQEND
  5
1A6
330
1A3
100
AcDbEntity
  8
Default
  0
POLYLINE
  5
1A7
330
1F
100
AcDbEntity
  8
Default
100
AcDb2dPolyline
 66
     1
 10
0.0
 20
0.0
 30
0.0
  0
VERTEX
  5
1A8
330
1A7
100
AcDbEntity
  8
Default
100
AcDbVertex
100
AcDb2dVertex
 10
50.0
 20
6.519618590634246
 30
0.0
  0
VERTEX
  5
1A9
330
1A7
100
AcDbEntity
  8
Default
100
AcDbVertex
100
AcDb2dVertex
 10
32.4233894941253
 20
16.41025157571482
 30
0.0
  0
SEQEND
  5
1AA
330
1A7
100
AcDbEntity
  8
Default
  0
POLYLINE
  5
1AB
330
1F
100
AcDbEntity
  8
Default
100
AcDb2dPolyline
 66
     1
 10
0.0
 20
0.0
 30
0.0
  0
VERTEX
  5
1AC
330
1AB
100
AcDbEntity
  8
Default
100
AcDbVertex
100
AcDb2dVertex
 10
32.4233894941253
 20
16.41025157571482
 30
0.0
  0
VERTEX
  5
1AD
330
1AB
100
AcDbEntity
  8
Default
100
AcDbVertex
100
AcDb2dVertex
 10
37.35225533522183
 20
19.25593359587145
 30
0.0
  0
SEQEND
  5
1AE
330
1AB
100
AcDbEntity
  8
Default
  0
POLYLINE
  5
1AF
330
1F
100
AcDbEntity
  8
Default
100
AcDb2dPolyline
 66
     1
 10
0.0
 20
0.0
 30
0.0
  0
VERTEX
  5
1B0
330
1AF
100
AcDbEntity
  8
Default
100
AcDbVertex
100
AcDb2dVertex
 10
37.35225533522183
 20
19.25593359587145
 30
0.0
  0
VERTEX
  5
1B1
330
1AF
100
AcDbEntity
  8
Default
100
AcDbVertex
100
AcDb2dVertex
 10
45.97408104417144
 20
14.40429774036616
 30
0.0
  0
SEQEND
  5
1B2
330
1AF
100
AcDbEntity
  8
Default
  0
POLYLINE
  5
1B3
330
1F
100
AcDbEntity
  8
Default
100
AcDb2dPolyline
 66
     1
 10
0.0
 20
0.0
 30
0.0
  0
VERTEX
  5
1B4
330
1B3
100
AcDbEntity
  8
Default
100
AcDbVertex
100
AcDb2dVertex
 10
45.97408104417144
 20
14.40429774036616
 30
0.0
  0
VERTEX
  5
1B5
330
1B3
100
AcDbEntity
  8
Default
100
AcDbVertex
100
AcDb2dVertex
 10
50.00000000000001
 20
16.7286631332494
 30
0.0
  0
SEQEND
  5
1B6
330
1B3
100
AcDbEntity
  8
Default
  0
POLYLINE
  5
1B7
330
1F
100
AcDbEntity
  8
Default
100
AcDb2dPolyline
 66
     1
 10
0.0
 20
0.0
 30
0.0
  0
VERTEX
  5
1B8
330
1B7
100
AcDbEntity
  8
Default
100
AcDbVertex
100
AcDb2dVertex
 10
50.00000000000001
 20
16.7286631332494
 30
0.0
  0
VERTEX
  5
1B9
330
1B7
100
AcDbEntity
  8
Default
100
AcDbVertex
100
AcDb2dVertex
 10
41.37817429105039
 20
21.58029898875468
 30
0.0
  0
SEQEND
  5
1BA
330
1B7
100
AcDbEntity
  8
Default
  0
POLYLINE
  5
1BB
330
1F
100
AcDbEntity
  8
Default
100
AcDb2dPolyline
 66
     1
 10
0.0
 20
0.0
 30
0.0
  0
VERTEX
  5
1BC
330
1BB
100
AcDbEntity
  8
Default
100
AcDbVertex
100
AcDb2dVertex
 10
41.37817429105039
 20
21.58029898875468
 30
0.0
  0
VERTEX
  5
1BD
330
1BB
100
AcDbEntity
  8
Default
100
AcDbVertex
100
AcDb2dVertex
 10
51.00000000000001
 20
27.1354626519124
 30
0.0
  0
SEQEND
  5
1BE
330
1BB
100
AcDbEntity
  8
Default
  0
POLYLINE
  5
1BF
330
1F
100
AcDbEntity
  8
Default
100
AcDb2dPolyline
 66
     1
 10
0.0
 20
0.0
 30
0.0
  0
VERTEX
  5
1C0
330
1BF
100
AcDbEntity
  8
Default
100
AcDbVertex
100
AcDb2dVertex
 10
51.00000000000001
 20
27.1354626519124
 30
0.0
  0
VERTEX
  5
1C1
330
1BF
100
AcDbEntity
  8
Default
100
AcDbVertex
100
AcDb2dVertex
 10
50.00000000000001
 20
28.86751345948128
 30
0.0
  0
SEQEND
  5
1C2
330
1BF
100
AcDbEntity
  8
Default
  0
POLYLINE
  5
1C3
330
1F
100
AcDbEntity
  8
Default
100
AcDb2dPolyline
 66
     1
 10
0.0
 20
0.0
 30
0.0
  0
VERTEX
  5
1C4
330
1C3
100
AcDbEntity
  8
Default
100
AcDbVertex
100
AcDb2dVertex
 10
50.00000000000001
 20
28.86751345948128
 30
0.0
  0
VERTEX
  5
1C5
330
1C3
100
AcDbEntity
  8
Default
100
AcDbVertex
100
AcDb2dVertex
 10
49.00000000000001
 20
30.59956426705016
 30
0.0
  0
SEQEND
  5
1C6
330
1C3
100
AcDbEntity
  8
Default
  0
POLYLINE
  5
1C7
330
1F
100
AcDbEntity
  8
Default
100
AcDb2dPolyline
 66
     1
 10
0.0
 20
0.0
 30
0.0
  0
VERTEX
  5
1C8
330
1C7
100
AcDbEntity
  8
Default
100
AcDbVertex
100
AcDb2dVertex
 10
49.00000000000001
 20
30.59956426705016
 30
0.0
  0
VERTEX
  5
1C9
330
1C7
100
AcDbEntity
  8
Default
100
AcDbVertex
100
AcDb2dVertex
 10
39.37817429105039
 20
25.04440060389244
 30
0.0
  0
SEQEND
  5
1CA
330
1C7
100
AcDbEntity
  8
Default
  0
POLYLINE
  5
1CB
330
1F
100
AcDbEntity
  8
Default
100
AcDb2dPolyline
 66
     1
 10
0.0
 20
0.0
 30
0.0
  0
VERTEX
  5
1CC
330
1CB
100
AcDbEntity
  8
Default
100
AcDbVertex
100
AcDb2dVertex
 10
39.37817429105039
 20
25.04440060389244
 30
0.0
  0
VERTEX
  5
1CD
330
1CB
100
AcDbEntity
  8
Default
100
AcDbVertex
100
AcDb2dVertex
 10
39.48744724474619
 20
34.93693862259722
 30
0.0
  0
SEQEND
  5
1CE
330
1CB
100
AcDbEntity
  8
Default
  0
POLYLINE
  5
1CF
330
1F
100
AcDbEntity
  8
Default
100
AcDb2dPolyline
 66
     1
 10
0.0
 20
0.0
 30
0.0
  0
VERTEX
  5
1D0
330
1CF
100
AcDbEntity
  8
Default
100
AcDbVertex
100
AcDb2dVertex
 10
39.48744724474619
 20
34.93693862259722
 30
0.0
  0
VERTEX
  5
1D1
330
1CF
100
AcDbEntity
  8
Default
100
AcDbVertex
100
AcDb2dVertex
 10
35.46152828891761
 20
32.61257322971399
 30
0.0
  0
SEQEND
  5
1D2
330
1CF
100
AcDbEntity
  8
Default
  0
POLYLINE
  5
1D3
330
1F
100
AcDbEntity
  8
Default
100
AcDb2dPolyline
 66
     1
 10
0.0
 20
0.0
 30
0.0
  0
VERTEX
  5
1D4
330
1D3
100
AcDbEntity
  8
Default
100
AcDbVertex
100
AcDb2dVertex
 10
35.46152828891761
 20
32.61257322971399
 30
0.0
  0
VERTEX
  5
1D5
330
1D3
100
AcDbEntity
  8
Default
100
AcDbVertex
100
AcDb2dVertex
 10
35.35225533522183
 20
22.7200352110092
 30
0.0
  0
SEQEND
  5
1D6
330
1D3
100
AcDbEntity
  8
Default
  0
POLYLINE
  5
1D7
330
1F
100
AcDbEntity
  8
Default
100
AcDb2dPolyline
 66
     1
 10
0.0
 20
0.0
 30
0.0
  0
VERTEX
  5
1D8
330
1D7
100
AcDbEntity
  8
Default
100
AcDbVertex
100
AcDb2dVertex
 10
35.35225533522183
 20
22.7200352110092
 30
0.0
  0
VERTEX
  5
1D9
330
1D7
100
AcDbEntity
  8
Default
100
AcDbVertex
100
AcDb2dVertex
 10
30.42338949412531
 20
19.87435319085258
 30
0.0
  0
SEQEND
  5
1DA
330
1D7
100
AcDbEntity
  8
Default
  0
POLYLINE
  5
1DB
330
1F
100
AcDbEntity
  8
Default
100
AcDb2dPolyline
 66
     1
 10
0.0
 20
0.0
 30
0.0
  0
VERTEX
  5
1DC
330
1DB
100
AcDbEntity
  8
Default
100
AcDbVertex
100
AcDb2dVertex
 10
30.42338949412531
 20
19.87435319085258
 30
0.0
  0
VERTEX
  5
1DD
330
1DB
100
AcDbEntity
  8
Default
100
AcDbVertex
100
AcDb2dVertex
 10
30.64615532247458
 20
40.04146089390481
 30
0.0
  0
SEQEND
  5
1DE
330
1DB
100
AcDbEntity
  8
Default
  0
POLYLINE
  5
1DF
330
1F
100
AcDbEntity
  8
Default
100
AcDb2dPolyline
 66
     1
 10
0.0
 20
0.0
 30
0.0
  0
VERTEX
  5
1E0
330
1DF
100
AcDbEntity
  8
Default
100
AcDbVertex
100
AcDb2dVertex
 10
30.64615532247458
 20
40.04146089390481
 30
0.0
  0
VERTEX
  5
1E1
330
1DF
100
AcDbEntity
  8
Default
100
AcDbVertex
100
AcDb2dVertex
 10
26.620236366646
 20
37.71709550102156
 30
0.0
  0
SEQEND
  5
1E2
330
1DF
100
AcDbEntity
  8
Default
  0
POLYLINE
  5
1E3
330
1F
100
AcDbEntity
  8
Default
100
AcDb2dPolyline
 66
     1
 10
0.0
 20
0.0
 30
0.0
  0
VERTEX
  5
1E4
330
1E3
100
AcDbEntity
  8
Default
100
AcDbVertex
100
AcDb2dVertex
 10
26.620236366646
 20
37.71709550102156
 30
0.0
  0
VERTEX
  5
1E5
330
1E3
100
AcDbEntity
  8
Default
100
AcDbVertex
100
AcDb2dVertex
 10
26.39747053829675
 20
17.54998779796934
 30
0.0
  0
SEQEND
  5
1E6
330
1E3
100
AcDbEntity
  8
Default
  0
POLYLINE
  5
1E7
330
1F
100
AcDbEntity
  8
Default
100
AcDb2dPolyline
 66
     1
 10
0.0
 20
0.0
 30
0.0
  0
VERTEX
  5
1E8
330
1E7
100
AcDbEntity
  8
Default
100
AcDbVertex
100
AcDb2dVertex
 10
26.39747053829675
 20
17.54998779796934
 30
0.0
  0
VERTEX
  5
1E9
330
1E7
100
AcDbEntity
  8
Default
100
AcDbVertex
100
AcDb2dVertex
 10
23.67908288841932
 20
15.98052595655085
 30
0.0
  0
VERTEX
  5
1EA
330
1E7
100
AcDbEntity
  8
Default
100
AcDbVertex
100
AcDb2dVertex
 10
21.94592442293306
 20
14.97988644995409
 30
0.0
  0
SEQEND
  5
1EB
330
1E7
100
AcDbEntity
  8
Default
  0
POLYLINE
  5
1EC
330
1F
100
AcDbEntity
  8
Default
100
AcDb2dPolyline
 66
     1
 10
0.0
 20
0.0
 30
0.0
  0
VERTEX
  5
1ED
330
1EC
100
AcDbEntity
  8
Default
100
AcDbVertex
100
AcDb2dVertex
 10
21.94592442293306
 20
14.97988644995409
 30
0.0
  0
VERTEX
  5
1EE
330
1EC
100
AcDbEntity
  8
Default
100
AcDbVertex
100
AcDb2dVertex
 10
21.94592442293307
 20
25.58367491774045
 30
0.0
  0
SEQEND
  5
1EF
330
1EC
100
AcDbEntity
  8
Default
  0
POLYLINE
  5
1F0
330
1F
100
AcDbEntity
  8
Default
100
AcDb2dPolyline
 66
     1
 10
0.0
 20
0.0
 30
0.0
  0
VERTEX
  5
1F1
330
1F0
100
AcDbEntity
  8
Default
100
AcDbVertex
100
AcDb2dVertex
 10
21.94592442293307
 20
25.58367491774045
 30
0.0
  0
VERTEX
  5
1F2
330
1F0
100
AcDbEntity
  8
Default
100
AcDbVertex
100
AcDb2dVertex
 10
17.94592442293307
 20
23.27427384098194
 30
0.0
  0
SEQEND
  5
1F3
330
1F0
100
AcDbEntity
  8
Default
  0
POLYLINE
  5
1F4
330
1F
100
AcDbEntity
  8
Default
100
AcDb2dPolyline
 66
     1
 10
0.0
 20
0.0
 30
0.0
  0
VERTEX
  5
1F5
330
1F4
100
AcDbEntity
  8
Default
100
AcDbVertex
100
AcDb2dVertex
 10
17.94592442293307
 20
23.27427384098194
 30
0.0
  0
VERTEX
  5
1F6
330
1F4
100
AcDbEntity
  8
Default
100
AcDbVertex
100
AcDb2dVertex
 10
17.94592442293306
 20
12.67048537319558
 30
0.0
  0
SEQEND
  5
1F7
330
1F4
100
AcDbEntity
  8
Default
  0
POLYLINE
  5
1F8
330
1F
100
AcDbEntity
  8
Default
100
AcDb2dPolyline
 66
     1
 10
0.0
 20
0.0
 30
0.0
  0
VERTEX
  5
1F9
330
1F8
100
AcDbEntity
  8
Default
100
AcDbVertex
100
AcDb2dVertex
 10
17.94592442293306
 20
12.67048537319558
 30
0.0
  0
VERTEX
  5
1FA
330
1F8
100
AcDbEntity
  8
Default
100
AcDbVertex
100
AcDb2dVertex
 10
2.000000000000005
 20
3.464101615137764
 30
0.0
  0
SEQEND
  5
1FB
330
1F8
100
AcDbEntity
  8
Default
  0
POLYLINE
  5
1FC
330
1F
100
AcDbEntity
  8
Default
100
AcDb2dPolyline
 66
     1
 10
0.0
 20
0.0
 30
0.0
  0
VERTEX
  5
1FD
330
1FC
100
AcDbEntity
  8
Default
100
AcDbVertex
100
AcDb2dVertex
 10
2.000000000000005
 20
3.464101615137764
 30
0.0
  0
VERTEX
  5
1FE
330
1FC
100
AcDbEntity
  8
Default
100
AcDbVertex
100
AcDb2dVertex
 10
1.999999999999999
 20
21.87686913125342
 30
0.0
  0
SEQEND
  5
1FF
330
1FC
100
AcDbEntity
  8
Default
  0
POLYLINE
  5
200
330
1F
100
AcDbEntity
  8
Default
100
AcDb2dPolyline
 66
     1
 10
0.0
 20
0.0
 30
0.0
  0
VERTEX
  5
201
330
200
100
AcDbEntity
  8
Default
100
AcDbVertex
100
AcDb2dVertex
 10
1.999999999999999
 20
21.87686913125342
 30
0.0
  0
VERTEX
  5
202
330
200
100
AcDbEntity
  8
Default
100
AcDbVertex
100
AcDb2dVertex
 10
11.18315018945945
 20
27.1787633651466
 30
0.0
  0
SEQEND
  5
203
330
200
100
AcDbEntity
  8
Default
  0
POLYLINE
  5
204
330
1F
100
AcDbEntity
  8
Default
100
AcDb2dPolyline
 66
     1
 10
0.0
 20
0.0
 30
0.0
  0
VERTEX
  5
205
330
204
100
AcDbEntity
  8
Default
100
AcDbVertex
100
AcDb2dVertex
 10
11.18315018945945
 20
27.1787633651466
 30
0.0
  0
VERTEX
  5
206
330
204
100
AcDbEntity
  8
Default
100
AcDbVertex
100
AcDb2dVertex
 10
11.18315018945946
 20
31.79756551866361
 30
0.0
  0
SEQEND
  5
207
330
204
100
AcDbEntity
  8
Default
  0
POLYLINE
  5
208
330
1F
100
AcDbEntity
  8
Default
100
AcDb2dPolyline
 66
     1
 10
0.0
 20
0.0
 30
0.0
  0
VERTEX
  5
209
330
208
100
AcDbEntity
  8
Default
100
AcDbVertex
100
AcDb2dVertex
 10
11.18315018945946
 20
31.79756551866361
 30
0.0
  0
VERTEX
  5
20A
330
208
100
AcDbEntity
  8
Default
100
AcDbVertex
100
AcDb2dVertex
 10
2.0
 20
26.49567128477043
 30
0.0
  0
SEQEND
  5
20B
330
208
100
AcDbEntity
  8
Default
  0
POLYLINE
  5
20C
330
1F
100
AcDbEntity
  8
Default
100
AcDb2dPolyline
 66
     1
 10
0.0
 20
0.0
 30
0.0
  0
VERTEX
  5
20D
330
20C
100
AcDbEntity
  8
Default
100
AcDbVertex
100
AcDb2dVertex
 10
2.0
 20
26.49567128477043
 30
0.0
  0
VERTEX
  5
20E
330
20C
100
AcDbEntity
  8
Default
100
AcDbVertex
100
AcDb2dVertex
 10
2.0
 20
28.49695029796397
 30
0.0
  0
VERTEX
  5
20F
330
20C
100
AcDbEntity
  8
Default
100
AcDbVertex
100
AcDb2dVertex
 10
1.999999999999993
 20
31.63587398080094
 30
0.0
  0
SEQEND
  5
210
330
20C
100
AcDbEntity
  8
Default
  0
POLYLINE
  5
211
330
1F
100
AcDbEntity
  8
Default
100
AcDb2dPolyline
 66
     1
 10
0.0
 20
0.0
 30
0.0
  0
VERTEX
  5
212
330
211
100
AcDbEntity
  8
Default
100
AcDbVertex
100
AcDb2dVertex
 10
1.999999999999993
 20
31.63587398080094
 30
0.0
  0
VERTEX
  5
213
330
211
100
AcDbEntity
  8
Default
100
AcDbVertex
100
AcDb2dVertex
 10
19.35384467752544
 20
41.91234869877258
 30
0.0
  0
SEQEND
  5
214
330
211
100
AcDbEntity
  8
Default
  0
POLYLINE
  5
215
330
1F
100
AcDbEntity
  8
Default
100
AcDb2dPolyline
 66
     1
 10
0.0
 20
0.0
 30
0.0
  0
VERTEX
  5
216
330
215
100
AcDbEntity
  8
Default
100
AcDbVertex
100
AcDb2dVertex
 10
19.35384467752544
 20
41.91234869877258
 30
0.0
  0
VERTEX
  5
217
330
215
100
AcDbEntity
  8
Default
100
AcDbVertex
100
AcDb2dVertex
 10
19.35384467752544
 20
46.56107948453907
 30
0.0
  0
SEQEND
  5
218
330
215
100
AcDbEntity
  8
Default
  0
POLYLINE
  5
219
330
1F
100
AcDbEntity
  8
Default
100
AcDb2dPolyline
 66
     1
 10
0.0
 20
0.0
 30
0.0
  0
VERTEX
  5
21A
330
219
100
AcDbEntity
  8
Default
100
AcDbVertex
100
AcDb2dVertex
 10
19.35384467752544
 20
46.56107948453907
 30
0.0
  0
VERTEX
  5
21B
330
219
100
AcDbEntity
  8
Default
100
AcDbVertex
100
AcDb2dVertex
 10
2.000000000000002
 20
36.28460476656741
 30
0.0
  0
SEQEND
  5
21C
330
219
100
AcDbEntity
  8
Default
  0
POLYLINE
  5
21D
330
1F
100
AcDbEntity
  8
Default
100
AcDb2dPolyline
 66
     1
 10
0.0
 20
0.0
 30
0.0
  0
VERTEX
  5
21E
330
21D
100
AcDbEntity
  8
Default
100
AcDbVertex
100
AcDb2dVertex
 10
2.000000000000002
 20
36.28460476656741
 30
0.0
  0
VERTEX
  5
21F
330
21D
100
AcDbEntity
  8
Default
100
AcDbVertex
100
AcDb2dVertex
 10
2.000000000000002
 20
41.97596880688067
 30
0.0
  0
SEQEND
  5
220
330
21D
100
AcDbEntity
  8
Default
  0
POLYLINE
  5
221
330
1F
100
AcDbEntity
  8
Default
100
AcDb2dPolyline
 66
     1
 10
0.0
 20
0.0
 30
0.0
  0
VERTEX
  5
222
330
221
100
AcDbEntity
  8
Default
100
AcDbVertex
100
AcDb2dVertex
 10
2.000000000000002
 20
41.97596880688067
 30
0.0
  0
VERTEX
  5
223
330
221
100
AcDbEntity
  8
Default
100
AcDbVertex
100
AcDb2dVertex
 10
10.51255275525383
 20
47.01687097008017
 30
0.0
  0
SEQEND
  5
224
330
221
100
AcDbEntity
  8
Default
  0
POLYLINE
  5
225
330
1F
100
AcDbEntity
  8
Default
100
AcDb2dPolyline
 66
     1
 10
0.0
 20
0.0
 30
0.0
  0
VERTEX
  5
226
330
225
100
AcDbEntity
  8
Default
100
AcDbVertex
100
AcDb2dVertex
 10
10.51255275525383
 20
47.01687097008017
 30
0.0
  0
VERTEX
  5
227
330
225
100
AcDbEntity
  8
Default
100
AcDbVertex
100
AcDb2dVertex
 10
10.51255275525383
 20
51.66560175584665
 30
0.0
  0
SEQEND
  5
228
330
225
100
AcDbEntity
  8
Default
  0
POLYLINE
  5
229
330
1F
100
AcDbEntity
  8
Default
100
AcDb2dPolyline
 66
     1
 10
0.0
 20
0.0
 30
0.0
  0
VERTEX
  5
22A
330
229
100
AcDbEntity
  8
Default
100
AcDbVertex
100
AcDb2dVertex
 10
10.51255275525383
 20
51.66560175584665
 30
0.0
  0
VERTEX
  5
22B
330
229
100
AcDbEntity
  8
Default
100
AcDbVertex
100
AcDb2dVertex
 10
2.000000000000002
 20
46.62469959264715
 30
0.0
  0
SEQEND
  5
22C
330
229
100
AcDbEntity
  8
Default
  0
POLYLINE
  5
22D
330
1F
100
AcDbEntity
  8
Default
100
AcDb2dPolyline
 66
     1
 10
0.0
 20
0.0
 30
0.0
  0
VERTEX
  5
22E
330
22D
100
AcDbEntity
  8
Default
100
AcDbVertex
100
AcDb2dVertex
 10
2.000000000000002
 20
46.62469959264715
 30
0.0
  0
VERTEX
  5
22F
330
22D
100
AcDbEntity
  8
Default
100
AcDbVertex
100
AcDb2dVertex
 10
2.000000000000004
 20
57.73502691896259
 30
0.0
  0
SEQEND
  5
230
330
22D
100
AcDbEntity
  8
Default
  0
POLYLINE
  5
231
330
1F
100
AcDbEntity
  8
Default
100
AcDb2dPolyline
 66
     1
 10
0.0
 20
0.0
 30
0.0
  0
VERTEX
  5
232
330
231
100
AcDbEntity
  8
Default
100
AcDbVertex
100
AcDb2dVertex
 10
2.000000000000004
 20
57.73502691896259
 30
0.0
  0
VERTEX
  5
233
330
231
100
AcDbEntity
  8
Default
100
AcDbVertex
100
AcDb2dVertex
 10
0.0000000000000035
 20
57.73502691896259
 30
0.0
  0
SEQEND
  5
234
330
231
100
AcDbEntity
  8
Default
  0
POLYLINE
  5
235
330
1F
100
AcDbEntity
  8
Default
100
AcDb2dPolyline
 66
     1
 10
0.0
 20
0.0
 30
0.0
  0
VERTEX
  5
236
330
235
100
AcDbEntity
  8
Default
100
AcDbVertex
100
AcDb2dVertex
 10
0.0000000000000035
 20
57.73502691896259
 30
0.0
  0
VERTEX
  5
237
330
235
100
AcDbEntity
  8
Default
100
AcDbVertex
100
AcDb2dVertex
 10
-1.999999999999996
 20
57.73502691896259
 30
0.0
  0
SEQEND
  5
238
330
235
100
AcDbEntity
  8
Default
  0
POLYLINE
  5
239
330
1F
100
AcDbEntity
  8
Default
100
AcDb2dPolyline
 66
     1
 10
0.0
 20
0.0
 30
0.0
  0
VERTEX
  5
23A
330
239
100
AcDbEntity
  8
Default
100
AcDbVertex
100
AcDb2dVertex
 10
-1.999999999999996
 20
57.73502691896259
 30
0.0
  0
VERTEX
  5
23B
330
239
100
AcDbEntity
  8
Default
100
AcDbVertex
100
AcDb2dVertex
 10
-1.999999999999998
 20
46.62469959264715
 30
0.0
  0
SEQEND
  5
23C
330
239
100
AcDbEntity
  8
Default
  0
POLYLINE
  5
23D
330
1F
100
AcDbEntity
  8
Default
100
AcDb2dPolyline
 66
     1
 10
0.0
 20
0.0
 30
0.0
  0
VERTEX
  5
23E
330
23D
100
AcDbEntity
  8
Default
100
AcDbVertex
100
AcDb2dVertex
 10
-1.999999999999998
 20
46.62469959264715
 30
0.0
  0
VERTEX
  5
23F
330
23D
100
AcDbEntity
  8
Default
100
AcDbVertex
100
AcDb2dVertex
 10
-10.51255275525383
 20
51.66560175584665
 30
0.0
  0
SEQEND
  5
240
330
23D
100
AcDbEntity
  8
Default
  0
POLYLINE
  5
241
330
1F
100
AcDbEntity
  8
Default
100
AcDb2dPolyline
 66
     1
 10
0.0
 20
0.0
 30
0.0
  0
VERTEX
  5
242
330
241
100
AcDbEntity
  8
Default
100
AcDbVertex
100
AcDb2dVertex
 10
-10.51255275525383
 20
51.66560175584665
 30
0.0
  0
VERTEX
  5
243
330
241
100
AcDbEntity
  8
Default
100
AcDbVertex
100
AcDb2dVertex
 10
-10.51255275525383
 20
47.01687097008017
 30
0.0
  0
SEQEND
  5
244
330
241
100
AcDbEntity
  8
Default
  0
POLYLINE
  5
245
330
1F
100
AcDbEntity
  8
Default
100
AcDb2dPolyline
 66
     1
 10
0.0
 20
0.0
 30
0.0
  0
VERTEX
  5
246
330
245
100
AcDbEntity
  8
Default
100
AcDbVertex
100
AcDb2dVertex
 10
-10.51255275525383
 20
47.01687097008017
 30
0.0
  0
VERTEX
  5
247
330
245
100
AcDbEntity
  8
Default
100
AcDbVertex
100
AcDb2dVertex
 10
-1.999999999999999
 20
41.97596880688067
 30
0.0
  0
SEQEND
  5
248
330
245
100
AcDbEntity
  8
Default
  0
POLYLINE
  5
249
330
1F
100
AcDbEntity
  8
Default
100
AcDb2dPolyline
 66
     1
 10
0.0
 20
0.0
 30
0.0
  0
VERTEX
  5
24A
330
249
100
AcDbEntity
  8
Default
100
AcDbVertex
100
AcDb2dVertex
 10
-1.999999999999999
 20
41.97596880688067
 30
0.0
  0
VERTEX
  5
24B
330
249
100
AcDbEntity
  8
Default
100
AcDbVertex
100
AcDb2dVertex
 10
-2.0
 20
36.28460476656741
 30
0.0
  0
SEQEND
  5
24C
330
249
100
AcDbEntity
  8
Default
  0
POLYLINE
  5
24D
330
1F
100
AcDbEntity
  8
Default
100
AcDb2dPolyline
 66
     1
 10
0.0
 20
0.0
 30
0.0
  0
VERTEX
  5
24E
330
24D
100
AcDbEntity
  8
Default
100
AcDbVertex
100
AcDb2dVertex
 10
-2.0
 20
36.28460476656741
 30
0.0
  0
VERTEX
  5
24F
330
24D
100
AcDbEntity
  8
Default
100
AcDbVertex
100
AcDb2dVertex
 10
-19.35384467752544
 20
46.56107948453908
 30
0.0
  0
SEQEND
  5
250
330
24D
100
AcDbEntity
  8
Default
  0
POLYLINE
  5
251
330
1F
100
AcDbEntity
  8
Default
100
AcDb2dPolyline
 66
     1
 10
0.0
 20
0.0
 30
0.0
  0
VERTEX
  5
252
330
251
100
AcDbEntity
  8
Default
100
AcDbVertex
100
AcDb2dVertex
 10
-19.35384467752544
 20
46.56107948453908
 30
0.0
  0
VERTEX
  5
253
330
251
100
AcDbEntity
  8
Default
100
AcDbVertex
100
AcDb2dVertex
 10
-19.35384467752543
 20
41.91234869877259
 30
0.0
  0
SEQEND
  5
254
330
251
100
AcDbEntity
  8
Default
  0
POLYLINE
  5
255
330
1F
100
AcDbEntity
  8
Default
100
AcDb2dPolyline
 66
     1
 10
0.0
 20
0.0
 30
0.0
  0
VERTEX
  5
256
330
255
100
AcDbEntity
  8
Default
100
AcDbVertex
100
AcDb2dVertex
 10
-19.35384467752543
 20
41.91234869877259
 30
0.0
  0
VERTEX
  5
257
330
255
100
AcDbEntity
  8
Default
100
AcDbVertex
100
AcDb2dVertex
 10
-1.999999999999992
 20
31.63587398080094
 30
0.0
  0
SEQEND
  5
258
330
255
100
AcDbEntity
  8
Default
  0
POLYLINE
  5
259
330
1F
100
AcDbEntity
  8
Default
100
AcDb2dPolyline
 66
     1
 10
0.0
 20
0.0
 30
0.0
  0
VERTEX
  5
25A
330
259
100
AcDbEntity
  8
Default
100
AcDbVertex
100
AcDb2dVertex
 10
-1.999999999999992
 20
31.63587398080094
 30
0.0
  0
VERTEX
  5
25B
330
259
100
AcDbEntity
  8
Default
100
AcDbVertex
100
AcDb2dVertex
 10
-2.0
 20
28.49695029796397
 30
0.0
  0
VERTEX
  5
25C
330
259
100
AcDbEntity
  8
Default
100
AcDbVertex
100
AcDb2dVertex
 10
-2.0
 20
26.49567128477043
 30
0.0
  0
SEQEND
  5
25D
330
259
100
AcDbEntity
  8
Default
  0
POLYLINE
  5
25E
330
1F
100
AcDbEntity
  8
Default
100
AcDb2dPolyline
 66
     1
 10
0.0
 20
0.0
 30
0.0
  0
VERTEX
  5
25F
330
25E
100
AcDbEntity
  8
Default
100
AcDbVertex
100
AcDb2dVertex
 10
-2.0
 20
26.49567128477043
 30
0.0
  0
VERTEX
  5
260
330
25E
100
AcDbEntity
  8
Default
100
AcDbVertex
100
AcDb2dVertex
 10
-11.18315018945946
 20
31.79756551866362
 30
0.0
  0
SEQEND
  5
261
330
25E
100
AcDbEntity
  8
Default
  0
POLYLINE
  5
262
330
1F
100
AcDbEntity
  8
Default
100
AcDb2dPolyline
 66
     1
 10
0.0
 20
0.0
 30
0.0
  0
VERTEX
  5
263
330
262
100
AcDbEntity
  8
Default
100
AcDbVertex
100
AcDb2dVertex
 10
-11.18315018945946
 20
31.79756551866362
 30
0.0
  0
VERTEX
  5
264
330
262
100
AcDbEntity
  8
Default
100
AcDbVertex
100
AcDb2dVertex
 10
-11.18315018945945
 20
27.17876336514661
 30
0.0
  0
SEQEND
  5
265
330
262
100
AcDbEntity
  8
Default
  0
POLYLINE
  5
266
330
1F
100
AcDbEntity
  8
Default
100
AcDb2dPolyline
 66
     1
 10
0.0
 20
0.0
 30
0.0
  0
VERTEX
  5
267
330
266
100
AcDbEntity
  8
Default
100
AcDbVertex
100
AcDb2dVertex
 10
-11.18315018945945
 20
27.17876336514661
 30
0.0
  0
VERTEX
  5
268
330
266
100
AcDbEntity
  8
Default
100
AcDbVertex
100
AcDb2dVertex
 10
-2.000000000000001
 20
21.87686913125342
 30
0.0
  0
SEQEND
  5
269
330
266
100
AcDbEntity
  8
Default
  0
POLYLINE
  5
26A
330
1F
100
AcDbEntity
  8
Default
100
AcDb2dPolyline
 66
     1
 10
0.0
 20
0.0
 30
0.0
  0
VERTEX
  5
26B
330
26A
100
AcDbEntity
  8
Default
100
AcDbVertex
100
AcDb2dVertex
 10
-2.000000000000001
 20
21.87686913125342
 30
0.0
  0
VERTEX
  5
26C
330
26A
100
AcDbEntity
  8
Default
100
AcDbVertex
100
AcDb2dVertex
 10
-2.000000000000004
 20
3.464101615137772
 30
0.0
  0
SEQEND
  5
26D
330
26A
100
AcDbEntity
  8
Default
  0
POLYLINE
  5
26E
330
1F
100
AcDbEntity
  8
Default
100
AcDb2dPolyline
 66
     1
 10
0.0
 20
0.0
 30
0.0
  0
VERTEX
  5
26F
330
26E
100
AcDbEntity
  8
Default
100
AcDbVertex
100
AcDb2dVertex
 10
-2.000000000000004
 20
3.464101615137772
 30
0.0
  0
VERTEX
  5
270
330
26E
100
AcDbEntity
  8
Default
100
AcDbVertex
100
AcDb2dVertex
 10
-17.94592442293305
 20
12.6704853731956
 30
0.0
  0
SEQEND
  5
271
330
26E
100
AcDbEntity
  8
Default
  0
POLYLINE
  5
272
330
1F
100
AcDbEntity
  8
Default
100
AcDb2dPolyline
 66
     1
 10
0.0
 20
0.0
 30
0.0
  0
VERTEX
  5
273
330
272
100
AcDbEntity
  8
Default
100
AcDbVertex
100
AcDb2dVertex
 10
-17.94592442293305
 20
12.6704853731956
 30
0.0
  0
VERTEX
  5
274
330
272
100
AcDbEntity
  8
Default
100
AcDbVertex
100
AcDb2dVertex
 10
-17.94592442293305
 20
23.27427384098196
 30
0.0
  0
SEQEND
  5
275
330
272
100
AcDbEntity
  8
Default
  0
POLYLINE
  5
276
330
1F
100
AcDbEntity
  8
Default
100
AcDb2dPolyline
 66
     1
 10
0.0
 20
0.0
 30
0.0
  0
VERTEX
  5
277
330
276
100
AcDbEntity
  8
Default
100
AcDbVertex
100
AcDb2dVertex
 10
-17.94592442293305
 20
23.27427384098196
 30
0.0
  0
VERTEX
  5
278
330
276
100
AcDbEntity
  8
Default
100
AcDbVertex
100
AcDb2dVertex
 10
-21.94592442293305
 20
25.58367491774047
 30
0.0
  0
SEQEND
  5
279
330
276
100
AcDbEntity
  8
Default
  0
POLYLINE
  5
27A
330
1F
100
AcDbEntity
  8
Default
100
AcDb2dPolyline
 66
     1
 10
0.0
 20
0.0
 30
0.0
  0
VERTEX
  5
27B
330
27A
100
AcDbEntity
  8
Default
100
AcDbVertex
100
AcDb2dVertex
 10
-21.94592442293305
 20
25.58367491774047
 30
0.0
  0
VERTEX
  5
27C
330
27A
100
AcDbEntity
  8
Default
100
AcDbVertex
100
AcDb2dVertex
 10
-21.94592442293306
 20
14.97988644995411
 30
0.0
  0
SEQEND
  5
27D
330
27A
100
AcDbEntity
  8
Default
  0
POLYLINE
  5
27E
330
1F
100
AcDbEntity
  8
Default
100
AcDb2dPolyline
 66
     1
 10
0.0
 20
0.0
 30
0.0
  0
VERTEX
  5
27F
330
27E
100
AcDbEntity
  8
Default
100
AcDbVertex
100
AcDb2dVertex
 10
-21.94592442293306
 20
14.97988644995411
 30
0.0
  0
VERTEX
  5
280
330
27E
100
AcDbEntity
  8
Default
100
AcDbVertex
100
AcDb2dVertex
 10
-23.67908288841931
 20
15.98052595655088
 30
0.0
  0
VERTEX
  5
281
330
27E
100
AcDbEntity
  8
Default
100
AcDbVertex
100
AcDb2dVertex
 10
-26.39747053829674
 20
17.54998779796937
 30
0.0
  0
SEQEND
  5
282
330
27E
100
AcDbEntity
  8
Default
  0
POLYLINE
  5
283
330
1F
100
AcDbEntity
  8
Default
100
AcDb2dPolyline
 66
     1
 10
0.0
 20
0.0
 30
0.0
  0
VERTEX
  5
284
330
283
100
AcDbEntity
  8
Default
100
AcDbVertex
100
AcDb2dVertex
 10
-26.39747053829674
 20
17.54998779796937
 30
0.0
  0
VERTEX
  5
285
330
283
100
AcDbEntity
  8
Default
100
AcDbVertex
100
AcDb2dVertex
 10
-26.62023636664598
 20
37.71709550102159
 30
0.0
  0
SEQEND
  5
286
330
283
100
AcDbEntity
  8
Default
  0
POLYLINE
  5
287
330
1F
100
AcDbEntity
  8
Default
100
AcDb2dPolyline
 66
     1
 10
0.0
 20
0.0
 30
0.0
  0
VERTEX
  5
288
330
287
100
AcDbEntity
  8
Default
100
AcDbVertex
100
AcDb2dVertex
 10
-26.62023636664598
 20
37.71709550102159
 30
0.0
  0
VERTEX
  5
289
330
287
100
AcDbEntity
  8
Default
100
AcDbVertex
100
AcDb2dVertex
 10
-30.64615532247455
 20
40.04146089390483
 30
0.0
  0
SEQEND
  5
28A
330
287
100
AcDbEntity
  8
Default
  0
POLYLINE
  5
28B
330
1F
100
AcDbEntity
  8
Default
100
AcDb2dPolyline
 66
     1
 10
0.0
 20
0.0
 30
0.0
  0
VERTEX
  5
28C
330
28B
100
AcDbEntity
  8
Default
100
AcDbVertex
100
AcDb2dVertex
 10
-30.64615532247455
 20
40.04146089390483
 30
0.0
  0
VERTEX
  5
28D
330
28B
100
AcDbEntity
  8
Default
100
AcDbVertex
100
AcDb2dVertex
 10
-30.4233894941253
 20
19.87435319085261
 30
0.0
  0
SEQEND
  5
28E
330
28B
100
AcDbEntity
  8
Default
  0
POLYLINE
  5
28F
330
1F
100
AcDbEntity
  8
Default
100
AcDb2dPolyline
 66
     1
 10
0.0
 20
0.0
 30
0.0
  0
VERTEX
  5
290
330
28F
100
AcDbEntity
  8
Default
100
AcDbVertex
100
AcDb2dVertex
 10
-30.4233894941253
 20
19.87435319085261
 30
0.0
  0
VERTEX
  5
291
330
28F
100
AcDbEntity
  8
Default
100
AcDbVertex
100
AcDb2dVertex
 10
-35.35225533522182
 20
22.72003521100924
 30
0.0
  0
SEQEND
  5
292
330
28F
100
AcDbEntity
  8
Default
  0
POLYLINE
  5
293
330
1F
100
AcDbEntity
  8
Default
100
AcDb2dPolyline
 66
     1
 10
0.0
 20
0.0
 30
0.0
  0
VERTEX
  5
294
330
293
100
AcDbEntity
  8
Default
100
AcDbVertex
100
AcDb2dVertex
 10
-35.35225533522182
 20
22.72003521100924
 30
0.0
  0
VERTEX
  5
295
330
293
100
AcDbEntity
  8
Default
100
AcDbVertex
100
AcDb2dVertex
 10
-35.46152828891759
 20
32.61257322971402
 30
0.0
  0
SEQEND
  5
296
330
293
100
AcDbEntity
  8
Default
  0
POLYLINE
  5
297
330
1F
100
AcDbEntity
  8
Default
100
AcDb2dPolyline
 66
     1
 10
0.0
 20
0.0
 30
0.0
  0
VERTEX
  5
298
330
297
100
AcDbEntity
  8
Default
100
AcDbVertex
100
AcDb2dVertex
 10
-35.46152828891759
 20
32.61257322971402
 30
0.0
  0
VERTEX
  5
299
330
297
100
AcDbEntity
  8
Default
100
AcDbVertex
100
AcDb2dVertex
 10
-39.48744724474616
 20
34.93693862259727
 30
0.0
  0
SEQEND
  5
29A
330
297
100
AcDbEntity
  8
Default
  0
POLYLINE
  5
29B
330
1F
100
AcDbEntity
  8
Default
100
AcDb2dPolyline
 66
     1
 10
0.0
 20
0.0
 30
0.0
  0
VERTEX
  5
29C
330
29B
100
AcDbEntity
  8
Default
100
AcDbVertex
100
AcDb2dVertex
 10
-39.48744724474616
 20
34.93693862259727
 30
0.0
  0
VERTEX
  5
29D
330
29B
100
AcDbEntity
  8
Default
100
AcDbVertex
100
AcDb2dVertex
 10
-39.37817429105038
 20
25.04440060389248
 30
0.0
  0
SEQEND
  5
29E
330
29B
100
AcDbEntity
  8
Default
  0
POLYLINE
  5
29F
330
1F
100
AcDbEntity
  8
Default
100
AcDb2dPolyline
 66
     1
 10
0.0
 20
0.0
 30
0.0
  0
VERTEX
  5
2A0
330
29F
100
AcDbEntity
  8
Default
100
AcDbVertex
100
AcDb2dVertex
 10
-39.37817429105038
 20
25.04440060389248
 30
0.0
  0
VERTEX
  5
2A1
330
29F
100
AcDbEntity
  8
Default
100
AcDbVertex
100
AcDb2dVertex
 10
-48.99999999999999
 20
30.59956426705021
 30
0.0
  0
SEQEND
  5
2A2
330
29F
100
AcDbEntity
  8
Default
  0
POLYLINE
  5
2A3
330
1F
100
AcDbEntity
  8
Default
100
AcDb2dPolyline
 66
     1
 10
0.0
 20
0.0
 30
0.0
  0
VERTEX
  5
2A4
330
2A3
100
AcDbEntity
  8
Default
100
AcDbVertex
100
AcDb2dVertex
 10
-48.99999999999999
 20
30.59956426705021
 30
0.0
  0
VERTEX
  5
2A5
330
2A3
100
AcDbEntity
  8
Default
100
AcDbVertex
100
AcDb2dVertex
 10
-49.99999999999999
 20
28.86751345948133
 30
0.0
  0
SEQEND
  5
2A6
330
2A3
100
AcDbEntity
  8
Default
  0
POLYLINE
  5
2A7
330
1F
100
AcDbEntity
  8
Default
100
AcDb2dPolyline
 66
     1
 10
0.0
 20
0.0
 30
0.0
  0
VERTEX
  5
2A8
330
2A7
100
AcDbEntity
  8
Default
100
AcDbVertex
100
AcDb2dVertex
 10
-49.99999999999999
 20
28.86751345948133
 30
0.0
  0
VERTEX
  5
2A9
330
2A7
100
AcDbEntity
  8
Default
100
AcDbVertex
100
AcDb2dVertex
 10
-50.99999999999999
 20
27.13546265191245
 30
0.0
  0
SEQEND
  5
2AA
330
2A7
100
AcDbEntity
  8
Default
  0
POLYLINE
  5
2AB
330
1F
100
AcDbEntity
  8
Default
100
AcDb2dPolyline
 66
     1
 10
0.0
 20
0.0
 30
0.0
  0
VERTEX
  5
2AC
330
2AB
100
AcDbEntity
  8
Default
100
AcDbVertex
100
AcDb2dVertex
 10
-50.99999999999999
 20
27.13546265191245
 30
0.0
  0
VERTEX
  5
2AD
330
2AB
100
AcDbEntity
  8
Default
100
AcDbVertex
100
AcDb2dVertex
 10
-41.37817429105038
 20
21.58029898875473
 30
0.0
  0
SEQEND
  5
2AE
330
2AB
100
AcDbEntity
  8
Default
  0
POLYLINE
  5
2AF
330
1F
100
AcDbEntity
  8
Default
100
AcDb2dPolyline
 66
     1
 10
0.0
 20
0.0
 30
0.0
  0
VERTEX
  5
2B0
330
2AF
100
AcDbEntity
  8
Default
100
AcDbVertex
100
AcDb2dVertex
 10
-41.37817429105038
 20
21.58029898875473
 30
0.0
  0
VERTEX
  5
2B1
330
2AF
100
AcDbEntity
  8
Default
100
AcDbVertex
100
AcDb2dVertex
 10
-50.0
 20
16.72866313324945
 30
0.0
  0
SEQEND
  5
2B2
330
2AF
100
AcDbEntity
  8
Default
  0
POLYLINE
  5
2B3
330
1F
100
AcDbEntity
  8
Default
100
AcDb2dPolyline
 66
     1
 10
0.0
 20
0.0
 30
0.0
  0
VERTEX
  5
2B4
330
2B3
100
AcDbEntity
  8
Default
100
AcDbVertex
100
AcDb2dVertex
 10
-50.0
 20
16.72866313324945
 30
0.0
  0
VERTEX
  5
2B5
330
2B3
100
AcDbEntity
  8
Default
100
AcDbVertex
100
AcDb2dVertex
 10
-45.97408104417143
 20
14.40429774036621
 30
0.0
  0
SEQEND
  5
2B6
330
2B3
100
AcDbEntity
  8
Default
  0
POLYLINE
  5
2B7
330
1F
100
AcDbEntity
  8
Default
100
AcDb2dPolyline
 66
     1
 10
0.0
 20
0.0
 30
0.0
  0
VERTEX
  5
2B8
330
2B7
100
AcDbEntity
  8
Default
100
AcDbVertex
100
AcDb2dVertex
 10
-45.97408104417143
 20
14.40429774036621
 30
0.0
  0
VERTEX
  5
2B9
330
2B7
100
AcDbEntity
  8
Default
100
AcDbVertex
100
AcDb2dVertex
 10
-37.35225533522182
 20
19.25593359587149
 30
0.0
  0
SEQEND
  5
2BA
330
2B7
100
AcDbEntity
  8
Default
  0
POLYLINE
  5
2BB
330
1F
100
AcDbEntity
  8
Default
100
AcDb2dPolyline
 66
     1
 10
0.0
 20
0.0
 30
0.0
  0
VERTEX
  5
2BC
330
2BB
100
AcDbEntity
  8
Default
100
AcDbVertex
100
AcDb2dVertex
 10
-37.35225533522182
 20
19.25593359587149
 30
0.0
  0
VERTEX
  5
2BD
330
2BB
100
AcDbEntity
  8
Default
100
AcDbVertex
100
AcDb2dVertex
 10
-32.4233894941253
 20
16.41025157571485
 30
0.0
  0
SEQEND
  5
2BE
330
2BB
100
AcDbEntity
  8
Default
  0
POLYLINE
  5
2BF
330
1F
100
AcDbEntity
  8
Default
100
AcDb2dPolyline
 66
     1
 10
0.0
 20
0.0
 30
0.0
  0
VERTEX
  5
2C0
330
2BF
100
AcDbEntity
  8
Default
100
AcDbVertex
100
AcDb2dVertex
 10
-32.4233894941253
 20
16.41025157571485
 30
0.0
  0
VERTEX
  5
2C1
330
2BF
100
AcDbEntity
  8
Default
100
AcDbVertex
100
AcDb2dVertex
 10
-50.00000000000001
 20
6.519618590634296
 30
0.0
  0
SEQEND
  5
2C2
330
2BF
100
AcDbEntity
  8
Default
  0
POLYLINE
  5
2C3
330
1F
100
AcDbEntity
  8
Default
100
AcDb2dPolyline
 66
     1
 10
0.0
 20
0.0
 30
0.0
  0
VERTEX
  5
2C4
330
2C3
100
AcDbEntity
  8
Default
100
AcDbVertex
100
AcDb2dVertex
 10
-50.00000000000001
 20
6.519618590634296
 30
0.0
  0
VERTEX
  5
2C5
330
2C3
100
AcDbEntity
  8
Default
100
AcDbVertex
100
AcDb2dVertex
 10
-45.97408104417143
 20
4.195253197751053
 30
0.0
  0
SEQEND
  5
2C6
330
2C3
100
AcDbEntity
  8
Default
  0
POLYLINE
  5
2C7
330
1F
100
AcDbEntity
  8
Default
100
AcDb2dPolyline
 66
     1
 10
0.0
 20
0.0
 30
0.0
  0
VERTEX
  5
2C8
330
2C7
100
AcDbEntity
  8
Default
100
AcDbVertex
100
AcDb2dVertex
 10
-45.97408104417143
 20
4.195253197751053
 30
0.0
  0
VERTEX
  5
2C9
330
2C7
100
AcDbEntity
  8
Default
100
AcDbVertex
100
AcDb2dVertex
 10
-28.39747053829674
 20
14.08588618283162
 30
0.0
  0
SEQEND
  5
2CA
330
2C7
100
AcDbEntity
  8
Default
  0
POLYLINE
  5
2CB
330
1F
100
AcDbEntity
  8
Default
100
AcDb2dPolyline
 66
     1
 10
0.0
 20
0.0
 30
0.0
  0
VERTEX
  5
2CC
330
2CB
100
AcDbEntity
  8
Default
100
AcDbVertex
100
AcDb2dVertex
 10
-28.39747053829674
 20
14.08588618283162
 30
0.0
  0
VERTEX
  5
2CD
330
2CB
100
AcDbEntity
  8
Default
100
AcDbVertex
100
AcDb2dVertex
 10
-25.67908288841931
 20
12.51642434141313
 30
0.0
  0
VERTEX
  5
2CE
330
2CB
100
AcDbEntity
  8
Default
100
AcDbVertex
100
AcDb2dVertex
 10
-23.94592442293306
 20
11.51578483481636
 30
0.0
  0
SEQEND
  5
2CF
330
2CB
100
AcDbEntity
  8
Default
  0
POLYLINE
  5
2D0
330
1F
100
AcDbEntity
  8
Default
100
AcDb2dPolyline
 66
     1
 10
0.0
 20
0.0
 30
0.0
  0
VERTEX
  5
2D1
330
2D0
100
AcDbEntity
  8
Default
100
AcDbVertex
100
AcDb2dVertex
 10
-23.94592442293306
 20
11.51578483481636
 30
0.0
  0
VERTEX
  5
2D2
330
2D0
100
AcDbEntity
  8
Default
100
AcDbVertex
100
AcDb2dVertex
 10
-33.12907461239252
 20
6.213890600923186
 30
0.0
  0
SEQEND
  5
2D3
330
2D0
100
AcDbEntity
  8
Default
  0
POLYLINE
  5
2D4
330
1F
100
AcDbEntity
  8
Default
100
AcDb2dPolyline
 66
     1
 10
0.0
 20
0.0
 30
0.0
  0
VERTEX
  5
2D5
330
2D4
100
AcDbEntity
  8
Default
100
AcDbVertex
100
AcDb2dVertex
 10
-33.12907461239252
 20
6.213890600923186
 30
0.0
  0
VERTEX
  5
2D6
330
2D4
100
AcDbEntity
  8
Default
100
AcDbVertex
100
AcDb2dVertex
 10
-29.12907461239252
 20
3.904489524164681
 30
0.0
  0
SEQEND
  5
2D7
330
2D4
100
AcDbEntity
  8
Default
  0
POLYLINE
  5
2D8
330
1F
100
AcDbEntity
  8
Default
100
AcDb2dPolyline
 66
     1
 10
0.0
 20
0.0
 30
0.0
  0
VERTEX
  5
2D9
330
2D8
100
AcDbEntity
  8
Default
100
AcDbVertex
100
AcDb2dVertex
 10
-29.12907461239252
 20
3.904489524164681
 30
0.0
  0
VERTEX
  5
2DA
330
2D8
100
AcDbEntity
  8
Default
100
AcDbVertex
100
AcDb2dVertex
 10
-19.94592442293306
 20
9.20638375805785
 30
0.0
  0
SEQEND
  5
2DB
330
2D8
100
AcDbEntity
  8
Default
  0
POLYLINE
  5
2DC
330
1F
100
AcDbEntity
  8
Default
100
AcDb2dPolyline
 66
     1
 10
0.0
 20
0.0
 30
0.0
  0
VERTEX
  5
2DD
330
2DC
100
AcDbEntity
  8
Default
100
AcDbVertex
100
AcDb2dVertex
 10
-19.94592442293306
 20
9.20638375805785
 30
0.0
  0
VERTEX
  5
2DE
330
2DC
100
AcDbEntity
  8
Default
100
AcDbVertex
100
AcDb2dVertex
 10
-4.000000000000019
 20
0.0000000000000188
 30
0.0
  0
SEQEND
  5
2DF
330
2DC
100
AcDbEntity
  8
Default
  0
POLYLINE
  5
2E0
330
1F
100
AcDbEntity
  8
Default
100
AcDb2dPolyline
 66
     1
 10
0.0
 20
0.0
 30
0.0
  0
VERTEX
  5
2E1
330
2E0
100
AcDbEntity
  8
Default
100
AcDbVertex
100
AcDb2dVertex
 10
-4.000000000000001
 20
0.0000000000000087
 30
0.0
  0
VERTEX
  5
2E2
330
2E0
100
AcDbEntity
  8
Default
100
AcDbVertex
100
AcDb2dVertex
 10
-19.94592442293306
 20
-9.206383758057823
 30
0.0
  0
SEQEND
  5
2E3
330
2E0
100
AcDbEntity
  8
Default
  0
POLYLINE
  5
2E4
330
1F
100
AcDbEntity
  8
Default
100
AcDb2dPolyline
 66
     1
 10
0.0
 20
0.0
 30
0.0
  0
VERTEX
  5
2E5
330
2E4
100
AcDbEntity
  8
Default
100
AcDbVertex
100
AcDb2dVertex
 10
-19.94592442293306
 20
-9.206383758057823
 30
0.0
  0
VERTEX
  5
2E6
330
2E4
100
AcDbEntity
  8
Default
100
AcDbVertex
100
AcDb2dVertex
 10
-29.12907461239252
 20
-3.904489524164647
 30
0.0
  0
SEQEND
  5
2E7
330
2E4
100
AcDbEntity
  8
Default
  0
ENDSEC
  0
SECTION
  2
OBJECTS
  0
DICTIONARY
  5
C
330
0
100
AcDbDictionary
281
     1
  3
ACAD_GROUP
350
D
  3
ACAD_LAYOUT
350
1A
  3
ACAD_MLEADERSTYLE
350
2E9
  3
ACAD_MLINESTYLE
350
17
  3
ACAD_PLOTSETTINGS
350
19
  3
ACAD_PLOTSTYLENAME
350
E
  3
ACAD_TABLESTYLE
350
2E8
  3
ACAD_VISUALSTYLE
350
2A
  0
DICTIONARY
  5
D
102
{ACAD_REACTORS
330
C
102
}
330
C
100
AcDbDictionary
281
     1
  0
DICTIONARY
  5
1A
102
{ACAD_REACTORS
330
C
102
}
330
C
100
AcDbDictionary
281
     1
  3
Layout1
350
1E
  3
Layout2
350
26
  3
Model
350
22
  0
DICTIONARY
  5
2E9
102
{ACAD_REACTORS
330
C
102
}
330
C
100
AcDbDictionary
281
     1
  0
DICTIONARY
  5
17
102
{ACAD_REACTORS
330
C
102
}
330
C
100
AcDbDictionary
281
     1
  3
Standard
350
18
  0
DICTIONARY
  5
19
102
{ACAD_REACTORS
330
C
102
}
330
C
100
AcDbDictionary
281
     1
  0
ACDBDICTIONARYWDFLT
  5
E
102
{ACAD_REACTORS
330
C
102
}
330
C
100
AcDbDictionary
281
     1
  3
Normal
350
F
100
AcDbDictionaryWithDefault
340
F
  0
DICTIONARY
  5
2E8
102
{ACAD_REACTORS
330
C
102
}
330
C
100
AcDbDictionary
281
     1
  0
DICTIONARY
  5
2A
102
{ACAD_REACTORS
330
C
102
}
330
C
100
AcDbDictionary
281
     1
  3
2dWireframe
350
2F
  3
3D Hidden
350
31
  3
3dWireframe
350
30
  3
Basic
350
32
  3
Brighten
350
36
  3
ColorChange
350
3A
  3
Conceptual
350
34
  3
Dim
350
35
  3
Facepattern
350
39
  3
Flat
350
2B
  3
FlatWithEdges
350
2C
  3
Gouraud
350
2D
  3
GouraudWithEdges
350
2E
  3
Linepattern
350
38
  3
Realistic
350
33
  3
Thicken
350
37
  0
LAYOUT
  5
1E
102
{ACAD_REACTORS
330
1A
102
}
330
1A
100
AcDbPlotSettings
  1

  2
none_device
  4

  6

 40
0.0
 41
0.0
 42
0.0
 43
0.0
 44
0.0
 45
0.0
 46
0.0
 47
0.0
 48
0.0
 49
0.0
140
0.0
141
0.0
142
1.0
143
1.0
 70
   688
 72
     0
 73
     0
 74
     5
  7

 75
    16
 76
     0
 77
     2
 78
   300
147
1.0
148
0.0
149
0.0
100
AcDbLayout
  1
Layout1
 70
     1
 71
     1
 10
0.0
 20
0.0
 11
12.0
 21
9.0
 12
0.0
 22
0.0
 32
0.0
 14
1.000000000000000E+20
 24
1.000000000000000E+20
 34
1.000000000000000E+20
 15
-1.000000000000000E+20
 25
-1.000000000000000E+20
 35
-1.000000000000000E+20
146
0.0
 13
0.0
 23
0.0
 33
0.0
 16
1.0
 26
0.0
 36
0.0
 17
0.0
 27
1.0
 37
0.0
 76
     0
330
1B
  0
LAYOUT
  5
26
102
{ACAD_REACTORS
330
1A
102
}
330
1A
100
AcDbPlotSettings
  1

  2
none_device
  4

  6

 40
0.0
 41
0.0
 42
0.0
 43
0.0
 44
0.0
 45
0.0
 46
0.0
 47
0.0
 48
0.0
 49
0.0
140
0.0
141
0.0
142
1.0
143
1.0
 70
   688
 72
     0
 73
     0
 74
     5
  7

 75
    16
 76
     0
 77
     2
 78
   300
147
1.0
148
0.0
149
0.0
100
AcDbLayout
  1
Layout2
 70
     1
 71
     2
 10
0.0
 20
0.0
 11
0.0
 21
0.0
 12
0.0
 22
0.0
 32
0.0
 14
0.0
 24
0.0
 34
0.0
 15
0.0
 25
0.0
 35
0.0
146
0.0
 13
0.0
 23
0.0
 33
0.0
 16
1.0
 26
0.0
 36
0.0
 17
0.0
 27
1.0
 37
0.0
 76
     0
330
23
  0
LAYOUT
  5
22
102
{ACAD_REACTORS
330
1A
102
}
330
1A
100
AcDbPlotSettings
  1

  2
none_device
  4

  6

 40
0.0
 41
0.0
 42
0.0
 43
0.0
 44
0.0
 45
0.0
 46
0.0
 47
0.0
 48
0.0
 49
0.0
140
0.0
141
0.0
142
1.0
143
1.0
 70
  1712
 72
     0
 73
     0
 74
     0
  7

 75
     0
 76
     0
 77
     2
 78
   300
147
1.0
148
0.0
149
0.0
100
AcDbLayout
  1
Model
 70
     1
 71
     0
 10
0.0
 20
0.0
 11
12.0
 21
9.0
 12
0.0
 22
0.0
 32
0.0
 14
-51.00000000000001
 24
-57.73502691896257
 34
0.0
 15
51.00000000000001
 25
57.73502691896259
 35
0.0
146
0.0
 13
0.0
 23
0.0
 33
0.0
 16
1.0
 26
0.0
 36
0.0
 17
0.0
 27
1.0
 37
0.0
 76
     0
330
1F
331
29
  0
MLINESTYLE
  5
18
102
{ACAD_REACTORS
330
17
102
}
330
17
100
AcDbMlineStyle
  2
Standard
 70
     0
  3

 62
   256
 51
90.0
 52
90.0
 71
     2
 49
0.5
 62
   256
  6
BYLAYER
 49
-0.5
 62
   256
  6
BYLAYER
  0
ACDBPLACEHOLDER
  5
F
102
{ACAD_REACTORS
330
E
102
}
330
E
  0
VISUALSTYLE
  5
2F
102
{ACAD_REACTORS
330
2A
102
}
330
2A
100
AcDbVisualStyle
  2
2dWireframe
 70
     4
 71
     0
 72
     2
 73
     0
 90
        0
 40
-0.6
 41
-30.0
 62
     5
 63
     7
421
 16777215
 74
     1
 91
        4
 64
     7
 65
   257
 75
     1
175
     1
 42
1.0
 92
        0
 66
   257
 43
1.0
 76
     1
 77
     6
 78
     2
 67
     7
 79
     5
170
     0
171
     0
290
     0
174
     0
 93
        1
 44
0.0
173
     0
291
     0
 45
0.0
1001
ACAD
1000
AcDbSavedByObjectVersion
1070
     0
  0
VISUALSTYLE
  5
31
102
{ACAD_REACTORS
330
2A
102
}
330
2A
100
AcDbVisualStyle
  2
3D Hidden
 70
     6
 71
     1
 72
     2
 73
     2
 90
        0
 40
-0.6
 41
-30.0
 62
     5
 63
     7
421
 16777215
 74
     2
 91
        2
 64
     7
 65
   257
 75
     2
175
     1
 42
40.0
 92
        0
 66
   257
 43
1.0
 76
     1
 77
     6
 78
     2
 67
     7
 79
     3
170
     0
171
     0
290
     0
174
     0
 93
        1
 44
0.0
173
     0
291
     0
 45
0.0
1001
ACAD
1000
AcDbSavedByObjectVersion
1070
     0
  0
VISUALSTYLE
  5
30
102
{ACAD_REACTORS
330
2A
102
}
330
2A
100
AcDbVisualStyle
  2
3dWireframe
 70
     5
 71
     0
 72
     2
 73
     0
 90
        0
 40
-0.6
 41
-30.0
 62
     5
 63
     7
421
 16777215
 74
     1
 91
        4
 64
     7
 65
   257
 75
     1
175
     1
 42
1.0
 92
        0
 66
   257
 43
1.0
 76
     1
 77
     6
 78
     2
 67
     7
 79
     5
170
     0
171
     0
290
     0
174
     0
 93
        1
 44
0.0
173
     0
291
     0
 45
0.0
1001
ACAD
1000
AcDbSavedByObjectVersion
1070
     0
  0
VISUALSTYLE
  5
32
102
{ACAD_REACTORS
330
2A
102
}
330
2A
100
AcDbVisualStyle
  2
Basic
 70
     7
 71
     1
 72
     0
 73
     1
 90
        0
 40
-0.6
 41
-30.0
 62
     5
 63
     7
421
 16777215
 74
     0
 91
        4
 64
     7
 65
   257
 75
     1
175
     1
 42
1.0
 92
        8
 66
     7
 43
1.0
 76
     1
 77
     6
 78
     2
 67
     7
 79
     5
170
     0
171
     0
290
     0
174
     0
 93
        1
 44
0.0
173
     0
291
     1
 45
0.0
1001
ACAD
1000
AcDbSavedByObjectVersion
1070
     0
  0
VISUALSTYLE
  5
36
102
{ACAD_REACTORS
330
2A
102
}
330
2A
100
AcDbVisualStyle
  2
Brighten
 70
    12
 71
     2
 72
     2
 73
     0
 90
        0
 40
-0.6
 41
-30.0
 62
     5
 63
     7
421
 16777215
 74
     1
 91
        4
 64
     7
 65
   257
 75
     1
175
     1
 42
1.0
 92
        8
 66
     7
 43
1.0
 76
     1
 77
     6
 78
     2
 67
     7
 79
     5
170
     0
171
     0
290
     0
174
     0
 93
        1
 44
50.0
173
     0
291
     1
 45
0.0
1001
ACAD
1000
AcDbSavedByObjectVersion
1070
     0
  0
VISUALSTYLE
  5
3A
102
{ACAD_REACTORS
330
2A
102
}
330
2A
100
AcDbVisualStyle
  2
ColorChange
 70
    16
 71
     2
 72
     2
 73
     3
 90
        0
 40
-0.6
 41
-30.0
 62
     5
 63
     8
421
  8421504
 74
     1
 91
        4
 64
     7
 65
   257
 75
     1
175
     1
 42
1.0
 92
        8
 66
     8
424
  8421504
 43
1.0
 76
     1
 77
     6
 78
     2
 67
     7
 79
     5
170
     0
171
     0
290
     0
174
     0
 93
        1
 44
0.0
173
     0
291
     1
 45
0.0
1001
ACAD
1000
AcDbSavedByObjectVersion
1070
     0
  0
VISUALSTYLE
  5
34
102
{ACAD_REACTORS
330
2A
102
}
330
2A
100
AcDbVisualStyle
  2
Conceptual
 70
     9
 71
     3
 72
     2
 73
     0
 90
        0
 40
-0.6
 41
-30.0
 62
     5
 63
     7
421
 16777215
 74
     2
 91
        2
 64
     7
 65
   257
 75
     1
175
     1
 42
40.0
 92
        8
 66
     7
 43
1.0
 76
     1
 77
     6
 78
     2
 67
     7
 79
     3
170
     0
171
     0
290
     0
174
     0
 93
        1
 44
0.0
173
     0
291
     0
 45
0.0
1001
ACAD
1000
AcDbSavedByObjectVersion
1070
     0
  0
VISUALSTYLE
  5
35
102
{ACAD_REACTORS
330
2A
102
}
330
2A
100
AcDbVisualStyle
  2
Dim
 70
    11
 71
     2
 72
     2
 73
     0
 90
        0
 40
-0.6
 41
-30.0
 62
     5
 63
     7
421
 16777215
 74
     1
 91
        4
 64
     7
 65
   257
 75
     1
175
     1
 42
1.0
 92
        8
 66
     7
 43
1.0
 76
     1
 77
     6
 78
     2
 67
     7
 79
     5
170
     0
171
     0
290
     0
174
     0
 93
        1
 44
-50.0
173
     0
291
     1
 45
0.0
1001
ACAD
1000
AcDbSavedByObjectVersion
1070
     0
  0
VISUALSTYLE
  5
39
102
{ACAD_REACTORS
330
2A
102
}
330
2A
100
AcDbVisualStyle
  2
Facepattern
 70
    15
 71
     2
 72
     2
 73
     0
 90
        0
 40
-0.6
 41
-30.0
 62
     5
 63
     7
421
 16777215
 74
     1
 91
        4
 64
     7
 65
   257
 75
     1
175
     1
 42
1.0
 92
        8
 66
     7
 43
1.0
 76
     1
 77
     6
 78
     2
 67
     7
 79
     5
170
     0
171
     0
290
     0
174
     0
 93
        1
 44
0.0
173
     0
291
     1
 45
0.0
1001
ACAD
1000
AcDbSavedByObjectVersion
1070
     0
  0
VISUALSTYLE
  5
2B
102
{ACAD_REACTORS
330
2A
102
}
330
2A
100
AcDbVisualStyle
  2
Flat
 70
     0
 71
     2
 72
     1
 73
     1
 90
        2
 40
-0.6
 41
30.0
 62
     5
 63
     7
421
 16777215
 74
     0
 91
        4
 64
     7
 65
   257
 75
     1
175
     1
 42
1.0
 92
        8
 66
     7
 43
1.0
 76
     1
 77
     6
 78
     2
 67
     7
 79
     5
170
     0
171
     0
290
     0
174
     0
 93
       13
 44
0.0
173
     0
291
     1
 45
0.0
1001
ACAD
1000
AcDbSavedByObjectVersion
1070
     0
  0
VISUALSTYLE
  5
2C
102
{ACAD_REACTORS
330
2A
102
}
330
2A
100
AcDbVisualStyle
  2
FlatWithEdges
 70
     1
 71
     2
 72
     1
 73
     1
 90
        2
 40
-0.6
 41
30.0
 62
     5
 63
     7
421
 16777215
 74
     1
 91
        4
 64
     7
 65
   257
 75
     1
175
     1
 42
1.0
 92
        0
 66
   257
 43
1.0
 76
     1
 77
     6
 78
     2
 67
     7
 79
     5
170
     0
171
     0
290
     0
174
     0
 93
       13
 44
0.0
173
     0
291
     1
 45
0.0
1001
ACAD
1000
AcDbSavedByObjectVersion
1070
     0
  0
VISUALSTYLE
  5
2D
102
{ACAD_REACTORS
330
2A
102
}
330
2A
100
AcDbVisualStyle
  2
Gouraud
 70
     2
 71
     2
 72
     2
 73
     1
 90
        2
 40
-0.6
 41
30.0
 62
     5
 63
     7
421
 16777215
 74
     0
 91
        4
 64
     7
 65
   257
 75
     1
175
     1
 42
1.0
 92
        0
 66
     7
 43
1.0
 76
     1
 77
     6
 78
     2
 67
     7
 79
     5
170
     0
171
     0
290
     0
174
     0
 93
       13
 44
0.0
173
     0
291
     1
 45
0.0
1001
ACAD
1000
AcDbSavedByObjectVersion
1070
     0
  0
VISUALSTYLE
  5
2E
102
{ACAD_REACTORS
330
2A
102
}
330
2A
100
AcDbVisualStyle
  2
GouraudWithEdges
 70
     3
 71
     2
 72
     2
 73
     1
 90
        2
 40
-0.6
 41
30.0
 62
     5
 63
     7
421
 16777215
 74
     1
 91
        4
 64
     7
 65
   257
 75
     1
175
     1
 42
1.0
 92
        0
 66
   257
 43
1.0
 76
     1
 77
     6
 78
     2
 67
     7
 79
     5
170
     0
171
     0
290
     0
174
     0
 93
       13
 44
0.0
173
     0
291
     1
 45
0.0
1001
ACAD
1000
AcDbSavedByObjectVersion
1070
     0
  0
VISUALSTYLE
  5
38
102
{ACAD_REACTORS
330
2A
102
}
330
2A
100
AcDbVisualStyle
  2
Linepattern
 70
    14
 71
     2
 72
     2
 73
     0
 90
        0
 40
-0.6
 41
-30.0
 62
     5
 63
     7
421
 16777215
 74
     1
 91
        4
 64
     7
 65
   257
 75
     7
175
     7
 42
1.0
 92
        8
 66
     7
 43
1.0
 76
     1
 77
     6
 78
     2
 67
     7
 79
     5
170
     0
171
     0
290
     0
174
     0
 93
        1
 44
0.0
173
     0
291
     1
 45
0.0
1001
ACAD
1000
AcDbSavedByObjectVersion
1070
     0
  0
VISUALSTYLE
  5
33
102
{ACAD_REACTORS
330
2A
102
}
330
2A
100
AcDbVisualStyle
  2
Realistic
 70
     8
 71
     2
 72
     2
 73
     0
 90
        0
 40
-0.6
 41
-30.0
 62
     5
 63
     7
421
 16777215
 74
     1
 91
        0
 64
     7
 65
   257
 75
     1
175
     1
 42
1.0
 92
        8
 66
     8
424
  7895160
 43
1.0
 76
     1
 77
     6
 78
     2
 67
     7
 79
     5
170
     0
171
     0
290
     0
174
     0
 93
       13
 44
0.0
173
     0
291
     0
 45
0.0
1001
ACAD
1000
AcDbSavedByObjectVersion
1070
     0
  0
VISUALSTYLE
  5
37
102
{ACAD_REACTORS
330
2A
102
}
330
2A
100
AcDbVisualStyle
  2
Thicken
 70
    13
 71
     2
 72
     2
 73
     0
 90
        0
 40
-0.6
 41
-30.0
 62
     5
 63
     7
421
 16777215
 74
     1
 91
        4
 64
     7
 65
   257
 75
     1
175
     1
 42
1.0
 92
       12
 66
     7
 43
1.0
 76
     1
 77
     6
 78
     2
 67
     7
 79
     5
170
     0
171
     0
290
     0
174
     0
 93
        1
 44
0.0
173
     0
291
     1
 45
0.0
1001
ACAD
1000
AcDbSavedByObjectVersion
1070
     0
  0
ENDSEC
  0
EOF
