  0
SECTION
  2
HEADER
  9
$ACADVER
  1
AC1009
  9
$INSBASE
 10
0.0
 20
0.0
 30
0.0
  9
$EXTMIN
 10
-1330.858986679066
 20
3865.2804319647771
 30
0.0
  9
$EXTMAX
 10
-1286.5683301567931
 20
3891.9063023717331
 30
0.0
  9
$LIMMIN
 10
-742.41003523130905
 20
315.52152774063637
  9
$LIMMAX
 10
1246.8407740393679
 20
1698.291296962416
  9
$ORTHOMODE
 70
     1
  9
$REGENMODE
 70
     1
  9
$FILLMODE
 70
     1
  9
$QTEXTMODE
 70
     0
  9
$MIRRTEXT
 70
     1
  9
$DRAGMODE
 70
     2
  9
$LTSCALE
 40
1.0
  9
$OSMODE
 70
  3071
  9
$ATTMODE
 70
     1
  9
$TEXTSIZE
 40
0.2
  9
$TRACEWID
 40
0.05
  9
$TEXTSTYLE
  7
STANDARD
  9
$CLAYER
  8
0
  9
$CELTYPE
  6
CONTINUOUS
  9
$CECOLOR
 62
     6
  9
$DIMSCALE
 40
1.0
  9
$DIMASZ
 40
0.18
  9
$DIMEXO
 40
0.0625
  9
$DIMDLI
 40
0.38
  9
$DIMRND
 40
0.0
  9
$DIMDLE
 40
0.0
  9
$DIMEXE
 40
0.18
  9
$DIMTP
 40
0.0
  9
$DIMTM
 40
0.0
  9
$DIMTXT
 40
0.18
  9
$DIMCEN
 40
0.09
  9
$DIMTSZ
 40
0.0
  9
$DIMTOL
 70
     0
  9
$DIMLIM
 70
     0
  9
$DIMTIH
 70
     1
  9
$DIMTOH
 70
     1
  9
$DIMSE1
 70
     0
  9
$DIMSE2
 70
     0
  9
$DIMTAD
 70
     0
  9
$DIMZIN
 70
     0
  9
$DIMBLK
  1

  9
$DIMASO
 70
     1
  9
$DIMSHO
 70
     1
  9
$DIMPOST
  1

  9
$DIMAPOST
  1

  9
$DIMALT
 70
     0
  9
$DIMALTD
 70
     2
  9
$DIMALTF
 40
25.399999999999999
  9
$DIMLFAC
 40
1.0
  9
$DIMTOFL
 70
     0
  9
$DIMTVP
 40
0.0
  9
$DIMTIX
 70
     0
  9
$DIMSOXD
 70
     0
  9
$DIMSAH
 70
     0
  9
$DIMBLK1
  1

  9
$DIMBLK2
  1

  9
$DIMSTYLE
  2
STANDARD
  9
$DIMCLRD
 70
     0
  9
$DIMCLRE
 70
     0
  9
$DIMCLRT
 70
     0
  9
$DIMTFAC
 40
1.0
  9
$DIMGAP
 40
0.09
  9
$LUNITS
 70
     2
  9
$LUPREC
 70
     8
  9
$SKETCHINC
 40
0.1
  9
$FILLETRAD
 40
0.0
  9
$AUNITS
 70
     0
  9
$AUPREC
 70
     0
  9
$MENU
  1
.
  9
$ELEVATION
 40
0.0
  9
$PELEVATION
 40
0.0
  9
$THICKNESS
 40
0.0
  9
$LIMCHECK
 70
     0
  9
$BLIPMODE
 70
     0
  9
$CHAMFERA
 40
0.5
  9
$CHAMFERB
 40
0.5
  9
$SKPOLY
 70
     1
  9
$TDCREATE
 40
2452168.498999537
  9
$TDUPDATE
 40
2456035.4528128011
  9
$TDINDWG
 40
1.2231663657
  9
$TDUSRTIMER
 40
1.2231662730999999
  9
$USRTIMER
 70
     1
  9
$ANGBASE
 50
0.0
  9
$ANGDIR
 70
     0
  9
$PDMODE
 70
    67
  9
$PDSIZE
 40
0.0
  9
$PLINEWID
 40
0.0
  9
$COORDS
 70
     1
  9
$SPLFRAME
 70
     0
  9
$SPLINETYPE
 70
     6
  9
$SPLINESEGS
 70
     8
  9
$ATTDIA
 70
     0
  9
$ATTREQ
 70
     1
  9
$HANDLING
 70
     1
  9
$HANDSEED
  5
1E712
  9
$SURFTAB1
 70
     6
  9
$SURFTAB2
 70
     6
  9
$SURFTYPE
 70
     6
  9
$SURFU
 70
     6
  9
$SURFV
 70
     6
  9
$UCSNAME
  2

  9
$UCSORG
 10
0.0
 20
0.0
 30
0.0
  9
$UCSXDIR
 10
1.0
 20
0.0
 30
0.0
  9
$UCSYDIR
 10
0.0
 20
1.0
 30
0.0
  9
$PUCSNAME
  2

  9
$PUCSORG
 10
0.0
 20
0.0
 30
0.0
  9
$PUCSXDIR
 10
1.0
 20
0.0
 30
0.0
  9
$PUCSYDIR
 10
0.0
 20
1.0
 30
0.0
  9
$USERI1
 70
     0
  9
$USERI2
 70
     0
  9
$USERI3
 70
     0
  9
$USERI4
 70
     0
  9
$USERI5
 70
     0
  9
$USERR1
 40
0.0
  9
$USERR2
 40
0.0
  9
$USERR3
 40
0.0
  9
$USERR4
 40
0.0
  9
$USERR5
 40
0.0
  9
$WORLDVIEW
 70
     1
  9
$SHADEDGE
 70
     3
  9
$SHADEDIF
 70
    70
  9
$TILEMODE
 70
     1
  9
$MAXACTVP
 70
    48
  9
$PLIMCHECK
 70
     0
  9
$PEXTMIN
 10
1.1035416670671601
 20
0.7937500251559762
 30
0.0
  9
$PEXTMAX
 10
9.9318750036044356
 20
7.1437502264037844
 30
0.0
  9
$PLIMMIN
 10
-0.1249995194082185
 20
-0.1645833300793265
  9
$PLIMMAX
 10
11.56666673074557
 20
8.1020831123111741
  9
$UNITMODE
 70
     0
  9
$VISRETAIN
 70
     1
  9
$PLINEGEN
 70
     0
  9
$PSLTSCALE
 70
     1
  0
ENDSEC
  0
SECTION
  2
TABLES
  0
TABLE
  2
VPORT
 70
     1
  0
VPORT
  2
*ACTIVE
 70
     0
 10
0.0
 20
0.0
 11
1.0
 21
1.0
 12
-1302.686332498618
 22
3875.6180479507589
 13
0.0
 23
0.0
 14
0.5
 24
0.5
 15
0.5
 25
0.5
 16
0.0
 26
0.0
 36
1.0
 17
0.0
 27
0.0
 37
0.0
 40
59.492313264422727
 41
2.22783251231527
 42
50.0
 43
0.0
 44
0.0
 50
0.0
 51
0.0
 71
     0
 72
   100
 73
     1
 74
     1
 75
     0
 76
     0
 77
     0
 78
     0
  0
ENDTAB
  0
TABLE
  2
LTYPE
 70
     5
  0
LTYPE
  2
CONTINUOUS
 70
     0
  3
Solid line
 72
    65
 73
     0
 40
0.0
  0
LTYPE
  2
BORDER
 70
     0
  3
__ __ . __ __ . __ __ . __ __ . __ __ . __ _
 72
    65
 73
     6
 40
1.75
 49
0.5
 49
-0.25
 49
0.5
 49
-0.25
 49
0.0
 49
-0.25
  0
LTYPE
  2
DIVIDE
 70
     0
  3
__ . . __ . . __ . . __ . . __ . . __ . . __
 72
    65
 73
     6
 40
1.25
 49
0.5
 49
-0.25
 49
0.0
 49
-0.25
 49
0.0
 49
-0.25
  0
LTYPE
  2
DASHED2
 70
     0
  3
Dashed (.5x) _ _ _ _ _ _ _ _ _ _ _ _ _ _ _ _ _
 72
    65
 73
     2
 40
9.5249999999999986
 49
6.349999999999997
 49
-3.174999999999998
  0
ENDTAB
  0
TABLE
  2
LAYER
 70
     6
  0
LAYER
  2
0
 70
     0
 62
     7
  6
CONTINUOUS
  0
LAYER
  2
DEFPOINTS
 70
     0
 62
     7
  6
CONTINUOUS
  0
LAYER
  2
7
 70
     0
 62
     7
  6
CONTINUOUS
  0
LAYER
  2
RIPASSO
 70
     0
 62
     7
  6
CONTINUOUS
  0
LAYER
  2
DAN1
 70
     0
 62
     7
  6
DASHED2
  0
LAYER
  2
FRAME_070
 70
     0
 62
     5
  6
CONTINUOUS
  0
ENDTAB
  0
TABLE
  2
STYLE
 70
     2
  0
STYLE
  2
STANDARD
 70
     0
 40
0.0
 41
1.0
 50
0.0
 71
     0
 42
0.2
  3
txt
  4

  0
STYLE
  2
ANNOTATIVE
 70
     0
 40
0.0
 41
1.0
 50
0.0
 71
     0
 42
0.2
  3
txt
  4

  0
ENDTAB
  0
TABLE
  2
VIEW
 70
     0
  0
ENDTAB
  0
TABLE
  2
UCS
 70
     0
  0
ENDTAB
  0
TABLE
  2
APPID
 70
     4
  0
APPID
  2
ACAD
 70
     0
  0
APPID
  2
ACADANNOTATIVE
 70
     0
  0
APPID
  2
ACAD_MLEADERVER
 70
     0
  0
APPID
  2
ACAD_EXEMPT_FROM_CAD_STANDARDS
 70
     0
  0
ENDTAB
  0
TABLE
  2
DIMSTYLE
 70
     4
  0
DIMSTYLE
  2
STANDARD
 70
     0
  3

  4

  5

  6

  7

 40
1.0
 41
0.18
 42
0.0625
 43
0.38
 44
0.18
 45
0.0
 46
0.0
 47
0.0
 48
0.0
140
0.18
141
0.09
142
0.0
143
25.399999999999999
144
1.0
145
0.0
146
1.0
147
0.09
 71
     0
 72
     0
 73
     1
 74
     1
 75
     0
 76
     0
 77
     0
 78
     0
170
     0
171
     2
172
     0
173
     0
174
     0
175
     0
176
     0
177
     0
178
     0
  0
DIMSTYLE
  2
ANNOTATIVE
 70
     0
  3

  4

  5

  6

  7

 40
1.0
 41
0.18
 42
0.0625
 43
0.38
 44
0.18
 45
0.0
 46
0.0
 47
0.0
 48
0.0
140
0.18
141
0.09
142
0.0
143
25.399999999999999
144
1.0
145
0.0
146
1.0
147
0.09
 71
     0
 72
     0
 73
     1
 74
     1
 75
     0
 76
     0
 77
     0
 78
     0
170
     0
171
     2
172
     0
173
     0
174
     0
175
     0
176
     0
177
     0
178
     0
  0
DIMSTYLE
  2
ISO-25
 70
     0
  3

  4

  5

  6

  7

 40
1.0
 41
2.5
 42
0.625
 43
3.75
 44
1.25
 45
0.0
 46
0.0
 47
0.0
 48
0.0
140
2.5
141
2.5
142
0.0
143
0.03937007874016
144
1.0
145
0.0
146
1.0
147
0.625
 71
     0
 72
     0
 73
     0
 74
     0
 75
     0
 76
     0
 77
     1
 78
     8
170
     0
171
     3
172
     1
173
     0
174
     0
175
     0
176
     0
177
     0
178
     0
  0
ENDTAB
  0
ENDSEC
  0
SECTION
  2
BLOCKS
  0
BLOCK
  8
0
  2
$MODEL_SPACE
 70
     0
 10
0.0
 20
0.0
 30
0.0
  3
$MODEL_SPACE
  1

  0
ENDBLK
  5
1E575
  8
0
  0
BLOCK
 67
     1
  8
0
  2
$PAPER_SPACE
 70
     0
 10
0.0
 20
0.0
 30
0.0
  3
$PAPER_SPACE
  1

  0
ENDBLK
  5
1E571
 67
     1
  8
0
  0
BLOCK
  8
0
 62
     6
  2
*D2
 70
     1
 10
0.0
 20
0.0
 30
0.0
  3
*D2
  1

  0
LINE
  5
8239
  8
0
 62
     0
 10
-1596.1280393615641
 20
2895.8252530087539
 30
0.0
 11
-1596.1280393615641
 21
2959.3823105485772
 31
0.0
  0
LINE
  5
823A
  8
0
 62
     0
 10
-2121.1278155673322
 20
2865.706425997821
 30
0.0
 11
-2121.1278155673322
 21
2959.3823105485772
 31
0.0
  0
LINE
  5
823B
  8
0
 62
     0
 10
-1598.6280393615641
 20
2958.1323105485772
 30
0.0
 11
-2118.6278155673322
 21
2958.1323105485772
 31
0.0
  0
SOLID
  5
823C
  8
0
 62
     0
 10
-1598.6280393615641
 20
2958.5489772152441
 30
0.0
 11
-1598.6280393615641
 21
2957.7156438819129
 31
0.0
 12
-1596.1280393615641
 22
2958.1323105485772
 32
0.0
 13
-1596.1280393615641
 23
2958.1323105485772
 33
0.0
  0
SOLID
  5
823D
  8
0
 62
     0
 10
-2118.6278155673322
 20
2958.5489772152441
 30
0.0
 11
-2118.6278155673322
 21
2957.7156438819129
 31
0.0
 12
-2121.1278155673322
 22
2958.1323105485772
 32
0.0
 13
-2121.1278155673322
 23
2958.1323105485772
 33
0.0
  0
INSERT
  5
823E
  8
0
  6
CONTINUOUS
 62
     6
  2
*U3
 10
0.0
 20
0.0
 30
0.0
  0
POINT
  5
823F
  8
DEFPOINTS
 62
     0
 10
-1596.1280393615641
 20
2895.2002530087539
 30
0.0
  0
POINT
  5
8240
  8
DEFPOINTS
 62
     0
 10
-2121.1278155673322
 20
2865.081425997821
 30
0.0
  0
POINT
  5
8241
  8
DEFPOINTS
 62
     0
 10
-2121.1278155673322
 20
2958.1323105485772
 30
0.0
  0
ENDBLK
  5
777E
  8
0
 62
     6
  0
BLOCK
  8
0
 62
     6
  2
*U3
 70
     1
 10
0.0
 20
0.0
 30
0.0
  3
*U3
  1

  0
TEXT
  5
185DD
  8
0
  6
CONTINUOUS
 62
     0
 10
-1871.9612607977811
 20
2958.7573105485772
 30
0.0
 40
10.0
  1
525
  0
ENDBLK
  5
185DF
  8
0
 62
     6
  0
BLOCK
  8
0
 62
     6
  2
*D4
 70
     1
 10
0.0
 20
0.0
 30
0.0
  3
*D4
  1

  0
LINE
  5
7AD4
  8
0
 62
     0
 10
-1596.8971037292031
 20
2895.4812661886981
 30
0.0
 11
-2122.314482217374
 21
2895.4812661886981
 31
0.0
  0
LINE
  5
7AD5
  8
0
 62
     0
 10
-2125.72604092249
 20
2867.3668968235138
 30
0.0
 11
-2119.8144822173749
 21
2867.3668968235138
 31
0.0
  0
LINE
  5
7AD6
  8
0
 62
     0
 10
-2121.064482217374
 20
2892.9812661886981
 30
0.0
 11
-2121.064482217374
 21
2869.8668968235129
 31
0.0
  0
SOLID
  5
7AD7
  8
0
 62
     0
 10
-2121.481148884041
 20
2892.9812661886981
 30
0.0
 11
-2120.6478155507079
 21
2892.9812661886981
 31
0.0
 12
-2121.064482217374
 22
2895.4812661886981
 32
0.0
 13
-2121.064482217374
 23
2895.4812661886981
 33
0.0
  0
SOLID
  5
7AD8
  8
0
 62
     0
 10
-2121.481148884041
 20
2869.8668968235129
 30
0.0
 11
-2120.6478155507079
 21
2869.8668968235129
 31
0.0
 12
-2121.064482217374
 22
2867.3668968235138
 32
0.0
 13
-2121.064482217374
 23
2867.3668968235138
 33
0.0
  0
INSERT
  5
7AD9
  8
0
  6
CONTINUOUS
 62
     6
  2
*U5
 10
0.0
 20
0.0
 30
0.0
  0
POINT
  5
7ADA
  8
DEFPOINTS
 62
     0
 10
-1596.2721037292031
 20
2895.4812661886981
 30
0.0
  0
POINT
  5
7ADB
  8
DEFPOINTS
 62
     0
 10
-2126.3510409224891
 20
2867.3668968235138
 30
0.0
  0
POINT
  5
7ADC
  8
DEFPOINTS
 62
     0
 10
-2121.064482217374
 20
2867.3668968235138
 30
0.0
  0
ENDBLK
  5
778A
  8
0
 62
     6
  0
BLOCK
  8
0
 62
     6
  2
*U5
 70
     1
 10
0.0
 20
0.0
 30
0.0
  3
*U5
  1

  0
TEXT
  5
1837F
  8
0
  6
CONTINUOUS
 62
     0
 10
-2121.6894822173749
 20
2874.7234925238859
 30
0.0
 40
10.0
  1
28
 50
90.0
  0
ENDBLK
  5
18381
  8
0
 62
     6
  0
BLOCK
  8
0
 62
     6
  2
*D6
 70
     1
 10
0.0
 20
0.0
 30
0.0
  3
*D6
  1

  0
LINE
  5
7A8B
  8
0
 62
     0
 10
-2287.5436729302842
 20
3169.3051359756109
 30
0.0
 11
-2287.5436729302842
 21
3260.1491132329288
 31
0.0
  0
LINE
  5
7A8C
  8
0
 62
     0
 10
-2336.4501671984208
 20
3166.082967476194
 30
0.0
 11
-2336.4501671984208
 21
3260.1491132329288
 31
0.0
  0
LINE
  5
7A8D
  8
0
 62
     0
 10
-2290.0436729302842
 20
3258.8991132329288
 30
0.0
 11
-2333.9501671984208
 21
3258.8991132329288
 31
0.0
  0
SOLID
  5
7A8E
  8
0
 62
     0
 10
-2290.0436729302842
 20
3259.3157798995958
 30
0.0
 11
-2290.0436729302842
 21
3258.4824465662632
 31
0.0
 12
-2287.5436729302842
 22
3258.8991132329288
 32
0.0
 13
-2287.5436729302842
 23
3258.8991132329288
 33
0.0
  0
SOLID
  5
7A8F
  8
0
 62
     0
 10
-2333.9501671984208
 20
3259.3157798995958
 30
0.0
 11
-2333.9501671984208
 21
3258.4824465662632
 31
0.0
 12
-2336.4501671984208
 22
3258.8991132329288
 32
0.0
 13
-2336.4501671984208
 23
3258.8991132329288
 33
0.0
  0
INSERT
  5
7A90
  8
0
  6
CONTINUOUS
 62
     6
  2
*U7
 10
0.0
 20
0.0
 30
0.0
  0
POINT
  5
7A91
  8
DEFPOINTS
 62
     0
 10
-2287.5436729302842
 20
3168.6801359756109
 30
0.0
  0
POINT
  5
7A92
  8
DEFPOINTS
 62
     0
 10
-2336.4501671984208
 20
3165.457967476194
 30
0.0
  0
POINT
  5
7A93
  8
DEFPOINTS
 62
     0
 10
-2336.4501671984208
 20
3258.8991132329288
 30
0.0
  0
ENDBLK
  5
7796
  8
0
 62
     6
  0
BLOCK
  8
0
 62
     6
  2
*U7
 70
     1
 10
0.0
 20
0.0
 30
0.0
  3
*U7
  1

  0
TEXT
  5
18367
  8
0
  6
CONTINUOUS
 62
     0
 10
-2320.0495921628399
 20
3259.5241132329302
 30
0.0
 40
10.0
  1
49
  0
ENDBLK
  5
18369
  8
0
 62
     6
  0
BLOCK
  8
0
 62
     6
  2
*D8
 70
     1
 10
0.0
 20
0.0
 30
0.0
  3
*D8
  1

  0
LINE
  5
7A82
  8
0
 62
     0
 10
-2197.6899485721901
 20
3218.1695000671921
 30
0.0
 11
-2197.6899485721901
 21
3260.1946504651801
 31
0.0
  0
LINE
  5
7A83
  8
0
 62
     0
 10
-2287.5436729302842
 20
3168.6169872169412
 30
0.0
 11
-2287.5436729302842
 21
3260.1946504651801
 31
0.0
  0
LINE
  5
7A84
  8
0
 62
     0
 10
-2200.1899485721901
 20
3258.9446504651801
 30
0.0
 11
-2285.0436729302842
 21
3258.9446504651801
 31
0.0
  0
SOLID
  5
7A85
  8
0
 62
     0
 10
-2200.1899485721901
 20
3259.361317131848
 30
0.0
 11
-2200.1899485721901
 21
3258.527983798514
 31
0.0
 12
-2197.6899485721901
 22
3258.9446504651801
 32
0.0
 13
-2197.6899485721901
 23
3258.9446504651801
 33
0.0
  0
SOLID
  5
7A86
  8
0
 62
     0
 10
-2285.0436729302842
 20
3259.361317131848
 30
0.0
 11
-2285.0436729302842
 21
3258.527983798514
 31
0.0
 12
-2287.5436729302842
 22
3258.9446504651801
 32
0.0
 13
-2287.5436729302842
 23
3258.9446504651801
 33
0.0
  0
INSERT
  5
7A87
  8
0
  6
CONTINUOUS
 62
     6
  2
*U9
 10
0.0
 20
0.0
 30
0.0
  0
POINT
  5
7A88
  8
DEFPOINTS
 62
     0
 10
-2197.6899485721901
 20
3217.5445000671912
 30
0.0
  0
POINT
  5
7A89
  8
DEFPOINTS
 62
     0
 10
-2287.5436729302842
 20
3167.9919872169421
 30
0.0
  0
POINT
  5
7A8A
  8
DEFPOINTS
 62
     0
 10
-2287.5436729302842
 20
3258.9446504651801
 30
0.0
  0
ENDBLK
  5
77A2
  8
0
 62
     6
  0
BLOCK
  8
0
 62
     6
  2
*U9
 70
     1
 10
0.0
 20
0.0
 30
0.0
  3
*U9
  1

  0
TEXT
  5
18363
  8
0
  6
CONTINUOUS
 62
     0
 10
-2250.1168107512372
 20
3259.5696504651801
 30
0.0
 40
10.0
  1
90
  0
ENDBLK
  5
18365
  8
0
 62
     6
  0
BLOCK
  8
0
 62
     6
  2
*D10
 70
     1
 10
0.0
 20
0.0
 30
0.0
  3
*D10
  1

  0
LINE
  5
7A4B
  8
0
 62
     0
 10
-2121.8932494795222
 20
2746.5117637489611
 30
0.0
 11
-2176.6604462032319
 21
2746.5117637489611
 31
0.0
  0
LINE
  5
7A4C
  8
0
 62
     0
 10
-2121.0523022222828
 20
2867.3827665282911
 30
0.0
 11
-2176.6604462032319
 21
2867.3827665282911
 31
0.0
  0
LINE
  5
7A4D
  8
0
 62
     0
 10
-2175.4104462032319
 20
2749.0117637489611
 30
0.0
 11
-2175.4104462032319
 21
2864.8827665282911
 31
0.0
  0
SOLID
  5
7A4E
  8
0
 62
     0
 10
-2175.8271128698989
 20
2749.0117637489611
 30
0.0
 11
-2174.9937795365649
 21
2749.0117637489611
 31
0.0
 12
-2175.4104462032319
 22
2746.5117637489611
 32
0.0
 13
-2175.4104462032319
 23
2746.5117637489611
 33
0.0
  0
SOLID
  5
7A4F
  8
0
 62
     0
 10
-2175.8271128698989
 20
2864.8827665282911
 30
0.0
 11
-2174.9937795365649
 21
2864.8827665282911
 31
0.0
 12
-2175.4104462032319
 22
2867.3827665282911
 32
0.0
 13
-2175.4104462032319
 23
2867.3827665282911
 33
0.0
  0
INSERT
  5
7A50
  8
0
  6
CONTINUOUS
 62
     6
  2
*U11
 10
0.0
 20
0.0
 30
0.0
  0
POINT
  5
7A51
  8
DEFPOINTS
 62
     0
 10
-2121.2682494795222
 20
2746.5117637489611
 30
0.0
  0
POINT
  5
7A52
  8
DEFPOINTS
 62
     0
 10
-2120.4273022222828
 20
2867.3827665282911
 30
0.0
  0
POINT
  5
7A53
  8
DEFPOINTS
 62
     0
 10
-2175.4104462032319
 20
2867.3827665282911
 30
0.0
  0
ENDBLK
  5
77AE
  8
0
 62
     6
  0
BLOCK
  8
0
 62
     6
  2
*U11
 70
     1
 10
0.0
 20
0.0
 30
0.0
  3
*U11
  1

  0
TEXT
  5
18353
  8
0
  6
CONTINUOUS
 62
     0
 10
-2176.0354462032328
 20
2796.947265138625
 30
0.0
 40
10.0
  1
121
 50
90.0
  0
ENDBLK
  5
18355
  8
0
 62
     6
  0
BLOCK
  8
0
 62
     6
  2
*D12
 70
     1
 10
0.0
 20
0.0
 30
0.0
  3
*D12
  1

  0
LINE
  5
79E5
  8
0
 62
     0
 10
-1597.466678914383
 20
2665.4644283201101
 30
0.0
 11
-2122.5182494795222
 21
2665.4644283201101
 31
0.0
  0
LINE
  5
79E6
  8
0
 62
     0
 10
-2121.7032494795212
 20
2746.5117637489611
 30
0.0
 11
-2122.5182494795222
 21
2746.5117637489611
 31
0.0
  0
LINE
  5
79E7
  8
0
 62
     0
 10
-2121.2682494795222
 20
2667.9644283201101
 30
0.0
 11
-2121.2682494795222
 21
2744.0117637489611
 31
0.0
  0
SOLID
  5
79E8
  8
0
 62
     0
 10
-2121.6849161461892
 20
2667.9644283201101
 30
0.0
 11
-2120.8515828128561
 21
2667.9644283201101
 31
0.0
 12
-2121.2682494795222
 22
2665.4644283201101
 32
0.0
 13
-2121.2682494795222
 23
2665.4644283201101
 33
0.0
  0
SOLID
  5
79E9
  8
0
 62
     0
 10
-2121.6849161461892
 20
2744.0117637489611
 30
0.0
 11
-2120.8515828128561
 21
2744.0117637489611
 31
0.0
 12
-2121.2682494795222
 22
2746.5117637489611
 32
0.0
 13
-2121.2682494795222
 23
2746.5117637489611
 33
0.0
  0
INSERT
  5
79EA
  8
0
  6
CONTINUOUS
 62
     6
  2
*U13
 10
0.0
 20
0.0
 30
0.0
  0
POINT
  5
79EB
  8
DEFPOINTS
 62
     0
 10
-1596.841678914383
 20
2665.4644283201101
 30
0.0
  0
POINT
  5
79EC
  8
DEFPOINTS
 62
     0
 10
-2121.0782494795212
 20
2746.5117637489611
 30
0.0
  0
POINT
  5
79ED
  8
DEFPOINTS
 62
     0
 10
-2121.2682494795222
 20
2746.5117637489611
 30
0.0
  0
ENDBLK
  5
77BA
  8
0
 62
     6
  0
BLOCK
  8
0
 62
     6
  2
*U13
 70
     1
 10
0.0
 20
0.0
 30
0.0
  3
*U13
  1

  0
TEXT
  5
1833F
  8
0
  6
CONTINUOUS
 62
     0
 10
-2121.8932494795231
 20
2699.3214293678679
 30
0.0
 40
10.0
  1
81
 50
90.0
  0
ENDBLK
  5
18341
  8
0
 62
     6
  0
BLOCK
  8
0
 62
     6
  2
*D14
 70
     1
 10
0.0
 20
0.0
 30
0.0
  3
*D14
  1

  0
LINE
  5
7A1B
  8
0
 62
     0
 10
-1546.285754714615
 20
3165.669500067193
 30
0.0
 11
-1546.285754714615
 21
3340.7421727043311
 31
0.0
  0
LINE
  5
7A1C
  8
0
 62
     0
 10
-2336.4456841042361
 20
3164.8961246215149
 30
0.0
 11
-2336.4456841042361
 21
3340.7421727043311
 31
0.0
  0
LINE
  5
7A1D
  8
0
 62
     0
 10
-1548.785754714615
 20
3339.4921727043311
 30
0.0
 11
-2333.9456841042361
 21
3339.4921727043311
 31
0.0
  0
SOLID
  5
7A1E
  8
0
 62
     0
 10
-1548.785754714615
 20
3339.9088393709958
 30
0.0
 11
-1548.785754714615
 21
3339.0755060376632
 31
0.0
 12
-1546.285754714615
 22
3339.4921727043311
 32
0.0
 13
-1546.285754714615
 23
3339.4921727043311
 33
0.0
  0
SOLID
  5
7A1F
  8
0
 62
     0
 10
-2333.9456841042361
 20
3339.9088393709958
 30
0.0
 11
-2333.9456841042361
 21
3339.0755060376632
 31
0.0
 12
-2336.4456841042361
 22
3339.4921727043311
 32
0.0
 13
-2336.4456841042361
 23
3339.4921727043311
 33
0.0
  0
INSERT
  5
7A20
  8
0
  6
CONTINUOUS
 62
     6
  2
*U15
 10
0.0
 20
0.0
 30
0.0
  0
POINT
  5
7A21
  8
DEFPOINTS
 62
     0
 10
-1546.285754714615
 20
3165.044500067193
 30
0.0
  0
POINT
  5
7A22
  8
DEFPOINTS
 62
     0
 10
-2336.4456841042361
 20
3164.2711246215149
 30
0.0
  0
POINT
  5
7A23
  8
DEFPOINTS
 62
     0
 10
-2336.4456841042361
 20
3339.4921727043311
 30
0.0
  0
ENDBLK
  5
77CF
  8
0
 62
     6
  0
BLOCK
  8
0
 62
     6
  2
*U15
 70
     1
 10
0.0
 20
0.0
 30
0.0
  3
*U15
  1

  0
TEXT
  5
1834B
  8
0
  6
CONTINUOUS
 62
     0
 10
-1953.8657194094251
 20
3340.1171727043288
 30
0.0
 40
10.0
  1
790
  0
ENDBLK
  5
1834D
  8
0
 62
     6
  0
BLOCK
  8
0
 62
     6
  2
*D16
 70
     1
 10
0.0
 20
0.0
 30
0.0
  3
*D16
  1

  0
LINE
  5
7A66
  8
0
 62
     0
 10
-1924.297267941633
 20
3111.9318095020399
 30
0.0
 11
-1924.297267941633
 21
3091.0884506383768
 31
0.0
  0
LINE
  5
7A67
  8
0
 62
     0
 10
-1705.0910508521961
 20
3132.4014684916669
 30
0.0
 11
-1705.0910508521961
 21
3091.0884506383768
 31
0.0
  0
LINE
  5
7A68
  8
0
 62
     0
 10
-1921.797267941633
 20
3092.3384506383768
 30
0.0
 11
-1707.5910508521961
 21
3092.3384506383768
 31
0.0
  0
SOLID
  5
7A69
  8
0
 62
     0
 10
-1921.797267941633
 20
3092.7551173050442
 30
0.0
 11
-1921.797267941633
 21
3091.9217839717112
 31
0.0
 12
-1924.297267941633
 22
3092.3384506383768
 32
0.0
 13
-1924.297267941633
 23
3092.3384506383768
 33
0.0
  0
SOLID
  5
7A6A
  8
0
 62
     0
 10
-1707.5910508521961
 20
3092.7551173050442
 30
0.0
 11
-1707.5910508521961
 21
3091.9217839717112
 31
0.0
 12
-1705.0910508521961
 22
3092.3384506383768
 32
0.0
 13
-1705.0910508521961
 23
3092.3384506383768
 33
0.0
  0
INSERT
  5
7A6B
  8
0
  6
CONTINUOUS
 62
     6
  2
*U17
 10
0.0
 20
0.0
 30
0.0
  0
POINT
  5
7A6C
  8
DEFPOINTS
 62
     0
 10
-1924.297267941633
 20
3112.5568095020399
 30
0.0
  0
POINT
  5
7A6D
  8
DEFPOINTS
 62
     0
 10
-1705.0910508521961
 20
3133.0264684916669
 30
0.0
  0
POINT
  5
7A6E
  8
DEFPOINTS
 62
     0
 10
-1705.0910508521961
 20
3092.3384506383768
 30
0.0
  0
ENDBLK
  5
77E4
  8
0
 62
     6
  0
BLOCK
  8
0
 62
     6
  2
*U17
 70
     1
 10
0.0
 20
0.0
 30
0.0
  3
*U17
  1

  0
TEXT
  5
1835F
  8
0
  6
CONTINUOUS
 62
     0
 10
-1826.360826063581
 20
3092.9634506383768
 30
0.0
 40
10.0
  1
219
  0
ENDBLK
  5
18361
  8
0
 62
     6
  0
BLOCK
  8
0
 62
     6
  2
*D18
 70
     1
 10
0.0
 20
0.0
 30
0.0
  3
*D18
  1

  0
LINE
  5
7A00
  8
0
 62
     0
 10
-1924.297205498872
 20
3218.1687641034669
 30
0.0
 11
-1924.297205498872
 21
3260.1434077348958
 31
0.0
  0
LINE
  5
7A01
  8
0
 62
     0
 10
-1546.3022368977799
 20
3184.5570382045648
 30
0.0
 11
-1546.3022368977799
 21
3260.1434077348958
 31
0.0
  0
LINE
  5
7A02
  8
0
 62
     0
 10
-1921.797205498872
 20
3258.8934077348972
 30
0.0
 11
-1548.8022368977799
 21
3258.8934077348972
 31
0.0
  0
SOLID
  5
7A03
  8
0
 62
     0
 10
-1921.797205498872
 20
3259.3100744015642
 30
0.0
 11
-1921.797205498872
 21
3258.4767410682298
 31
0.0
 12
-1924.297205498872
 22
3258.8934077348972
 32
0.0
 13
-1924.297205498872
 23
3258.8934077348972
 33
0.0
  0
SOLID
  5
7A04
  8
0
 62
     0
 10
-1548.8022368977799
 20
3259.3100744015642
 30
0.0
 11
-1548.8022368977799
 21
3258.4767410682298
 31
0.0
 12
-1546.3022368977799
 22
3258.8934077348972
 32
0.0
 13
-1546.3022368977799
 23
3258.8934077348972
 33
0.0
  0
INSERT
  5
7A05
  8
0
  6
CONTINUOUS
 62
     6
  2
*U19
 10
0.0
 20
0.0
 30
0.0
  0
POINT
  5
7A06
  8
DEFPOINTS
 62
     0
 10
-1924.297205498872
 20
3217.5437641034669
 30
0.0
  0
POINT
  5
7A07
  8
DEFPOINTS
 62
     0
 10
-1546.3022368977799
 20
3183.9320382045648
 30
0.0
  0
POINT
  5
7A08
  8
DEFPOINTS
 62
     0
 10
-1546.3022368977799
 20
3258.8934077348972
 30
0.0
  0
ENDBLK
  5
77F0
  8
0
 62
     6
  0
BLOCK
  8
0
 62
     6
  2
*U19
 70
     1
 10
0.0
 20
0.0
 30
0.0
  3
*U19
  1

  0
TEXT
  5
18347
  8
0
  6
CONTINUOUS
 62
     0
 10
-1748.63305453166
 20
3259.5184077348958
 30
0.0
 40
10.0
  1
378
  0
ENDBLK
  5
18349
  8
0
 62
     6
  0
BLOCK
  8
0
 62
     6
  2
*D20
 70
     1
 10
0.0
 20
0.0
 30
0.0
  3
*D20
  1

  0
LINE
  5
7A31
  8
0
 62
     0
 10
-1930.999641543403
 20
3117.0791184715431
 30
0.0
 11
-1930.999641543403
 21
3043.325037664998
 31
0.0
  0
LINE
  5
7A32
  8
0
 62
     0
 10
-1705.0910508521961
 20
3164.419500067193
 30
0.0
 11
-1705.0910508521961
 21
3043.325037664998
 31
0.0
  0
LINE
  5
7A33
  8
0
 62
     0
 10
-1928.499641543403
 20
3044.5750376649971
 30
0.0
 11
-1707.5910508521961
 21
3044.5750376649971
 31
0.0
  0
SOLID
  5
7A34
  8
0
 62
     0
 10
-1928.499641543403
 20
3044.9917043316632
 30
0.0
 11
-1928.499641543403
 21
3044.158370998332
 31
0.0
 12
-1930.999641543403
 22
3044.5750376649971
 32
0.0
 13
-1930.999641543403
 23
3044.5750376649971
 33
0.0
  0
SOLID
  5
7A35
  8
0
 62
     0
 10
-1707.5910508521961
 20
3044.9917043316632
 30
0.0
 11
-1707.5910508521961
 21
3044.158370998332
 31
0.0
 12
-1705.0910508521961
 22
3044.5750376649971
 32
0.0
 13
-1705.0910508521961
 23
3044.5750376649971
 33
0.0
  0
INSERT
  5
7A36
  8
0
  6
CONTINUOUS
 62
     6
  2
*U21
 10
0.0
 20
0.0
 30
0.0
  0
POINT
  5
7A37
  8
DEFPOINTS
 62
     0
 10
-1930.999641543403
 20
3117.7041184715431
 30
0.0
  0
POINT
  5
7A38
  8
DEFPOINTS
 62
     0
 10
-1705.0910508521961
 20
3165.044500067193
 30
0.0
  0
POINT
  5
7A39
  8
DEFPOINTS
 62
     0
 10
-1705.0910508521961
 20
3044.5750376649971
 30
0.0
  0
ENDBLK
  5
77FC
  8
0
 62
     6
  0
BLOCK
  8
0
 62
     6
  2
*U21
 70
     1
 10
0.0
 20
0.0
 30
0.0
  3
*U21
  1

  0
TEXT
  5
1834F
  8
0
  6
CONTINUOUS
 62
     0
 10
-1837.2290841583031
 20
3045.200037664998
 30
0.0
 40
10.0
  1
226
  0
ENDBLK
  5
18351
  8
0
 62
     6
  0
BLOCK
  8
0
 62
     6
  2
*D22
 70
     1
 10
0.0
 20
0.0
 30
0.0
  3
*D22
  1

  0
LINE
  5
7A94
  8
0
 62
     0
 10
-2195.690223695799
 20
3165.044500067193
 30
0.0
 11
-2178.4398864013701
 21
3165.044500067193
 31
0.0
  0
LINE
  5
7A95
  8
0
 62
     0
 10
-2195.7542426656391
 20
3167.489285891183
 30
0.0
 11
-2178.4398864013701
 21
3167.489285891183
 31
0.0
  0
LINE
  5
7A96
  8
0
 62
     0
 10
-2179.6898864013701
 20
3162.544500067193
 30
0.0
 11
-2179.6898864013701
 21
3160.044500067193
 31
0.0
  0
LINE
  5
7A97
  8
0
 62
     0
 10
-2179.6898864013701
 20
3169.989285891183
 30
0.0
 11
-2179.6898864013701
 21
3195.40595255785
 31
0.0
  0
LINE
  5
7A98
  8
0
 62
     0
 10
-2179.6898864013701
 20
3165.044500067193
 30
0.0
 11
-2179.6898864013701
 21
3167.489285891183
 31
0.0
  0
SOLID
  5
7A99
  8
0
 62
     0
 10
-2180.1065530680362
 20
3162.544500067193
 30
0.0
 11
-2179.2732197347032
 21
3162.544500067193
 31
0.0
 12
-2179.6898864013701
 22
3165.044500067193
 32
0.0
 13
-2179.6898864013701
 23
3165.044500067193
 33
0.0
  0
SOLID
  5
7A9A
  8
0
 62
     0
 10
-2180.1065530680362
 20
3169.989285891183
 30
0.0
 11
-2179.2732197347032
 21
3169.989285891183
 31
0.0
 12
-2179.6898864013701
 22
3167.489285891183
 32
0.0
 13
-2179.6898864013701
 23
3167.489285891183
 33
0.0
  0
INSERT
  5
7A9B
  8
0
  6
CONTINUOUS
 62
     6
  2
*U23
 10
0.0
 20
0.0
 30
0.0
  0
POINT
  5
7A9C
  8
DEFPOINTS
 62
     0
 10
-2196.315223695799
 20
3165.044500067193
 30
0.0
  0
POINT
  5
7A9D
  8
DEFPOINTS
 62
     0
 10
-2196.3792426656391
 20
3167.489285891183
 30
0.0
  0
POINT
  5
7A9E
  8
DEFPOINTS
 62
     0
 10
-2179.6898864013701
 20
3167.489285891183
 30
0.0
  0
ENDBLK
  5
780A
  8
0
 62
     6
  0
BLOCK
  8
0
 62
     6
  2
*U23
 70
     1
 10
0.0
 20
0.0
 30
0.0
  3
*U23
  1

  0
TEXT
  5
1836B
  8
0
  6
CONTINUOUS
 62
     0
 10
-2181.9815530680371
 20
3173.114285891183
 30
0.0
 40
10.0
  1
2,4
 50
90.0
  0
ENDBLK
  5
1836D
  8
0
 62
     6
  0
BLOCK
  8
0
 62
     6
  2
*D24
 70
     1
 10
0.0
 20
0.0
 30
0.0
  3
*D24
  1

  0
ARC
  5
1725D
  8
0
 62
     0
 10
-2197.6899485721901
 20
3217.5431250538859
 30
0.0
 40
12.63713205027361
 50
247.1798515714525
 51
270.00000000000011
  0
LINE
  5
1725E
  8
0
 62
     0
 10
-2202.5911306008552
 20
3205.8951414868511
 30
0.0
 11
-2226.786459684884
 21
3216.0759347032731
 31
0.0
  0
ARC
  5
1725F
  8
0
 62
     0
 10
-2197.6899485721901
 20
3217.5431250538859
 30
0.0
 40
12.63713205027361
 50
247.2932557847721
 51
258.64662789238611
  0
ARC
  5
17260
  8
0
 62
     0
 10
-2197.6899485721901
 20
3217.5431250538859
 30
0.0
 40
12.63713205027361
 50
282.85337210761389
 51
294.2067442152279
  0
ARC
  5
17261
  8
0
 62
     0
 10
-2197.6899485721901
 20
3217.5431250538859
 30
0.0
 40
12.63713205027361
 50
270.00000000000011
 51
271.5
  0
SOLID
  5
17262
  8
0
 62
     0
 10
-2200.1364738053021
 20
3205.567903416631
 30
0.0
 11
-2200.2189028455718
 21
3204.7386568322158
 31
0.0
 12
-2197.6899485721901
 22
3204.9059930036151
 32
0.0
 13
-2197.6899485721901
 23
3204.9059930036151
 33
0.0
  0
SOLID
  5
17263
  8
0
 62
     0
 10
-2194.8266790055268
 20
3204.8092449089631
 30
0.0
 11
-2194.9307869443992
 21
3205.6360495905592
 31
0.0
 12
-2197.3591470197489
 22
3204.9103234331469
 32
0.0
 13
-2197.3591470197489
 23
3204.9103234331469
 33
0.0
  0
TEXT
  5
1A2AC
  8
0
 62
     0
 10
-2212.1799999999998
 20
3203.9400000000001
 30
0.0
 40
10.0
  1
1,5?
  0
POINT
  5
17265
  8
DEFPOINTS
 62
     0
 10
-2197.4694002074471
 20
3204.907917700034
 30
0.0
  0
POINT
  5
17266
  8
DEFPOINTS
 62
     0
 10
-2197.689912578538
 20
3217.5417505117648
 30
0.0
  0
POINT
  5
17267
  8
DEFPOINTS
 62
     0
 10
-2197.6899485721901
 20
3112.5445000671898
 30
0.0
  0
POINT
  5
17268
  8
DEFPOINTS
 62
     0
 10
-2197.6899485721901
 20
3217.5445000671898
 30
0.0
  0
POINT
  5
17269
  8
DEFPOINTS
 62
     0
 10
-2194.9413330062112
 20
3112.5777313893309
 30
0.0
  0
ENDBLK
  5
781A
  8
0
 62
     6
  0
BLOCK
  8
0
 62
     6
  2
*D25
 70
     1
 10
0.0
 20
0.0
 30
0.0
  3
*D25
  1

  0
LINE
  5
7AC6
  8
0
 62
     0
 10
-2018.1099865304041
 20
2804.165944233036
 30
0.0
 11
-2118.6275529126769
 21
2804.4513809667078
 31
0.0
  0
INSERT
  5
7AC7
  8
0
  6
CONTINUOUS
 62
     6
  2
*U26
 10
0.0
 20
0.0
 30
0.0
  0
SOLID
  5
7AC8
  8
0
 62
     0
 10
-2118.6263697215481
 20
2804.8680459534421
 30
0.0
 11
-2118.6287361038062
 21
2804.0347159799749
 31
0.0
 12
-2121.1275428330791
 22
2804.458480113482
 32
0.0
 13
-2121.1275428330791
 23
2804.458480113482
 33
0.0
  0
POINT
  5
7AC9
  8
DEFPOINTS
 62
     0
 10
-2121.1275428330791
 20
2804.458480113482
 30
0.0
  0
POINT
  5
7ACA
  8
DEFPOINTS
 62
     0
 10
-2053.4826897419489
 20
2804.2663910427732
 30
0.0
  0
ENDBLK
  5
783D
  8
0
 62
     6
  0
BLOCK
  8
0
 62
     6
  2
*U26
 70
     1
 10
0.0
 20
0.0
 30
0.0
  3
*U26
  1

  0
TEXT
  5
18377
  8
0
  6
CONTINUOUS
 62
     0
 10
-2045.3997683747741
 20
2804.8684407320829
 30
0.0
 40
10.0
  1
R68
 50
359.83729932202482
  0
ENDBLK
  5
18379
  8
0
 62
     6
  0
BLOCK
  8
0
 62
     6
  2
*D27
 70
     1
 10
0.0
 20
0.0
 30
0.0
  3
*D27
  1

  0
LINE
  5
17668
  8
0
 62
     0
 10
-2152.0649485721901
 20
3112.5445000671898
 30
0.0
 11
-2066.3662759061599
 21
3112.5445000671898
 31
0.0
  0
ARC
  5
17669
  8
0
 62
     0
 10
-1800.852427937223
 20
3112.5445000671898
 30
0.0
 40
266.76384796893672
 50
177.96304578354631
 51
178.49999999999989
  0
LINE
  5
1766A
  8
0
 62
     0
 10
-2067.4477104790849
 20
3122.0263727524029
 30
0.0
 11
-2066.7812591806751
 21
3140.7645248135559
 31
0.0
  0
ARC
  5
1766B
  8
0
 62
     0
 10
-1800.852427937223
 20
3112.5445000671898
 30
0.0
 40
266.76384796893672
 50
179.03695421645341
 51
179.46304578354631
  0
SOLID
  5
1766C
  8
0
 62
     0
 10
-2067.9951642045949
 20
3117.0370961982549
 30
0.0
 11
-2067.1620233628478
 21
3117.0191858030271
 31
0.0
 12
-2067.5248625980362
 22
3119.5275635258831
 32
0.0
 13
-2067.5248625980362
 23
3119.5275635258831
 33
0.0
  0
SOLID
  5
1766D
  8
0
 62
     0
 10
-2067.187899332926
 20
3115.0425202077449
 30
0.0
 11
-2068.0212235176059
 21
3115.046425034709
 31
0.0
 12
-2067.616275906159
 22
3112.5445000671898
 32
0.0
 13
-2067.616275906159
 23
3112.5445000671898
 33
0.0
  0
TEXT
  5
1A2AD
  8
0
 62
     0
 10
-2071.8200000000002
 20
3122.46
 30
0.0
 40
7.0
  1
1,5?
  0
POINT
  5
1766F
  8
DEFPOINTS
 62
     0
 10
-2067.6061183562392
 20
3114.8724242561739
 30
0.0
  0
POINT
  5
17670
  8
DEFPOINTS
 62
     0
 10
-2152.6899485721901
 20
3112.5445000671898
 30
0.0
  0
POINT
  5
17671
  8
DEFPOINTS
 62
     0
 10
-2152.677328749764
 20
3121.757359325954
 30
0.0
  0
POINT
  5
17672
  8
DEFPOINTS
 62
     0
 10
-1930.9558888125589
 20
3115.9513790895521
 30
0.0
  0
POINT
  5
17673
  8
DEFPOINTS
 62
     0
 10
-2197.6899485721901
 20
3112.5445000671898
 30
0.0
  0
ENDBLK
  5
7858
  8
0
 62
     6
  0
BLOCK
  8
0
 62
     6
  2
*D28
 70
     1
 10
0.0
 20
0.0
 30
0.0
  3
*D28
  1

  0
LINE
  5
7A5D
  8
0
 62
     0
 10
-2152.6899485721901
 20
3111.9195000671912
 30
0.0
 11
-2152.6899485721901
 21
3094.5324227317969
 31
0.0
  0
LINE
  5
7A5E
  8
0
 62
     0
 10
-2194.9413330062121
 20
3111.9527313893318
 30
0.0
 11
-2194.9413330062121
 21
3094.5324227317969
 31
0.0
  0
LINE
  5
7A5F
  8
0
 62
     0
 10
-2155.1899485721901
 20
3095.782422731796
 30
0.0
 11
-2192.4413330062121
 21
3095.782422731796
 31
0.0
  0
SOLID
  5
7A60
  8
0
 62
     0
 10
-2155.1899485721901
 20
3096.1990893984621
 30
0.0
 11
-2155.1899485721901
 21
3095.3657560651291
 31
0.0
 12
-2152.6899485721901
 22
3095.782422731796
 32
0.0
 13
-2152.6899485721901
 23
3095.782422731796
 33
0.0
  0
SOLID
  5
7A61
  8
0
 62
     0
 10
-2192.4413330062121
 20
3096.1990893984621
 30
0.0
 11
-2192.4413330062121
 21
3095.3657560651291
 31
0.0
 12
-2194.9413330062121
 22
3095.782422731796
 32
0.0
 13
-2194.9413330062121
 23
3095.782422731796
 33
0.0
  0
INSERT
  5
7A62
  8
0
  6
CONTINUOUS
 62
     6
  2
*U29
 10
0.0
 20
0.0
 30
0.0
  0
POINT
  5
7A63
  8
DEFPOINTS
 62
     0
 10
-2152.6899485721901
 20
3112.5445000671912
 30
0.0
  0
POINT
  5
7A64
  8
DEFPOINTS
 62
     0
 10
-2194.9413330062121
 20
3112.5777313893332
 30
0.0
  0
POINT
  5
7A65
  8
DEFPOINTS
 62
     0
 10
-2194.9413330062121
 20
3095.782422731796
 30
0.0
  0
ENDBLK
  5
7864
  8
0
 62
     6
  0
BLOCK
  8
0
 62
     6
  2
*U29
 70
     1
 10
0.0
 20
0.0
 30
0.0
  3
*U29
  1

  0
TEXT
  5
1835B
  8
0
  6
CONTINUOUS
 62
     0
 10
-2180.2803334652431
 20
3096.4074227317951
 30
0.0
 40
10.0
  1
42
  0
ENDBLK
  5
1835D
  8
0
 62
     6
  0
BLOCK
  8
0
 62
     6
  2
*D30
 70
     1
 10
0.0
 20
0.0
 30
0.0
  3
*D30
  1

  0
LINE
  5
7A54
  8
0
 62
     0
 10
-2152.6899485721901
 20
3111.9195000671912
 30
0.0
 11
-2152.6899485721901
 21
3053.7807865896921
 31
0.0
  0
LINE
  5
7A55
  8
0
 62
     0
 10
-2197.6899485721901
 20
3111.9195000671912
 30
0.0
 11
-2197.6899485721901
 21
3053.7807865896921
 31
0.0
  0
LINE
  5
7A56
  8
0
 62
     0
 10
-2155.1899485721901
 20
3055.0307865896912
 30
0.0
 11
-2195.1899485721901
 21
3055.0307865896912
 31
0.0
  0
SOLID
  5
7A57
  8
0
 62
     0
 10
-2155.1899485721901
 20
3055.4474532563581
 30
0.0
 11
-2155.1899485721901
 21
3054.6141199230251
 31
0.0
 12
-2152.6899485721901
 22
3055.0307865896912
 32
0.0
 13
-2152.6899485721901
 23
3055.0307865896912
 33
0.0
  0
SOLID
  5
7A58
  8
0
 62
     0
 10
-2195.1899485721901
 20
3055.4474532563581
 30
0.0
 11
-2195.1899485721901
 21
3054.6141199230251
 31
0.0
 12
-2197.6899485721901
 22
3055.0307865896912
 32
0.0
 13
-2197.6899485721901
 23
3055.0307865896912
 33
0.0
  0
INSERT
  5
7A59
  8
0
  6
CONTINUOUS
 62
     6
  2
*U31
 10
0.0
 20
0.0
 30
0.0
  0
POINT
  5
7A5A
  8
DEFPOINTS
 62
     0
 10
-2152.6899485721901
 20
3112.5445000671912
 30
0.0
  0
POINT
  5
7A5B
  8
DEFPOINTS
 62
     0
 10
-2197.6899485721901
 20
3112.5445000671912
 30
0.0
  0
POINT
  5
7A5C
  8
DEFPOINTS
 62
     0
 10
-2197.6899485721901
 20
3055.0307865896912
 30
0.0
  0
ENDBLK
  5
7870
  8
0
 62
     6
  0
BLOCK
  8
0
 62
     6
  2
*U31
 70
     1
 10
0.0
 20
0.0
 30
0.0
  3
*U31
  1

  0
TEXT
  5
18357
  8
0
  6
CONTINUOUS
 62
     0
 10
-2183.5232819055232
 20
3055.6557865896921
 30
0.0
 40
10.0
  1
45
  0
ENDBLK
  5
18359
  8
0
 62
     6
  0
BLOCK
  8
0
 62
     6
  2
*D32
 70
     1
 10
0.0
 20
0.0
 30
0.0
  3
*D32
  1

  0
LINE
  5
7DBD
  8
0
 62
     0
 10
-1930.9996415434341
 20
3113.1695000671889
 30
0.0
 11
-1930.9996415434341
 21
3134.567532454741
 31
0.0
  0
LINE
  5
7DBE
  8
0
 62
     0
 10
-1924.297267941633
 20
3113.1818178717599
 30
0.0
 11
-1924.297267941633
 21
3134.567532454741
 31
0.0
  0
LINE
  5
7DBF
  8
0
 62
     0
 10
-1926.797267941633
 20
3133.317532454741
 30
0.0
 11
-1928.4996415434341
 21
3133.317532454741
 31
0.0
  0
LINE
  5
7DC0
  8
0
 62
     0
 10
-1930.9996415434341
 20
3133.317532454741
 30
0.0
 11
-1941.416308210318
 21
3133.317532454741
 31
0.0
  0
SOLID
  5
7DC1
  8
0
 62
     0
 10
-1926.797267941633
 20
3133.734199121408
 30
0.0
 11
-1926.797267941633
 21
3132.900865788075
 31
0.0
 12
-1924.297267941633
 22
3133.317532454741
 32
0.0
 13
-1924.297267941633
 23
3133.317532454741
 33
0.0
  0
SOLID
  5
7DC2
  8
0
 62
     0
 10
-1928.4996415434341
 20
3133.734199121408
 30
0.0
 11
-1928.4996415434341
 21
3132.900865788075
 31
0.0
 12
-1930.9996415434341
 22
3133.317532454741
 32
0.0
 13
-1930.9996415434341
 23
3133.317532454741
 33
0.0
  0
INSERT
  5
7DC3
  8
0
  6
CONTINUOUS
 62
     6
  2
*U33
 10
0.0
 20
0.0
 30
0.0
  0
POINT
  5
7DC4
  8
DEFPOINTS
 62
     0
 10
-1930.9996415434341
 20
3112.5445000671898
 30
0.0
  0
POINT
  5
7DC5
  8
DEFPOINTS
 62
     0
 10
-1924.297267941633
 20
3112.5568178717608
 30
0.0
  0
POINT
  5
7DC6
  8
DEFPOINTS
 62
     0
 10
-1924.297267941633
 20
3133.317532454741
 30
0.0
  0
ENDBLK
  5
787D
  8
0
 62
     6
  0
BLOCK
  8
0
 62
     6
  2
*U33
 70
     1
 10
0.0
 20
0.0
 30
0.0
  3
*U33
  1

  0
TEXT
  5
184E4
  8
0
  6
CONTINUOUS
 62
     0
 10
-1940.7913082103159
 20
3133.942532454741
 30
0.0
 40
10.0
  1
7
  0
ENDBLK
  5
184E6
  8
0
 62
     6
  0
BLOCK
  8
0
 62
     6
  2
*D34
 70
     1
 10
0.0
 20
0.0
 30
0.0
  3
*D34
  1

  0
LINE
  5
7ABD
  8
0
 62
     0
 10
-1924.297205498872
 20
3218.1687641034669
 30
0.0
 11
-1924.297205498872
 21
3260.1335123869749
 31
0.0
  0
LINE
  5
7ABE
  8
0
 62
     0
 10
-2197.6899485721901
 20
3218.1687641034669
 30
0.0
 11
-2197.6899485721901
 21
3260.1335123869749
 31
0.0
  0
LINE
  5
7ABF
  8
0
 62
     0
 10
-1926.7972054988729
 20
3258.8835123869749
 30
0.0
 11
-2195.1899485721901
 21
3258.8835123869749
 31
0.0
  0
SOLID
  5
7AC0
  8
0
 62
     0
 10
-1926.7972054988729
 20
3259.3001790536409
 30
0.0
 11
-1926.7972054988729
 21
3258.4668457203088
 31
0.0
 12
-1924.297205498872
 22
3258.8835123869749
 32
0.0
 13
-1924.297205498872
 23
3258.8835123869749
 33
0.0
  0
SOLID
  5
7AC1
  8
0
 62
     0
 10
-2195.1899485721901
 20
3259.3001790536409
 30
0.0
 11
-2195.1899485721901
 21
3258.4668457203088
 31
0.0
 12
-2197.6899485721901
 22
3258.8835123869749
 32
0.0
 13
-2197.6899485721901
 23
3258.8835123869749
 33
0.0
  0
INSERT
  5
7AC2
  8
0
  6
CONTINUOUS
 62
     6
  2
*U35
 10
0.0
 20
0.0
 30
0.0
  0
POINT
  5
7AC3
  8
DEFPOINTS
 62
     0
 10
-1924.297205498872
 20
3217.5437641034682
 30
0.0
  0
POINT
  5
7AC4
  8
DEFPOINTS
 62
     0
 10
-2197.6899485721901
 20
3217.5437641034682
 30
0.0
  0
POINT
  5
7AC5
  8
DEFPOINTS
 62
     0
 10
-2197.6899485721901
 20
3258.8835123869749
 30
0.0
  0
ENDBLK
  5
7889
  8
0
 62
     6
  0
BLOCK
  8
0
 62
     6
  2
*U35
 70
     1
 10
0.0
 20
0.0
 30
0.0
  3
*U35
  1

  0
TEXT
  5
18373
  8
0
  6
CONTINUOUS
 62
     0
 10
-2060.9935903688652
 20
3259.508512386974
 30
0.0
 40
0.00001
  1
273
  0
ENDBLK
  5
18375
  8
0
 62
     6
  0
BLOCK
  8
0
 62
     6
  2
*D36
 70
     1
 10
0.0
 20
0.0
 30
0.0
  3
*D36
  1

  0
LINE
  5
79F7
  8
0
 62
     0
 10
-1705.0910508521961
 20
3133.0264684916669
 30
0.0
 11
-1705.0910508521961
 21
3070.0581010346191
 31
0.0
  0
LINE
  5
79F8
  8
0
 62
     0
 10
-1546.3022368977799
 20
3148.3070382045639
 30
0.0
 11
-1546.3022368977799
 21
3070.0581010346191
 31
0.0
  0
LINE
  5
79F9
  8
0
 62
     0
 10
-1702.5910508521961
 20
3071.3081010346191
 30
0.0
 11
-1548.8022368977799
 21
3071.3081010346191
 31
0.0
  0
SOLID
  5
79FA
  8
0
 62
     0
 10
-1702.5910508521961
 20
3071.7247677012851
 30
0.0
 11
-1702.5910508521961
 21
3070.8914343679521
 31
0.0
 12
-1705.0910508521961
 22
3071.3081010346191
 32
0.0
 13
-1705.0910508521961
 23
3071.3081010346191
 33
0.0
  0
SOLID
  5
79FB
  8
0
 62
     0
 10
-1548.8022368977799
 20
3071.7247677012851
 30
0.0
 11
-1548.8022368977799
 21
3070.8914343679521
 31
0.0
 12
-1546.3022368977799
 22
3071.3081010346191
 32
0.0
 13
-1546.3022368977799
 23
3071.3081010346191
 33
0.0
  0
INSERT
  5
79FC
  8
0
  6
CONTINUOUS
 62
     6
  2
*U37
 10
0.0
 20
0.0
 30
0.0
  0
POINT
  5
79FD
  8
DEFPOINTS
 62
     0
 10
-1705.0910508521961
 20
3133.6514684916669
 30
0.0
  0
POINT
  5
79FE
  8
DEFPOINTS
 62
     0
 10
-1546.3022368977799
 20
3148.9320382045648
 30
0.0
  0
POINT
  5
79FF
  8
DEFPOINTS
 62
     0
 10
-1546.3022368977799
 20
3071.3081010346191
 30
0.0
  0
ENDBLK
  5
7895
  8
0
 62
     6
  0
BLOCK
  8
0
 62
     6
  2
*U37
 70
     1
 10
0.0
 20
0.0
 30
0.0
  3
*U37
  1

  0
TEXT
  5
18343
  8
0
  6
CONTINUOUS
 62
     0
 10
-1637.363310541655
 20
3071.9331010346191
 30
0.0
 40
10.0
  1
159
  0
ENDBLK
  5
18345
  8
0
 62
     6
  0
BLOCK
  8
0
 62
     6
  2
*D38
 70
     1
 10
0.0
 20
0.0
 30
0.0
  3
*D38
  1

  0
LINE
  5
7ACB
  8
0
 62
     0
 10
-1595.6256789143829
 20
2895.4694283201088
 30
0.0
 11
-1536.354627870008
 21
2895.4694283201088
 31
0.0
  0
LINE
  5
7ACC
  8
0
 62
     0
 10
-1595.650678914383
 20
2665.4644283201101
 30
0.0
 11
-1536.354627870008
 21
2665.4644283201101
 31
0.0
  0
LINE
  5
7ACD
  8
0
 62
     0
 10
-1537.604627870008
 20
2892.9694283201088
 30
0.0
 11
-1537.604627870008
 21
2667.9644283201101
 31
0.0
  0
SOLID
  5
7ACE
  8
0
 62
     0
 10
-1538.021294536675
 20
2892.9694283201088
 30
0.0
 11
-1537.187961203341
 21
2892.9694283201088
 31
0.0
 12
-1537.604627870008
 22
2895.4694283201088
 32
0.0
 13
-1537.604627870008
 23
2895.4694283201088
 33
0.0
  0
SOLID
  5
7ACF
  8
0
 62
     0
 10
-1538.021294536675
 20
2667.9644283201101
 30
0.0
 11
-1537.187961203341
 21
2667.9644283201101
 31
0.0
 12
-1537.604627870008
 22
2665.4644283201101
 32
0.0
 13
-1537.604627870008
 23
2665.4644283201101
 33
0.0
  0
INSERT
  5
7AD0
  8
0
  6
CONTINUOUS
 62
     6
  2
*U39
 10
0.0
 20
0.0
 30
0.0
  0
POINT
  5
7AD1
  8
DEFPOINTS
 62
     0
 10
-1596.2506789143829
 20
2895.4694283201088
 30
0.0
  0
POINT
  5
7AD2
  8
DEFPOINTS
 62
     0
 10
-1596.275678914383
 20
2665.4644283201101
 30
0.0
  0
POINT
  5
7AD3
  8
DEFPOINTS
 62
     0
 10
-1537.604627870008
 20
2665.4644283201101
 30
0.0
  0
ENDBLK
  5
78A1
  8
0
 62
     6
  0
BLOCK
  8
0
 62
     6
  2
*U39
 70
     1
 10
0.0
 20
0.0
 30
0.0
  3
*U39
  1

  0
TEXT
  5
1837B
  8
0
  6
CONTINUOUS
 62
     0
 10
-1538.229627870008
 20
2767.9669283201079
 30
0.0
 40
10.0
  1
230
 50
90.0
  0
ENDBLK
  5
1837D
  8
0
 62
     6
  0
BLOCK
  8
0
 62
     6
  2
*D40
 70
     1
 10
0.0
 20
0.0
 30
0.0
  3
*D40
  1

  0
LINE
  5
7A9F
  8
0
 62
     0
 10
-1545.6772368977799
 20
3167.0445000671912
 30
0.0
 11
-1505.6859975308701
 21
3167.0445000671912
 31
0.0
  0
LINE
  5
7AA0
  8
0
 62
     0
 10
-1545.6772368977799
 20
3163.0445000671912
 30
0.0
 11
-1505.6859975308701
 21
3163.0445000671912
 31
0.0
  0
LINE
  5
7AA1
  8
0
 62
     0
 10
-1506.9359975308701
 20
3169.5445000671912
 30
0.0
 11
-1506.9359975308701
 21
3172.0445000671912
 31
0.0
  0
LINE
  5
7AA2
  8
0
 62
     0
 10
-1506.9359975308701
 20
3160.5445000671912
 30
0.0
 11
-1506.9359975308701
 21
3150.1278334005242
 31
0.0
  0
LINE
  5
7AA3
  8
0
 62
     0
 10
-1506.9359975308701
 20
3167.0445000671912
 30
0.0
 11
-1506.9359975308701
 21
3163.0445000671912
 31
0.0
  0
SOLID
  5
7AA4
  8
0
 62
     0
 10
-1507.352664197537
 20
3169.5445000671912
 30
0.0
 11
-1506.5193308642031
 21
3169.5445000671912
 31
0.0
 12
-1506.9359975308701
 22
3167.0445000671912
 32
0.0
 13
-1506.9359975308701
 23
3167.0445000671912
 33
0.0
  0
SOLID
  5
7AA5
  8
0
 62
     0
 10
-1507.352664197537
 20
3160.5445000671912
 30
0.0
 11
-1506.5193308642031
 21
3160.5445000671912
 31
0.0
 12
-1506.9359975308701
 22
3163.0445000671912
 32
0.0
 13
-1506.9359975308701
 23
3163.0445000671912
 33
0.0
  0
INSERT
  5
7AA6
  8
0
  6
CONTINUOUS
 62
     6
  2
*U41
 10
0.0
 20
0.0
 30
0.0
  0
POINT
  5
7AA7
  8
DEFPOINTS
 62
     0
 10
-1546.3022368977799
 20
3167.0445000671912
 30
0.0
  0
POINT
  5
7AA8
  8
DEFPOINTS
 62
     0
 10
-1546.3022368977799
 20
3163.0445000671912
 30
0.0
  0
POINT
  5
7AA9
  8
DEFPOINTS
 62
     0
 10
-1506.9359975308701
 20
3163.0445000671912
 30
0.0
  0
ENDBLK
  5
78AF
  8
0
 62
     6
  0
BLOCK
  8
0
 62
     6
  2
*U41
 70
     1
 10
0.0
 20
0.0
 30
0.0
  3
*U41
  1

  0
TEXT
  5
1836F
  8
0
  6
CONTINUOUS
 62
     0
 10
-1507.560997530871
 20
3150.7528334005228
 30
0.0
 40
10.0
  1
4
 50
90.0
  0
ENDBLK
  5
18371
  8
0
 62
     6
  0
BLOCK
  8
0
 62
     6
  2
*D42
 70
     1
 10
0.0
 20
0.0
 30
0.0
  3
*D42
  1

  0
LINE
  5
7AEC
  8
0
 62
     0
 10
-2198.314912578538
 20
3217.5417505117648
 30
0.0
 11
-2251.1681999266189
 21
3217.5417505117648
 31
0.0
  0
LINE
  5
7AED
  8
0
 62
     0
 10
-2198.3149485721901
 20
3111.9195000671912
 30
0.0
 11
-2251.1681999266189
 21
3111.9195000671912
 31
0.0
  0
LINE
  5
7AEE
  8
0
 62
     0
 10
-2249.9181999266179
 20
3215.0417505117648
 30
0.0
 11
-2249.9181999266179
 21
3114.4195000671912
 31
0.0
  0
SOLID
  5
7AEF
  8
0
 62
     0
 10
-2250.334866593284
 20
3215.0417505117648
 30
0.0
 11
-2249.5015332599519
 21
3215.0417505117648
 31
0.0
 12
-2249.9181999266179
 22
3217.5417505117648
 32
0.0
 13
-2249.9181999266179
 23
3217.5417505117648
 33
0.0
  0
SOLID
  5
7AF0
  8
0
 62
     0
 10
-2250.334866593284
 20
3114.4195000671912
 30
0.0
 11
-2249.5015332599519
 21
3114.4195000671912
 31
0.0
 12
-2249.9181999266179
 22
3111.9195000671912
 32
0.0
 13
-2249.9181999266179
 23
3111.9195000671912
 33
0.0
  0
INSERT
  5
7AF1
  8
0
  6
CONTINUOUS
 62
     6
  2
*U43
 10
0.0
 20
0.0
 30
0.0
  0
POINT
  5
7AF2
  8
DEFPOINTS
 62
     0
 10
-2197.689912578538
 20
3217.5417505117648
 30
0.0
  0
POINT
  5
7AF3
  8
DEFPOINTS
 62
     0
 10
-2197.6899485721901
 20
3111.9195000671912
 30
0.0
  0
POINT
  5
7AF4
  8
DEFPOINTS
 62
     0
 10
-2249.9181999266179
 20
3111.9195000671912
 30
0.0
  0
ENDBLK
  5
7AEB
  8
0
 62
     6
  0
BLOCK
  8
0
 62
     6
  2
*U43
 70
     1
 10
0.0
 20
0.0
 30
0.0
  3
*U43
  1

  0
TEXT
  5
18383
  8
0
  6
CONTINUOUS
 62
     0
 10
-2250.5431999266189
 20
3153.8972919561452
 30
0.0
 40
10.0
  1
106
 50
90.0
  0
ENDBLK
  5
18385
  8
0
 62
     6
  0
BLOCK
  8
0
 62
     6
  2
*D44
 70
     1
 10
0.0
 20
0.0
 30
0.0
  3
*D44
  1

  0
LINE
  5
7B3A
  8
0
 62
     0
 10
-207.51708632260119
 20
3141.9984762168551
 30
0.0
 11
-172.13062276737759
 21
3141.9984762168551
 31
0.0
  0
LINE
  5
7B3B
  8
0
 62
     0
 10
-207.51708632260119
 20
3171.9984762168551
 30
0.0
 11
-172.13062276737759
 21
3171.9984762168551
 31
0.0
  0
LINE
  5
7B3C
  8
0
 62
     0
 10
-173.38062276737759
 20
3144.4984762168551
 30
0.0
 11
-173.38062276737759
 21
3169.4984762168551
 31
0.0
  0
SOLID
  5
7B3D
  8
0
 62
     0
 10
-173.7972894340443
 20
3144.4984762168551
 30
0.0
 11
-172.9639561007109
 21
3144.4984762168551
 31
0.0
 12
-173.38062276737759
 22
3141.9984762168551
 32
0.0
 13
-173.38062276737759
 23
3141.9984762168551
 33
0.0
  0
SOLID
  5
7B3E
  8
0
 62
     0
 10
-173.7972894340443
 20
3169.4984762168551
 30
0.0
 11
-172.9639561007109
 21
3169.4984762168551
 31
0.0
 12
-173.38062276737759
 22
3171.9984762168551
 32
0.0
 13
-173.38062276737759
 23
3171.9984762168551
 33
0.0
  0
INSERT
  5
7B3F
  8
0
  6
CONTINUOUS
 62
     6
  2
*U45
 10
0.0
 20
0.0
 30
0.0
  0
POINT
  5
7B40
  8
DEFPOINTS
 62
     0
 10
-208.14208632260119
 20
3141.9984762168551
 30
0.0
  0
POINT
  5
7B41
  8
DEFPOINTS
 62
     0
 10
-208.14208632260119
 20
3171.9984762168551
 30
0.0
  0
POINT
  5
7B42
  8
DEFPOINTS
 62
     0
 10
-173.38062276737759
 20
3171.9984762168551
 30
0.0
  0
ENDBLK
  5
7B1B
  8
0
 62
     6
  0
BLOCK
  8
0
 62
     6
  2
*U45
 70
     1
 10
0.0
 20
0.0
 30
0.0
  3
*U45
  1

  0
TEXT
  5
18387
  8
0
  6
CONTINUOUS
 62
     0
 10
-174.0056227673781
 20
3149.498476216856
 30
0.0
 40
10.0
  1
30
 50
90.0
  0
ENDBLK
  5
18389
  8
0
 62
     6
  0
BLOCK
  8
0
 62
     6
  2
*D46
 70
     1
 10
0.0
 20
0.0
 30
0.0
  3
*D46
  1

  0
LINE
  5
7C9C
  8
0
 62
     0
 10
-874.19974828029422
 20
2818.673672455714
 30
0.0
 11
-874.19974828029422
 21
2793.351276822365
 31
0.0
  0
LINE
  5
7C9D
  8
0
 62
     0
 10
-814.19974828029444
 20
2818.673672455714
 30
0.0
 11
-814.19974828029444
 21
2793.351276822365
 31
0.0
  0
LINE
  5
7C9E
  8
0
 62
     0
 10
-871.6997482802941
 20
2794.601276822365
 30
0.0
 11
-816.69974828029422
 21
2794.601276822365
 31
0.0
  0
SOLID
  5
7C9F
  8
0
 62
     0
 10
-871.6997482802941
 20
2795.0179434890301
 30
0.0
 11
-871.6997482802941
 21
2794.1846101556989
 31
0.0
 12
-874.19974828029422
 22
2794.601276822365
 32
0.0
 13
-874.19974828029422
 23
2794.601276822365
 33
0.0
  0
SOLID
  5
7CA0
  8
0
 62
     0
 10
-816.69974828029422
 20
2795.0179434890301
 30
0.0
 11
-816.69974828029422
 21
2794.1846101556989
 31
0.0
 12
-814.19974828029444
 22
2794.601276822365
 32
0.0
 13
-814.19974828029444
 23
2794.601276822365
 33
0.0
  0
INSERT
  5
7CA1
  8
0
  6
CONTINUOUS
 62
     6
  2
*U47
 10
0.0
 20
0.0
 30
0.0
  0
POINT
  5
7CA2
  8
DEFPOINTS
 62
     0
 10
-874.19974828029422
 20
2819.298672455714
 30
0.0
  0
POINT
  5
7CA3
  8
DEFPOINTS
 62
     0
 10
-814.19974828029444
 20
2819.298672455714
 30
0.0
  0
POINT
  5
7CA4
  8
DEFPOINTS
 62
     0
 10
-814.19974828029444
 20
2794.601276822365
 30
0.0
  0
ENDBLK
  5
7C92
  8
0
 62
     6
  0
BLOCK
  8
0
 62
     6
  2
*U47
 70
     1
 10
0.0
 20
0.0
 30
0.0
  3
*U47
  1

  0
TEXT
  5
183F0
  8
0
  6
CONTINUOUS
 62
     0
 10
-847.94974828029422
 20
2795.226276822365
 30
0.0
 40
5.0
  1
60
  0
ENDBLK
  5
183F2
  8
0
 62
     6
  0
BLOCK
  8
0
 62
     6
  2
*D48
 70
     1
 10
0.0
 20
0.0
 30
0.0
  3
*D48
  1

  0
LINE
  5
806D
  8
0
 62
     0
 10
-518.02300536136681
 20
3529.4267079029091
 30
0.0
 11
-518.02300536136681
 21
3513.4267565477949
 31
0.0
  0
LINE
  5
806E
  8
0
 62
     0
 10
-738.15016184058732
 20
3529.4267079029091
 30
0.0
 11
-738.15016184058732
 21
3513.4267565477949
 31
0.0
  0
LINE
  5
806F
  8
0
 62
     0
 10
-520.52300536136681
 20
3514.676756547793
 30
0.0
 11
-735.6501618405872
 21
3514.676756547793
 31
0.0
  0
SOLID
  5
8070
  8
0
 62
     0
 10
-520.52300536136681
 20
3515.0934232144591
 30
0.0
 11
-520.52300536136681
 21
3514.2600898811261
 31
0.0
 12
-518.02300536136681
 22
3514.676756547793
 32
0.0
 13
-518.02300536136681
 23
3514.676756547793
 33
0.0
  0
SOLID
  5
8071
  8
0
 62
     0
 10
-735.6501618405872
 20
3515.0934232144591
 30
0.0
 11
-735.6501618405872
 21
3514.2600898811261
 31
0.0
 12
-738.15016184058732
 22
3514.676756547793
 32
0.0
 13
-738.15016184058732
 23
3514.676756547793
 33
0.0
  0
INSERT
  5
8072
  8
0
  6
CONTINUOUS
 62
     6
  2
*U49
 10
0.0
 20
0.0
 30
0.0
  0
POINT
  5
8073
  8
DEFPOINTS
 62
     0
 10
-518.02300536136681
 20
3530.0517079029091
 30
0.0
  0
POINT
  5
8074
  8
DEFPOINTS
 62
     0
 10
-738.15016184058732
 20
3530.0517079029091
 30
0.0
  0
POINT
  5
8075
  8
DEFPOINTS
 62
     0
 10
-738.15016184058732
 20
3514.676756547793
 30
0.0
  0
ENDBLK
  5
8042
  8
0
 62
     6
  0
BLOCK
  8
0
 62
     6
  2
*U49
 70
     1
 10
0.0
 20
0.0
 30
0.0
  3
*U49
  1

  0
TEXT
  5
1857E
  8
0
  6
CONTINUOUS
 62
     0
 10
-640.58658360097706
 20
3515.3017565477921
 30
0.0
 40
10.0
  1
220
  0
ENDBLK
  5
18580
  8
0
 62
     6
  0
BLOCK
  8
0
 62
     6
  2
*D50
 70
     1
 10
0.0
 20
0.0
 30
0.0
  3
*D50
  1

  0
LINE
  5
807F
  8
0
 62
     0
 10
-517.39800536136681
 20
3530.0517079029091
 30
0.0
 11
-504.6862923274511
 21
3530.0517079029091
 31
0.0
  0
LINE
  5
8080
  8
0
 62
     0
 10
-517.39800536136681
 20
3594.8932494180672
 30
0.0
 11
-504.6862923274511
 21
3594.8932494180672
 31
0.0
  0
LINE
  5
8081
  8
0
 62
     0
 10
-505.93629232745121
 20
3532.5517079029082
 30
0.0
 11
-505.93629232745121
 21
3592.3932494180681
 31
0.0
  0
SOLID
  5
8082
  8
0
 62
     0
 10
-506.35295899411761
 20
3532.5517079029082
 30
0.0
 11
-505.51962566078419
 21
3532.5517079029082
 31
0.0
 12
-505.93629232745121
 22
3530.0517079029091
 32
0.0
 13
-505.93629232745121
 23
3530.0517079029091
 33
0.0
  0
SOLID
  5
8083
  8
0
 62
     0
 10
-506.35295899411761
 20
3592.3932494180681
 30
0.0
 11
-505.51962566078419
 21
3592.3932494180681
 31
0.0
 12
-505.93629232745121
 22
3594.8932494180672
 32
0.0
 13
-505.93629232745121
 23
3594.8932494180672
 33
0.0
  0
INSERT
  5
8084
  8
0
  6
CONTINUOUS
 62
     6
  2
*U51
 10
0.0
 20
0.0
 30
0.0
  0
POINT
  5
8085
  8
DEFPOINTS
 62
     0
 10
-518.02300536136681
 20
3530.0517079029091
 30
0.0
  0
POINT
  5
8086
  8
DEFPOINTS
 62
     0
 10
-518.02300536136681
 20
3594.8932494180672
 30
0.0
  0
POINT
  5
8087
  8
DEFPOINTS
 62
     0
 10
-505.93629232745121
 20
3594.8932494180672
 30
0.0
  0
ENDBLK
  5
8050
  8
0
 62
     6
  0
BLOCK
  8
0
 62
     6
  2
*U51
 70
     1
 10
0.0
 20
0.0
 30
0.0
  3
*U51
  1

  0
TEXT
  5
18582
  8
0
  6
CONTINUOUS
 62
     0
 10
-506.56129232745172
 20
3554.139145327154
 30
0.0
 40
10.0
  1
65
 50
90.0
  0
ENDBLK
  5
18584
  8
0
 62
     6
  0
BLOCK
  8
0
 62
     6
  2
*D52
 70
     1
 10
0.0
 20
0.0
 30
0.0
  3
*D52
  1

  0
LINE
  5
80AE
  8
0
 62
     0
 10
-770.07596935771824
 20
3529.4267079029082
 30
0.0
 11
-770.07596935771824
 21
3513.4267565477921
 31
0.0
  0
LINE
  5
80AF
  8
0
 62
     0
 10
-854.48587337995377
 20
3529.4267079029082
 30
0.0
 11
-854.48587337995377
 21
3513.4267565477921
 31
0.0
  0
LINE
  5
80B0
  8
0
 62
     0
 10
-772.57596935771824
 20
3514.6767565477921
 30
0.0
 11
-851.98587337995343
 21
3514.6767565477921
 31
0.0
  0
SOLID
  5
80B1
  8
0
 62
     0
 10
-772.57596935771824
 20
3515.0934232144591
 30
0.0
 11
-772.57596935771824
 21
3514.2600898811261
 31
0.0
 12
-770.07596935771824
 22
3514.6767565477921
 32
0.0
 13
-770.07596935771824
 23
3514.6767565477921
 33
0.0
  0
SOLID
  5
80B2
  8
0
 62
     0
 10
-851.98587337995343
 20
3515.0934232144591
 30
0.0
 11
-851.98587337995343
 21
3514.2600898811261
 31
0.0
 12
-854.48587337995377
 22
3514.6767565477921
 32
0.0
 13
-854.48587337995377
 23
3514.6767565477921
 33
0.0
  0
INSERT
  5
80B3
  8
0
  6
CONTINUOUS
 62
     6
  2
*U53
 10
0.0
 20
0.0
 30
0.0
  0
POINT
  5
80B4
  8
DEFPOINTS
 62
     0
 10
-770.07596935771824
 20
3530.0517079029082
 30
0.0
  0
POINT
  5
80B5
  8
DEFPOINTS
 62
     0
 10
-854.48587337995377
 20
3530.0517079029082
 30
0.0
  0
POINT
  5
80B6
  8
DEFPOINTS
 62
     0
 10
-854.48587337995377
 20
3514.6767565477921
 30
0.0
  0
ENDBLK
  5
809B
  8
0
 62
     6
  0
BLOCK
  8
0
 62
     6
  2
*U53
 70
     1
 10
0.0
 20
0.0
 30
0.0
  3
*U53
  1

  0
TEXT
  5
18586
  8
0
  6
CONTINUOUS
 62
     0
 10
-820.61425470216955
 20
3515.3017565477921
 30
0.0
 40
10.0
  1
84
  0
ENDBLK
  5
18588
  8
0
 62
     6
  0
BLOCK
  8
0
 62
     6
  2
*D54
 70
     1
 10
0.0
 20
0.0
 30
0.0
  3
*D54
  1

  0
LINE
  5
8356
  8
0
 62
     0
 10
-4151.3551997938339
 20
2151.663853484305
 30
0.0
 11
-4151.3551997938339
 21
2215.2209110241288
 31
0.0
  0
LINE
  5
8357
  8
0
 62
     0
 10
-4676.3549759996022
 20
2121.5450264733731
 30
0.0
 11
-4676.3549759996022
 21
2215.2209110241288
 31
0.0
  0
LINE
  5
8358
  8
0
 62
     0
 10
-4153.855199793833
 20
2213.9709110241288
 30
0.0
 11
-4673.8549759996022
 21
2213.9709110241288
 31
0.0
  0
SOLID
  5
8359
  8
0
 62
     0
 10
-4153.855199793833
 20
2214.3875776907962
 30
0.0
 11
-4153.855199793833
 21
2213.5542443574632
 31
0.0
 12
-4151.3551997938339
 22
2213.9709110241288
 32
0.0
 13
-4151.3551997938339
 23
2213.9709110241288
 33
0.0
  0
SOLID
  5
835A
  8
0
 62
     0
 10
-4673.8549759996022
 20
2214.3875776907962
 30
0.0
 11
-4673.8549759996022
 21
2213.5542443574632
 31
0.0
 12
-4676.3549759996022
 22
2213.9709110241288
 32
0.0
 13
-4676.3549759996022
 23
2213.9709110241288
 33
0.0
  0
INSERT
  5
835B
  8
0
  6
CONTINUOUS
 62
     6
  2
*U55
 10
0.0
 20
0.0
 30
0.0
  0
POINT
  5
835C
  8
DEFPOINTS
 62
     0
 10
-4151.3551997938339
 20
2151.0388534843059
 30
0.0
  0
POINT
  5
835D
  8
DEFPOINTS
 62
     0
 10
-4676.3549759996022
 20
2120.9200264733731
 30
0.0
  0
POINT
  5
835E
  8
DEFPOINTS
 62
     0
 10
-4676.3549759996022
 20
2213.9709110241288
 30
0.0
  0
ENDBLK
  5
8304
  8
0
 62
     6
  0
BLOCK
  8
0
 62
     6
  2
*U55
 70
     1
 10
0.0
 20
0.0
 30
0.0
  3
*U55
  1

  0
TEXT
  5
1A24F
  8
0
  6
CONTINUOUS
 62
     0
 10
-4427.1884212300511
 20
2214.5959110241301
 30
0.0
 40
10.0
  1
525
  0
ENDBLK
  5
1A251
  8
0
 62
     6
  0
BLOCK
  8
0
 62
     6
  2
*D56
 70
     1
 10
0.0
 20
0.0
 30
0.0
  3
*D56
  1

  0
LINE
  5
836B
  8
0
 62
     0
 10
-4152.1242641614708
 20
2151.3198666642511
 30
0.0
 11
-4677.541642649644
 21
2151.3198666642511
 31
0.0
  0
LINE
  5
836C
  8
0
 62
     0
 10
-4680.9532013547596
 20
2123.205497299065
 30
0.0
 11
-4675.041642649644
 21
2123.205497299065
 31
0.0
  0
LINE
  5
836D
  8
0
 62
     0
 10
-4676.2916426496431
 20
2148.8198666642511
 30
0.0
 11
-4676.2916426496431
 21
2125.705497299065
 31
0.0
  0
SOLID
  5
836E
  8
0
 62
     0
 10
-4676.7083093163092
 20
2148.8198666642511
 30
0.0
 11
-4675.874975982977
 21
2148.8198666642511
 31
0.0
 12
-4676.2916426496431
 22
2151.3198666642511
 32
0.0
 13
-4676.2916426496431
 23
2151.3198666642511
 33
0.0
  0
SOLID
  5
836F
  8
0
 62
     0
 10
-4676.7083093163092
 20
2125.705497299065
 30
0.0
 11
-4675.874975982977
 21
2125.705497299065
 31
0.0
 12
-4676.2916426496431
 22
2123.205497299065
 32
0.0
 13
-4676.2916426496431
 23
2123.205497299065
 33
0.0
  0
INSERT
  5
8370
  8
0
  6
CONTINUOUS
 62
     6
  2
*U57
 10
0.0
 20
0.0
 30
0.0
  0
POINT
  5
8371
  8
DEFPOINTS
 62
     0
 10
-4151.4992641614735
 20
2151.3198666642511
 30
0.0
  0
POINT
  5
8372
  8
DEFPOINTS
 62
     0
 10
-4681.5782013547587
 20
2123.205497299065
 30
0.0
  0
POINT
  5
8373
  8
DEFPOINTS
 62
     0
 10
-4676.2916426496431
 20
2123.205497299065
 30
0.0
  0
ENDBLK
  5
8310
  8
0
 62
     6
  0
BLOCK
  8
0
 62
     6
  2
*U57
 70
     1
 10
0.0
 20
0.0
 30
0.0
  3
*U57
  1

  0
TEXT
  5
1A253
  8
0
  6
CONTINUOUS
 62
     0
 10
-4676.916642649644
 20
2130.5620929994379
 30
0.0
 40
10.0
  1
28
 50
90.0
  0
ENDBLK
  5
1A255
  8
0
 62
     6
  0
BLOCK
  8
0
 62
     6
  2
*D58
 70
     1
 10
0.0
 20
0.0
 30
0.0
  3
*D58
  1

  0
LINE
  5
83C8
  8
0
 62
     0
 10
-4677.1204099117922
 20
2002.350364224513
 30
0.0
 11
-4731.8876066355033
 21
2002.350364224513
 31
0.0
  0
LINE
  5
83C9
  8
0
 62
     0
 10
-4676.2794626545519
 20
2123.2213670038418
 30
0.0
 11
-4731.8876066355024
 21
2123.2213670038418
 31
0.0
  0
LINE
  5
83CA
  8
0
 62
     0
 10
-4730.6376066355033
 20
2004.850364224513
 30
0.0
 11
-4730.6376066355006
 21
2120.7213670038418
 31
0.0
  0
SOLID
  5
83CB
  8
0
 62
     0
 10
-4731.0542733021693
 20
2004.850364224513
 30
0.0
 11
-4730.2209399688372
 21
2004.850364224513
 31
0.0
 12
-4730.6376066355033
 22
2002.350364224513
 32
0.0
 13
-4730.6376066355033
 23
2002.350364224513
 33
0.0
  0
SOLID
  5
83CC
  8
0
 62
     0
 10
-4731.0542733021693
 20
2120.7213670038418
 30
0.0
 11
-4730.2209399688372
 21
2120.7213670038418
 31
0.0
 12
-4730.6376066355006
 22
2123.2213670038418
 32
0.0
 13
-4730.6376066355006
 23
2123.2213670038418
 33
0.0
  0
INSERT
  5
83CD
  8
0
  6
CONTINUOUS
 62
     6
  2
*U59
 10
0.0
 20
0.0
 30
0.0
  0
POINT
  5
83CE
  8
DEFPOINTS
 62
     0
 10
-4676.4954099117931
 20
2002.350364224513
 30
0.0
  0
POINT
  5
83CF
  8
DEFPOINTS
 62
     0
 10
-4675.654462654551
 20
2123.2213670038418
 30
0.0
  0
POINT
  5
83D0
  8
DEFPOINTS
 62
     0
 10
-4730.6376066355006
 20
2123.2213670038418
 30
0.0
  0
ENDBLK
  5
8334
  8
0
 62
     6
  0
BLOCK
  8
0
 62
     6
  2
*U59
 70
     1
 10
0.0
 20
0.0
 30
0.0
  3
*U59
  1

  0
TEXT
  5
1A263
  8
0
  6
CONTINUOUS
 62
     0
 10
-4731.2626066355033
 20
2052.7858656141771
 30
0.0
 40
10.0
  1
121
 50
90.0
  0
ENDBLK
  5
1A265
  8
0
 62
     6
  0
BLOCK
  8
0
 62
     6
  2
*D60
 70
     1
 10
0.0
 20
0.0
 30
0.0
  3
*D60
  1

  0
LINE
  5
843F
  8
0
 62
     0
 10
-4753.542073010809
 20
2473.3803509873178
 30
0.0
 11
-4806.3953603588889
 21
2473.3803509873178
 31
0.0
  0
LINE
  5
8440
  8
0
 62
     0
 10
-4753.5421090044601
 20
2367.7581005427428
 30
0.0
 11
-4806.3953603588889
 21
2367.7581005427428
 31
0.0
  0
LINE
  5
8441
  8
0
 62
     0
 10
-4805.145360358888
 20
2470.8803509873178
 30
0.0
 11
-4805.145360358888
 21
2370.2581005427428
 31
0.0
  0
SOLID
  5
8442
  8
0
 62
     0
 10
-4805.5620270255558
 20
2470.8803509873178
 30
0.0
 11
-4804.7286936922219
 21
2470.8803509873178
 31
0.0
 12
-4805.145360358888
 22
2473.3803509873178
 32
0.0
 13
-4805.145360358888
 23
2473.3803509873178
 33
0.0
  0
SOLID
  5
8443
  8
0
 62
     0
 10
-4805.5620270255558
 20
2370.2581005427428
 30
0.0
 11
-4804.7286936922219
 21
2370.2581005427428
 31
0.0
 12
-4805.145360358888
 22
2367.7581005427428
 32
0.0
 13
-4805.145360358888
 23
2367.7581005427428
 33
0.0
  0
INSERT
  5
8444
  8
0
  6
CONTINUOUS
 62
     6
  2
*U61
 10
0.0
 20
0.0
 30
0.0
  0
POINT
  5
8445
  8
DEFPOINTS
 62
     0
 10
-4752.917073010809
 20
2473.3803509873178
 30
0.0
  0
POINT
  5
8446
  8
DEFPOINTS
 62
     0
 10
-4752.9171090044592
 20
2367.7581005427428
 30
0.0
  0
POINT
  5
8447
  8
DEFPOINTS
 62
     0
 10
-4805.145360358888
 20
2367.7581005427428
 30
0.0
  0
ENDBLK
  5
8340
  8
0
 62
     6
  0
BLOCK
  8
0
 62
     6
  2
*U61
 70
     1
 10
0.0
 20
0.0
 30
0.0
  3
*U61
  1

  0
TEXT
  5
1A283
  8
0
  6
CONTINUOUS
 62
     0
 10
-4805.7703603588898
 20
2409.7358924316959
 30
0.0
 40
10.0
  1
106
 50
90.0
  0
ENDBLK
  5
1A285
  8
0
 62
     6
  0
BLOCK
  8
0
 62
     6
  2
*D62
 70
     1
 10
0.0
 20
0.0
 30
0.0
  3
*D62
  1

  0
LINE
  5
834D
  8
0
 62
     0
 10
-4152.6938393466517
 20
1921.303028795661
 30
0.0
 11
-4677.7454099117931
 21
1921.303028795661
 31
0.0
  0
LINE
  5
834E
  8
0
 62
     0
 10
-4676.9304099117917
 20
2002.350364224513
 30
0.0
 11
-4677.7454099117931
 21
2002.350364224513
 31
0.0
  0
LINE
  5
834F
  8
0
 62
     0
 10
-4676.4954099117931
 20
1923.803028795661
 30
0.0
 11
-4676.4954099117931
 21
1999.850364224513
 31
0.0
  0
SOLID
  5
8350
  8
0
 62
     0
 10
-4676.9120765784592
 20
1923.803028795661
 30
0.0
 11
-4676.0787432451261
 21
1923.803028795661
 31
0.0
 12
-4676.4954099117931
 22
1921.303028795661
 32
0.0
 13
-4676.4954099117931
 23
1921.303028795661
 33
0.0
  0
SOLID
  5
8351
  8
0
 62
     0
 10
-4676.9120765784592
 20
1999.850364224513
 30
0.0
 11
-4676.0787432451261
 21
1999.850364224513
 31
0.0
 12
-4676.4954099117931
 22
2002.350364224513
 32
0.0
 13
-4676.4954099117931
 23
2002.350364224513
 33
0.0
  0
INSERT
  5
8352
  8
0
  6
CONTINUOUS
 62
     6
  2
*U63
 10
0.0
 20
0.0
 30
0.0
  0
POINT
  5
8353
  8
DEFPOINTS
 62
     0
 10
-4152.0688393466526
 20
1921.303028795661
 30
0.0
  0
POINT
  5
8354
  8
DEFPOINTS
 62
     0
 10
-4676.3054099117899
 20
2002.350364224513
 30
0.0
  0
POINT
  5
8355
  8
DEFPOINTS
 62
     0
 10
-4676.4954099117931
 20
2002.350364224513
 30
0.0
  0
ENDBLK
  5
834C
  8
0
 62
     6
  0
BLOCK
  8
0
 62
     6
  2
*U63
 70
     1
 10
0.0
 20
0.0
 30
0.0
  3
*U63
  1

  0
TEXT
  5
1A24B
  8
0
  6
CONTINUOUS
 62
     0
 10
-4677.1204099117922
 20
1955.1600298434189
 30
0.0
 40
10.0
  1
81
 50
90.0
  0
ENDBLK
  5
1A24D
  8
0
 62
     6
  0
BLOCK
  8
0
 62
     6
  2
*D64
 70
     1
 10
0.0
 20
0.0
 30
0.0
  3
*D64
  1

  0
LINE
  5
8478
  8
0
 62
     0
 10
-4101.5129151468836
 20
2421.5081005427451
 30
0.0
 11
-4101.5129151468836
 21
2550.8200748333638
 31
0.0
  0
LINE
  5
8479
  8
0
 62
     0
 10
-4752.9171090044592
 20
2474.0053509873169
 30
0.0
 11
-4752.9171090044592
 21
2550.8200748333638
 31
0.0
  0
LINE
  5
847A
  8
0
 62
     0
 10
-4104.0129151468836
 20
2549.5700748333638
 30
0.0
 11
-4750.4171090044601
 21
2549.5700748333638
 31
0.0
  0
SOLID
  5
847B
  8
0
 62
     0
 10
-4104.0129151468836
 20
2549.9867415000299
 30
0.0
 11
-4104.0129151468836
 21
2549.1534081666969
 31
0.0
 12
-4101.5129151468836
 22
2549.5700748333638
 32
0.0
 13
-4101.5129151468836
 23
2549.5700748333638
 33
0.0
  0
SOLID
  5
847C
  8
0
 62
     0
 10
-4750.4171090044601
 20
2549.9867415000299
 30
0.0
 11
-4750.4171090044601
 21
2549.1534081666969
 31
0.0
 12
-4752.9171090044592
 22
2549.5700748333638
 32
0.0
 13
-4752.9171090044592
 23
2549.5700748333638
 33
0.0
  0
INSERT
  5
847D
  8
0
  6
CONTINUOUS
 62
     6
  2
*U65
 10
0.0
 20
0.0
 30
0.0
  0
POINT
  5
847E
  8
DEFPOINTS
 62
     0
 10
-4101.5129151468836
 20
2420.883100542746
 30
0.0
  0
POINT
  5
847F
  8
DEFPOINTS
 62
     0
 10
-4752.9171090044592
 20
2473.3803509873178
 30
0.0
  0
POINT
  5
8480
  8
DEFPOINTS
 62
     0
 10
-4752.9171090044592
 20
2549.5700748333638
 30
0.0
  0
ENDBLK
  5
8361
  8
0
 62
     6
  0
BLOCK
  8
0
 62
     6
  2
*U65
 70
     1
 10
0.0
 20
0.0
 30
0.0
  3
*U65
  1

  0
TEXT
  5
1A287
  8
0
  6
CONTINUOUS
 62
     0
 10
-4438.8816787423393
 20
2550.1950748333638
 30
0.0
 40
10.0
  1
651
  0
ENDBLK
  5
1A289
  8
0
 62
     6
  0
BLOCK
  8
0
 62
     6
  2
*D66
 70
     1
 10
0.0
 20
0.0
 30
0.0
  3
*D66
  1

  0
LINE
  5
8377
  8
0
 62
     0
 10
-4479.524428373903
 20
2367.770409977592
 30
0.0
 11
-4479.524428373903
 21
2346.9270511139289
 31
0.0
  0
LINE
  5
8378
  8
0
 62
     0
 10
-4260.3182112844643
 20
2388.240068967219
 30
0.0
 11
-4260.3182112844643
 21
2346.9270511139289
 31
0.0
  0
LINE
  5
8379
  8
0
 62
     0
 10
-4477.024428373903
 20
2348.1770511139298
 30
0.0
 11
-4262.8182112844634
 21
2348.1770511139298
 31
0.0
  0
SOLID
  5
837A
  8
0
 62
     0
 10
-4477.024428373903
 20
2348.5937177805959
 30
0.0
 11
-4477.024428373903
 21
2347.7603844472628
 31
0.0
 12
-4479.524428373903
 22
2348.1770511139298
 32
0.0
 13
-4479.524428373903
 23
2348.1770511139298
 33
0.0
  0
SOLID
  5
837B
  8
0
 62
     0
 10
-4262.8182112844634
 20
2348.5937177805959
 30
0.0
 11
-4262.8182112844634
 21
2347.7603844472628
 31
0.0
 12
-4260.3182112844643
 22
2348.1770511139298
 32
0.0
 13
-4260.3182112844643
 23
2348.1770511139298
 33
0.0
  0
INSERT
  5
837C
  8
0
  6
CONTINUOUS
 62
     6
  2
*U67
 10
0.0
 20
0.0
 30
0.0
  0
POINT
  5
837D
  8
DEFPOINTS
 62
     0
 10
-4479.524428373903
 20
2368.395409977592
 30
0.0
  0
POINT
  5
837E
  8
DEFPOINTS
 62
     0
 10
-4260.3182112844643
 20
2388.865068967219
 30
0.0
  0
POINT
  5
837F
  8
DEFPOINTS
 62
     0
 10
-4260.3182112844643
 20
2348.1770511139298
 30
0.0
  0
ENDBLK
  5
8376
  8
0
 62
     6
  0
BLOCK
  8
0
 62
     6
  2
*U67
 70
     1
 10
0.0
 20
0.0
 30
0.0
  3
*U67
  1

  0
TEXT
  5
1A257
  8
0
  6
CONTINUOUS
 62
     0
 10
-4381.5879864958497
 20
2348.8020511139298
 30
0.0
 40
10.0
  1
219
  0
ENDBLK
  5
1A259
  8
0
 62
     6
  0
BLOCK
  8
0
 62
     6
  2
*D68
 70
     1
 10
0.0
 20
0.0
 30
0.0
  3
*D68
  1

  0
LINE
  5
8383
  8
0
 62
     0
 10
-4479.5243659311427
 20
2474.0073645790189
 30
0.0
 11
-4479.5243659311427
 21
2515.9820082104479
 31
0.0
  0
LINE
  5
8384
  8
0
 62
     0
 10
-4101.5293973300486
 20
2440.3956386801169
 30
0.0
 11
-4101.5293973300486
 21
2515.9820082104479
 31
0.0
  0
LINE
  5
8385
  8
0
 62
     0
 10
-4477.0243659311436
 20
2514.7320082104488
 30
0.0
 11
-4104.0293973300513
 21
2514.7320082104488
 31
0.0
  0
SOLID
  5
8386
  8
0
 62
     0
 10
-4477.0243659311436
 20
2515.1486748771149
 30
0.0
 11
-4477.0243659311436
 21
2514.3153415437819
 31
0.0
 12
-4479.5243659311427
 22
2514.7320082104488
 32
0.0
 13
-4479.5243659311427
 23
2514.7320082104488
 33
0.0
  0
SOLID
  5
8387
  8
0
 62
     0
 10
-4104.0293973300513
 20
2515.1486748771149
 30
0.0
 11
-4104.0293973300513
 21
2514.3153415437819
 31
0.0
 12
-4101.5293973300486
 22
2514.7320082104488
 32
0.0
 13
-4101.5293973300486
 23
2514.7320082104488
 33
0.0
  0
INSERT
  5
8388
  8
0
  6
CONTINUOUS
 62
     6
  2
*U69
 10
0.0
 20
0.0
 30
0.0
  0
POINT
  5
8389
  8
DEFPOINTS
 62
     0
 10
-4479.5243659311427
 20
2473.3823645790189
 30
0.0
  0
POINT
  5
838A
  8
DEFPOINTS
 62
     0
 10
-4101.5293973300486
 20
2439.7706386801169
 30
0.0
  0
POINT
  5
838B
  8
DEFPOINTS
 62
     0
 10
-4101.5293973300486
 20
2514.7320082104488
 30
0.0
  0
ENDBLK
  5
8382
  8
0
 62
     6
  0
BLOCK
  8
0
 62
     6
  2
*U69
 70
     1
 10
0.0
 20
0.0
 30
0.0
  3
*U69
  1

  0
TEXT
  5
1A25B
  8
0
  6
CONTINUOUS
 62
     0
 10
-4303.8602149639291
 20
2515.3570082104488
 30
0.0
 40
10.0
  1
378
  0
ENDBLK
  5
1A25D
  8
0
 62
     6
  0
BLOCK
  8
0
 62
     6
  2
*D70
 70
     1
 10
0.0
 20
0.0
 30
0.0
  3
*D70
  1

  0
LINE
  5
838F
  8
0
 62
     0
 10
-4486.226801975673
 20
2372.9177189470952
 30
0.0
 11
-4486.226801975673
 21
2299.1636381405492
 31
0.0
  0
LINE
  5
8390
  8
0
 62
     0
 10
-4260.3182112844643
 20
2420.2581005427451
 30
0.0
 11
-4260.3182112844643
 21
2299.1636381405492
 31
0.0
  0
LINE
  5
8391
  8
0
 62
     0
 10
-4483.726801975673
 20
2300.4136381405492
 30
0.0
 11
-4262.8182112844634
 21
2300.4136381405492
 31
0.0
  0
SOLID
  5
8392
  8
0
 62
     0
 10
-4483.726801975673
 20
2300.8303048072148
 30
0.0
 11
-4483.726801975673
 21
2299.9969714738809
 31
0.0
 12
-4486.226801975673
 22
2300.4136381405492
 32
0.0
 13
-4486.226801975673
 23
2300.4136381405492
 33
0.0
  0
SOLID
  5
8393
  8
0
 62
     0
 10
-4262.8182112844634
 20
2300.8303048072148
 30
0.0
 11
-4262.8182112844634
 21
2299.9969714738809
 31
0.0
 12
-4260.3182112844643
 22
2300.4136381405492
 32
0.0
 13
-4260.3182112844643
 23
2300.4136381405492
 33
0.0
  0
INSERT
  5
8394
  8
0
  6
CONTINUOUS
 62
     6
  2
*U71
 10
0.0
 20
0.0
 30
0.0
  0
POINT
  5
8395
  8
DEFPOINTS
 62
     0
 10
-4486.226801975673
 20
2373.5427189470952
 30
0.0
  0
POINT
  5
8396
  8
DEFPOINTS
 62
     0
 10
-4260.3182112844643
 20
2420.883100542746
 30
0.0
  0
POINT
  5
8397
  8
DEFPOINTS
 62
     0
 10
-4260.3182112844643
 20
2300.4136381405492
 30
0.0
  0
ENDBLK
  5
838E
  8
0
 62
     6
  0
BLOCK
  8
0
 62
     6
  2
*U71
 70
     1
 10
0.0
 20
0.0
 30
0.0
  3
*U71
  1

  0
TEXT
  5
1A25F
  8
0
  6
CONTINUOUS
 62
     0
 10
-4392.4562445905713
 20
2301.0386381405492
 30
0.0
 40
10.0
  1
226
  0
ENDBLK
  5
1A261
  8
0
 62
     6
  0
BLOCK
  8
0
 62
     6
  2
*D72
 70
     1
 10
0.0
 20
0.0
 30
0.0
  3
*D72
  1

  0
LINE
  5
83D4
  8
0
 62
     0
 10
-4573.3371469626754
 20
2060.0045447085849
 30
0.0
 11
-4673.8547133449474
 21
2060.2899814422599
 31
0.0
  0
INSERT
  5
83D5
  8
0
  6
CONTINUOUS
 62
     6
  2
*U73
 10
0.0
 20
0.0
 30
0.0
  0
SOLID
  5
83D6
  8
0
 62
     0
 10
-4673.8535301538168
 20
2060.706646428996
 30
0.0
 11
-4673.8558965360771
 21
2059.873316455526
 31
0.0
 12
-4676.3547032653478
 22
2060.2970805890341
 32
0.0
 13
-4676.3547032653478
 23
2060.2970805890341
 33
0.0
  0
POINT
  5
83D7
  8
DEFPOINTS
 62
     0
 10
-4676.3547032653478
 20
2060.2970805890341
 30
0.0
  0
POINT
  5
83D8
  8
DEFPOINTS
 62
     0
 10
-4608.7098501742184
 20
2060.1049915183271
 30
0.0
  0
ENDBLK
  5
83D3
  8
0
 62
     6
  0
BLOCK
  8
0
 62
     6
  2
*U73
 70
     1
 10
0.0
 20
0.0
 30
0.0
  3
*U73
  1

  0
TEXT
  5
1A267
  8
0
  6
CONTINUOUS
 62
     0
 10
-4600.6269288070462
 20
2060.7070412076341
 30
0.0
 40
10.0
  1
R68
 50
359.83729932202442
  0
ENDBLK
  5
1A269
  8
0
 62
     6
  0
BLOCK
  8
0
 62
     6
  2
*D74
 70
     1
 10
0.0
 20
0.0
 30
0.0
  3
*D74
  1

  0
LINE
  5
19574
  8
0
 62
     0
 10
-4707.2921090044601
 20
2368.3831005427428
 30
0.0
 11
-4621.5934363384276
 21
2368.3831005427428
 31
0.0
  0
ARC
  5
19575
  8
0
 62
     0
 10
-4356.0795883694946
 20
2368.3831005427428
 30
0.0
 40
266.76384796893137
 50
177.96304578354631
 51
178.49999999999989
  0
LINE
  5
19576
  8
0
 62
     0
 10
-4622.6748709113526
 20
2377.864973227955
 30
0.0
 11
-4622.0084196129446
 21
2396.6031252891071
 31
0.0
  0
ARC
  5
19577
  8
0
 62
     0
 10
-4356.0795883694946
 20
2368.3831005427428
 30
0.0
 40
266.76384796893137
 50
179.03695421645341
 51
179.46304578354639
  0
SOLID
  5
19578
  8
0
 62
     0
 10
-4623.2223246368621
 20
2372.8756966738079
 30
0.0
 11
-4622.389183795116
 21
2372.8577862785792
 31
0.0
 12
-4622.7520230303044
 22
2375.3661640014361
 32
0.0
 13
-4622.7520230303044
 23
2375.3661640014361
 33
0.0
  0
SOLID
  5
19579
  8
0
 62
     0
 10
-4622.4150597651942
 20
2370.881120683297
 30
0.0
 11
-4623.2483839498727
 21
2370.8850255102611
 31
0.0
 12
-4622.8434363384258
 22
2368.3831005427428
 32
0.0
 13
-4622.8434363384258
 23
2368.3831005427428
 33
0.0
  0
TEXT
  5
1A2AE
  8
0
 62
     0
 10
-4627.0500000000002
 20
2378.3000000000002
 30
0.0
 40
7.0
  1
1,5?
  0
POINT
  5
1957B
  8
DEFPOINTS
 62
     0
 10
-4622.8332787885074
 20
2370.711024731726
 30
0.0
  0
POINT
  5
1957C
  8
DEFPOINTS
 62
     0
 10
-4707.9171090044601
 20
2368.3831005427428
 30
0.0
  0
POINT
  5
1957D
  8
DEFPOINTS
 62
     0
 10
-4707.9044891820331
 20
2377.595959801507
 30
0.0
  0
POINT
  5
1957E
  8
DEFPOINTS
 62
     0
 10
-4486.1830492448298
 20
2371.7899795651042
 30
0.0
  0
POINT
  5
1957F
  8
DEFPOINTS
 62
     0
 10
-4752.9171090044583
 20
2368.3831005427428
 30
0.0
  0
ENDBLK
  5
83DB
  8
0
 62
     6
  0
BLOCK
  8
0
 62
     6
  2
*D75
 70
     1
 10
0.0
 20
0.0
 30
0.0
  3
*D75
  1

  0
LINE
  5
83F7
  8
0
 62
     0
 10
-4707.9171090044601
 20
2367.7581005427428
 30
0.0
 11
-4707.9171090044601
 21
2309.6193870652442
 31
0.0
  0
LINE
  5
83F8
  8
0
 62
     0
 10
-4752.9171090044592
 20
2367.7581005427428
 30
0.0
 11
-4752.9171090044592
 21
2309.6193870652442
 31
0.0
  0
LINE
  5
83F9
  8
0
 62
     0
 10
-4710.4171090044601
 20
2310.8693870652442
 30
0.0
 11
-4750.4171090044601
 21
2310.8693870652442
 31
0.0
  0
SOLID
  5
83FA
  8
0
 62
     0
 10
-4710.4171090044601
 20
2311.2860537319102
 30
0.0
 11
-4710.4171090044601
 21
2310.4527203985772
 31
0.0
 12
-4707.9171090044601
 22
2310.8693870652442
 32
0.0
 13
-4707.9171090044601
 23
2310.8693870652442
 33
0.0
  0
SOLID
  5
83FB
  8
0
 62
     0
 10
-4750.4171090044601
 20
2311.2860537319102
 30
0.0
 11
-4750.4171090044601
 21
2310.4527203985772
 31
0.0
 12
-4752.9171090044592
 22
2310.8693870652442
 32
0.0
 13
-4752.9171090044592
 23
2310.8693870652442
 33
0.0
  0
INSERT
  5
83FC
  8
0
  6
CONTINUOUS
 62
     6
  2
*U76
 10
0.0
 20
0.0
 30
0.0
  0
POINT
  5
83FD
  8
DEFPOINTS
 62
     0
 10
-4707.9171090044601
 20
2368.3831005427428
 30
0.0
  0
POINT
  5
83FE
  8
DEFPOINTS
 62
     0
 10
-4752.9171090044592
 20
2368.3831005427428
 30
0.0
  0
POINT
  5
83FF
  8
DEFPOINTS
 62
     0
 10
-4752.9171090044592
 20
2310.8693870652442
 30
0.0
  0
ENDBLK
  5
83F6
  8
0
 62
     6
  0
BLOCK
  8
0
 62
     6
  2
*U76
 70
     1
 10
0.0
 20
0.0
 30
0.0
  3
*U76
  1

  0
TEXT
  5
1A26B
  8
0
  6
CONTINUOUS
 62
     0
 10
-4738.7504423377932
 20
2311.4943870652442
 30
0.0
 40
10.0
  1
45
  0
ENDBLK
  5
1A26D
  8
0
 62
     6
  0
BLOCK
  8
0
 62
     6
  2
*D77
 70
     1
 10
0.0
 20
0.0
 30
0.0
  3
*D77
  1

  0
LINE
  5
8403
  8
0
 62
     0
 10
-4486.226801975703
 20
2369.0081005427428
 30
0.0
 11
-4486.226801975703
 21
2390.406132930294
 31
0.0
  0
LINE
  5
8404
  8
0
 62
     0
 10
-4479.524428373903
 20
2369.020418347312
 30
0.0
 11
-4479.524428373903
 21
2390.406132930294
 31
0.0
  0
LINE
  5
8405
  8
0
 62
     0
 10
-4482.024428373903
 20
2389.156132930294
 30
0.0
 11
-4483.7268019757048
 21
2389.156132930294
 31
0.0
  0
LINE
  5
8406
  8
0
 62
     0
 10
-4486.226801975703
 20
2389.156132930294
 30
0.0
 11
-4496.6434686425891
 21
2389.156132930294
 31
0.0
  0
SOLID
  5
8407
  8
0
 62
     0
 10
-4482.024428373903
 20
2389.5727995969601
 30
0.0
 11
-4482.024428373903
 21
2388.739466263627
 31
0.0
 12
-4479.524428373903
 22
2389.156132930294
 32
0.0
 13
-4479.524428373903
 23
2389.156132930294
 33
0.0
  0
SOLID
  5
8408
  8
0
 62
     0
 10
-4483.7268019757048
 20
2389.5727995969601
 30
0.0
 11
-4483.7268019757048
 21
2388.739466263627
 31
0.0
 12
-4486.226801975703
 22
2389.156132930294
 32
0.0
 13
-4486.226801975703
 23
2389.156132930294
 33
0.0
  0
INSERT
  5
8409
  8
0
  6
CONTINUOUS
 62
     6
  2
*U78
 10
0.0
 20
0.0
 30
0.0
  0
POINT
  5
840A
  8
DEFPOINTS
 62
     0
 10
-4486.226801975703
 20
2368.3831005427428
 30
0.0
  0
POINT
  5
840B
  8
DEFPOINTS
 62
     0
 10
-4479.524428373903
 20
2368.3954183473111
 30
0.0
  0
POINT
  5
840C
  8
DEFPOINTS
 62
     0
 10
-4479.524428373903
 20
2389.156132930294
 30
0.0
  0
ENDBLK
  5
8402
  8
0
 62
     6
  0
BLOCK
  8
0
 62
     6
  2
*U78
 70
     1
 10
0.0
 20
0.0
 30
0.0
  3
*U78
  1

  0
TEXT
  5
1A26F
  8
0
  6
CONTINUOUS
 62
     0
 10
-4496.0184686425882
 20
2389.781132930294
 30
0.0
 40
10.0
  1
7
  0
ENDBLK
  5
1A271
  8
0
 62
     6
  0
BLOCK
  8
0
 62
     6
  2
*D79
 70
     1
 10
0.0
 20
0.0
 30
0.0
  3
*D79
  1

  0
LINE
  5
8410
  8
0
 62
     0
 10
-4479.5243659311427
 20
2474.0073645790212
 30
0.0
 11
-4479.5243659311427
 21
2515.972112862527
 31
0.0
  0
LINE
  5
8411
  8
0
 62
     0
 10
-4752.9171090044592
 20
2474.0073645790212
 30
0.0
 11
-4752.9171090044592
 21
2515.972112862527
 31
0.0
  0
LINE
  5
8412
  8
0
 62
     0
 10
-4482.0243659311436
 20
2514.722112862527
 30
0.0
 11
-4750.4171090044601
 21
2514.722112862527
 31
0.0
  0
SOLID
  5
8413
  8
0
 62
     0
 10
-4482.0243659311436
 20
2515.138779529193
 30
0.0
 11
-4482.0243659311436
 21
2514.3054461958609
 31
0.0
 12
-4479.5243659311427
 22
2514.722112862527
 32
0.0
 13
-4479.5243659311427
 23
2514.722112862527
 33
0.0
  0
SOLID
  5
8414
  8
0
 62
     0
 10
-4750.4171090044601
 20
2515.138779529193
 30
0.0
 11
-4750.4171090044601
 21
2514.3054461958609
 31
0.0
 12
-4752.9171090044592
 22
2514.722112862527
 32
0.0
 13
-4752.9171090044592
 23
2514.722112862527
 33
0.0
  0
INSERT
  5
8415
  8
0
  6
CONTINUOUS
 62
     6
  2
*U80
 10
0.0
 20
0.0
 30
0.0
  0
POINT
  5
8416
  8
DEFPOINTS
 62
     0
 10
-4479.5243659311427
 20
2473.3823645790198
 30
0.0
  0
POINT
  5
8417
  8
DEFPOINTS
 62
     0
 10
-4752.9171090044592
 20
2473.3823645790198
 30
0.0
  0
POINT
  5
8418
  8
DEFPOINTS
 62
     0
 10
-4752.9171090044592
 20
2514.722112862527
 30
0.0
  0
ENDBLK
  5
840F
  8
0
 62
     6
  0
BLOCK
  8
0
 62
     6
  2
*U80
 70
     1
 10
0.0
 20
0.0
 30
0.0
  3
*U80
  1

  0
TEXT
  5
1A273
  8
0
  6
CONTINUOUS
 62
     0
 10
-4616.2207508011361
 20
2515.347112862527
 30
0.0
 40
0.00001
  1
273
  0
ENDBLK
  5
1A275
  8
0
 62
     6
  0
BLOCK
  8
0
 62
     6
  2
*D81
 70
     1
 10
0.0
 20
0.0
 30
0.0
  3
*D81
  1

  0
LINE
  5
841C
  8
0
 62
     0
 10
-4260.3182112844643
 20
2388.865068967219
 30
0.0
 11
-4260.3182112844643
 21
2325.8967015101712
 31
0.0
  0
LINE
  5
841D
  8
0
 62
     0
 10
-4101.5293973300486
 20
2404.145638680116
 30
0.0
 11
-4101.5293973300486
 21
2325.8967015101712
 31
0.0
  0
LINE
  5
841E
  8
0
 62
     0
 10
-4257.8182112844643
 20
2327.1467015101712
 30
0.0
 11
-4104.0293973300513
 21
2327.1467015101712
 31
0.0
  0
SOLID
  5
841F
  8
0
 62
     0
 10
-4257.8182112844643
 20
2327.5633681768368
 30
0.0
 11
-4257.8182112844643
 21
2326.7300348435042
 31
0.0
 12
-4260.3182112844643
 22
2327.1467015101712
 32
0.0
 13
-4260.3182112844643
 23
2327.1467015101712
 33
0.0
  0
SOLID
  5
8420
  8
0
 62
     0
 10
-4104.0293973300513
 20
2327.5633681768368
 30
0.0
 11
-4104.0293973300513
 21
2326.7300348435042
 31
0.0
 12
-4101.5293973300486
 22
2327.1467015101712
 32
0.0
 13
-4101.5293973300486
 23
2327.1467015101712
 33
0.0
  0
INSERT
  5
8421
  8
0
  6
CONTINUOUS
 62
     6
  2
*U82
 10
0.0
 20
0.0
 30
0.0
  0
POINT
  5
8422
  8
DEFPOINTS
 62
     0
 10
-4260.3182112844643
 20
2389.490068967219
 30
0.0
  0
POINT
  5
8423
  8
DEFPOINTS
 62
     0
 10
-4101.5293973300486
 20
2404.7706386801169
 30
0.0
  0
POINT
  5
8424
  8
DEFPOINTS
 62
     0
 10
-4101.5293973300486
 20
2327.1467015101712
 30
0.0
  0
ENDBLK
  5
841B
  8
0
 62
     6
  0
BLOCK
  8
0
 62
     6
  2
*U82
 70
     1
 10
0.0
 20
0.0
 30
0.0
  3
*U82
  1

  0
TEXT
  5
1A277
  8
0
  6
CONTINUOUS
 62
     0
 10
-4192.5904709739243
 20
2327.7717015101712
 30
0.0
 40
10.0
  1
159
  0
ENDBLK
  5
1A279
  8
0
 62
     6
  0
BLOCK
  8
0
 62
     6
  2
*D83
 70
     1
 10
0.0
 20
0.0
 30
0.0
  3
*D83
  1

  0
LINE
  5
8428
  8
0
 62
     0
 10
-4150.8528393466531
 20
2151.3080287956609
 30
0.0
 11
-4091.5817883022769
 21
2151.3080287956609
 31
0.0
  0
LINE
  5
8429
  8
0
 62
     0
 10
-4150.8778393466519
 20
1921.303028795661
 30
0.0
 11
-4091.5817883022769
 21
1921.303028795661
 31
0.0
  0
LINE
  5
842A
  8
0
 62
     0
 10
-4092.8317883022769
 20
2148.8080287956609
 30
0.0
 11
-4092.8317883022769
 21
1923.803028795661
 31
0.0
  0
SOLID
  5
842B
  8
0
 62
     0
 10
-4093.2484549689452
 20
2148.8080287956609
 30
0.0
 11
-4092.415121635609
 21
2148.8080287956609
 31
0.0
 12
-4092.8317883022769
 22
2151.3080287956609
 32
0.0
 13
-4092.8317883022769
 23
2151.3080287956609
 33
0.0
  0
SOLID
  5
842C
  8
0
 62
     0
 10
-4093.2484549689452
 20
1923.803028795661
 30
0.0
 11
-4092.415121635609
 21
1923.803028795661
 31
0.0
 12
-4092.8317883022769
 22
1921.303028795661
 32
0.0
 13
-4092.8317883022769
 23
1921.303028795661
 33
0.0
  0
INSERT
  5
842D
  8
0
  6
CONTINUOUS
 62
     6
  2
*U84
 10
0.0
 20
0.0
 30
0.0
  0
POINT
  5
842E
  8
DEFPOINTS
 62
     0
 10
-4151.477839346654
 20
2151.3080287956609
 30
0.0
  0
POINT
  5
842F
  8
DEFPOINTS
 62
     0
 10
-4151.5028393466537
 20
1921.303028795661
 30
0.0
  0
POINT
  5
8430
  8
DEFPOINTS
 62
     0
 10
-4092.8317883022769
 20
1921.303028795661
 30
0.0
  0
ENDBLK
  5
8427
  8
0
 62
     6
  0
BLOCK
  8
0
 62
     6
  2
*U84
 70
     1
 10
0.0
 20
0.0
 30
0.0
  3
*U84
  1

  0
TEXT
  5
1A27B
  8
0
  6
CONTINUOUS
 62
     0
 10
-4093.4567883022792
 20
2023.8055287956599
 30
0.0
 40
10.0
  1
230
 50
90.0
  0
ENDBLK
  5
1A27D
  8
0
 62
     6
  0
BLOCK
  8
0
 62
     6
  2
*D85
 70
     1
 10
0.0
 20
0.0
 30
0.0
  3
*D85
  1

  0
LINE
  5
8434
  8
0
 62
     0
 10
-4100.9043973300477
 20
2422.8831005427428
 30
0.0
 11
-4060.9131579631412
 21
2422.8831005427428
 31
0.0
  0
LINE
  5
8435
  8
0
 62
     0
 10
-4100.9043973300477
 20
2418.8831005427428
 30
0.0
 11
-4060.9131579631412
 21
2418.8831005427428
 31
0.0
  0
LINE
  5
8436
  8
0
 62
     0
 10
-4062.1631579631398
 20
2425.3831005427428
 30
0.0
 11
-4062.1631579631398
 21
2427.8831005427428
 31
0.0
  0
LINE
  5
8437
  8
0
 62
     0
 10
-4062.1631579631398
 20
2416.3831005427428
 30
0.0
 11
-4062.1631579631398
 21
2405.9664338760781
 31
0.0
  0
LINE
  5
8438
  8
0
 62
     0
 10
-4062.1631579631398
 20
2422.8831005427428
 30
0.0
 11
-4062.1631579631398
 21
2418.8831005427428
 31
0.0
  0
SOLID
  5
8439
  8
0
 62
     0
 10
-4062.5798246298068
 20
2425.3831005427428
 30
0.0
 11
-4061.7464912964738
 21
2425.3831005427428
 31
0.0
 12
-4062.1631579631398
 22
2422.8831005427428
 32
0.0
 13
-4062.1631579631398
 23
2422.8831005427428
 33
0.0
  0
SOLID
  5
843A
  8
0
 62
     0
 10
-4062.5798246298068
 20
2416.3831005427428
 30
0.0
 11
-4061.7464912964738
 21
2416.3831005427428
 31
0.0
 12
-4062.1631579631398
 22
2418.8831005427428
 32
0.0
 13
-4062.1631579631398
 23
2418.8831005427428
 33
0.0
  0
INSERT
  5
843B
  8
0
  6
CONTINUOUS
 62
     6
  2
*U86
 10
0.0
 20
0.0
 30
0.0
  0
POINT
  5
843C
  8
DEFPOINTS
 62
     0
 10
-4101.5293973300486
 20
2422.8831005427428
 30
0.0
  0
POINT
  5
843D
  8
DEFPOINTS
 62
     0
 10
-4101.5293973300486
 20
2418.8831005427428
 30
0.0
  0
POINT
  5
843E
  8
DEFPOINTS
 62
     0
 10
-4062.1631579631398
 20
2418.8831005427428
 30
0.0
  0
ENDBLK
  5
8433
  8
0
 62
     6
  0
BLOCK
  8
0
 62
     6
  2
*U86
 70
     1
 10
0.0
 20
0.0
 30
0.0
  3
*U86
  1

  0
TEXT
  5
1A27F
  8
0
  6
CONTINUOUS
 62
     0
 10
-4062.7881579631398
 20
2406.5914338760758
 30
0.0
 40
10.0
  1
4
 50
90.0
  0
ENDBLK
  5
1A281
  8
0
 62
     6
  0
BLOCK
  8
0
 62
     6
  2
*D87
 70
     1
 10
0.0
 20
0.0
 30
0.0
  3
*D87
  1

  0
LINE
  5
8579
  8
0
 62
     0
 10
-2423.4746492268741
 20
4101.2243997363757
 30
0.0
 11
-2423.4746492268741
 21
4075.902004103024
 31
0.0
  0
LINE
  5
857A
  8
0
 62
     0
 10
-2363.4746492268732
 20
4101.2243997363757
 30
0.0
 11
-2363.4746492268732
 21
4075.902004103024
 31
0.0
  0
LINE
  5
857B
  8
0
 62
     0
 10
-2420.9746492268732
 20
4077.1520041030258
 30
0.0
 11
-2365.9746492268741
 21
4077.1520041030258
 31
0.0
  0
SOLID
  5
857C
  8
0
 62
     0
 10
-2420.9746492268732
 20
4077.5686707696918
 30
0.0
 11
-2420.9746492268732
 21
4076.7353374363588
 31
0.0
 12
-2423.4746492268741
 22
4077.1520041030258
 32
0.0
 13
-2423.4746492268741
 23
4077.1520041030258
 33
0.0
  0
SOLID
  5
857D
  8
0
 62
     0
 10
-2365.9746492268741
 20
4077.5686707696918
 30
0.0
 11
-2365.9746492268741
 21
4076.7353374363588
 31
0.0
 12
-2363.4746492268732
 22
4077.1520041030258
 32
0.0
 13
-2363.4746492268732
 23
4077.1520041030258
 33
0.0
  0
INSERT
  5
857E
  8
0
  6
CONTINUOUS
 62
     6
  2
*U88
 10
0.0
 20
0.0
 30
0.0
  0
POINT
  5
857F
  8
DEFPOINTS
 62
     0
 10
-2423.4746492268741
 20
4101.8493997363757
 30
0.0
  0
POINT
  5
8580
  8
DEFPOINTS
 62
     0
 10
-2363.4746492268732
 20
4101.8493997363757
 30
0.0
  0
POINT
  5
8581
  8
DEFPOINTS
 62
     0
 10
-2363.4746492268732
 20
4077.1520041030258
 30
0.0
  0
ENDBLK
  5
8563
  8
0
 62
     6
  0
BLOCK
  8
0
 62
     6
  2
*U88
 70
     1
 10
0.0
 20
0.0
 30
0.0
  3
*U88
  1

  0
TEXT
  5
1A296
  8
0
  6
CONTINUOUS
 62
     0
 10
-2397.2246492268741
 20
4077.7770041030249
 30
0.0
 40
5.0
  1
60
  0
ENDBLK
  5
1A298
  8
0
 62
     6
  0
BLOCK
  8
0
 62
     6
  2
*U89
 70
     1
 10
0.0
 20
0.0
 30
0.0
  3
*U89
  1

  0
TEXT
  5
15C6E
  8
0
  6
CONTINUOUS
 62
     1
 10
-1990.3929389705031
 20
2062.9601424678522
 30
0.0
 40
6.0
  1
Parafiamma
  0
TEXT
  5
15C6F
  8
0
  6
CONTINUOUS
 62
     1
 10
-1990.032775259725
 20
2052.9355858512081
 30
0.0
 40
6.0
  1
diam. 90 mm
  0
TEXT
  5
15C70
  8
0
  6
CONTINUOUS
 62
     1
 10
-1990.0737029541319
 20
2042.9110292345649
 30
0.0
 40
6.0
  1
comp. betulla 6
  0
TEXT
  5
15C71
  8
0
  6
CONTINUOUS
 62
     1
 10
-1990.2988052733681
 20
2032.911029234564
 30
0.0
 40
6.0
  1
mm
  0
ENDBLK
  5
15C73
  8
0
 62
     6
  0
BLOCK
  8
0
 62
     6
  2
*U90
 70
     1
 10
0.0
 20
0.0
 30
0.0
  3
*U90
  1

  0
TEXT
  5
15C75
  8
0
  6
CONTINUOUS
 62
     1
 10
-1786.824259941367
 20
1993.523352037317
 30
0.0
 40
6.0
  1
7.5 mm
  0
ENDBLK
  5
15C77
  8
0
 62
     6
  0
BLOCK
  8
0
 62
     6
  2
*X91
 70
     1
 10
0.0
 20
0.0
 30
0.0
  3
*X91
  1

  0
LINE
  5
1658E
  8
0
  6
CONTINUOUS
 62
     0
 10
-811.43114271450565
 20
2821.6246463012312
 30
0.0
 11
-809.78314999082522
 21
2823.2726390249122
 31
0.0
  0
LINE
  5
1658F
  8
0
  6
CONTINUOUS
 62
     0
 10
-811.91828402865121
 20
2821.323474070537
 30
0.0
 11
-809.48197776013171
 21
2823.7597803390572
 31
0.0
  0
LINE
  5
16590
  8
0
  6
CONTINUOUS
 62
     0
 10
-812.30027563420094
 20
2821.1274515484401
 30
0.0
 11
-809.28595523803415
 21
2824.1417719446072
 31
0.0
  0
LINE
  5
16591
  8
0
  6
CONTINUOUS
 62
     0
 10
-812.63019699832955
 20
2820.9834992677638
 30
0.0
 11
-809.14200295735759
 21
2824.4716933087361
 31
0.0
  0
LINE
  5
16592
  8
0
  6
CONTINUOUS
 62
     0
 10
-812.92714117199228
 20
2820.8725241775519
 30
0.0
 11
-809.0310278671468
 21
2824.7686374823979
 31
0.0
  0
LINE
  5
16593
  8
0
  6
CONTINUOUS
 62
     0
 10
-813.20060911852465
 20
2820.785025314472
 30
0.0
 11
-808.94352900406648
 21
2825.0421054289318
 31
0.0
  0
LINE
  5
16594
  8
0
  6
CONTINUOUS
 62
     0
 10
-813.45615564776119
 20
2820.715447868688
 30
0.0
 11
-808.87395155828233
 21
2825.2976519581671
 31
0.0
  0
LINE
  5
16595
  8
0
  6
CONTINUOUS
 62
     0
 10
-813.69736635833283
 20
2820.6602062415691
 30
0.0
 11
-808.81870993116263
 21
2825.5388626687381
 31
0.0
  0
LINE
  5
16596
  8
0
  6
CONTINUOUS
 62
     0
 10
-813.92671743503604
 20
2820.6168242483168
 30
0.0
 11
-808.77532793791124
 21
2825.7682137454431
 31
0.0
  0
LINE
  5
16597
  8
0
  6
CONTINUOUS
 62
     0
 10
-814.14600509865613
 20
2820.583505668149
 30
0.0
 11
-808.74200935774309
 21
2825.9875014090621
 31
0.0
  0
LINE
  5
16598
  8
0
  6
CONTINUOUS
 62
     0
 10
-814.35658204089282
 20
2820.5588978093651
 30
0.0
 11
-808.71740149895868
 21
2826.1980783512981
 31
0.0
  0
LINE
  5
16599
  8
0
  6
CONTINUOUS
 62
     0
 10
-814.55949740737935
 20
2820.5419515263311
 30
0.0
 11
-808.70045521592442
 21
2826.4009937177848
 31
0.0
  0
LINE
  5
1659A
  8
0
  6
CONTINUOUS
 62
     0
 10
-814.75558449545633
 20
2820.5318335217048
 30
0.0
 11
-808.69033721129881
 21
2826.5970808058619
 31
0.0
  0
LINE
  5
1659B
  8
0
  6
CONTINUOUS
 62
     0
 10
-814.94551824274231
 20
2820.5278688578719
 30
0.0
 11
-808.82202932674329
 21
2826.6513577738701
 31
0.0
  0
LINE
  5
1659C
  8
0
  6
CONTINUOUS
 62
     0
 10
-814.98192286970072
 20
2820.6774333143649
 30
0.0
 11
-809.00294497847165
 21
2826.6564112055939
 31
0.0
  0
LINE
  5
1659D
  8
0
  6
CONTINUOUS
 62
     0
 10
-814.98192286970072
 20
2820.863402397817
 30
0.0
 11
-809.18386063019989
 21
2826.6614646373191
 31
0.0
  0
LINE
  5
1659E
  8
0
  6
CONTINUOUS
 62
     0
 10
-814.98192286970072
 20
2821.0493714812692
 30
0.0
 11
-809.36477628192733
 21
2826.666518069042
 31
0.0
  0
LINE
  5
1659F
  8
0
  6
CONTINUOUS
 62
     0
 10
-814.98192286970072
 20
2821.2353405647209
 30
0.0
 11
-809.54569193365569
 21
2826.6715715007649
 31
0.0
  0
LINE
  5
165A0
  8
0
  6
CONTINUOUS
 62
     0
 10
-814.98192286970072
 20
2821.421309648174
 30
0.0
 11
-809.72660758538393
 21
2826.6766249324901
 31
0.0
  0
LINE
  5
165A1
  8
0
  6
CONTINUOUS
 62
     0
 10
-814.98192286970072
 20
2821.6072787316261
 30
0.0
 11
-809.90752323711183
 21
2826.681678364213
 31
0.0
  0
LINE
  5
165A2
  8
0
  6
CONTINUOUS
 62
     0
 10
-814.98192286970072
 20
2821.7932478150769
 30
0.0
 11
-810.08843888883985
 21
2826.6867317959391
 31
0.0
  0
LINE
  5
165A3
  8
0
  6
CONTINUOUS
 62
     0
 10
-814.98192286970072
 20
2821.97921689853
 30
0.0
 11
-810.26935454056763
 21
2826.691785227662
 31
0.0
  0
LINE
  5
165A4
  8
0
  6
CONTINUOUS
 62
     0
 10
-814.98192286970072
 20
2822.1651859819831
 30
0.0
 11
-810.45027019229565
 21
2826.6968386593871
 31
0.0
  0
LINE
  5
165A5
  8
0
  6
CONTINUOUS
 62
     0
 10
-814.98192286970072
 20
2822.351155065433
 30
0.0
 11
-810.63118584402389
 21
2826.70189209111
 31
0.0
  0
LINE
  5
165A6
  8
0
  6
CONTINUOUS
 62
     0
 10
-814.98192286970072
 20
2822.5371241488861
 30
0.0
 11
-810.81210149575179
 21
2826.7069455228352
 31
0.0
  0
LINE
  5
165A7
  8
0
  6
CONTINUOUS
 62
     0
 10
-814.98192286970072
 20
2822.7230932323369
 30
0.0
 11
-810.99301714747969
 21
2826.7119989545581
 31
0.0
  0
LINE
  5
165A8
  8
0
  6
CONTINUOUS
 62
     0
 10
-814.98192286970072
 20
2822.9090623157899
 30
0.0
 11
-811.17393279920793
 21
2826.7170523862819
 31
0.0
  0
LINE
  5
165A9
  8
0
  6
CONTINUOUS
 62
     0
 10
-814.98192286970072
 20
2823.095031399243
 30
0.0
 11
-811.35484845093617
 21
2826.7221058180071
 31
0.0
  0
LINE
  5
165AA
  8
0
  6
CONTINUOUS
 62
     0
 10
-814.98192286970072
 20
2823.2810004826938
 30
0.0
 11
-811.53576410266419
 21
2826.7271592497309
 31
0.0
  0
LINE
  5
165AB
  8
0
  6
CONTINUOUS
 62
     0
 10
-814.98192286970072
 20
2823.4669695661469
 30
0.0
 11
-811.71667975439254
 21
2826.7322126814538
 31
0.0
  0
LINE
  5
165AC
  8
0
  6
CONTINUOUS
 62
     0
 10
-814.98192286970072
 20
2823.6529386495981
 30
0.0
 11
-811.89759540611999
 21
2826.7372661131781
 31
0.0
  0
LINE
  5
165AD
  8
0
  6
CONTINUOUS
 62
     0
 10
-814.98192286970072
 20
2823.8389077330498
 30
0.0
 11
-812.07851105784789
 21
2826.7423195449028
 31
0.0
  0
LINE
  5
165AE
  8
0
  6
CONTINUOUS
 62
     0
 10
-814.98192286970072
 20
2824.024876816502
 30
0.0
 11
-812.25942670957613
 21
2826.7473729766261
 31
0.0
  0
LINE
  5
165AF
  8
0
  6
CONTINUOUS
 62
     0
 10
-814.98192286970072
 20
2824.2108458999542
 30
0.0
 11
-812.44034236130415
 21
2826.7524264083509
 31
0.0
  0
LINE
  5
165B0
  8
0
  6
CONTINUOUS
 62
     0
 10
-814.98192286970072
 20
2824.3968149834068
 30
0.0
 11
-812.62125801303205
 21
2826.7574798400751
 31
0.0
  0
LINE
  5
165B1
  8
0
  6
CONTINUOUS
 62
     0
 10
-814.98192286970072
 20
2824.582784066858
 30
0.0
 11
-812.80217366476029
 21
2826.7625332717989
 31
0.0
  0
LINE
  5
165B2
  8
0
  6
CONTINUOUS
 62
     0
 10
-814.98192286970072
 20
2824.7687531503111
 30
0.0
 11
-812.98308931648864
 21
2826.7675867035218
 31
0.0
  0
LINE
  5
165B3
  8
0
  6
CONTINUOUS
 62
     0
 10
-814.98192286970072
 20
2824.9547222337619
 30
0.0
 11
-813.16400496821655
 21
2826.772640135247
 31
0.0
  0
LINE
  5
165B4
  8
0
  6
CONTINUOUS
 62
     0
 10
-814.98192286970084
 20
2825.1406913172141
 30
0.0
 11
-813.34492061994433
 21
2826.7776935669708
 31
0.0
  0
LINE
  5
165B5
  8
0
  6
CONTINUOUS
 62
     0
 10
-814.98192286970072
 20
2825.3266604006658
 30
0.0
 11
-813.52583627167223
 21
2826.7827469986951
 31
0.0
  0
LINE
  5
165B6
  8
0
  6
CONTINUOUS
 62
     0
 10
-814.98192286970072
 20
2825.512629484118
 30
0.0
 11
-813.70675192340047
 21
2826.787800430418
 31
0.0
  0
LINE
  5
165B7
  8
0
  6
CONTINUOUS
 62
     0
 10
-814.98192286970072
 20
2825.6985985675701
 30
0.0
 11
-813.88766757512849
 21
2826.7928538621418
 31
0.0
  0
LINE
  5
165B8
  8
0
  6
CONTINUOUS
 62
     0
 10
-814.98192286970084
 20
2825.8845676510232
 30
0.0
 11
-814.06858322685684
 21
2826.797907293867
 31
0.0
  0
LINE
  5
165B9
  8
0
  6
CONTINUOUS
 62
     0
 10
-814.98192286970072
 20
2826.070536734474
 30
0.0
 11
-814.24949887858475
 21
2826.8029607255899
 31
0.0
  0
LINE
  5
165BA
  8
0
  6
CONTINUOUS
 62
     0
 10
-814.98192286970072
 20
2826.2565058179271
 30
0.0
 11
-814.43041453031253
 21
2826.808014157315
 31
0.0
  0
LINE
  5
165BB
  8
0
  6
CONTINUOUS
 62
     0
 10
-814.98192286970072
 20
2826.4424749013788
 30
0.0
 11
-814.61133018204043
 21
2826.8130675890388
 31
0.0
  0
LINE
  5
165BC
  8
0
  6
CONTINUOUS
 62
     0
 10
-814.98192286970084
 20
2826.62844398483
 30
0.0
 11
-814.79224583376833
 21
2826.8181210207622
 31
0.0
  0
LINE
  5
165BD
  8
0
  6
CONTINUOUS
 62
     0
 10
-814.98192286970072
 20
2826.8144130682831
 30
0.0
 11
-814.97316148549669
 21
2826.8231744524878
 31
0.0
  0
LINE
  5
165BE
  8
0
  6
CONTINUOUS
 62
     0
 10
-815.15407713722459
 20
2826.8282278842112
 30
0.0
 11
-814.98192286970072
 21
2827.0003821517348
 31
0.0
  0
LINE
  5
165BF
  8
0
  6
CONTINUOUS
 62
     0
 10
-815.33499278895295
 20
2826.833281315935
 30
0.0
 11
-814.98192286970084
 21
2827.186351235187
 31
0.0
  0
LINE
  5
165C0
  8
0
  6
CONTINUOUS
 62
     0
 10
-815.51590844068085
 20
2826.8383347476588
 30
0.0
 11
-814.98192286970084
 21
2827.3723203186391
 31
0.0
  0
LINE
  5
165C1
  8
0
  6
CONTINUOUS
 62
     0
 10
-815.69682409240897
 20
2826.8433881793831
 30
0.0
 11
-814.98192286970084
 21
2827.5582894020908
 31
0.0
  0
LINE
  5
165C2
  8
0
  6
CONTINUOUS
 62
     0
 10
-815.8777397441371
 20
2826.8484416111078
 30
0.0
 11
-814.98192286970072
 21
2827.744258485543
 31
0.0
  0
LINE
  5
165C3
  8
0
  6
CONTINUOUS
 62
     0
 10
-816.05865539586489
 20
2826.8534950428311
 30
0.0
 11
-814.98192286970072
 21
2827.9302275689952
 31
0.0
  0
LINE
  5
165C4
  8
0
  6
CONTINUOUS
 62
     0
 10
-816.23957104759324
 20
2826.8585484745549
 30
0.0
 11
-814.98192286970084
 21
2828.1161966524469
 31
0.0
  0
LINE
  5
165C5
  8
0
  6
CONTINUOUS
 62
     0
 10
-816.42048669932115
 20
2826.8636019062792
 30
0.0
 11
-814.98192286970084
 21
2828.3021657358991
 31
0.0
  0
LINE
  5
165C6
  8
0
  6
CONTINUOUS
 62
     0
 10
-816.60140235104905
 20
2826.868655338003
 30
0.0
 11
-814.98192286970072
 21
2828.4881348193512
 31
0.0
  0
LINE
  5
165C7
  8
0
  6
CONTINUOUS
 62
     0
 10
-816.78231800277683
 20
2826.8737087697282
 30
0.0
 11
-814.98192286970072
 21
2828.6741039028038
 31
0.0
  0
LINE
  5
165C8
  8
0
  6
CONTINUOUS
 62
     0
 10
-816.96323365450542
 20
2826.8787622014511
 30
0.0
 11
-814.98192286970084
 21
2828.8600729862551
 31
0.0
  0
LINE
  5
165C9
  8
0
  6
CONTINUOUS
 62
     0
 10
-817.1441493062332
 20
2826.8838156331749
 30
0.0
 11
-814.98192286970084
 21
2829.0460420697091
 31
0.0
  0
LINE
  5
165CA
  8
0
  6
CONTINUOUS
 62
     0
 10
-817.32506495796144
 20
2826.8888690648992
 30
0.0
 11
-814.98192286970084
 21
2829.232011153159
 31
0.0
  0
LINE
  5
165CB
  8
0
  6
CONTINUOUS
 62
     0
 10
-817.50598060968935
 20
2826.893922496623
 30
0.0
 11
-814.98192286970072
 21
2829.417980236612
 31
0.0
  0
LINE
  5
165CC
  8
0
  6
CONTINUOUS
 62
     0
 10
-817.68689626141747
 20
2826.8989759283472
 30
0.0
 11
-814.98192286970072
 21
2829.6039493200642
 31
0.0
  0
LINE
  5
165CD
  8
0
  6
CONTINUOUS
 62
     0
 10
-817.8678119131456
 20
2826.904029360071
 30
0.0
 11
-814.98192286970084
 21
2829.7899184035168
 31
0.0
  0
LINE
  5
165CE
  8
0
  6
CONTINUOUS
 62
     0
 10
-818.04872756487384
 20
2826.9090827917948
 30
0.0
 11
-814.98192286970084
 21
2829.9758874869681
 31
0.0
  0
LINE
  5
165CF
  8
0
  6
CONTINUOUS
 62
     0
 10
-818.22964321660152
 20
2826.9141362235191
 30
0.0
 11
-814.98192286970072
 21
2830.1618565704198
 31
0.0
  0
LINE
  5
165D0
  8
0
  6
CONTINUOUS
 62
     0
 10
-818.41055886832942
 20
2826.9191896552438
 30
0.0
 11
-814.98192286970072
 21
2830.347825653872
 31
0.0
  0
LINE
  5
165D1
  8
0
  6
CONTINUOUS
 62
     0
 10
-818.59147452005766
 20
2826.9242430869672
 30
0.0
 11
-814.98192286970084
 21
2830.5337947373232
 31
0.0
  0
LINE
  5
165D2
  8
0
  6
CONTINUOUS
 62
     0
 10
-818.77239017178545
 20
2826.9292965186919
 30
0.0
 11
-814.98192286970084
 21
2830.7197638207758
 31
0.0
  0
LINE
  5
165D3
  8
0
  6
CONTINUOUS
 62
     0
 10
-818.9533058235138
 20
2826.9343499504148
 30
0.0
 11
-814.98192286970084
 21
2830.9057329042271
 31
0.0
  0
LINE
  5
165D4
  8
0
  6
CONTINUOUS
 62
     0
 10
-819.13422147524147
 20
2826.9394033821391
 30
0.0
 11
-814.98192286970072
 21
2831.0917019876802
 31
0.0
  0
LINE
  5
165D5
  8
0
  6
CONTINUOUS
 62
     0
 10
-819.31513712696972
 20
2826.9444568138638
 30
0.0
 11
-814.98192286970072
 21
2831.2776710711319
 31
0.0
  0
LINE
  5
165D6
  8
0
  6
CONTINUOUS
 62
     0
 10
-819.49605277869784
 20
2826.9495102455871
 30
0.0
 11
-814.98192286970084
 21
2831.463640154584
 31
0.0
  0
LINE
  5
165D7
  8
0
  6
CONTINUOUS
 62
     0
 10
-819.6769684304262
 20
2826.9545636773119
 30
0.0
 11
-814.98192286970084
 21
2831.6496092380362
 31
0.0
  0
LINE
  5
165D8
  8
0
  6
CONTINUOUS
 62
     0
 10
-819.85788408215376
 20
2826.9596171090352
 30
0.0
 11
-814.98192286970072
 21
2831.8355783214879
 31
0.0
  0
LINE
  5
165D9
  8
0
  6
CONTINUOUS
 62
     0
 10
-820.038799733882
 20
2826.9646705407599
 30
0.0
 11
-814.98192286970072
 21
2832.021547404941
 31
0.0
  0
LINE
  5
165DA
  8
0
  6
CONTINUOUS
 62
     0
 10
-820.21971538561024
 20
2826.9697239724842
 30
0.0
 11
-814.98192286970084
 21
2832.2075164883918
 31
0.0
  0
LINE
  5
165DB
  8
0
  6
CONTINUOUS
 62
     0
 10
-820.40063103733814
 20
2826.9747774042071
 30
0.0
 11
-814.98192286970084
 21
2832.3934855718448
 31
0.0
  0
LINE
  5
165DC
  8
0
  6
CONTINUOUS
 62
     0
 10
-820.58154668906616
 20
2826.9798308359309
 30
0.0
 11
-814.98192286970072
 21
2832.579454655297
 31
0.0
  0
LINE
  5
165DD
  8
0
  6
CONTINUOUS
 62
     0
 10
-820.76246234079395
 20
2826.9848842676561
 30
0.0
 11
-814.98192286970072
 21
2832.7654237387492
 31
0.0
  0
LINE
  5
165DE
  8
0
  6
CONTINUOUS
 62
     0
 10
-820.9433779925223
 20
2826.9899376993799
 30
0.0
 11
-814.98192286970072
 21
2832.9513928222009
 31
0.0
  0
LINE
  5
165DF
  8
0
  6
CONTINUOUS
 62
     0
 10
-821.1242936442502
 20
2826.9949911311028
 30
0.0
 11
-815.00023665431138
 21
2833.1190481210429
 31
0.0
  0
LINE
  5
165E0
  8
0
  6
CONTINUOUS
 62
     0
 10
-821.27415196987806
 20
2827.0311018889288
 30
0.0
 11
-815.18960557852245
 21
2833.1156482802839
 31
0.0
  0
LINE
  5
165E1
  8
0
  6
CONTINUOUS
 62
     0
 10
-821.2646573140355
 20
2827.2265656282229
 30
0.0
 11
-815.38506931781649
 21
2833.106153624441
 31
0.0
  0
LINE
  5
165E2
  8
0
  6
CONTINUOUS
 62
     0
 10
-821.24840593963881
 20
2827.4287860860718
 30
0.0
 11
-815.58728977566545
 21
2833.0899022500462
 31
0.0
  0
LINE
  5
165E3
  8
0
  6
CONTINUOUS
 62
     0
 10
-821.22458203957751
 20
2827.6385790695849
 30
0.0
 11
-815.79708275917892
 21
2833.0660783499829
 31
0.0
  0
LINE
  5
165E4
  8
0
  6
CONTINUOUS
 62
     0
 10
-821.19216060334531
 20
2827.8569695892688
 30
0.0
 11
-816.01547327886351
 21
2833.0336569137512
 31
0.0
  0
LINE
  5
165E5
  8
0
  6
CONTINUOUS
 62
     0
 10
-821.14982338816321
 20
2828.0852758879032
 30
0.0
 11
-816.24377957749755
 21
2832.991319698569
 31
0.0
  0
LINE
  5
165E6
  8
0
  6
CONTINUOUS
 62
     0
 10
-821.09582543710405
 20
2828.325242922414
 30
0.0
 11
-816.48374661200853
 21
2832.9373217475099
 31
0.0
  0
LINE
  5
165E7
  8
0
  6
CONTINUOUS
 62
     0
 10
-821.02777099201751
 20
2828.5792664509531
 30
0.0
 11
-816.73777014054701
 21
2832.8692673024229
 31
0.0
  0
LINE
  5
165E8
  8
0
  6
CONTINUOUS
 62
     0
 10
-820.9422096919194
 20
2828.8507968345029
 30
0.0
 11
-817.00930052409728
 21
2832.7837060023248
 31
0.0
  0
LINE
  5
165E9
  8
0
  6
CONTINUOUS
 62
     0
 10
-820.83383686653758
 20
2829.1451387433372
 30
0.0
 11
-817.30364243293138
 21
2832.6753331769428
 31
0.0
  0
LINE
  5
165EA
  8
0
  6
CONTINUOUS
 62
     0
 10
-820.69368388053363
 20
2829.471260812792
 30
0.0
 11
-817.62976450238682
 21
2832.5351801909392
 31
0.0
  0
LINE
  5
165EB
  8
0
  6
CONTINUOUS
 62
     0
 10
-820.50408479471753
 20
2829.8468289820612
 30
0.0
 11
-818.00533267165554
 21
2832.345581105124
 31
0.0
  0
LINE
  5
165EC
  8
0
  6
CONTINUOUS
 62
     0
 10
-820.21814623016485
 20
2830.3187366300649
 30
0.0
 11
-818.47724031966004
 21
2832.0596425405711
 31
0.0
  0
ENDBLK
  5
165EE
  8
0
 62
     6
  0
BLOCK
  8
0
 62
     6
  2
*X92
 70
     1
 10
0.0
 20
0.0
 30
0.0
  3
*X92
  1

  0
LINE
  5
165F5
  8
0
  6
CONTINUOUS
 62
     0
 10
-827.67634637491028
 20
2847.4859013339842
 30
0.0
 11
-823.14858583054718
 21
2852.0136618783472
 31
0.0
  0
LINE
  5
165F6
  8
0
  6
CONTINUOUS
 62
     0
 10
-829.94186334319579
 20
2847.4654483959671
 30
0.0
 11
-823.12813289252961
 21
2854.279178846632
 31
0.0
  0
LINE
  5
165F7
  8
0
  6
CONTINUOUS
 62
     0
 10
-832.18692737346271
 20
2847.4654483959671
 30
0.0
 11
-823.12813289252961
 21
2856.5242428768988
 31
0.0
  0
LINE
  5
165F8
  8
0
  6
CONTINUOUS
 62
     0
 10
-834.43199140373031
 20
2847.4654483959671
 30
0.0
 11
-823.12813289252961
 21
2858.7693069071661
 31
0.0
  0
LINE
  5
165F9
  8
0
  6
CONTINUOUS
 62
     0
 10
-836.67705543399745
 20
2847.4654483959671
 30
0.0
 11
-823.12813289252995
 21
2861.0143709374338
 31
0.0
  0
LINE
  5
165FA
  8
0
  6
CONTINUOUS
 62
     0
 10
-838.92211946426494
 20
2847.4654483959671
 30
0.0
 11
-823.12813289252961
 21
2863.2594349677011
 31
0.0
  0
LINE
  5
165FB
  8
0
  6
CONTINUOUS
 62
     0
 10
-841.16718349453208
 20
2847.4654483959671
 30
0.0
 11
-823.12813289252995
 21
2865.5044989979679
 31
0.0
  0
LINE
  5
165FC
  8
0
  6
CONTINUOUS
 62
     0
 10
-843.41224752479945
 20
2847.4654483959671
 30
0.0
 11
-823.12813289252961
 21
2867.7495630282351
 31
0.0
  0
LINE
  5
165FD
  8
0
  6
CONTINUOUS
 62
     0
 10
-845.6573115550666
 20
2847.4654483959671
 30
0.0
 11
-823.12813289252995
 21
2869.9946270585028
 31
0.0
  0
LINE
  5
165FE
  8
0
  6
CONTINUOUS
 62
     0
 10
-847.90237558533374
 20
2847.4654483959671
 30
0.0
 11
-823.12813289252961
 21
2872.2396910887701
 31
0.0
  0
LINE
  5
165FF
  8
0
  6
CONTINUOUS
 62
     0
 10
-850.14743961560123
 20
2847.4654483959671
 30
0.0
 11
-823.12813289252995
 21
2874.4847551190369
 31
0.0
  0
LINE
  5
16600
  8
0
  6
CONTINUOUS
 62
     0
 10
-852.3925036458686
 20
2847.4654483959671
 30
0.0
 11
-823.12813289252961
 21
2876.7298191493051
 31
0.0
  0
LINE
  5
16601
  8
0
  6
CONTINUOUS
 62
     0
 10
-854.63756767613586
 20
2847.4654483959671
 30
0.0
 11
-823.12813289253018
 21
2878.974883179571
 31
0.0
  0
LINE
  5
16602
  8
0
  6
CONTINUOUS
 62
     0
 10
-856.88263170640289
 20
2847.4654483959671
 30
0.0
 11
-823.12813289252961
 21
2881.2199472098391
 31
0.0
  0
LINE
  5
16603
  8
0
  6
CONTINUOUS
 62
     0
 10
-859.12769573667003
 20
2847.4654483959671
 30
0.0
 11
-823.12813289253018
 21
2883.465011240105
 31
0.0
  0
LINE
  5
16604
  8
0
  6
CONTINUOUS
 62
     0
 10
-861.37275976693763
 20
2847.4654483959671
 30
0.0
 11
-823.12813289252961
 21
2885.7100752703741
 31
0.0
  0
LINE
  5
16605
  8
0
  6
CONTINUOUS
 62
     0
 10
-863.61782379720512
 20
2847.4654483959671
 30
0.0
 11
-823.20184212271397
 21
2887.8814300704571
 31
0.0
  0
LINE
  5
16606
  8
0
  6
CONTINUOUS
 62
     0
 10
-865.86288782747181
 20
2847.4654483959671
 30
0.0
 11
-823.79956992248094
 21
2889.5287663009572
 31
0.0
  0
LINE
  5
16607
  8
0
  6
CONTINUOUS
 62
     0
 10
-868.10795185773941
 20
2847.4654483959671
 30
0.0
 11
-824.80842170059282
 21
2890.764978553113
 31
0.0
  0
LINE
  5
16608
  8
0
  6
CONTINUOUS
 62
     0
 10
-870.35301588800678
 20
2847.4654483959671
 30
0.0
 11
-826.18530125956863
 21
2891.6331630244049
 31
0.0
  0
LINE
  5
16609
  8
0
  6
CONTINUOUS
 62
     0
 10
-872.59807991827415
 20
2847.4654483959671
 30
0.0
 11
-828.03827655191424
 21
2892.0252517623248
 31
0.0
  0
LINE
  5
1660A
  8
0
  6
CONTINUOUS
 62
     0
 10
-874.84314394854152
 20
2847.4654483959671
 30
0.0
 11
-830.28397023017135
 21
2892.0246221143352
 31
0.0
  0
LINE
  5
1660B
  8
0
  6
CONTINUOUS
 62
     0
 10
-877.08820797880833
 20
2847.4654483959671
 30
0.0
 11
-832.52903426043861
 21
2892.0246221143361
 31
0.0
  0
LINE
  5
1660C
  8
0
  6
CONTINUOUS
 62
     0
 10
-879.33327200907593
 20
2847.4654483959671
 30
0.0
 11
-834.77409829070621
 21
2892.0246221143352
 31
0.0
  0
LINE
  5
1660D
  8
0
  6
CONTINUOUS
 62
     0
 10
-881.5783360393433
 20
2847.4654483959671
 30
0.0
 11
-837.01916232097324
 21
2892.0246221143352
 31
0.0
  0
LINE
  5
1660E
  8
0
  6
CONTINUOUS
 62
     0
 10
-883.82340006961044
 20
2847.4654483959671
 30
0.0
 11
-839.26422635124095
 21
2892.0246221143352
 31
0.0
  0
LINE
  5
1660F
  8
0
  6
CONTINUOUS
 62
     0
 10
-886.06846409987781
 20
2847.4654483959671
 30
0.0
 11
-841.50929038150787
 21
2892.0246221143361
 31
0.0
  0
LINE
  5
16610
  8
0
  6
CONTINUOUS
 62
     0
 10
-888.31352813014519
 20
2847.4654483959671
 30
0.0
 11
-843.75435441177535
 21
2892.0246221143352
 31
0.0
  0
LINE
  5
16611
  8
0
  6
CONTINUOUS
 62
     0
 10
-890.55859216041245
 20
2847.4654483959671
 30
0.0
 11
-845.9994184420425
 21
2892.0246221143352
 31
0.0
  0
LINE
  5
16612
  8
0
  6
CONTINUOUS
 62
     0
 10
-892.80365619067982
 20
2847.4654483959671
 30
0.0
 11
-848.2444824723101
 21
2892.0246221143361
 31
0.0
  0
LINE
  5
16613
  8
0
  6
CONTINUOUS
 62
     0
 10
-895.04872022094685
 20
2847.4654483959671
 30
0.0
 11
-850.48954650257701
 21
2892.0246221143361
 31
0.0
  0
LINE
  5
16614
  8
0
  6
CONTINUOUS
 62
     0
 10
-897.29378425121411
 20
2847.4654483959671
 30
0.0
 11
-852.73461053284439
 21
2892.0246221143352
 31
0.0
  0
LINE
  5
16615
  8
0
  6
CONTINUOUS
 62
     0
 10
-899.53884828148136
 20
2847.4654483959671
 30
0.0
 11
-854.97967456311142
 21
2892.0246221143352
 31
0.0
  0
LINE
  5
16616
  8
0
  6
CONTINUOUS
 62
     0
 10
-901.78391231174885
 20
2847.4654483959671
 30
0.0
 11
-857.22473859337924
 21
2892.0246221143361
 31
0.0
  0
LINE
  5
16617
  8
0
  6
CONTINUOUS
 62
     0
 10
-904.02897634201599
 20
2847.4654483959671
 30
0.0
 11
-859.46980262364605
 21
2892.0246221143361
 31
0.0
  0
LINE
  5
16618
  8
0
  6
CONTINUOUS
 62
     0
 10
-894.3996490442255
 20
2859.3398397240239
 30
0.0
 11
-861.71486665391353
 21
2892.0246221143352
 31
0.0
  0
LINE
  5
16619
  8
0
  6
CONTINUOUS
 62
     0
 10
-906.27404037228337
 20
2847.4654483959648
 30
0.0
 11
-896.11733559592506
 21
2857.622153172324
 31
0.0
  0
LINE
  5
1661A
  8
0
  6
CONTINUOUS
 62
     0
 10
-898.36239962619243
 20
2857.622153172324
 30
0.0
 11
-863.9599306841809
 21
2892.0246221143352
 31
0.0
  0
LINE
  5
1661B
  8
0
  6
CONTINUOUS
 62
     0
 10
-894.3996490442255
 20
2863.829967784558
 30
0.0
 11
-866.20499471444828
 21
2892.0246221143361
 31
0.0
  0
LINE
  5
1661C
  8
0
  6
CONTINUOUS
 62
     0
 10
-910.2396741643953
 20
2847.9899426643879
 30
0.0
 11
-900.60746365645923
 21
2857.622153172324
 31
0.0
  0
LINE
  5
1661D
  8
0
  6
CONTINUOUS
 62
     0
 10
-894.3996490442255
 20
2866.0750318148248
 30
0.0
 11
-868.45005874471553
 21
2892.0246221143352
 31
0.0
  0
LINE
  5
1661E
  8
0
  6
CONTINUOUS
 62
     0
 10
-911.63238775901925
 20
2848.8422931000318
 30
0.0
 11
-902.85252768672672
 21
2857.622153172324
 31
0.0
  0
LINE
  5
1661F
  8
0
  6
CONTINUOUS
 62
     0
 10
-894.3996490442255
 20
2868.3200958450921
 30
0.0
 11
-870.69512277498291
 21
2892.0246221143352
 31
0.0
  0
LINE
  5
16620
  8
0
  6
CONTINUOUS
 62
     0
 10
-912.6560299923276
 20
2850.0637148969909
 30
0.0
 11
-905.0975917169942
 21
2857.622153172324
 31
0.0
  0
LINE
  5
16621
  8
0
  6
CONTINUOUS
 62
     0
 10
-894.3996490442255
 20
2870.5651598753602
 30
0.0
 11
-872.94018680525005
 21
2892.0246221143352
 31
0.0
  0
LINE
  5
16622
  8
0
  6
CONTINUOUS
 62
     0
 10
-913.27336954500515
 20
2851.6914393745801
 30
0.0
 11
-907.34265574726135
 21
2857.622153172324
 31
0.0
  0
LINE
  5
16623
  8
0
  6
CONTINUOUS
 62
     0
 10
-894.3996490442255
 20
2872.810223905627
 30
0.0
 11
-875.18525083551719
 21
2892.0246221143361
 31
0.0
  0
LINE
  5
16624
  8
0
  6
CONTINUOUS
 62
     0
 10
-913.15042408695354
 20
2854.059448862899
 30
0.0
 11
-909.7968870503363
 21
2857.412985899517
 31
0.0
  0
LINE
  5
16625
  8
0
  6
CONTINUOUS
 62
     0
 10
-894.39964904422573
 20
2875.0552879358929
 30
0.0
 11
-877.43031486578479
 21
2892.0246221143352
 31
0.0
  0
LINE
  5
16626
  8
0
  6
CONTINUOUS
 62
     0
 10
-894.3996490442255
 20
2877.3003519661611
 30
0.0
 11
-879.67537889605182
 21
2892.0246221143352
 31
0.0
  0
LINE
  5
16627
  8
0
  6
CONTINUOUS
 62
     0
 10
-894.39964904422573
 20
2879.5454159964311
 30
0.0
 11
-881.92044292631942
 21
2892.0246221143361
 31
0.0
  0
LINE
  5
16628
  8
0
  6
CONTINUOUS
 62
     0
 10
-894.3996490442255
 20
2881.7904800266961
 30
0.0
 11
-884.16550695658634
 21
2892.0246221143361
 31
0.0
  0
LINE
  5
16629
  8
0
  6
CONTINUOUS
 62
     0
 10
-894.39964904422573
 20
2884.0355440569642
 30
0.0
 11
-886.41057098685371
 21
2892.0246221143352
 31
0.0
  0
LINE
  5
1662A
  8
0
  6
CONTINUOUS
 62
     0
 10
-894.3996490442255
 20
2886.280608087231
 30
0.0
 11
-888.65563501712063
 21
2892.0246221143352
 31
0.0
  0
LINE
  5
1662B
  8
0
  6
CONTINUOUS
 62
     0
 10
-894.04184842951645
 20
2888.8834727322069
 30
0.0
 11
-891.25706253271039
 21
2891.668258629014
 31
0.0
  0
ENDBLK
  5
1662D
  8
0
 62
     6
  0
BLOCK
  8
0
 62
     6
  2
*U93
 70
     1
 10
0.0
 20
0.0
 30
0.0
  3
*U93
  1

  0
TEXT
  5
16653
  8
0
  6
CONTINUOUS
 62
     1
 10
-1804.358541738568
 20
2087.6947481339162
 30
0.0
 40
6.0
  1
Incollare l'ordinata
  0
TEXT
  5
16654
  8
0
  6
CONTINUOUS
 62
     1
 10
-1804.1293466498921
 20
2077.5924288978999
 30
0.0
 40
6.0
  1
parafiamma al centro e
  0
TEXT
  5
16655
  8
0
  6
CONTINUOUS
 62
     1
 10
-1804.1211611110109
 20
2067.4901096618842
 30
0.0
 40
6.0
  1
rastremare la fusoliera come
  0
TEXT
  5
16656
  8
0
  6
CONTINUOUS
 62
     1
 10
-1803.863316636249
 20
2057.4901096618842
 30
0.0
 40
6.0
  1
da disegno
  0
ENDBLK
  5
16658
  8
0
 62
     6
  0
BLOCK
  8
0
 62
     6
  2
*X94
 70
     1
 10
0.0
 20
0.0
 30
0.0
  3
*X94
  1

  0
LINE
  5
1665A
  8
0
  6
CONTINUOUS
 62
     0
 10
-1838.842140664681
 20
2005.034117987565
 30
0.0
 11
-1820.4563180941991
 21
2023.419940558048
 31
0.0
  0
LINE
  5
1665B
  8
0
  6
CONTINUOUS
 62
     0
 10
-1847.761554921032
 20
2001.4180045901139
 30
0.0
 11
-1816.8402046967481
 21
2032.3393548143979
 31
0.0
  0
LINE
  5
1665C
  8
0
  6
CONTINUOUS
 62
     0
 10
-1854.43310599852
 20
2000.049754371526
 30
0.0
 11
-1815.4719544781599
 21
2039.0109058918849
 31
0.0
  0
LINE
  5
1665D
  8
0
  6
CONTINUOUS
 62
     0
 10
-1860.096194561014
 20
1999.689966667931
 30
0.0
 11
-1815.1121667745649
 21
2044.673994454379
 31
0.0
  0
LINE
  5
1665E
  8
0
  6
CONTINUOUS
 62
     0
 10
-1865.119982922665
 20
1999.969479165178
 30
0.0
 11
-1815.3916792718121
 21
2049.697782816032
 31
0.0
  0
LINE
  5
1665F
  8
0
  6
CONTINUOUS
 62
     0
 10
-1869.6749786645
 20
2000.7177842822421
 30
0.0
 11
-1816.139984388876
 21
2054.2527785578659
 31
0.0
  0
LINE
  5
16660
  8
0
  6
CONTINUOUS
 62
     0
 10
-1873.85593849058
 20
2001.840125315061
 30
0.0
 11
-1817.2623254216951
 21
2058.4337383839461
 31
0.0
  0
LINE
  5
16661
  8
0
  6
CONTINUOUS
 62
     0
 10
-1877.7210707113991
 20
2003.278293953141
 30
0.0
 11
-1818.7004940597751
 21
2062.2988706047649
 31
0.0
  0
LINE
  5
16662
  8
0
  6
CONTINUOUS
 62
     0
 10
-1881.3081627963891
 20
2004.9945027270501
 30
0.0
 11
-1820.416702833684
 21
2065.8859626897561
 31
0.0
  0
LINE
  5
16663
  8
0
  6
CONTINUOUS
 62
     0
 10
-1849.3951839834781
 20
2042.2107823988611
 30
0.0
 11
-1822.3858752793251
 21
2069.2200911030141
 31
0.0
  0
LINE
  5
16664
  8
0
  6
CONTINUOUS
 62
     0
 10
-1884.642291209648
 20
2006.963675172691
 30
0.0
 11
-1857.632982505495
 21
2033.972983876844
 31
0.0
  0
LINE
  5
16665
  8
0
  6
CONTINUOUS
 62
     0
 10
-1849.463070908495
 20
2047.446196332741
 30
0.0
 11
-1824.591603628166
 21
2072.317663613072
 31
0.0
  0
LINE
  5
16666
  8
0
  6
CONTINUOUS
 62
     0
 10
-1887.739863719707
 20
2009.1694035215321
 30
0.0
 11
-1862.868396439377
 21
2034.040870801861
 31
0.0
  0
LINE
  5
16667
  8
0
  6
CONTINUOUS
 62
     0
 10
-1851.147733187463
 20
2051.0648349126741
 30
0.0
 11
-1827.023932809572
 21
2075.1886352905649
 31
0.0
  0
LINE
  5
16668
  8
0
  6
CONTINUOUS
 62
     0
 10
-1890.610835397199
 20
2011.6017327029381
 30
0.0
 11
-1866.4870350193071
 21
2035.7255330808291
 31
0.0
  0
LINE
  5
16669
  8
0
  6
CONTINUOUS
 62
     0
 10
-1853.810124545309
 20
2053.7057444137258
 30
0.0
 11
-1829.678172603705
 21
2077.837696355331
 31
0.0
  0
LINE
  5
1666A
  8
0
  6
CONTINUOUS
 62
     0
 10
-1893.259896461964
 20
2014.2559724970711
 30
0.0
 11
-1869.12794452036
 21
2038.387924438676
 31
0.0
  0
LINE
  5
1666B
  8
0
  6
CONTINUOUS
 62
     0
 10
-1857.454969755205
 20
2055.3642000627301
 30
0.0
 11
-1832.55437762009
 21
2080.2647921978451
 31
0.0
  0
LINE
  5
1666C
  8
0
  6
CONTINUOUS
 62
     0
 10
-1895.686992304479
 20
2017.1321775134561
 30
0.0
 11
-1870.7864001693649
 21
2042.032769648571
 31
0.0
  0
LINE
  5
1666D
  8
0
  6
CONTINUOUS
 62
     0
 10
-1862.754610133981
 20
2055.3678605428531
 30
0.0
 11
-1835.65735320876
 21
2082.465117468073
 31
0.0
  0
LINE
  5
1666E
  8
0
  6
CONTINUOUS
 62
     0
 10
-1897.887317574708
 20
2020.2351531021261
 30
0.0
 11
-1870.790060649487
 21
2047.3324100273469
 31
0.0
  0
LINE
  5
1666F
  8
0
  6
CONTINUOUS
 62
     0
 10
-1899.8507827816211
 20
2023.5749887541119
 30
0.0
 11
-1838.9971888607461
 21
2084.428582674987
 31
0.0
  0
LINE
  5
16670
  8
0
  6
CONTINUOUS
 62
     0
 10
-1901.560807613482
 20
2027.1682647811499
 30
0.0
 11
-1842.590464887784
 21
2086.1386075068481
 31
0.0
  0
LINE
  5
16671
  8
0
  6
CONTINUOUS
 62
     0
 10
-1902.992073736091
 20
2031.0402995174411
 30
0.0
 11
-1846.462499624075
 21
2087.5698736294571
 31
0.0
  0
LINE
  5
16672
  8
0
  6
CONTINUOUS
 62
     0
 10
-1904.106423791716
 20
2035.2292503207141
 30
0.0
 11
-1850.651450427348
 21
2088.684223685083
 31
0.0
  0
LINE
  5
16673
  8
0
  6
CONTINUOUS
 62
     0
 10
-1904.8450269114769
 20
2039.793948059852
 30
0.0
 11
-1855.2161481664871
 21
2089.4228268048441
 31
0.0
  0
LINE
  5
16674
  8
0
  6
CONTINUOUS
 62
     0
 10
-1905.111945019486
 20
2044.8303308107429
 30
0.0
 11
-1860.252530917377
 21
2089.6897449128519
 31
0.0
  0
LINE
  5
16675
  8
0
  6
CONTINUOUS
 62
     0
 10
-1904.7340073516659
 20
2050.5115693374619
 30
0.0
 11
-1865.933769444096
 21
2089.311807245032
 31
0.0
  0
LINE
  5
16676
  8
0
  6
CONTINUOUS
 62
     0
 10
-1903.333990620456
 20
2057.2148869275711
 30
0.0
 11
-1872.637087034205
 21
2087.9117905138219
 31
0.0
  0
LINE
  5
16677
  8
0
  6
CONTINUOUS
 62
     0
 10
-1899.6217776987071
 20
2066.2304007082189
 30
0.0
 11
-1881.652600814853
 21
2084.1995775920718
 31
0.0
  0
ENDBLK
  5
16679
  8
0
 62
     6
  0
BLOCK
  8
0
 62
     6
  2
*U95
 70
     1
 10
0.0
 20
0.0
 30
0.0
  3
*U95
  1

  0
TEXT
  5
16E43
  8
0
  6
CONTINUOUS
 62
     1
 10
-1989.6353144728521
 20
2482.0483230772029
 30
0.0
 40
6.0
  1
NACA 2411 - corda 230 mm -
  0
TEXT
  5
16E44
  8
0
  6
CONTINUOUS
 62
     1
 10
-1989.5534590840391
 20
2472.0237664605588
 30
0.0
 40
6.0
  1
incidenza +1.5°
  0
ENDBLK
  5
16E46
  8
0
 62
     6
  0
BLOCK
  8
0
 62
     6
  2
*U96
 70
     1
 10
0.0
 20
0.0
 30
0.0
  3
*U96
  1

  0
TEXT
  5
16E48
  8
0
  6
CONTINUOUS
 62
     1
 10
-1698.591812352319
 20
2481.5100183352829
 30
0.0
 40
6.0
  1
NACA 2415 - corda 121 mm
  0
TEXT
  5
16E49
  8
0
  6
CONTINUOUS
 62
     1
 10
-1698.2111847943379
 20
2471.4854617186388
 30
0.0
 40
6.0
  1
sverg.  -2.5°
  0
ENDBLK
  5
16E4B
  8
0
 62
     6
  0
BLOCK
  8
0
 62
     6
  2
*U97
 70
     1
 10
0.0
 20
0.0
 30
0.0
  3
*U97
  1

  0
TEXT
  5
16ED4
  8
0
  6
CONTINUOUS
 62
     1
 10
-1527.0845230445041
 20
3246.7273845692148
 30
0.0
 40
10.0
  1
sede profondità :
  0
TEXT
  5
16ED5
  8
0
  6
CONTINUOUS
 62
     1
 10
-1527.282340234136
 20
3229.890185842522
 30
0.0
 40
10.0
  1
Spessore 4 mm
  0
TEXT
  5
16ED6
  8
0
  6
CONTINUOUS
 62
     1
 10
-1527.5483702477779
 20
3213.1825914814481
 30
0.0
 40
10.0
  1
lunghezza 159 mm
  0
ENDBLK
  5
16ED8
  8
0
 62
     6
  0
BLOCK
  8
0
 62
     6
  2
*U98
 70
     1
 10
0.0
 20
0.0
 30
0.0
  3
*U98
  1

  0
TEXT
  5
17073
  8
0
  6
CONTINUOUS
 62
     0
 10
-532.00722516530755
 20
1832.981632779974
 30
0.0
 40
7.0
  1
aces italia
  0
TEXT
  5
17074
  8
0
  6
CONTINUOUS
 62
     0
 10
-532.00722516530755
 20
1821.314966113307
 30
0.0
 40
7.0
  1
rc combat
  0
ENDBLK
  5
17076
  8
0
 62
     6
  0
BLOCK
  8
0
 62
     6
  2
*U99
 70
     1
 10
0.0
 20
0.0
 30
0.0
  3
*U99
  1

  0
TEXT
  5
17078
  8
DAN1
  6
CONTINUOUS
 62
     0
 10
-551.87620109737725
 20
1790.6745594108249
 30
0.0
 40
10.0
  1
 apertura alare: 1050mm
  0
TEXT
  5
17079
  8
DAN1
  6
CONTINUOUS
 62
     0
 10
-551.87620109737725
 20
1774.007892744158
 30
0.0
 40
10.0
  1
 Lunghezza: 790mm
  0
TEXT
  5
1707A
  8
DAN1
  6
CONTINUOUS
 62
     0
 10
-551.87620109737725
 20
1757.341226077491
 30
0.0
 40
10.0
  1
 peso: 900gr-1100gr
  0
TEXT
  5
1707B
  8
DAN1
  6
CONTINUOUS
 62
     0
 10
-551.87620109737725
 20
1740.6745594108249
 30
0.0
 40
10.0
  1
 motore: 0.21'
  0
ENDBLK
  5
1707D
  8
0
 62
     6
  0
BLOCK
  8
0
 62
     6
  2
*U100
 70
     1
 10
0.0
 20
0.0
 30
0.0
  3
*U100
  1

  0
TEXT
  5
1707F
  8
0
  6
CONTINUOUS
 62
     1
 10
-420.6350261786348
 20
1823.1645784262059
 30
0.0
 40
17.0
  1
MITSUBISHI A6M2 "ZEKE"
  0
ENDBLK
  5
17081
  8
0
 62
     6
  0
BLOCK
  8
0
 62
     6
  2
*U101
 70
     1
 10
0.0
 20
0.0
 30
0.0
  3
*U101
  1

  0
TEXT
  5
17083
  8
0
  6
CONTINUOUS
 62
     7
 10
-290.80212306857402
 20
1785.5794463705529
 30
0.0
 40
9.9994029478327544
  1
Designed by:
  0
TEXT
  5
17084
  8
0
  6
CONTINUOUS
 62
     7
 10
-291.30607175825259
 20
1768.9137747908319
 30
0.0
 40
9.9994029478327544
  1
Enrico "BEAR" D'Alessandro
  0
ENDBLK
  5
17086
  8
0
 62
     6
  0
BLOCK
  8
0
 62
     6
  2
*U102
 70
     1
 10
0.0
 20
0.0
 30
0.0
  3
*U102
  1

  0
TEXT
  5
1708D
  8
0
  6
CONTINUOUS
 62
     5
 10
-804.56632862418837
 20
2835.4207323796099
 30
0.0
 40
5.0
  1
FUTABA
  0
TEXT
  5
1708E
  8
0
  6
CONTINUOUS
 62
     5
 10
-804.56632862418837
 20
2827.0873990462769
 30
0.0
 40
5.0
  1
S-148
  0
ENDBLK
  5
17090
  8
0
 62
     6
  0
BLOCK
  8
0
 62
     6
  2
*U103
 70
     1
 10
0.0
 20
0.0
 30
0.0
  3
*U103
  1

  0
TEXT
  5
17092
  8
7
  6
CONTINUOUS
 10
-1123.4257228156289
 20
2738.7499144447179
 30
0.0
 40
12.0
  1
Naca motore
  0
TEXT
  5
17093
  8
7
  6
CONTINUOUS
 10
-1123.4257228156289
 20
2718.7499144447179
 30
0.0
 40
12.0
  1
realizzata con
  0
TEXT
  5
17094
  8
7
  6
CONTINUOUS
 10
-1123.4257228156289
 20
2698.7499144447179
 30
0.0
 40
12.0
  1
bottiglia di PET
  0
TEXT
  5
17095
  8
7
  6
CONTINUOUS
 10
-1123.4257228156289
 20
2678.749914444717
 30
0.0
 40
12.0
  1
termoretratta su
  0
TEXT
  5
17096
  8
7
  6
CONTINUOUS
 10
-1123.4257228156289
 20
2658.749914444717
 30
0.0
 40
12.0
  1
un barattolo di
  0
TEXT
  5
17097
  8
7
  6
CONTINUOUS
 10
-1123.4257228156289
 20
2638.7499144447179
 30
0.0
 40
12.0
  1
vetro di dimensioni
  0
TEXT
  5
17098
  8
7
  6
CONTINUOUS
 10
-1123.4257228156289
 20
2618.749914444717
 30
0.0
 40
12.0
  1
opportune
  0
ENDBLK
  5
1709A
  8
0
 62
     6
  0
BLOCK
  8
0
 62
     6
  2
*U104
 70
     1
 10
0.0
 20
0.0
 30
0.0
  3
*U104
  1

  0
TEXT
  5
1709C
  8
7
  6
CONTINUOUS
 10
-1117.4409475918619
 20
3042.5327296105711
 30
0.0
 40
12.0
  1
Incidenza
  0
TEXT
  5
1709D
  8
7
  6
CONTINUOUS
 10
-1117.4409475918619
 20
3022.5327296105711
 30
0.0
 40
12.0
  1
Motore:
  0
TEXT
  5
1709E
  8
7
  6
CONTINUOUS
 10
-1117.4409475918619
 20
3002.5327296105711
 30
0.0
 40
12.0
  1
1,5 in basso
  0
TEXT
  5
1709F
  8
7
  6
CONTINUOUS
 10
-1117.4409475918619
 20
2982.5327296105711
 30
0.0
 40
12.0
  1
1,0 a destra
  0
ENDBLK
  5
170A1
  8
0
 62
     6
  0
BLOCK
  8
0
 62
     6
  2
*U105
 70
     1
 10
0.0
 20
0.0
 30
0.0
  3
*U105
  1

  0
TEXT
  5
170A3
  8
7
  6
CONTINUOUS
 10
-417.29241079858161
 20
2172.758780420148
 30
0.0
 40
12.0
  1
Lunghezza alettoni
  0
TEXT
  5
170A4
  8
7
  6
CONTINUOUS
 10
-417.29241079858161
 20
2152.758780420148
 30
0.0
 40
12.0
  1
consigliata 30 cm
  0
ENDBLK
  5
170A6
  8
0
 62
     6
  0
BLOCK
  8
0
 62
     6
  2
*U106
 70
     1
 10
0.0
 20
0.0
 30
0.0
  3
*U106
  1

  0
TEXT
  5
170A8
  8
7
  6
CONTINUOUS
 10
-1108.6671511087
 20
2175.7408251565348
 30
0.0
 40
10.0
  1
Limitare l'escursione delle
  0
TEXT
  5
170A9
  8
7
  6
CONTINUOUS
 10
-1108.6671511087
 20
2159.0741584898678
 30
0.0
 40
10.0
  1
parti mobili a +/- 15 gradi, sia
  0
TEXT
  5
170AA
  8
7
  6
CONTINUOUS
 10
-1108.6671511087
 20
2142.4074918232018
 30
0.0
 40
10.0
  1
per l'elevatore che per gli
  0
TEXT
  5
170AB
  8
7
  6
CONTINUOUS
 10
-1108.6671511087
 20
2125.7408251565348
 30
0.0
 40
10.0
  1
alettoni.
  0
ENDBLK
  5
170AD
  8
0
 62
     6
  0
BLOCK
  8
0
 62
     6
  2
*U107
 70
     1
 10
0.0
 20
0.0
 30
0.0
  3
*U107
  1

  0
TEXT
  5
170AF
  8
7
  6
CONTINUOUS
 10
-548.17274283243751
 20
3098.4212390477069
 30
0.0
 40
12.0
  1
Il diedro alare e' di 3
  0
TEXT
  5
170B0
  8
7
  6
CONTINUOUS
 10
-548.17274283243751
 20
3078.4212390477069
 30
0.0
 40
12.0
  1
centimetri per ogni estremita'
  0
ENDBLK
  5
170B2
  8
0
 62
     6
  0
BLOCK
  8
0
 62
     6
  2
*U108
 70
     1
 10
0.0
 20
0.0
 30
0.0
  3
*U108
  1

  0
TEXT
  5
170B4
  8
0
  6
CONTINUOUS
 10
-1995.413011013381
 20
2931.7073412215368
 30
0.0
 40
10.0
  1
Tagliare terminale arrotondato
  0
ENDBLK
  5
170B6
  8
0
 62
     6
  0
BLOCK
  8
0
 62
     6
  2
*U109
 70
     1
 10
0.0
 20
0.0
 30
0.0
  3
*U109
  1

  0
TEXT
  5
170B8
  8
0
  6
CONTINUOUS
 62
     1
 10
-1986.645660873756
 20
2802.7125406947248
 30
0.0
 40
6.0
  1
NACA 2411 - corda 230 mm
  0
ENDBLK
  5
170BA
  8
0
 62
     6
  0
BLOCK
  8
0
 62
     6
  2
*U110
 70
     1
 10
0.0
 20
0.0
 30
0.0
  3
*U110
  1

  0
SOLID
  5
17658
  8
0
  6
CONTINUOUS
 10
-2058.6233762291959
 20
2805.8148253202521
 30
0.0
 11
-2059.713264752198
 21
2805.36337871255
 31
0.0
 12
-2057.5334877061928
 22
2805.36337871255
 32
0.0
 13
-2057.5334877061928
 23
2805.36337871255
 33
0.0
  0
SOLID
  5
17659
  8
0
  6
CONTINUOUS
 10
-2059.713264752198
 20
2805.36337871255
 30
0.0
 11
-2060.1647113599001
 21
2804.2734901895478
 31
0.0
 12
-2057.0820410984911
 22
2804.2734901895478
 32
0.0
 13
-2057.0820410984911
 23
2804.2734901895478
 33
0.0
  0
SOLID
  5
1765A
  8
0
  6
CONTINUOUS
 10
2059.713264752198
 20
2805.36337871255
 30
0.0
 11
2057.5334877061928
 21
2805.36337871255
 31
0.0
 12
2057.0820410984911
 22
2804.2734901895478
 32
0.0
 13
2057.0820410984911
 23
2804.2734901895478
 33
0.0
210
0.0
220
0.0
230
-1.0
  0
SOLID
  5
1765B
  8
0
  6
CONTINUOUS
 10
2059.713264752198
 20
2803.1836016665452
 30
0.0
 11
2057.5334877061928
 21
2803.1836016665452
 31
0.0
 12
2058.6233762291959
 22
2802.7321550588431
 32
0.0
 13
2058.6233762291959
 23
2802.7321550588431
 33
0.0
210
0.0
220
0.0
230
-1.0
  0
SOLID
  5
1765C
  8
0
  6
CONTINUOUS
 10
-2060.1647113599001
 20
2804.2734901895478
 30
0.0
 11
-2059.713264752198
 21
2803.1836016665452
 31
0.0
 12
-2057.5334877061928
 22
2803.1836016665452
 32
0.0
 13
-2057.5334877061928
 23
2803.1836016665452
 33
0.0
  0
SOLID
  5
1765D
  8
0
  6
CONTINUOUS
 10
2060.1647113599001
 20
2804.2734901895478
 30
0.0
 11
2057.0820410984911
 21
2804.2734901895478
 31
0.0
 12
2057.5334877061928
 22
2803.1836016665452
 32
0.0
 13
2057.5334877061928
 23
2803.1836016665452
 33
0.0
210
0.0
220
0.0
230
-1.0
  0
LINE
  5
1765E
  8
0
  6
CONTINUOUS
 10
-2058.6233762291959
 20
2805.8148253202521
 30
0.0
 11
-2059.713264752198
 21
2805.36337871255
 31
0.0
  0
LINE
  5
1765F
  8
0
  6
CONTINUOUS
 10
-2057.5334877061928
 20
2805.36337871255
 30
0.0
 11
-2058.6233762291959
 21
2805.8148253202521
 31
0.0
  0
LINE
  5
17660
  8
0
  6
CONTINUOUS
 10
-2059.713264752198
 20
2805.36337871255
 30
0.0
 11
-2060.1647113599001
 21
2804.2734901895478
 31
0.0
  0
LINE
  5
17661
  8
0
  6
CONTINUOUS
 10
-2057.5334877061928
 20
2805.36337871255
 30
0.0
 11
-2057.0820410984911
 21
2804.2734901895478
 31
0.0
  0
LINE
  5
17662
  8
0
  6
CONTINUOUS
 10
-2057.5334877061928
 20
2803.1836016665452
 30
0.0
 11
-2058.6233762291959
 21
2802.7321550588431
 31
0.0
  0
LINE
  5
17663
  8
0
  6
CONTINUOUS
 10
-2058.6233762291959
 20
2802.7321550588431
 30
0.0
 11
-2059.713264752198
 21
2803.1836016665452
 31
0.0
  0
LINE
  5
17664
  8
0
  6
CONTINUOUS
 10
-2060.1647113599001
 20
2804.2734901895478
 30
0.0
 11
-2059.713264752198
 21
2803.1836016665452
 31
0.0
  0
LINE
  5
17665
  8
0
  6
CONTINUOUS
 10
-2057.0820410984911
 20
2804.2734901895478
 30
0.0
 11
-2057.5334877061928
 21
2803.1836016665452
 31
0.0
  0
ENDBLK
  5
17667
  8
0
 62
     6
  0
BLOCK
  8
0
 62
     6
  2
*U111
 70
     1
 10
0.0
 20
0.0
 30
0.0
  3
*U111
  1

  0
TEXT
  5
17725
  8
0
  6
CONTINUOUS
 62
     5
 10
-2082.1653763358559
 20
3261.524516764116
 30
0.0
 40
10.0
  1
274
  0
ENDBLK
  5
17727
  8
0
 62
     6
  0
BLOCK
  8
0
 62
     6
  2
*U112
 70
     1
 10
0.0
 20
0.0
 30
0.0
  3
*U112
  1

  0
TEXT
  5
1833A
  8
0
  6
CONTINUOUS
 62
     1
 10
-1808.734900274007
 20
2751.6631750860238
 30
0.0
 40
6.0
  1
NACA 2415 - corda 121 mm
  0
TEXT
  5
1833B
  8
0
  6
CONTINUOUS
 62
     1
 10
-1808.354272716025
 20
2741.6386184693811
 30
0.0
 40
6.0
  1
sverg.  -2.5°
  0
ENDBLK
  5
1833D
  8
0
 62
     6
  0
BLOCK
  8
0
 62
     6
  2
*U113
 70
     1
 10
0.0
 20
0.0
 30
0.0
  3
*U113
  1

  0
TEXT
  5
1838B
  8
7
  6
CONTINUOUS
 10
-461.01079041676712
 20
2796.762767658804
 30
0.0
 40
12.0
  1
Linea di
  0
TEXT
  5
1838C
  8
7
  6
CONTINUOUS
 10
-461.01079041676712
 20
2776.762767658804
 30
0.0
 40
12.0
  1
svuotamento
  0
ENDBLK
  5
1838E
  8
0
 62
     6
  0
BLOCK
  8
0
 62
     6
  2
*U114
 70
     1
 10
0.0
 20
0.0
 30
0.0
  3
*U114
  1

  0
TEXT
  5
1839F
  8
0
  6
CONTINUOUS
 62
   251
 10
-1060.1838106489199
 20
2875.9037232854871
 30
0.0
 40
3.25
  1
40mm
  0
TEXT
  5
183A0
  8
0
  6
CONTINUOUS
 62
   251
 10
-1060.1838106489199
 20
2870.4870566188192
 30
0.0
 40
3.25
  1
SPINNER
  0
ENDBLK
  5
183A2
  8
0
 62
     6
  0
BLOCK
  8
0
 62
     6
  2
*U115
 70
     1
 10
0.0
 20
0.0
 30
0.0
  3
*U115
  1

  0
TEXT
  5
1854B
  8
7
  6
CONTINUOUS
 10
-981.9729106406503
 20
3629.7859382426359
 30
0.0
 40
12.0
  1
capottina
  0
ENDBLK
  5
1854D
  8
0
 62
     6
  0
BLOCK
  8
0
 62
     6
  2
*U116
 70
     1
 10
0.0
 20
0.0
 30
0.0
  3
*U116
  1

  0
TEXT
  5
1854F
  8
7
  6
CONTINUOUS
 10
-839.34046978150036
 20
3618.6889147390211
 30
0.0
 40
12.0
  1
front
  0
ENDBLK
  5
18551
  8
0
 62
     6
  0
BLOCK
  8
0
 62
     6
  2
*U117
 70
     1
 10
0.0
 20
0.0
 30
0.0
  3
*U117
  1

  0
TEXT
  5
18553
  8
7
  6
CONTINUOUS
 10
-676.77685819442013
 20
3618.6889147390211
 30
0.0
 40
12.0
  1
laterale
  0
ENDBLK
  5
18555
  8
0
 62
     6
  0
BLOCK
  8
0
 62
     6
  2
*U118
 70
     1
 10
0.0
 20
0.0
 30
0.0
  3
*U118
  1

  0
TEXT
  5
18DA6
  8
0
  6
CONTINUOUS
 62
     1
 10
-4543.4187970422354
 20
1463.773397300268
 30
0.0
 40
6.0
  1
NACA 2411 - corda 230 mm -
  0
TEXT
  5
18DA7
  8
0
  6
CONTINUOUS
 62
     1
 10
-4543.3369416534224
 20
1453.7488406836239
 30
0.0
 40
6.0
  1
incidenza +1.5°
  0
ENDBLK
  5
18DA9
  8
0
 62
     6
  0
BLOCK
  8
0
 62
     6
  2
*U119
 70
     1
 10
0.0
 20
0.0
 30
0.0
  3
*U119
  1

  0
TEXT
  5
18DAB
  8
0
  6
CONTINUOUS
 62
     1
 10
-4252.3752949217023
 20
1463.2350925583489
 30
0.0
 40
6.0
  1
NACA 2415 - corda 121 mm
  0
TEXT
  5
18DAC
  8
0
  6
CONTINUOUS
 62
     1
 10
-4251.9946673637214
 20
1453.2105359417051
 30
0.0
 40
6.0
  1
sverg.  -2.5°
  0
ENDBLK
  5
18DAE
  8
0
 62
     6
  0
BLOCK
  8
0
 62
     6
  2
*U120
 70
     1
 10
0.0
 20
0.0
 30
0.0
  3
*U120
  1

  0
TEXT
  5
18E37
  8
0
  6
CONTINUOUS
 62
     1
 10
-4082.3116834767729
 20
2502.5659850447678
 30
0.0
 40
10.0
  1
sede profondità :
  0
TEXT
  5
18E38
  8
0
  6
CONTINUOUS
 62
     1
 10
-4082.509500666406
 20
2485.7287863180741
 30
0.0
 40
10.0
  1
Spessore 4 mm
  0
TEXT
  5
18E39
  8
0
  6
CONTINUOUS
 62
     1
 10
-4082.7755306800491
 20
2469.0211919570011
 30
0.0
 40
10.0
  1
lunghezza 159 mm
  0
ENDBLK
  5
18E3B
  8
0
 62
     6
  0
BLOCK
  8
0
 62
     6
  2
*U121
 70
     1
 10
0.0
 20
0.0
 30
0.0
  3
*U121
  1

  0
TEXT
  5
18FD1
  8
0
  6
CONTINUOUS
 62
     1
 10
-4541.872821306024
 20
2058.5511411702751
 30
0.0
 40
6.0
  1
NACA 2411 - corda 230 mm
  0
ENDBLK
  5
18FD3
  8
0
 62
     6
  0
BLOCK
  8
0
 62
     6
  2
*U122
 70
     1
 10
0.0
 20
0.0
 30
0.0
  3
*U122
  1

  0
SOLID
  5
19564
  8
0
  6
CONTINUOUS
 10
-4613.8505366614663
 20
2061.6534257958051
 30
0.0
 11
-4614.9404251844689
 21
2061.2019791881021
 31
0.0
 12
-4612.7606481384637
 22
2061.2019791881021
 32
0.0
 13
-4612.7606481384637
 23
2061.2019791881021
 33
0.0
  0
SOLID
  5
19565
  8
0
  6
CONTINUOUS
 10
-4614.9404251844689
 20
2061.2019791881021
 30
0.0
 11
-4615.3918717921679
 21
2060.1120906650999
 31
0.0
 12
-4612.309201530762
 22
2060.1120906650999
 32
0.0
 13
-4612.309201530762
 23
2060.1120906650999
 33
0.0
  0
SOLID
  5
19566
  8
0
  6
CONTINUOUS
 10
4614.9404251844689
 20
2061.2019791881021
 30
0.0
 11
4612.7606481384637
 21
2061.2019791881021
 31
0.0
 12
4612.309201530762
 22
2060.1120906650999
 32
0.0
 13
4612.309201530762
 23
2060.1120906650999
 33
0.0
210
0.0
220
0.0
230
-1.0
  0
SOLID
  5
19567
  8
0
  6
CONTINUOUS
 10
4614.9404251844689
 20
2059.0222021420968
 30
0.0
 11
4612.7606481384637
 21
2059.0222021420968
 31
0.0
 12
4613.8505366614663
 22
2058.5707555343952
 32
0.0
 13
4613.8505366614663
 23
2058.5707555343952
 33
0.0
210
0.0
220
0.0
230
-1.0
  0
SOLID
  5
19568
  8
0
  6
CONTINUOUS
 10
-4615.3918717921679
 20
2060.1120906650999
 30
0.0
 11
-4614.9404251844689
 21
2059.0222021420968
 31
0.0
 12
-4612.7606481384637
 22
2059.0222021420968
 32
0.0
 13
-4612.7606481384637
 23
2059.0222021420968
 33
0.0
  0
SOLID
  5
19569
  8
0
  6
CONTINUOUS
 10
4615.3918717921679
 20
2060.1120906650999
 30
0.0
 11
4612.309201530762
 21
2060.1120906650999
 31
0.0
 12
4612.7606481384637
 22
2059.0222021420968
 32
0.0
 13
4612.7606481384637
 23
2059.0222021420968
 33
0.0
210
0.0
220
0.0
230
-1.0
  0
LINE
  5
1956A
  8
0
  6
CONTINUOUS
 10
-4613.8505366614663
 20
2061.6534257958051
 30
0.0
 11
-4614.9404251844689
 21
2061.2019791881021
 31
0.0
  0
LINE
  5
1956B
  8
0
  6
CONTINUOUS
 10
-4612.7606481384637
 20
2061.2019791881021
 30
0.0
 11
-4613.8505366614663
 21
2061.6534257958051
 31
0.0
  0
LINE
  5
1956C
  8
0
  6
CONTINUOUS
 10
-4614.9404251844689
 20
2061.2019791881021
 30
0.0
 11
-4615.3918717921679
 21
2060.1120906650999
 31
0.0
  0
LINE
  5
1956D
  8
0
  6
CONTINUOUS
 10
-4612.7606481384637
 20
2061.2019791881021
 30
0.0
 11
-4612.309201530762
 21
2060.1120906650999
 31
0.0
  0
LINE
  5
1956E
  8
0
  6
CONTINUOUS
 10
-4612.7606481384637
 20
2059.0222021420968
 30
0.0
 11
-4613.8505366614663
 21
2058.5707555343952
 31
0.0
  0
LINE
  5
1956F
  8
0
  6
CONTINUOUS
 10
-4613.8505366614663
 20
2058.5707555343952
 30
0.0
 11
-4614.9404251844689
 21
2059.0222021420968
 31
0.0
  0
LINE
  5
19570
  8
0
  6
CONTINUOUS
 10
-4615.3918717921679
 20
2060.1120906650999
 30
0.0
 11
-4614.9404251844689
 21
2059.0222021420968
 31
0.0
  0
LINE
  5
19571
  8
0
  6
CONTINUOUS
 10
-4612.309201530762
 20
2060.1120906650999
 30
0.0
 11
-4612.7606481384637
 21
2059.0222021420968
 31
0.0
  0
ENDBLK
  5
19573
  8
0
 62
     6
  0
BLOCK
  8
0
 62
     6
  2
*U123
 70
     1
 10
0.0
 20
0.0
 30
0.0
  3
*U123
  1

  0
TEXT
  5
19631
  8
0
  6
CONTINUOUS
 62
     5
 10
-4637.3925367681268
 20
2517.3631172396681
 30
0.0
 40
10.0
  1
274
  0
ENDBLK
  5
19633
  8
0
 62
     6
  0
BLOCK
  8
0
 62
     6
  2
*U124
 70
     1
 10
0.0
 20
0.0
 30
0.0
  3
*U124
  1

  0
TEXT
  5
1A246
  8
0
  6
CONTINUOUS
 62
     1
 10
-4363.962060706277
 20
2007.5017755615761
 30
0.0
 40
6.0
  1
NACA 2415 - corda 121 mm
  0
TEXT
  5
1A247
  8
0
  6
CONTINUOUS
 62
     1
 10
-4363.5814331482961
 20
1997.477218944932
 30
0.0
 40
6.0
  1
sverg.  -2.5°
  0
ENDBLK
  5
1A249
  8
0
 62
     6
  0
BLOCK
  8
0
 62
     6
  2
*U125
 70
     1
 10
0.0
 20
0.0
 30
0.0
  3
*U125
  1

  0
TEXT
  5
1A28B
  8
0
  6
CONTINUOUS
 62
     0
 10
-2043.2253079361601
 20
3087.8813944435619
 30
0.0
 40
0.18
  1
221.7974
  0
ENDBLK
  5
1A28D
  8
0
 62
     6
  0
BLOCK
  8
0
 62
     6
  2
*U126
 70
     1
 10
0.0
 20
0.0
 30
0.0
  3
*U126
  1

  0
TEXT
  5
1A28F
  8
0
  6
CONTINUOUS
 62
     0
 10
-1917.034826204954
 20
2557.5924997495331
 30
0.0
 40
0.18
  1
230.0000
  0
ENDBLK
  5
1A291
  8
0
 62
     6
  0
ENDSEC
  0
SECTION
  2
ENTITIES
  0
LINE
  5
1E689
  8
0
  6
CONTINUOUS
 62
     6
 10
-1295.8783381540079
 20
3879.3057313687109
 30
0.0
 11
-1295.8783381540079
 21
3878.8801839491121
 31
0.0
  0
POLYLINE
  5
1E692
  8
0
  6
CONTINUOUS
 62
     1
 66
     1
 10
0.0
 20
0.0
 30
0.0
  0
VERTEX
  5
1E6FB
  8
0
  6
CONTINUOUS
 62
     1
 10
-1308.3557935111839
 20
3884.4686454547691
 30
0.0
 42
-0.4142135623732283
  0
VERTEX
  5
1E6FC
  8
0
  6
CONTINUOUS
 62
     1
 10
-1306.3557935111839
 20
3882.46864545477
 30
0.0
  0
VERTEX
  5
1E6FD
  8
0
  6
CONTINUOUS
 62
     1
 10
-1306.3557935111839
 20
3879.3057313687109
 30
0.0
 42
-0.0021951706492283
  0
VERTEX
  5
1E6FE
  8
0
  6
CONTINUOUS
 62
     1
 10
-1306.3557935111839
 20
3879.3057313687109
 30
0.0
  0
VERTEX
  5
1E6FF
  8
0
  6
CONTINUOUS
 62
     1
 10
-1295.8783381540079
 20
3879.3057313687109
 30
0.0
 42
0.207639630856292
  0
VERTEX
  5
1E700
  8
0
  6
CONTINUOUS
 62
     1
 10
-1299.460395055062
 20
3885.705022907789
 30
0.0
 42
0.173580452283894
  0
VERTEX
  5
1E701
  8
0
  6
CONTINUOUS
 62
     1
 10
-1314.7156731927589
 20
3891.0889411838129
 30
0.0
 42
0.1677733423385226
  0
VERTEX
  5
1E702
  8
0
  6
CONTINUOUS
 62
     1
 10
-1327.380407989152
 20
3886.3006909082569
 30
0.0
 42
0.2040548499148848
  0
VERTEX
  5
1E703
  8
0
  6
CONTINUOUS
 62
     1
 10
-1330.858986679066
 20
3879.0889411838152
 30
0.0
 42
0.2040548499148269
  0
VERTEX
  5
1E704
  8
0
  6
CONTINUOUS
 62
     1
 10
-1327.380407989152
 20
3871.8771914593708
 30
0.0
 42
0.1677733423362772
  0
VERTEX
  5
1E705
  8
0
  6
CONTINUOUS
 62
     1
 10
-1314.715673192914
 20
3867.0889411838161
 30
0.0
 42
0.1735804522855625
  0
VERTEX
  5
1E706
  8
0
  6
CONTINUOUS
 62
     1
 10
-1299.460395055062
 20
3872.4728594598419
 30
0.0
 42
0.2078682324034775
  0
VERTEX
  5
1E707
  8
0
  6
CONTINUOUS
 62
     1
 10
-1295.877528883068
 20
3878.8801839491121
 30
0.0
  0
VERTEX
  5
1E708
  8
0
  6
CONTINUOUS
 62
     1
 10
-1306.3557935111839
 20
3878.8801839491121
 30
0.0
  0
VERTEX
  5
1E709
  8
0
  6
CONTINUOUS
 62
     1
 10
-1306.3557935111839
 20
3875.7172698630538
 30
0.0
 42
-0.4142135623730951
  0
VERTEX
  5
1E70A
  8
0
  6
CONTINUOUS
 62
     1
 10
-1308.3557935111839
 20
3873.7172698630538
 30
0.0
  0
VERTEX
  5
1E70B
  8
0
  6
CONTINUOUS
 62
     1
 10
-1318.4189107709331
 20
3873.7172698630538
 30
0.0
 42
-0.4142135623730949
  0
VERTEX
  5
1E70C
  8
0
  6
CONTINUOUS
 62
     1
 10
-1320.4189107709331
 20
3875.7172698630538
 30
0.0
  0
VERTEX
  5
1E70D
  8
0
  6
CONTINUOUS
 62
     1
 10
-1320.4189107709331
 20
3882.46864545477
 30
0.0
 42
-0.4142135623730951
  0
VERTEX
  5
1E70E
  8
0
  6
CONTINUOUS
 62
     1
 10
-1318.4189107709331
 20
3884.4686454547691
 30
0.0
  0
VERTEX
  5
1E70F
  8
0
  6
CONTINUOUS
 62
     1
 10
-1308.355793511183
 20
3884.4686454547691
 30
0.0
 42
-0.4142135623730285
  0
VERTEX
  5
1E710
  8
0
  6
CONTINUOUS
 62
     1
 10
-1306.3557935111839
 20
3882.46864545477
 30
0.0
 42
0.4142135623730285
  0
SEQEND
  5
1E711
  8
0
  6
CONTINUOUS
 62
     1
  0
VIEWPORT
  5
3195
 67
     1
  8
0
 10
5.8980617200079104
 20
3.968749891115924
 30
0.0
 40
16.009299501438711
 41
8.7461330960491512
 68
     1
 69
     1
1001
ACAD
1000
MVIEW
1002
{
1070
    16
1010
0.0
1020
0.0
1030
0.0
1010
0.0
1020
0.0
1030
1.0
1040
0.0
1040
8.7461330960491512
1040
5.8980617200079104
1040
3.968749891115924
1040
50.0
1040
0.0
1040
0.0
1070
     0
1070
   100
1070
     1
1070
     1
1070
     0
1070
     0
1070
     0
1070
     0
1040
0.0
1040
0.0
1040
0.0
1040
10.0
1040
10.0
1040
10.0
1040
10.0
1070
     0
1002
{
1002
}
1002
}
  0
VIEWPORT
  5
3197
 67
     1
  8
0
 10
5.5177083353357981
 20
3.9687501257798781
 30
0.0
 40
8.8283333365372751
 41
6.3500002012478083
 68
     2
 69
     2
1001
ACAD
1000
MVIEW
1002
{
1070
    16
1010
0.0
1020
0.0
1030
0.0
1010
0.0
1020
0.0
1030
1.0
1040
0.0
1040
1444.512257872055
1040
321.21483809827572
1040
1044.147559419529
1040
50.0
1040
0.0
1040
0.0
1070
     0
1070
   100
1070
     1
1070
     1
1070
     0
1070
     0
1070
     0
1070
     0
1040
0.0
1040
0.0
1040
0.0
1040
0.5
1040
0.5
1040
0.5
1040
0.5
1070
     0
1002
{
1002
}
1002
}
  0
ENDSEC
  0
EOF
