  0
SECTION
  2
HEADER
  9
$ACADVER
  1
AC1009
  9
$INSBASE
 10
0.0
 20
0.0
 30
0.0
  9
$EXTMIN
 10
1.5834961235331091
 20
2.9241485839292269
 30
-0.0015258207003583
  9
$EXTMAX
 10
5.6868896690277486
 20
6.6766662780156656
 30
0.0000000349246037
  9
$LIMMIN
 10
0.0
 20
0.0
  9
$LIMMAX
 10
12.0
 20
9.0
  9
$ORTHOMODE
 70
     0
  9
$REGENMODE
 70
     1
  9
$FILLMODE
 70
     1
  9
$QTEXTMODE
 70
     0
  9
$MIRRTEXT
 70
     1
  9
$DRAGMODE
 70
     2
  9
$LTSCALE
 40
1.0
  9
$OSMODE
 70
   399
  9
$ATTMODE
 70
     1
  9
$TEXTSIZE
 40
0.2
  9
$TRACEWID
 40
0.05
  9
$TEXTSTYLE
  7
STANDARD
  9
$CLAYER
  8
0
  9
$CELTYPE
  6
BYLAYER
  9
$CECOLOR
 62
   256
  9
$DIMSCALE
 40
1.0
  9
$DIMASZ
 40
0.18
  9
$DIMEXO
 40
0.0625
  9
$DIMDLI
 40
0.38
  9
$DIMRND
 40
0.0
  9
$DIMDLE
 40
0.0
  9
$DIMEXE
 40
0.18
  9
$DIMTP
 40
0.0
  9
$DIMTM
 40
0.0
  9
$DIMTXT
 40
0.18
  9
$DIMCEN
 40
0.09
  9
$DIMTSZ
 40
0.0
  9
$DIMTOL
 70
     0
  9
$DIMLIM
 70
     0
  9
$DIMTIH
 70
     1
  9
$DIMTOH
 70
     1
  9
$DIMSE1
 70
     0
  9
$DIMSE2
 70
     0
  9
$DIMTAD
 70
     0
  9
$DIMZIN
 70
     0
  9
$DIMBLK
  1

  9
$DIMASO
 70
     1
  9
$DIMSHO
 70
     1
  9
$DIMPOST
  1

  9
$DIMAPOST
  1

  9
$DIMALT
 70
     0
  9
$DIMALTD
 70
     2
  9
$DIMALTF
 40
25.399999999999999
  9
$DIMLFAC
 40
1.0
  9
$DIMTOFL
 70
     0
  9
$DIMTVP
 40
0.0
  9
$DIMTIX
 70
     0
  9
$DIMSOXD
 70
     0
  9
$DIMSAH
 70
     0
  9
$DIMBLK1
  1

  9
$DIMBLK2
  1

  9
$DIMSTYLE
  2
STANDARD
  9
$DIMCLRD
 70
     0
  9
$DIMCLRE
 70
     0
  9
$DIMCLRT
 70
     0
  9
$DIMTFAC
 40
1.0
  9
$DIMGAP
 40
0.09
  9
$LUNITS
 70
     2
  9
$LUPREC
 70
     4
  9
$SKETCHINC
 40
0.1
  9
$FILLETRAD
 40
0.5
  9
$AUNITS
 70
     0
  9
$AUPREC
 70
     0
  9
$MENU
  1
acad
  9
$ELEVATION
 40
0.0
  9
$PELEVATION
 40
0.0
  9
$THICKNESS
 40
0.0
  9
$LIMCHECK
 70
     0
  9
$BLIPMODE
 70
     0
  9
$CHAMFERA
 40
0.5
  9
$CHAMFERB
 40
0.5
  9
$SKPOLY
 70
     0
  9
$TDCREATE
 40
2452822.4848581599
  9
$TDUPDATE
 40
2453930.4378457749
  9
$TDINDWG
 40
0.0214098727
  9
$TDUSRTIMER
 40
0.0214098727
  9
$USRTIMER
 70
     1
  9
$ANGBASE
 50
0.0
  9
$ANGDIR
 70
     0
  9
$PDMODE
 70
     0
  9
$PDSIZE
 40
0.0
  9
$PLINEWID
 40
0.0
  9
$COORDS
 70
     0
  9
$SPLFRAME
 70
     0
  9
$SPLINETYPE
 70
     6
  9
$SPLINESEGS
 70
     8
  9
$ATTDIA
 70
     1
  9
$ATTREQ
 70
     1
  9
$HANDLING
 70
     1
  9
$HANDSEED
  5
1F6
  9
$SURFTAB1
 70
     6
  9
$SURFTAB2
 70
     6
  9
$SURFTYPE
 70
     6
  9
$SURFU
 70
     6
  9
$SURFV
 70
     6
  9
$UCSNAME
  2

  9
$UCSORG
 10
0.0
 20
0.0
 30
0.0
  9
$UCSXDIR
 10
1.0
 20
0.0
 30
0.0
  9
$UCSYDIR
 10
0.0
 20
1.0
 30
0.0
  9
$PUCSNAME
  2

  9
$PUCSORG
 10
0.0
 20
0.0
 30
0.0
  9
$PUCSXDIR
 10
1.0
 20
0.0
 30
0.0
  9
$PUCSYDIR
 10
0.0
 20
1.0
 30
0.0
  9
$USERI1
 70
     0
  9
$USERI2
 70
     0
  9
$USERI3
 70
     0
  9
$USERI4
 70
     0
  9
$USERI5
 70
     0
  9
$USERR1
 40
0.0
  9
$USERR2
 40
0.0
  9
$USERR3
 40
0.0
  9
$USERR4
 40
0.0
  9
$USERR5
 40
0.0
  9
$WORLDVIEW
 70
     1
  9
$SHADEDGE
 70
     3
  9
$SHADEDIF
 70
    70
  9
$TILEMODE
 70
     1
  9
$MAXACTVP
 70
    48
  9
$PLIMCHECK
 70
     0
  9
$PEXTMIN
 10
1.0000000000000000E+020
 20
1.0000000000000000E+020
 30
1.0000000000000000E+020
  9
$PEXTMAX
 10
-1.0000000000000000E+020
 20
-1.0000000000000000E+020
 30
-1.0000000000000000E+020
  9
$PLIMMIN
 10
0.0
 20
0.0
  9
$PLIMMAX
 10
12.0
 20
9.0
  9
$UNITMODE
 70
     0
  9
$VISRETAIN
 70
     1
  9
$PLINEGEN
 70
     0
  9
$PSLTSCALE
 70
     1
  0
ENDSEC
  0
SECTION
  2
TABLES
  0
TABLE
  2
VPORT
 70
     6
  0
VPORT
  2
*ACTIVE
 70
     0
 10
0.0
 20
0.0
 11
1.0
 21
1.0
 12
-6.4951961761045212
 22
-1.1649310673911479
 13
0.0
 23
0.0
 14
0.5
 24
0.5
 15
0.5
 25
0.5
 16
0.0
 26
0.0
 36
1.0
 17
9.8416669999999993
 27
7.3420039656441718
 37
0.0
 40
6.9806065742475241
 41
1.3388157894736841
 42
50.0
 43
0.0
 44
0.0
 50
0.0
 51
0.0
 71
     0
 72
   100
 73
     1
 74
     1
 75
     0
 76
     0
 77
     0
 78
     0
  0
ENDTAB
  0
TABLE
  2
LTYPE
 70
    18
  0
LTYPE
  2
CONTINUOUS
 70
     0
  3
Solid line
 72
    65
 73
     0
 40
0.0
  0
LTYPE
  2
HIDDEN
 70
     0
  3
Nascosta __ __ __ __ __ __ __ __ __ __ __ __ __ __
 72
    65
 73
     2
 40
0.375
 49
0.25
 49
-0.125
  0
LTYPE
  2
PHANTOM2
 70
     0
  3
Linea-Lineette (.5x) ___ _ _ ___ _ _ ___ _ _ ___ _ _
 72
    65
 73
     6
 40
1.25
 49
0.625
 49
-0.125
 49
0.125
 49
-0.125
 49
0.125
 49
-0.125
  0
LTYPE
  2
CENTER
 70
     0
  3
Linea-Lineetta ____ _ ____ _ ____ _ ____ _ ____ _ ____
 72
    65
 73
     4
 40
2.0
 49
1.25
 49
-0.25
 49
0.25
 49
-0.25
  0
LTYPE
  2
ASULTYPE
 70
     0
  3
Linea piena
 72
    65
 73
     2
 40
3.0
 49
2.5
 49
0.5
  0
LTYPE
  2
ASVLTYPE
 70
     0
  3
__ __ __ __ __ __ __ __ __ __ __ __ __ __ __ __ __ __ __ __ __
 72
    65
 73
     2
 40
0.75
 49
0.5
 49
-0.25
  0
LTYPE
  2
AM_ISO02W050
 70
     0
  3
__ __ __ __ __ __ __ __ __ __ __ __ __ __ __
 72
    65
 73
     2
 40
7.5
 49
6.0
 49
-1.5
  0
LTYPE
  2
AM_ISO08W050
 70
     0
  3
____ . ____ . ____ . ____ . ____ . ____ . ____
 72
    65
 73
     4
 40
18.0
 49
12.0
 49
-1.5
 49
3.0
 49
-1.5
  0
LTYPE
  2
AM_ISO09W050
 70
     0
  3
_____ . . _____ . . _____ . . ____ .. ____
 72
    65
 73
     6
 40
22.5
 49
12.0
 49
-1.5
 49
3.0
 49
-1.5
 49
3.0
 49
-1.5
  0
LTYPE
  2
AMCONSTR
 70
     0
  3
_______________________
 72
    65
 73
     2
 40
9999.0
 49
9999.0
 49
0.0
  0
LTYPE
  2
AM_ISO08W050X2
 70
     0
  3
__ . __ . __ . __ . __ . __
 72
    65
 73
     4
 40
9.0
 49
6.0
 49
-0.75
 49
1.5
 49
-0.75
  0
LTYPE
  2
AM_ISO02W050X2
 70
     0
  3
 _ _ _ _ _ _ _ _ _ _ _ _
 72
    65
 73
     2
 40
3.75
 49
3.0
 49
-0.75
  0
LTYPE
  2
AMZIGZAG
 70
     0
  3
/\/-/\/-/\/-/\/-/\/-/\/
 72
    65
 73
     2
 40
11.0001
 49
0.0001
 49
-11.0
  0
LTYPE
  2
CENTER2
 70
     0
  3
Center (.5x) ___ _ ___ _ ___ _ ___ _ ___ _ ___
 72
    65
 73
     4
 40
1.125
 49
0.75
 49
-0.125
 49
0.125
 49
-0.125
  0
LTYPE
  2
HIDDEN2
 70
     0
  3
Hidden (.5x) _ _ _ _ _ _ _ _ _ _ _ _ _ _ _ _ _
 72
    65
 73
     2
 40
0.1875
 49
0.125
 49
-0.0625
  0
LTYPE
  2
AMZIGZAG2
 70
     0
  3
/\/-/\/-/\/-/\/-/\/-/\/
 72
    65
 73
     2
 40
0.4401
 49
0.0001
 49
-0.4400000000000001
  0
LTYPE
  2
ACANSTGB
 70
     0
  3
__ . . __ . .
 72
    65
 73
     6
 40
0.35433070866
 49
0.15748031496
 49
-0.03937007874
 49
0.03937007874
 49
-0.03937007874
 49
0.03937007874
 49
-0.03937007874
  0
LTYPE
  2
ACANSTGL
 70
     0
  3
_ _ _ _ _
 72
    65
 73
     2
 40
0.11811023622
 49
0.07874015748
 49
-0.03937007874
  0
ENDTAB
  0
TABLE
  2
LAYER
 70
     1
  0
LAYER
  2
0
 70
     0
 62
     7
  6
CONTINUOUS
  0
ENDTAB
  0
TABLE
  2
STYLE
 70
     6
  0
STYLE
  2
STANDARD
 70
     0
 40
0.0
 41
1.0
 50
0.0
 71
     0
 42
0.2
  3
txt
  4

  0
STYLE
  2

 70
     1
 40
0.0
 41
1.0
 50
0.0
 71
     0
 42
0.2
  3
ltypeshp.shx
  4

  0
STYLE
  2
ACANSTS
 70
     0
 40
1.0
 41
1.0
 50
0.0
 71
     0
 42
0.2
  3
romans.shx
  4

  0
STYLE
  2
ACANSGDT
 70
     0
 40
0.0
 41
1.0
 50
0.0
 71
     0
 42
0.2
  3
amgdtans.shx
  4

  0
ENDTAB
  0
TABLE
  2
VIEW
 70
     0
  0
ENDTAB
  0
TABLE
  2
UCS
 70
     0
  0
ENDTAB
  0
TABLE
  2
APPID
 70
    15
  0
APPID
  2
ACAD
 70
     0
  0
APPID
  2
GENIUS_GENDIM_13
 70
     0
  0
APPID
  2
GENIUS_GENDTOL_13
 70
     0
  0
APPID
  2
GENIUS_GE3DTOL_13
 70
     0
  0
APPID
  2
MCAD_NO_VIS
 70
     0
  0
APPID
  2
ACAD_TEMP_GRAPHIC
 70
     0
  0
APPID
  2
AD_DRAW
 70
     0
  0
APPID
  2
ACATTRIBSERVICES
 70
     0
  0
APPID
  2
ASURF_PCURVE_APPNAME
 70
     0
  0
APPID
  2
AMG_3D2D_5_0
 70
     0
  0
APPID
  2
DESIGNERASSEMBLIES
 70
     0
  0
APPID
  2
ACADM_DIM_EDIT
 70
     0
  0
APPID
  2
AMDT_DM_ADJ
 70
     0
  0
APPID
  2
DCO15
 70
     0
  0
APPID
  2
ACAD_PSEXT
 70
     0
  0
ENDTAB
  0
TABLE
  2
DIMSTYLE
 70
     9
  0
DIMSTYLE
  2
STANDARD
 70
     0
  3

  4

  5

  6

  7

 40
1.0
 41
0.18
 42
0.0625
 43
0.38
 44
0.18
 45
0.0
 46
0.0
 47
0.0
 48
0.0
140
0.18
141
0.09
142
0.0
143
25.399999999999999
144
1.0
145
0.0
146
1.0
147
0.09
 71
     0
 72
     0
 73
     1
 74
     1
 75
     0
 76
     0
 77
     0
 78
     0
170
     0
171
     2
172
     0
173
     0
174
     0
175
     0
176
     0
177
     0
178
     0
  0
DIMSTYLE
  2
AM_ANSI
 70
     0
  3

  4
mm
  5

  6

  7

 40
1.0
 41
0.1
 42
0.05
 43
0.5
 44
0.1
 45
0.0
 46
0.0
 47
0.1
 48
0.1
140
0.12
141
0.0
142
0.0
143
25.399999999999999
144
1.0
145
0.0
146
0.71
147
0.06
 71
     0
 72
     0
 73
     1
 74
     1
 75
     0
 76
     0
 77
     0
 78
     7
170
     0
171
     2
172
     0
173
     0
174
     0
175
     0
176
   256
177
   256
178
     2
  0
DIMSTYLE
  2
AM_ANSI$3
 70
     0
  3

  4
mm
  5

  6

  7

 40
1.0
 41
0.1
 42
0.05
 43
0.5
 44
0.1
 45
0.0
 46
0.0
 47
0.1
 48
0.1
140
0.12
141
0.0
142
0.0
143
25.399999999999999
144
1.0
145
0.0
146
0.71
147
0.06
 71
     0
 72
     0
 73
     1
 74
     1
 75
     0
 76
     0
 77
     0
 78
     7
170
     0
171
     2
172
     0
173
     0
174
     0
175
     0
176
   256
177
   256
178
     2
  0
DIMSTYLE
  2
AM_ANSI$4
 70
     0
  3

  4
mm
  5

  6

  7

 40
1.0
 41
0.1
 42
0.05
 43
0.5
 44
0.1
 45
0.0
 46
0.0
 47
0.1
 48
0.1
140
0.12
141
0.0
142
0.0
143
25.399999999999999
144
1.0
145
0.0
146
0.71
147
0.06
 71
     0
 72
     0
 73
     1
 74
     1
 75
     0
 76
     0
 77
     0
 78
     7
170
     0
171
     2
172
     0
173
     0
174
     0
175
     0
176
   256
177
   256
178
     2
  0
DIMSTYLE
  2
AM_ANSI$7
 70
     0
  3

  4
mm
  5

  6

  7

 40
1.0
 41
0.1
 42
0.05
 43
0.5
 44
0.1
 45
0.0
 46
0.0
 47
0.1
 48
0.1
140
0.24
141
0.0
142
0.0
143
25.399999999999999
144
1.0
145
0.0
146
0.71
147
0.06
 71
     0
 72
     0
 73
     1
 74
     1
 75
     0
 76
     0
 77
     0
 78
     7
170
     0
171
     2
172
     0
173
     0
174
     0
175
     0
176
   256
177
   256
178
     2
  0
DIMSTYLE
  2
AM_ANSI$SF
 70
     0
  3

  4
mm
  5

  6

  7

 40
1.0
 41
0.1
 42
0.05
 43
0.5
 44
0.1
 45
0.0
 46
0.0
 47
0.1
 48
0.1
140
0.12
141
0.0
142
0.0
143
25.399999999999999
144
1.0
145
0.0
146
0.71
147
0.06
 71
     0
 72
     0
 73
     1
 74
     1
 75
     1
 76
     1
 77
     0
 78
     7
170
     0
171
     2
172
     0
173
     0
174
     0
175
     0
176
   256
177
   256
178
     2
  0
DIMSTYLE
  2
AM_ANSI$SH
 70
     0
  3

  4
mm
  5

  6
GENAXEH
  7

 40
1.0
 41
0.1
 42
0.05
 43
0.5
 44
0.1
 45
0.0
 46
0.0
 47
0.1
 48
0.1
140
0.12
141
0.0
142
0.0
143
25.399999999999999
144
1.0
145
0.0
146
0.71
147
0.06
 71
     0
 72
     0
 73
     1
 74
     1
 75
     1
 76
     1
 77
     0
 78
     7
170
     0
171
     2
172
     0
173
     1
174
     0
175
     0
176
   256
177
   256
178
     2
  0
ENDTAB
  0
ENDSEC
  0
SECTION
  2
BLOCKS
  0
BLOCK
  8
0
  2
$MODEL_SPACE
 70
     0
 10
0.0
 20
0.0
 30
0.0
  3
$MODEL_SPACE
  1

  0
ENDBLK
  5
1A
  8
0
  0
BLOCK
 67
     1
  8
0
  2
$PAPER_SPACE
 70
     0
 10
0.0
 20
0.0
 30
0.0
  3
$PAPER_SPACE
  1

  0
ENDBLK
  5
17
 67
     1
  8
0
  0
BLOCK
  8
0
  2
GENAXEH
 70
     0
 10
0.0
 20
0.0
 30
0.0
  3
GENAXEH
  1

  0
LINE
  5
141
  8
0
 10
-1.0
 20
0.0
 30
0.0
 11
1.0
 21
0.0
 31
0.0
  0
ENDBLK
  5
143
  8
0
  0
ENDSEC
  0
SECTION
  2
ENTITIES
  0
LINE
  5
187
  8
0
  6
CONTINUOUS
 10
2.3887650784136572
 20
5.3411386668726433
 30
0.0
 11
2.2595259973302588
 21
5.4825110257029097
 31
0.0
  0
ARC
  5
188
  8
0
  6
CONTINUOUS
 10
2.8382888009253922
 20
7.2792753826604102
 30
0.0
 40
1.8876780809391711
 50
232.95666945133249
 51
252.145527888624
  0
ARC
  5
189
  8
0
  6
CONTINUOUS
 10
2.0169860935542321
 20
5.9964140963737487
 30
0.0
 40
0.3871445207558785
 50
123.0285691818475
 51
215.32385932809959
  0
ARC
  5
18A
  8
0
  6
CONTINUOUS
 10
1.866654447213123
 20
6.1307455442994838
 30
0.0
 40
0.1996939505429623
 50
325.0377736658308
 51
107.69116974264669
  0
ARC
  5
18B
  8
0
  6
CONTINUOUS
 10
2.0946468956051598
 20
4.9831022007027359
 30
0.0
 40
1.0352126452640711
 50
44.918751640313829
 51
93.5631624053688
  0
ARC
  5
18C
  8
0
  6
CONTINUOUS
 10
3.2612381835249682
 20
4.934254749595377
 30
0.0
 40
0.892230208189772
 50
63.269113787107749
 51
119.0724439473522
  0
ARC
  5
18D
  8
0
  6
CONTINUOUS
 10
3.8491068247231381
 20
5.6615063663064946
 30
0.0
 40
0.1991129234668424
 50
99.516384331177662
 51
159.53247409791129
  0
ARC
  5
18E
  8
0
  6
CONTINUOUS
 10
3.7828278362732362
 20
5.6714138413831403
 30
0.0
 40
0.1894259621038418
 50
359.63136343422309
 51
79.8567539301267
  0
LINE
  5
18F
  8
0
  6
CONTINUOUS
 10
3.972249877713609
 20
5.670195097961459
 30
0.0
 11
4.0219424435719322
 21
5.6664080724475001
 31
0.0
  0
LINE
  5
190
  8
0
  6
CONTINUOUS
 10
4.0219424435719322
 20
5.6664080724475001
 30
0.0
 11
4.1429998306290949
 21
5.8982834994636208
 31
0.0
  0
LINE
  5
191
  8
0
  6
CONTINUOUS
 10
4.1429998306290949
 20
5.8982834994636208
 30
0.0
 11
4.2275104955121217
 21
5.9317823761618671
 31
0.0
  0
ARC
  5
192
  8
0
  6
CONTINUOUS
 10
5.3941426220675002
 20
5.3694188059066059
 30
0.0
 40
1.295099727380624
 50
108.3124661681332
 51
154.26406478442999
  0
ARC
  5
193
  8
0
  6
CONTINUOUS
 10
5.0582483687121078
 20
6.4143760124181677
 30
0.0
 40
0.1977499864356506
 50
295.49069686419091
 51
111.0488801334469
  0
ARC
  5
194
  8
0
  6
CONTINUOUS
 10
5.938857195965789
 20
5.0377466937812461
 30
0.0
 40
1.4381727095725221
 50
123.58238089134051
 51
153.49055837290621
  0
LINE
  5
195
  8
0
  6
CONTINUOUS
 10
4.651892783419755
 20
5.6796682960032054
 30
0.0
 11
4.7858323959839888
 21
5.5850675132814214
 31
0.0
  0
ARC
  5
196
  8
0
  6
CONTINUOUS
 10
4.9540458780959984
 20
5.2340351747778602
 30
0.0
 40
0.3892550298191737
 50
89.62484564448242
 51
115.6035795544843
  0
ARC
  5
197
  8
0
  6
CONTINUOUS
 10
4.7693439646568558
 20
5.3349063618408197
 30
0.0
 40
0.343836036475973
 50
17.771527599946701
 51
57.003162124870961
  0
LINE
  5
198
  8
0
  6
CONTINUOUS
 10
5.0967725534405028
 20
5.4398527254112468
 30
0.0
 11
5.3847745128776712
 21
5.1799948957735804
 31
0.0
  0
ARC
  5
199
  8
0
  6
CONTINUOUS
 10
5.5122912922455649
 20
5.1865128980065034
 30
0.0
 40
0.1276832540839585
 50
6.179001949115837
 51
182.92611909486789
  0
ARC
  5
19A
  8
0
  6
CONTINUOUS
 10
5.2945361380056477
 20
5.159019729243739
 30
0.0
 40
0.3471544373345222
 50
303.312731506783
 51
6.8219189730727514
  0
LINE
  5
19B
  8
0
  6
CONTINUOUS
 10
5.4851963149840604
 20
4.8689078537963377
 30
0.0
 11
5.47324160827492
 21
4.6245211569419711
 31
0.0
  0
ARC
  5
19C
  8
0
  6
CONTINUOUS
 10
5.4538711152259447
 20
4.478293297748885
 30
0.0
 40
0.1475052636523639
 50
298.15239435286082
 51
82.454083382507406
  0
ARC
  5
19D
  8
0
  6
CONTINUOUS
 10
5.2342179640823838
 20
4.9671462762950132
 30
0.0
 40
0.6831630047995521
 50
269.79266140748388
 51
295.04921069579058
  0
ARC
  5
19E
  8
0
  6
CONTINUOUS
 10
4.995433662177577
 20
4.6333560883937484
 30
0.0
 40
0.4217838977567377
 50
269.42297048797008
 51
304.07434956723301
  0
LINE
  5
19F
  8
0
  6
CONTINUOUS
 10
4.9911859209901213
 20
4.2115935804563183
 30
0.0
 11
4.6452918993494459
 21
4.2722514533785212
 31
0.0
  0
ARC
  5
1A0
  8
0
  6
CONTINUOUS
 10
4.4127036357139264
 20
4.2846288641963373
 30
0.0
 40
0.2329173687803022
 50
296.26829259887512
 51
356.95382269154339
  0
LINE
  5
1A1
  8
0
  6
CONTINUOUS
 10
4.5157870422320636
 20
4.0757645254973713
 30
0.0
 11
4.4411708702411667
 21
4.1062288182724611
 31
0.0
  0
LINE
  5
1A2
  8
0
  6
CONTINUOUS
 10
4.4411708702411667
 20
4.1062288182724611
 30
0.0
 11
4.4085919073296518
 21
4.1062288182724611
 31
0.0
  0
LINE
  5
1A3
  8
0
  6
CONTINUOUS
 10
4.4085919073296518
 20
4.1062288182724611
 30
0.0
 11
4.4701397386611186
 21
4.0000574183126272
 31
0.0
  0
ARC
  5
1A4
  8
0
  6
CONTINUOUS
 10
4.3288648292808194
 20
4.029294282990457
 30
0.0
 40
0.1442684798443575
 50
314.74204110744108
 51
348.30768557545991
  0
ARC
  5
1A5
  8
0
  6
CONTINUOUS
 10
6.6343264650659259
 20
4.7431772067901843
 30
0.0
 40
2.3502443347477371
 50
200.32523831603609
 51
218.8394235629296
  0
ARC
  5
1A6
  8
0
  6
CONTINUOUS
 10
4.6215644032927949
 20
3.19502907461951
 30
0.0
 40
0.1966810298597315
 50
224.1247938694676
 51
22.169192349979721
  0
ARC
  5
1A7
  8
0
  6
CONTINUOUS
 10
5.7199886883377298
 20
4.431275162509313
 30
0.0
 40
1.8499320519627389
 50
193.90463029721371
 51
227.926577177653
  0
ARC
  5
1A8
  8
0
  6
CONTINUOUS
 10
3.9025644488828011
 20
4.047542088508413
 30
0.0
 40
0.0645731986078288
 50
164.96788087459001
 51
289.63715746842013
  0
LINE
  5
1A9
  8
0
  6
CONTINUOUS
 10
3.8402009073831009
 20
4.0642898247751891
 30
0.0
 11
3.8418878119669291
 21
4.2184540930956631
 31
0.0
  0
LINE
  5
1AA
  8
0
  6
CONTINUOUS
 10
3.8418878119669291
 20
4.2184540930956631
 30
0.0
 11
3.7856770798837842
 21
4.2184540930956631
 31
0.0
  0
ARC
  5
1AB
  8
0
  6
CONTINUOUS
 10
3.5778870933714391
 20
4.3417794775268499
 30
0.0
 40
0.2416315975610408
 50
279.88952009682657
 51
329.31045560521432
  0
ARC
  5
1AC
  8
0
  6
CONTINUOUS
 10
3.6764682009167462
 20
4.2968012115173098
 30
0.0
 40
0.2013244354378472
 50
205.82813672252539
 51
253.52911125888079
  0
ARC
  5
1AD
  8
0
  6
CONTINUOUS
 10
3.1872670545223172
 20
4.8998262840523816
 30
0.0
 40
0.7562895306474068
 50
269.91128634108009
 51
294.03129812816218
  0
ARC
  5
1AE
  8
0
  6
CONTINUOUS
 10
2.8442975117037661
 20
4.0576401395226274
 30
0.0
 40
0.3524268175200656
 50
250.96995825670169
 51
14.106882301001249
  0
ARC
  5
1AF
  8
0
  6
CONTINUOUS
 10
2.5130301324037152
 20
3.6612665708565868
 30
0.0
 40
0.2253977854396531
 50
211.98756524756419
 51
16.28569984600621
  0
LINE
  5
1B0
  8
0
  6
CONTINUOUS
 10
2.3218560517658151
 20
3.5418654294325909
 30
0.0
 11
2.242224121374222
 21
3.7268152773189951
 31
0.0
  0
ARC
  5
1B1
  8
0
  6
CONTINUOUS
 10
2.4479127710646731
 20
3.8301387250272052
 30
0.0
 40
0.2301815706302141
 50
102.8287834434075
 51
206.6717216505734
  0
LINE
  5
1B2
  8
0
  6
CONTINUOUS
 10
2.3968036346029189
 20
4.0545744878368044
 30
0.0
 11
2.6193043891582599
 21
4.0990561409724133
 31
0.0
  0
ARC
  5
1B3
  8
0
  6
CONTINUOUS
 10
1.3904673641912391
 20
3.666900658634213
 30
0.0
 40
1.3026122964430971
 50
19.375673740440291
 51
45.193153394531713
  0
ARC
  5
1B4
  8
0
  6
CONTINUOUS
 10
2.8992042682879262
 20
4.8655420944759991
 30
0.0
 40
0.6514021311878152
 50
151.41820497258769
 51
204.91861325758231
  0
LINE
  5
1B5
  8
0
  6
CONTINUOUS
 10
2.3271852388724041
 20
5.1771812552092964
 30
0.0
 11
2.3887650784136572
 21
5.3411386668726433
 31
0.0
  0
ENDSEC
  0
EOF
