  0
SECTION
  2
HEADER
  9
$ACADVER
  1
AC1004
  9
$INSBASE
 10
0.0
 20
0.0
  9
$EXTMIN
 10
-20.508611
 20
-4.952222
  9
$EXTMAX
 10
276.491389
 20
205.047778
  9
$LIMMIN
 10
-20.508611
 20
-4.952222
  9
$LIMMAX
 10
276.491389
 20
205.047778
  9
$VIEWCTR
 10
6.0
 20
4.5
  9
$VIEWSIZE
 40
9.0
  9
$SNAPMODE
 70
     1
  9
$SNAPUNIT
 10
0.125
 20
0.125
  9
$SNAPBASE
 10
0.0
 20
0.0
  9
$SNAPANG
 50
0.0
  9
$SNAPSTYLE
 70
     0
  9
$SNAPISOPAIR
 70
     0
  9
$GRIDMODE
 70
     1
  9
$GRIDUNIT
 10
5.0
 20
5.0
  9
$ORTHOMODE
 70
     1
  9
$REGENMODE
 70
     1
  9
$FILLMODE
 70
     1
  9
$QTEXTMODE
 70
     0
  9
$DRAGMODE
 70
     2
  9
$LTSCALE
 40
0.16
  9
$OSMODE
 70
     0
  9
$ATTMODE
 70
     1
  9
$TEXTSIZE
 40
0.2
  9
$TRACEWID
 40
0.05
  9
$TEXTSTYLE
  7
STANDARD
  9
$CLAYER
  8
LAYER01
  9
$CELTYPE
  6
TRATTEGGIATA
  9
$CECOLOR
 62
     7
  9
$DIMSCALE
 40
1.0
  9
$DIMASZ
 40
0.18
  9
$DIMEXO
 40
0.0625
  9
$DIMDLI
 40
0.38
  9
$DIMRND
 40
0.0
  9
$DIMDLE
 40
0.0
  9
$DIMEXE
 40
0.18
  9
$DIMTP
 40
0.0
  9
$DIMTM
 40
0.0
  9
$DIMTXT
 40
0.18
  9
$DIMCEN
 40
0.09
  9
$DIMTSZ
 40
0.0
  9
$DIMTOL
 70
     0
  9
$DIMLIM
 70
     0
  9
$DIMTIH
 70
     1
  9
$DIMTOH
 70
     1
  9
$DIMSE1
 70
     0
  9
$DIMSE2
 70
     0
  9
$DIMTAD
 70
     0
  9
$DIMZIN
 70
     0
  9
$DIMBLK
  1

  9
$DIMASO
 70
     1
  9
$DIMSHO
 70
     1
  9
$DIMPOST
  1

  9
$DIMAPOST
  1

  9
$DIMALT
 70
     0
  9
$DIMALTD
 70
     2
  9
$DIMALTF
 40
25.4
  9
$DIMLFAC
 40
1.0
  9
$LUNITS
 70
     2
  9
$LUPREC
 70
     4
  9
$AXISMODE
 70
     0
  9
$AXISUNIT
 10
0.0
 20
0.0
  9
$SKETCHINC
 40
0.1
  9
$FILLETRAD
 40
0.5
  9
$AUNITS
 70
     0
  9
$AUPREC
 70
     0
  9
$MENU
  1
acad
  9
$ELEVATION
 40
0.0
  9
$THICKNESS
 40
0.0
  9
$VIEWDIR
 10
0.0
 20
0.0
 30
1.0
  9
$LIMCHECK
 70
     0
  9
$BLIPMODE
 70
     1
  9
$CHAMFERA
 40
1.0
  9
$CHAMFERB
 40
1.0
  9
$FASTZOOM
 70
     1
  9
$SKPOLY
 70
     0
  9
$TDCREATE
 40
0.0
  9
$TDUPDATE
 40
0.0
  9
$TDINDWG
 40
0.0
  9
$TDUSRTIMER
 40
0.0
  9
$USRTIMER
 70
     1
  9
$ANGBASE
 50
0.0
  9
$ANGDIR
 70
     0
  9
$PDMODE
 70
     0
  9
$PDSIZE
 40
0.0
  9
$PLINEWID
 40
0.0
  9
$COORDS
 70
     1
  9
$SPLFRAME
 70
     0
  9
$SPLINESEGS
 70
    10
  9
$ATTDIA
 70
     0
  9
$ATTREQ
 70
     1
  9
$USERI1
 70
     0
  9
$USERI2
 70
     0
  9
$USERI3
 70
     0
  9
$USERI4
 70
     0
  9
$USERI5
 70
     0
  9
$USERR1
 40
0.0
  9
$USERR2
 40
0.0
  9
$USERR3
 40
0.0
  9
$USERR4
 40
0.0
  9
$USERR5
 40
0.0
  0
ENDSEC
  0
SECTION
  2
TABLES
  0
TABLE
  2
LTYPE
 70
    11
  0
LTYPE
  2
CONTINUOUS
 70
     0
  3
Solid line
 72
    65
 73
     0
 40
0.0
  0
LTYPE
  2
TRATTEGGIATA
 70
     0
  3
__ __ __ __ __ __ __ __ __ __ __ __ __ __ __
 72
    65
 73
     2
 40
0.75
 49
0.5
 49
-0.25
  0
LTYPE
  2
NASCOSTA
 70
     0
  3
_ _ _ _ _ _ _ _ _ _ _ _ _ _ _ _ _ _ _ _ _ _ 
 72
    65
 73
     2
 40
0.25
 49
0.125
 49
-0.125
  0
LTYPE
  2
CENTRATA
 70
     0
  3
____ _ ____ _ ____ _ ____ _ ____ _ ____ _ __
 72
    65
 73
     4
 40
2.0
 49
1.25
 49
-0.25
 49
0.25
 49
-0.25
  0
LTYPE
  2
FANTASMA
 70
     0
  3
_____ _ _ _____ _ _ _____ _ _ _____ _ _ ____
 72
    65
 73
     6
 40
2.5
 49
1.25
 49
-0.25
 49
0.25
 49
-0.25
 49
0.25
 49
-0.25
  0
LTYPE
  2
PUNTEGGIATA
 70
     0
  3
............................................
 72
    65
 73
     2
 40
0.25
 49
0.0
 49
-0.25
  0
LTYPE
  2
LINEA-PUNTO
 70
     0
  3
__ . __ . __ . __ . __ . __ . __ . __ . __ .
 72
    65
 73
     4
 40
1.0
 49
0.5
 49
-0.25
 49
0.0
 49
-0.25
  0
LTYPE
  2
DI_CONTORNO
 70
     0
  3
__ __ . __ __ . __ __ . __ __ . __ __ . __ _
 72
    65
 73
     6
 40
1.75
 49
0.5
 49
-0.25
 49
0.5
 49
-0.25
 49
0.0
 49
-0.25
  0
LTYPE
  2
DIVISORIA
 70
     0
  3
__ . . __ . . __ . . __ . . __ . . __ . . __
 72
    65
 73
     6
 40
1.25
 49
0.5
 49
-0.25
 49
0.0
 49
-0.25
 49
0.0
 49
-0.25
  0
LTYPE
  2
A_PUNTI
 70
     0
  3
close                                       
 72
    65
 73
     2
 40
0.1
 49
0.05
 49
-0.05
  0
LTYPE
  2
CLOSE
 70
     0
  3
                                            
 72
    65
 73
     0
 40
0.0
  0
ENDTAB
  0
TABLE
  2
LAYER
 70
    11
  0
LAYER
  2
0
 70
     0
 62
     7
  6
CONTINUOUS
  0
LAYER
  2
LAYER01
 70
     0
 62
     7
  6
CONTINUOUS
  0
LAYER
  2
LAYER02
 70
     0
 62
     7
  6
CONTINUOUS
  0
LAYER
  2
LAYER03
 70
     0
 62
     7
  6
CONTINUOUS
  0
LAYER
  2
LAYER04
 70
     0
 62
     7
  6
CONTINUOUS
  0
LAYER
  2
LAYER05
 70
     0
 62
     7
  6
CONTINUOUS
  0
LAYER
  2
LAYER06
 70
     0
 62
     7
  6
CONTINUOUS
  0
LAYER
  2
LAYER07
 70
     0
 62
     7
  6
CONTINUOUS
  0
LAYER
  2
LAYER08
 70
     0
 62
     7
  6
CONTINUOUS
  0
LAYER
  2
LAYER09
 70
     0
 62
     7
  6
CONTINUOUS
  0
LAYER
  2
LAYER10
 70
     0
 62
     7
  6
CONTINUOUS
  0
ENDTAB
  0
TABLE
  2
STYLE
 70
     1
  0
STYLE
  2
STANDARD
 70
     0
 40
0.0
 41
1.0
 50
0.0
 71
     0
 42
0.0
  3
txt
  4

  0
ENDTAB
  0
TABLE
  2
VIEW
 70
     0
  0
ENDTAB
  0
ENDSEC
  0
SECTION
  2
BLOCKS
  0
BLOCK
  8
LAYER01
  2
GIOCHI-G1
 70
     0
 10
0.0
 20
0.0
  0
LINE
  8
LAYER01
  6
TRATTEGGIATA
 62
     7
 10
191.748674
 20
139.112494
 11
191.234548
 21
139.62662
  0
LINE
  8
LAYER01
  6
TRATTEGGIATA
 62
     7
 10
189.664182
 20
139.62662
 11
191.748674
 21
137.542128
  0
LINE
  8
LAYER01
  6
TRATTEGGIATA
 62
     7
 10
191.748674
 20
135.968815
 11
188.090869
 21
139.62662
  0
LINE
  8
LAYER01
  6
TRATTEGGIATA
 62
     7
 10
186.520503
 20
139.62662
 11
191.748674
 21
134.398449
  0
LINE
  8
LAYER01
  6
TRATTEGGIATA
 62
     7
 10
191.748674
 20
132.825136
 11
184.94719
 21
139.62662
  0
LINE
  8
LAYER01
  6
TRATTEGGIATA
 62
     7
 10
183.376824
 20
139.62662
 11
191.748674
 21
131.25477
  0
LINE
  8
LAYER01
  6
TRATTEGGIATA
 62
     7
 10
191.748674
 20
129.684404
 11
181.806458
 21
139.62662
  0
LINE
  8
LAYER01
  6
TRATTEGGIATA
 62
     7
 10
180.233145
 20
139.62662
 11
191.748674
 21
128.111091
  0
LINE
  8
LAYER01
  6
TRATTEGGIATA
 62
     7
 10
191.748674
 20
126.540725
 11
178.662779
 21
139.62662
  0
LINE
  8
LAYER01
  6
TRATTEGGIATA
 62
     7
 10
177.089466
 20
139.62662
 11
191.748674
 21
124.967412
  0
LINE
  8
LAYER01
  6
TRATTEGGIATA
 62
     7
 10
191.520337
 20
123.625383
 11
175.5191
 21
139.62662
  0
LINE
  8
LAYER01
  6
TRATTEGGIATA
 62
     7
 10
173.948734
 20
139.62662
 11
189.949971
 21
123.625383
  0
LINE
  8
LAYER01
  6
TRATTEGGIATA
 62
     7
 10
188.376658
 20
123.625383
 11
172.375421
 21
139.62662
  0
LINE
  8
LAYER01
  6
TRATTEGGIATA
 62
     7
 10
170.805055
 20
139.62662
 11
186.806292
 21
123.625383
  0
LINE
  8
LAYER01
  6
TRATTEGGIATA
 62
     7
 10
185.232979
 20
123.625383
 11
169.231742
 21
139.62662
  0
LINE
  8
LAYER01
  6
TRATTEGGIATA
 62
     7
 10
167.661376
 20
139.62662
 11
183.662613
 21
123.625383
  0
LINE
  8
LAYER01
  6
TRATTEGGIATA
 62
     7
 10
182.092247
 20
123.625383
 11
166.091009
 21
139.62662
  0
LINE
  8
LAYER01
  6
TRATTEGGIATA
 62
     7
 10
164.517697
 20
139.62662
 11
180.518934
 21
123.625383
  0
LINE
  8
LAYER01
  6
TRATTEGGIATA
 62
     7
 10
178.948568
 20
123.625383
 11
162.947331
 21
139.62662
  0
LINE
  8
LAYER01
  6
TRATTEGGIATA
 62
     7
 10
161.374018
 20
139.62662
 11
177.375255
 21
123.625383
  0
LINE
  8
LAYER01
  6
TRATTEGGIATA
 62
     7
 10
175.804889
 20
123.625383
 11
159.803652
 21
139.62662
  0
LINE
  8
LAYER01
  6
TRATTEGGIATA
 62
     7
 10
158.233285
 20
139.62662
 11
174.234523
 21
123.625383
  0
LINE
  8
LAYER01
  6
TRATTEGGIATA
 62
     7
 10
172.66121
 20
123.625383
 11
156.659973
 21
139.62662
  0
LINE
  8
LAYER01
  6
TRATTEGGIATA
 62
     7
 10
155.089606
 20
139.62662
 11
171.090844
 21
123.625383
  0
LINE
  8
LAYER01
  6
TRATTEGGIATA
 62
     7
 10
169.517531
 20
123.625383
 11
153.516294
 21
139.62662
  0
LINE
  8
LAYER01
  6
TRATTEGGIATA
 62
     7
 10
151.945928
 20
139.62662
 11
167.947165
 21
123.625383
  0
LINE
  8
LAYER01
  6
TRATTEGGIATA
 62
     7
 10
166.376798
 20
123.625383
 11
150.375561
 21
139.62662
  0
LINE
  8
LAYER01
  6
TRATTEGGIATA
 62
     7
 10
148.802249
 20
139.62662
 11
164.803486
 21
123.625383
  0
LINE
  8
LAYER01
  6
TRATTEGGIATA
 62
     7
 10
163.233119
 20
123.625383
 11
147.231882
 21
139.62662
  0
LINE
  8
LAYER01
  6
TRATTEGGIATA
 62
     7
 10
145.65857
 20
139.62662
 11
149.506409
 21
135.77878
  0
LINE
  8
LAYER01
  6
TRATTEGGIATA
 62
     7
 10
153.902256
 20
131.382933
 11
161.659807
 21
123.625383
  0
LINE
  8
LAYER01
  6
TRATTEGGIATA
 62
     7
 10
160.089441
 20
123.625383
 11
154.14827
 21
129.566553
  0
LINE
  8
LAYER01
  6
TRATTEGGIATA
 62
     7
 10
147.690029
 20
136.024795
 11
144.088203
 21
139.62662
  0
LINE
  8
LAYER01
  6
TRATTEGGIATA
 62
     7
 10
142.517837
 20
139.62662
 11
146.289073
 21
135.855384
  0
LINE
  8
LAYER01
  6
TRATTEGGIATA
 62
     7
 10
153.978859
 20
128.165597
 11
159.249751
 21
122.894706
  0
LINE
  8
LAYER01
  6
TRATTEGGIATA
 62
     7
 10
159.249751
 20
121.321393
 11
153.581112
 21
126.990032
  0
LINE
  8
LAYER01
  6
TRATTEGGIATA
 62
     7
 10
145.113508
 20
135.457636
 11
140.944524
 21
139.62662
  0
LINE
  8
LAYER01
  6
TRATTEGGIATA
 62
     7
 10
139.374158
 20
139.62662
 11
144.1103
 21
134.890478
  0
LINE
  8
LAYER01
  6
TRATTEGGIATA
 62
     7
 10
153.013953
 20
125.986825
 11
159.249751
 21
119.751027
  0
LINE
  8
LAYER01
  6
TRATTEGGIATA
 62
     7
 10
159.249751
 20
118.177714
 11
152.300954
 21
125.126511
  0
LINE
  8
LAYER01
  6
TRATTEGGIATA
 62
     7
 10
143.25146
 20
134.176005
 11
137.800846
 21
139.62662
  0
LINE
  8
LAYER01
  6
TRATTEGGIATA
 62
     7
 10
136.230479
 20
139.62662
 11
142.529622
 21
133.327477
  0
LINE
  8
LAYER01
  6
TRATTEGGIATA
 62
     7
 10
151.450953
 20
124.406146
 11
158.480773
 21
117.376326
  0
LINE
  8
LAYER01
  6
TRATTEGGIATA
 62
     7
 10
156.910406
 20
117.376326
 11
150.458057
 21
123.828676
  0
LINE
  8
LAYER01
  6
TRATTEGGIATA
 62
     7
 10
141.952152
 20
132.334581
 11
134.660113
 21
139.62662
  0
LINE
  8
LAYER01
  6
TRATTEGGIATA
 62
     7
 10
133.0868
 20
139.62662
 11
141.541146
 21
131.172274
  0
LINE
  8
LAYER01
  6
TRATTEGGIATA
 62
     7
 10
149.29575
 20
123.41767
 11
155.337094
 21
117.376326
  0
LINE
  8
LAYER01
  6
TRATTEGGIATA
 62
     7
 10
153.766727
 20
117.376326
 11
147.913946
 21
123.229108
  0
LINE
  8
LAYER01
  6
TRATTEGGIATA
 62
     7
 10
141.352584
 20
129.79047
 11
131.516434
 21
139.62662
  0
LINE
  8
LAYER01
  6
TRATTEGGIATA
 62
     7
 10
129.943121
 20
139.62662
 11
141.555877
 21
128.013864
  0
LINE
  8
LAYER01
  6
TRATTEGGIATA
 62
     7
 10
146.13734
 20
123.432401
 11
152.193415
 21
117.376326
  0
LINE
  8
LAYER01
  6
TRATTEGGIATA
 62
     7
 10
150.623049
 20
117.376326
 11
128.372755
 21
139.62662
  0
LINE
  8
LAYER01
  6
TRATTEGGIATA
 62
     7
 10
126.802389
 20
139.62662
 11
149.052682
 21
117.376326
  0
LINE
  8
LAYER01
  6
TRATTEGGIATA
 62
     7
 10
147.47937
 20
117.376326
 11
125.229076
 21
139.62662
  0
LINE
  8
LAYER01
  6
TRATTEGGIATA
 62
     7
 10
123.65871
 20
139.62662
 11
145.909003
 21
117.376326
  0
LINE
  8
LAYER01
  6
TRATTEGGIATA
 62
     7
 10
144.335691
 20
117.376326
 11
122.085397
 21
139.62662
  0
LINE
  8
LAYER01
  6
TRATTEGGIATA
 62
     7
 10
120.515031
 20
139.62662
 11
142.765324
 21
117.376326
  0
LINE
  8
LAYER01
  6
TRATTEGGIATA
 62
     7
 10
141.194958
 20
117.376326
 11
136.00067
 21
122.570615
  0
LINE
  8
LAYER01
  6
TRATTEGGIATA
 62
     7
 10
134.944429
 20
123.626856
 11
118.944665
 21
139.62662
  0
LINE
  8
LAYER01
  6
TRATTEGGIATA
 62
     7
 10
117.371352
 20
139.62662
 11
133.371116
 21
123.626856
  0
LINE
  8
LAYER01
  6
TRATTEGGIATA
 62
     7
 10
136.00067
 20
120.997302
 11
139.621646
 21
117.376326
  0
LINE
  8
LAYER01
  6
TRATTEGGIATA
 62
     7
 10
138.051279
 20
117.376326
 11
136.00067
 21
119.426936
  0
LINE
  8
LAYER01
  6
TRATTEGGIATA
 62
     7
 10
131.80075
 20
123.626856
 11
115.800986
 21
139.62662
  0
LINE
  8
LAYER01
  6
TRATTEGGIATA
 62
     7
 10
114.227673
 20
139.62662
 11
130.227437
 21
123.626856
  0
LINE
  8
LAYER01
  6
TRATTEGGIATA
 62
     7
 10
136.00067
 20
117.853624
 11
136.477967
 21
117.376326
  0
LINE
  8
LAYER01
  6
TRATTEGGIATA
 62
     7
 10
128.657071
 20
123.626856
 11
112.657307
 21
139.62662
  0
LINE
  8
LAYER01
  6
TRATTEGGIATA
 62
     7
 10
111.751326
 20
138.962234
 11
127.086705
 21
123.626856
  0
LINE
  8
LAYER01
  6
TRATTEGGIATA
 62
     7
 10
125.513392
 20
123.626856
 11
111.751326
 21
137.388921
  0
LINE
  8
LAYER01
  6
TRATTEGGIATA
 62
     7
 10
111.751326
 20
135.818555
 11
123.943026
 21
123.626856
  0
LINE
  8
LAYER01
  6
TRATTEGGIATA
 62
     7
 10
122.369713
 20
123.626856
 11
111.751326
 21
134.245243
  0
LINE
  8
LAYER01
  6
TRATTEGGIATA
 62
     7
 10
111.751326
 20
132.674876
 11
120.799347
 21
123.626856
  0
LINE
  8
LAYER01
  6
TRATTEGGIATA
 62
     7
 10
119.228981
 20
123.626856
 11
111.751326
 21
131.10451
  0
LINE
  8
LAYER01
  6
TRATTEGGIATA
 62
     7
 10
111.751326
 20
129.531197
 11
117.655668
 21
123.626856
  0
LINE
  8
LAYER01
  6
TRATTEGGIATA
 62
     7
 10
116.085302
 20
123.626856
 11
111.751326
 21
127.960831
  0
LINE
  8
LAYER01
  6
TRATTEGGIATA
 62
     7
 10
111.751326
 20
126.387518
 11
114.511989
 21
123.626856
  0
LINE
  8
LAYER01
  6
TRATTEGGIATA
 62
     7
 10
112.941623
 20
123.626856
 11
111.751326
 21
124.817152
  0
ENDBLK
  8
0
  0
BLOCK
  8
LAYER01
  2
GIOCHI-G2
 70
     0
 10
0.0
 20
0.0
  0
LINE
  8
LAYER01
  6
TRATTEGGIATA
 62
     7
 10
191.748674
 20
75.47583
 11
191.599887
 21
75.624617
  0
LINE
  8
LAYER01
  6
TRATTEGGIATA
 62
     7
 10
190.02952
 20
75.624617
 11
191.748674
 21
73.905464
  0
LINE
  8
LAYER01
  6
TRATTEGGIATA
 62
     7
 10
191.748674
 20
72.332151
 11
188.456208
 21
75.624617
  0
LINE
  8
LAYER01
  6
TRATTEGGIATA
 62
     7
 10
186.885841
 20
75.624617
 11
191.748674
 21
70.761785
  0
LINE
  8
LAYER01
  6
TRATTEGGIATA
 62
     7
 10
191.748674
 20
69.188473
 11
185.312529
 21
75.624617
  0
LINE
  8
LAYER01
  6
TRATTEGGIATA
 62
     7
 10
183.742162
 20
75.624617
 11
191.748674
 21
67.618106
  0
LINE
  8
LAYER01
  6
TRATTEGGIATA
 62
     7
 10
191.748674
 20
66.04774
 11
182.171796
 21
75.624617
  0
LINE
  8
LAYER01
  6
TRATTEGGIATA
 62
     7
 10
180.598484
 20
75.624617
 11
191.748674
 21
64.474427
  0
LINE
  8
LAYER01
  6
TRATTEGGIATA
 62
     7
 10
191.748674
 20
62.904061
 11
179.028117
 21
75.624617
  0
LINE
  8
LAYER01
  6
TRATTEGGIATA
 62
     7
 10
177.454805
 20
75.624617
 11
191.748674
 21
61.330748
  0
LINE
  8
LAYER01
  6
TRATTEGGIATA
 62
     7
 10
191.748674
 20
59.760382
 11
175.884438
 21
75.624617
  0
LINE
  8
LAYER01
  6
TRATTEGGIATA
 62
     7
 10
174.314072
 20
75.624617
 11
190.312363
 21
59.626326
  0
LINE
  8
LAYER01
  6
TRATTEGGIATA
 62
     7
 10
188.73905
 20
59.626326
 11
172.740759
 21
75.624617
  0
LINE
  8
LAYER01
  6
TRATTEGGIATA
 62
     7
 10
171.170393
 20
75.624617
 11
187.168684
 21
59.626326
  0
LINE
  8
LAYER01
  6
TRATTEGGIATA
 62
     7
 10
185.595371
 20
59.626326
 11
169.597081
 21
75.624617
  0
LINE
  8
LAYER01
  6
TRATTEGGIATA
 62
     7
 10
168.026714
 20
75.624617
 11
184.025005
 21
59.626326
  0
LINE
  8
LAYER01
  6
TRATTEGGIATA
 62
     7
 10
182.454639
 20
59.626326
 11
166.456348
 21
75.624617
  0
LINE
  8
LAYER01
  6
TRATTEGGIATA
 62
     7
 10
158.632506
 20
81.875147
 11
159.249751
 21
81.257901
  0
LINE
  8
LAYER01
  6
TRATTEGGIATA
 62
     7
 10
164.883035
 20
75.624617
 11
180.881326
 21
59.626326
  0
LINE
  8
LAYER01
  6
TRATTEGGIATA
 62
     7
 10
179.31096
 20
59.626326
 11
163.312669
 21
75.624617
  0
LINE
  8
LAYER01
  6
TRATTEGGIATA
 62
     7
 10
159.249751
 20
79.687535
 11
157.06214
 21
81.875147
  0
LINE
  8
LAYER01
  6
TRATTEGGIATA
 62
     7
 10
155.488827
 20
81.875147
 11
159.249751
 21
78.114222
  0
LINE
  8
LAYER01
  6
TRATTEGGIATA
 62
     7
 10
161.739356
 20
75.624617
 11
177.737647
 21
59.626326
  0
LINE
  8
LAYER01
  6
TRATTEGGIATA
 62
     7
 10
176.167281
 20
59.626326
 11
160.16899
 21
75.624617
  0
LINE
  8
LAYER01
  6
TRATTEGGIATA
 62
     7
 10
159.249751
 20
76.543856
 11
153.918461
 21
81.875147
  0
LINE
  8
LAYER01
  6
TRATTEGGIATA
 62
     7
 10
152.348094
 20
81.875147
 11
174.596915
 21
59.626326
  0
LINE
  8
LAYER01
  6
TRATTEGGIATA
 62
     7
 10
173.023602
 20
59.626326
 11
150.774782
 21
81.875147
  0
LINE
  8
LAYER01
  6
TRATTEGGIATA
 62
     7
 10
149.204416
 20
81.875147
 11
171.453236
 21
59.626326
  0
LINE
  8
LAYER01
  6
TRATTEGGIATA
 62
     7
 10
169.879923
 20
59.626326
 11
147.631103
 21
81.875147
  0
LINE
  8
LAYER01
  6
TRATTEGGIATA
 62
     7
 10
146.060737
 20
81.875147
 11
168.309557
 21
59.626326
  0
LINE
  8
LAYER01
  6
TRATTEGGIATA
 62
     7
 10
166.739191
 20
59.626326
 11
152.76352
 21
73.601997
  0
LINE
  8
LAYER01
  6
TRATTEGGIATA
 62
     7
 10
151.72643
 20
74.639087
 11
144.49037
 21
81.875147
  0
LINE
  8
LAYER01
  6
TRATTEGGIATA
 62
     7
 10
142.917058
 20
81.875147
 11
148.86412
 21
75.928084
  0
LINE
  8
LAYER01
  6
TRATTEGGIATA
 62
     7
 10
154.051043
 20
70.741161
 11
165.165878
 21
59.626326
  0
LINE
  8
LAYER01
  6
TRATTEGGIATA
 62
     7
 10
163.595512
 20
59.626326
 11
154.126173
 21
69.095665
  0
LINE
  8
LAYER01
  6
TRATTEGGIATA
 62
     7
 10
147.220097
 20
76.001741
 11
141.346691
 21
81.875147
  0
LINE
  8
LAYER01
  6
TRATTEGGIATA
 62
     7
 10
139.773379
 20
81.875147
 11
145.897218
 21
75.751307
  0
LINE
  8
LAYER01
  6
TRATTEGGIATA
 62
     7
 10
153.874267
 20
67.774259
 11
162.022199
 21
59.626326
  0
LINE
  8
LAYER01
  6
TRATTEGGIATA
 62
     7
 10
160.451833
 20
59.626326
 11
153.419067
 21
66.659093
  0
LINE
  8
LAYER01
  6
TRATTEGGIATA
 62
     7
 10
144.782052
 20
75.296107
 11
138.203013
 21
81.875147
  0
LINE
  8
LAYER01
  6
TRATTEGGIATA
 62
     7
 10
136.632646
 20
81.875147
 11
143.825985
 21
74.681808
  0
LINE
  8
LAYER01
  6
TRATTEGGIATA
 62
     7
 10
152.804768
 20
65.703025
 11
158.881467
 21
59.626326
  0
LINE
  8
LAYER01
  6
TRATTEGGIATA
 62
     7
 10
157.308154
 20
59.626326
 11
152.047574
 21
64.886906
  0
LINE
  8
LAYER01
  6
TRATTEGGIATA
 62
     7
 10
143.009866
 20
73.924615
 11
135.999196
 21
80.935284
  0
LINE
  8
LAYER01
  6
TRATTEGGIATA
 62
     7
 10
135.999196
 20
79.364918
 11
142.332222
 21
73.031893
  0
LINE
  8
LAYER01
  6
TRATTEGGIATA
 62
     7
 10
151.154852
 20
64.209262
 11
155.737788
 21
59.626326
  0
LINE
  8
LAYER01
  6
TRATTEGGIATA
 62
     7
 10
154.164475
 20
59.626326
 11
150.111869
 21
63.678932
  0
LINE
  8
LAYER01
  6
TRATTEGGIATA
 62
     7
 10
141.801891
 20
71.98891
 11
135.999196
 21
77.791605
  0
LINE
  8
LAYER01
  6
TRATTEGGIATA
 62
     7
 10
135.999196
 20
76.221239
 11
141.452757
 21
70.767678
  0
LINE
  8
LAYER01
  6
TRATTEGGIATA
 62
     7
 10
148.89211
 20
63.328325
 11
152.594109
 21
59.626326
  0
LINE
  8
LAYER01
  6
TRATTEGGIATA
 62
     7
 10
151.023742
 20
59.626326
 11
147.414552
 21
63.235517
  0
LINE
  8
LAYER01
  6
TRATTEGGIATA
 62
     7
 10
141.358477
 20
69.291592
 11
135.023978
 21
75.626091
  0
LINE
  8
LAYER01
  6
TRATTEGGIATA
 62
     7
 10
133.450666
 20
75.626091
 11
141.794526
 21
67.28223
  0
LINE
  8
LAYER01
  6
TRATTEGGIATA
 62
     7
 10
145.40519
 20
63.671566
 11
149.45043
 21
59.626326
  0
LINE
  8
LAYER01
  6
TRATTEGGIATA
 62
     7
 10
147.880064
 20
59.626326
 11
131.880299
 21
75.626091
  0
LINE
  8
LAYER01
  6
TRATTEGGIATA
 62
     7
 10
130.306987
 20
75.626091
 11
146.306751
 21
59.626326
  0
LINE
  8
LAYER01
  6
TRATTEGGIATA
 62
     7
 10
144.736385
 20
59.626326
 11
128.736621
 21
75.626091
  0
LINE
  8
LAYER01
  6
TRATTEGGIATA
 62
     7
 10
127.166254
 20
75.626091
 11
143.166018
 21
59.626326
  0
LINE
  8
LAYER01
  6
TRATTEGGIATA
 62
     7
 10
141.592706
 20
59.626326
 11
125.592942
 21
75.626091
  0
LINE
  8
LAYER01
  6
TRATTEGGIATA
 62
     7
 10
124.022575
 20
75.626091
 11
140.022339
 21
59.626326
  0
LINE
  8
LAYER01
  6
TRATTEGGIATA
 62
     7
 10
138.449027
 20
59.626326
 11
122.449263
 21
75.626091
  0
LINE
  8
LAYER01
  6
TRATTEGGIATA
 62
     7
 10
120.878896
 20
75.626091
 11
136.878661
 21
59.626326
  0
LINE
  8
LAYER01
  6
TRATTEGGIATA
 62
     7
 10
135.308294
 20
59.626326
 11
119.30853
 21
75.626091
  0
LINE
  8
LAYER01
  6
TRATTEGGIATA
 62
     7
 10
117.735218
 20
75.626091
 11
133.734982
 21
59.626326
  0
LINE
  8
LAYER01
  6
TRATTEGGIATA
 62
     7
 10
132.164615
 20
59.626326
 11
116.164851
 21
75.626091
  0
LINE
  8
LAYER01
  6
TRATTEGGIATA
 62
     7
 10
114.591539
 20
75.626091
 11
130.591303
 21
59.626326
  0
LINE
  8
LAYER01
  6
TRATTEGGIATA
 62
     7
 10
129.020936
 20
59.626326
 11
113.021172
 21
75.626091
  0
LINE
  8
LAYER01
  6
TRATTEGGIATA
 62
     7
 10
111.751326
 20
75.32557
 11
127.45057
 21
59.626326
  0
LINE
  8
LAYER01
  6
TRATTEGGIATA
 62
     7
 10
125.877258
 20
59.626326
 11
111.751326
 21
73.752258
  0
LINE
  8
LAYER01
  6
TRATTEGGIATA
 62
     7
 10
111.751326
 20
72.181891
 11
124.306891
 21
59.626326
  0
LINE
  8
LAYER01
  6
TRATTEGGIATA
 62
     7
 10
122.733579
 20
59.626326
 11
111.751326
 21
70.608579
  0
LINE
  8
LAYER01
  6
TRATTEGGIATA
 62
     7
 10
111.751326
 20
69.038212
 11
121.163212
 21
59.626326
  0
LINE
  8
LAYER01
  6
TRATTEGGIATA
 62
     7
 10
119.592846
 20
59.626326
 11
111.751326
 21
67.467846
  0
LINE
  8
LAYER01
  6
TRATTEGGIATA
 62
     7
 10
111.751326
 20
65.894533
 11
118.019533
 21
59.626326
  0
LINE
  8
LAYER01
  6
TRATTEGGIATA
 62
     7
 10
116.449167
 20
59.626326
 11
111.751326
 21
64.324167
  0
LINE
  8
LAYER01
  6
TRATTEGGIATA
 62
     7
 10
111.751326
 20
62.750855
 11
114.875855
 21
59.626326
  0
LINE
  8
LAYER01
  6
TRATTEGGIATA
 62
     7
 10
113.305488
 20
59.626326
 11
111.751326
 21
61.180488
  0
ENDBLK
  8
0
  0
BLOCK
  8
LAYER01
  2
GIOCHI-G4
 70
     0
 10
0.0
 20
0.0
  0
LINE
  8
LAYER01
  6
CONTINUOUS
 62
     7
 10
27.240458
 20
91.225031
 11
26.649882
 21
90.634455
  0
LINE
  8
LAYER01
  6
CONTINUOUS
 62
     7
 10
26.649894
 20
89.511818
 11
28.363094
 21
91.225018
  0
LINE
  8
LAYER01
  6
CONTINUOUS
 62
     7
 10
29.485731
 20
91.225006
 11
26.649907
 21
88.389182
  0
LINE
  8
LAYER01
  6
CONTINUOUS
 62
     7
 10
26.684481
 20
87.301611
 11
30.607863
 21
91.224993
  0
LINE
  8
LAYER01
  6
CONTINUOUS
 62
     7
 10
31.730499
 20
91.224981
 11
27.530372
 21
87.024853
  0
LINE
  8
LAYER01
  6
CONTINUOUS
 62
     7
 10
28.653008
 20
87.024841
 11
32.853136
 21
91.224968
  0
LINE
  8
LAYER01
  6
CONTINUOUS
 62
     7
 10
33.976025
 20
91.225208
 11
29.775645
 21
87.024828
  0
LINE
  8
LAYER01
  6
CONTINUOUS
 62
     7
 10
30.897777
 20
87.024816
 11
35.098157
 21
91.225196
  0
LINE
  8
LAYER01
  6
CONTINUOUS
 62
     7
 10
36.220794
 20
91.225183
 11
33.272707
 21
88.277097
  0
LINE
  8
LAYER01
  6
CONTINUOUS
 62
     7
 10
34.300236
 20
88.181976
 11
37.34343
 21
91.225171
  0
LINE
  8
LAYER01
  6
CONTINUOUS
 62
     7
 10
38.466067
 20
91.225158
 11
35.09441
 21
87.853502
  0
LINE
  8
LAYER01
  6
CONTINUOUS
 62
     7
 10
35.728643
 20
87.365589
 11
39.588199
 21
91.225145
  0
LINE
  8
LAYER01
  6
CONTINUOUS
 62
     7
 10
40.342009
 20
90.856307
 11
36.51096
 21
87.025258
  0
LINE
  8
LAYER01
  6
CONTINUOUS
 62
     7
 10
37.633597
 20
87.025245
 11
40.34959
 21
89.741238
  0
LINE
  8
LAYER01
  6
CONTINUOUS
 62
     7
 10
40.349603
 20
88.618602
 11
38.756233
 21
87.025232
  0
LINE
  8
LAYER01
  6
CONTINUOUS
 62
     7
 10
39.87887
 20
87.02522
 11
40.349615
 21
87.495965
  0
ENDBLK
  8
0
  0
BLOCK
  8
LAYER01
  2
GIOCHI-G5
 70
     0
 10
0.0
 20
0.0
  0
LINE
  8
LAYER01
  6
CONTINUOUS
 62
     7
 10
27.097921
 20
83.22478
 11
26.650132
 21
82.776992
  0
LINE
  8
LAYER01
  6
CONTINUOUS
 62
     7
 10
26.649893
 20
81.654103
 11
28.220809
 21
83.22502
  0
LINE
  8
LAYER01
  6
CONTINUOUS
 62
     7
 10
29.343446
 20
83.225008
 11
26.649905
 21
80.531467
  0
LINE
  8
LAYER01
  6
CONTINUOUS
 62
     7
 10
26.654206
 20
79.413623
 11
30.465578
 21
83.224995
  0
LINE
  8
LAYER01
  6
CONTINUOUS
 62
     7
 10
31.2595
 20
82.896268
 11
27.388087
 21
79.024855
  0
LINE
  8
LAYER01
  6
CONTINUOUS
 62
     7
 10
28.510724
 20
79.024842
 11
31.890705
 21
82.404824
  0
LINE
  8
LAYER01
  6
CONTINUOUS
 62
     7
 10
32.681095
 20
82.072565
 11
29.63336
 21
79.02483
  0
LINE
  8
LAYER01
  6
CONTINUOUS
 62
     7
 10
30.755492
 20
79.024817
 11
33.701813
 21
81.971138
  0
LINE
  8
LAYER01
  6
CONTINUOUS
 62
     7
 10
36.078509
 20
83.225185
 11
31.878129
 21
79.024805
  0
LINE
  8
LAYER01
  6
CONTINUOUS
 62
     7
 10
33.000765
 20
79.024792
 11
37.201146
 21
83.225172
  0
LINE
  8
LAYER01
  6
CONTINUOUS
 62
     7
 10
38.323782
 20
83.22516
 11
34.123654
 21
79.025032
  0
LINE
  8
LAYER01
  6
CONTINUOUS
 62
     7
 10
35.245786
 20
79.025019
 11
39.445914
 21
83.225147
  0
LINE
  8
LAYER01
  6
CONTINUOUS
 62
     7
 10
40.307698
 20
82.964282
 11
36.368423
 21
79.025007
  0
LINE
  8
LAYER01
  6
CONTINUOUS
 62
     7
 10
37.49106
 20
79.024994
 11
40.349589
 21
81.883523
  0
LINE
  8
LAYER01
  6
CONTINUOUS
 62
     7
 10
40.349601
 20
80.760887
 11
38.613696
 21
79.024982
  0
LINE
  8
LAYER01
  6
CONTINUOUS
 62
     7
 10
39.736333
 20
79.024969
 11
40.349614
 21
79.63825
  0
ENDBLK
  8
0
  0
BLOCK
  8
0
  2
GIOCHI-G3
 70
     0
 10
0.0
 20
0.0
  0
POLYLINE
  8
LAYER01
  6
CONTINUOUS
 62
     7
 66
     1
 70
     1
  0
VERTEX
  8
LAYER01
 10
40.35
 20
87.475
 42
-0.414214
  0
VERTEX
  8
LAYER01
 10
39.9
 20
87.025
  0
VERTEX
  8
LAYER01
 10
36.025494
 20
87.025
 42
0.49907
  0
VERTEX
  8
LAYER01
 10
30.974506
 20
87.025
  0
VERTEX
  8
LAYER01
 10
27.1
 20
87.025
 42
-0.414214
  0
VERTEX
  8
LAYER01
 10
26.65
 20
87.475
  0
VERTEX
  8
LAYER01
 10
26.65
 20
90.775
 42
-0.414214
  0
VERTEX
  8
LAYER01
 10
27.1
 20
91.225
  0
VERTEX
  8
LAYER01
 10
39.9
 20
91.225
 42
-0.414214
  0
VERTEX
  8
LAYER01
 10
40.35
 20
90.775
  0
SEQEND
  8
LAYER01
  0
INSERT
  8
LAYER01
  2
GIOCHI-G4
 10
0.0
 20
0.0
  0
POLYLINE
  8
LAYER01
  6
CONTINUOUS
 62
     7
 66
     1
 40
0.15
 41
0.15
  0
VERTEX
  8
LAYER01
 10
36.0
 20
86.875
  0
VERTEX
  8
LAYER01
 10
39.9
 20
86.875
 42
0.414214
  0
VERTEX
  8
LAYER01
 10
40.5
 20
87.475
  0
VERTEX
  8
LAYER01
 10
40.5
 20
90.775
 42
0.414214
  0
VERTEX
  8
LAYER01
 10
39.9
 20
91.375
  0
VERTEX
  8
LAYER01
 10
27.1
 20
91.375
 42
0.414214
  0
VERTEX
  8
LAYER01
 10
26.5
 20
90.775
  0
VERTEX
  8
LAYER01
 10
26.5
 20
87.475
 42
0.414214
  0
VERTEX
  8
LAYER01
 10
27.1
 20
86.875
  0
VERTEX
  8
LAYER01
 10
31.0
 20
86.875
  0
SEQEND
  8
LAYER01
  0
CIRCLE
  8
LAYER01
  6
CONTINUOUS
 62
     7
 10
33.5
 20
85.125
 40
2.935399
  0
CIRCLE
  8
LAYER01
  6
CONTINUOUS
 62
     7
 10
33.5
 20
85.125
 40
3.085399
  0
POLYLINE
  8
LAYER01
  6
CONTINUOUS
 62
     7
 66
     1
 70
     1
  0
VERTEX
  8
LAYER01
 10
27.25
 20
86.875
  0
VERTEX
  8
LAYER01
 10
27.25
 20
83.375
  0
VERTEX
  8
LAYER01
 10
27.75
 20
83.375
  0
VERTEX
  8
LAYER01
 10
27.75
 20
86.875
  0
SEQEND
  8
LAYER01
  0
POLYLINE
  8
LAYER01
  6
CONTINUOUS
 62
     7
 66
     1
 70
     1
  0
VERTEX
  8
LAYER01
 10
39.0
 20
86.875
  0
VERTEX
  8
LAYER01
 10
39.0
 20
83.375
  0
VERTEX
  8
LAYER01
 10
39.5
 20
83.375
  0
VERTEX
  8
LAYER01
 10
39.5
 20
86.875
  0
SEQEND
  8
LAYER01
  0
POLYLINE
  8
LAYER01
  6
CONTINUOUS
 62
     7
 66
     1
 70
     1
  0
VERTEX
  8
LAYER01
 10
40.35
 20
82.775
 42
0.414214
  0
VERTEX
  8
LAYER01
 10
39.9
 20
83.225
  0
VERTEX
  8
LAYER01
 10
36.025494
 20
83.225
 42
-0.49907
  0
VERTEX
  8
LAYER01
 10
30.974506
 20
83.225
  0
VERTEX
  8
LAYER01
 10
27.1
 20
83.225
 42
0.414214
  0
VERTEX
  8
LAYER01
 10
26.65
 20
82.775
  0
VERTEX
  8
LAYER01
 10
26.65
 20
79.475
 42
0.414214
  0
VERTEX
  8
LAYER01
 10
27.1
 20
79.025
  0
VERTEX
  8
LAYER01
 10
39.9
 20
79.025
 42
0.414214
  0
VERTEX
  8
LAYER01
 10
40.35
 20
79.475
  0
SEQEND
  8
LAYER01
  0
INSERT
  8
LAYER01
  2
GIOCHI-G5
 10
0.0
 20
0.0
  0
POLYLINE
  8
LAYER01
  6
CONTINUOUS
 62
     7
 66
     1
 40
0.15
 41
0.15
  0
VERTEX
  8
LAYER01
 10
31.0
 20
83.375
  0
VERTEX
  8
LAYER01
 10
27.1
 20
83.375
 42
0.414214
  0
VERTEX
  8
LAYER01
 10
26.5
 20
82.775
  0
VERTEX
  8
LAYER01
 10
26.5
 20
79.225
 42
0.414214
  0
VERTEX
  8
LAYER01
 10
27.1
 20
78.625
  0
VERTEX
  8
LAYER01
 10
39.9
 20
78.625
 42
0.414214
  0
VERTEX
  8
LAYER01
 10
40.5
 20
79.225
  0
VERTEX
  8
LAYER01
 10
40.5
 20
82.775
 42
0.414214
  0
VERTEX
  8
LAYER01
 10
39.9
 20
83.375
  0
VERTEX
  8
LAYER01
 10
36.0
 20
83.375
  0
SEQEND
  8
LAYER01
  0
ENDBLK
  8
0
  0
BLOCK
  8
LAYER01
  2
GIOCHI-G6
 70
     0
 10
0.0
 20
0.0
  0
LINE
  8
LAYER01
  6
CONTINUOUS
 62
     7
 10
53.849648
 20
84.000412
 11
52.374651
 21
85.47541
  0
LINE
  8
LAYER01
  6
CONTINUOUS
 62
     7
 10
50.130137
 20
85.475384
 11
53.849623
 21
81.755898
  0
LINE
  8
LAYER01
  6
CONTINUOUS
 62
     7
 10
53.849598
 20
79.510289
 11
47.884528
 21
85.475359
  0
LINE
  8
LAYER01
  6
CONTINUOUS
 62
     7
 10
45.640013
 20
85.475334
 11
53.849573
 21
77.265775
  0
LINE
  8
LAYER01
  6
CONTINUOUS
 62
     7
 10
56.349988
 20
72.519726
 11
54.394263
 21
74.475451
  0
LINE
  8
LAYER01
  6
CONTINUOUS
 62
     7
 10
53.849548
 20
75.020166
 11
43.394405
 21
85.475309
  0
LINE
  8
LAYER01
  6
CONTINUOUS
 62
     7
 10
41.14989
 20
85.475284
 11
56.349963
 21
70.275211
  0
LINE
  8
LAYER01
  6
CONTINUOUS
 62
     7
 10
56.349937
 20
68.029603
 11
40.649996
 21
83.729545
  0
LINE
  8
LAYER01
  6
CONTINUOUS
 62
     7
 10
40.649971
 20
81.48503
 11
56.349912
 21
65.785088
  0
LINE
  8
LAYER01
  6
CONTINUOUS
 62
     7
 10
56.349887
 20
63.53948
 11
40.649946
 21
79.239421
  0
LINE
  8
LAYER01
  6
CONTINUOUS
 62
     7
 10
39.170001
 20
78.474826
 11
56.349862
 21
61.294965
  0
LINE
  8
LAYER01
  6
CONTINUOUS
 62
     7
 10
56.349837
 20
59.049357
 11
36.924393
 21
78.474801
  0
LINE
  8
LAYER01
  6
CONTINUOUS
 62
     7
 10
34.679878
 20
78.474776
 11
56.349812
 21
56.804842
  0
LINE
  8
LAYER01
  6
CONTINUOUS
 62
     7
 10
56.349786
 20
54.559233
 11
32.434269
 21
78.47475
  0
LINE
  8
LAYER01
  6
CONTINUOUS
 62
     7
 10
30.189755
 20
78.474725
 11
53.966905
 21
54.697575
  0
LINE
  8
LAYER01
  6
CONTINUOUS
 62
     7
 10
51.625042
 20
54.793804
 11
27.944146
 21
78.4747
  0
LINE
  8
LAYER01
  6
CONTINUOUS
 62
     7
 10
26.650696
 20
77.523611
 11
49.997981
 21
54.176326
  0
LINE
  8
LAYER01
  6
CONTINUOUS
 62
     7
 10
48.369826
 20
53.558847
 11
26.650671
 21
75.278002
  0
LINE
  8
LAYER01
  6
CONTINUOUS
 62
     7
 10
26.650645
 20
73.033488
 11
46.742217
 21
52.941916
  0
LINE
  8
LAYER01
  6
CONTINUOUS
 62
     7
 10
44.315584
 20
53.122915
 11
26.65062
 21
70.787879
  0
LINE
  8
LAYER01
  6
CONTINUOUS
 62
     7
 10
26.650595
 20
68.543364
 11
39.227721
 21
55.966238
  0
LINE
  8
LAYER01
  6
CONTINUOUS
 62
     7
 10
37.62363
 20
55.324696
 11
26.65057
 21
66.297756
  0
LINE
  8
LAYER01
  6
CONTINUOUS
 62
     7
 10
26.650545
 20
64.053241
 11
36.020085
 21
54.683701
  0
LINE
  8
LAYER01
  6
CONTINUOUS
 62
     7
 10
34.415994
 20
54.042159
 11
26.65052
 21
61.807633
  0
LINE
  8
LAYER01
  6
CONTINUOUS
 62
     7
 10
26.650494
 20
59.563118
 11
32.812996
 21
53.400616
  0
LINE
  8
LAYER01
  6
CONTINUOUS
 62
     7
 10
28.01718
 20
55.950799
 11
26.650469
 21
57.31751
  0
LINE
  8
LAYER01
  6
CONTINUOUS
 62
     7
 10
26.650444
 20
55.072995
 11
26.734667
 21
54.988772
  0
ENDBLK
  8
0
  0
BLOCK
  8
LAYER01
  2
GIOCHI-G8
 70
     0
 10
0.0
 20
0.0
  0
LINE
  8
LAYER01
  6
CONTINUOUS
 62
     7
 10
61.745514
 20
88.685768
 11
61.18919
 21
88.129444
  0
LINE
  8
LAYER01
  6
CONTINUOUS
 62
     7
 10
61.149995
 20
86.96743
 11
62.907528
 21
88.724963
  0
LINE
  8
LAYER01
  6
CONTINUOUS
 62
     7
 10
63.99368
 20
88.689202
 11
61.149989
 21
85.845511
  0
LINE
  8
LAYER01
  6
CONTINUOUS
 62
     7
 10
61.149992
 20
84.722695
 11
64.559854
 21
88.132557
  0
LINE
  8
LAYER01
  6
CONTINUOUS
 62
     7
 10
64.599943
 20
87.049828
 11
61.204248
 21
83.654133
  0
LINE
  8
LAYER01
  6
CONTINUOUS
 62
     7
 10
61.729502
 20
83.057472
 11
64.599938
 21
85.927909
  0
LINE
  8
LAYER01
  6
CONTINUOUS
 62
     7
 10
64.59994
 20
84.805093
 11
62.069194
 21
82.274347
  0
LINE
  8
LAYER01
  6
CONTINUOUS
 62
     7
 10
62.115001
 20
81.197335
 11
64.599943
 21
83.682277
  0
LINE
  8
LAYER01
  6
CONTINUOUS
 62
     7
 10
64.600001
 20
82.560421
 11
61.150179
 21
79.110599
  0
LINE
  8
LAYER01
  6
CONTINUOUS
 62
     7
 10
61.150118
 20
77.987719
 11
64.600003
 21
81.437605
  0
LINE
  8
LAYER01
  6
CONTINUOUS
 62
     7
 10
64.600006
 20
80.314789
 11
61.15012
 21
76.864903
  0
LINE
  8
LAYER01
  6
CONTINUOUS
 62
     7
 10
61.15908
 20
75.751045
 11
64.600008
 21
79.191973
  0
LINE
  8
LAYER01
  6
CONTINUOUS
 62
     7
 10
64.600003
 20
78.070054
 11
61.636623
 21
75.106674
  0
LINE
  8
LAYER01
  6
CONTINUOUS
 62
     7
 10
62.677804
 20
75.025037
 11
64.600005
 21
76.947238
  0
LINE
  8
LAYER01
  6
CONTINUOUS
 62
     7
 10
64.598546
 20
75.82296
 11
63.802145
 21
75.026559
  0
ENDBLK
  8
0
  0
BLOCK
  8
LAYER01
  2
GIOCHI-G9
 70
     0
 10
0.0
 20
0.0
  0
LINE
  8
LAYER01
  6
CONTINUOUS
 62
     7
 10
55.016475
 20
88.692252
 11
54.432706
 21
88.108483
  0
LINE
  8
LAYER01
  6
CONTINUOUS
 62
     7
 10
54.399991
 20
86.95295
 11
56.172008
 21
88.724967
  0
LINE
  8
LAYER01
  6
CONTINUOUS
 62
     7
 10
57.25473
 20
88.685775
 11
54.399985
 21
85.831031
  0
LINE
  8
LAYER01
  6
CONTINUOUS
 62
     7
 10
54.399988
 20
84.708214
 11
57.81328
 21
88.121507
  0
LINE
  8
LAYER01
  6
CONTINUOUS
 62
     7
 10
57.849939
 20
87.035347
 11
54.39999
 21
83.585398
  0
LINE
  8
LAYER01
  6
CONTINUOUS
 62
     7
 10
54.400048
 20
82.463543
 11
57.849934
 21
85.913428
  0
LINE
  8
LAYER01
  6
CONTINUOUS
 62
     7
 10
57.849936
 20
84.790612
 11
54.400051
 21
81.340727
  0
LINE
  8
LAYER01
  6
CONTINUOUS
 62
     7
 10
54.400053
 20
80.217911
 11
57.334273
 21
83.15213
  0
LINE
  8
LAYER01
  6
CONTINUOUS
 62
     7
 10
56.851192
 20
81.547136
 11
54.400048
 21
79.095992
  0
LINE
  8
LAYER01
  6
CONTINUOUS
 62
     7
 10
54.40005
 20
77.973175
 11
57.04769
 21
80.620815
  0
LINE
  8
LAYER01
  6
CONTINUOUS
 62
     7
 10
57.470542
 20
79.920849
 11
54.400052
 21
76.850359
  0
LINE
  8
LAYER01
  6
CONTINUOUS
 62
     7
 10
54.411045
 20
75.738534
 11
57.850004
 21
79.177492
  0
LINE
  8
LAYER01
  6
CONTINUOUS
 62
     7
 10
57.849998
 20
78.055573
 11
54.896466
 21
75.102041
  0
LINE
  8
LAYER01
  6
CONTINUOUS
 62
     7
 10
55.942221
 20
75.024978
 11
57.850001
 21
76.932757
  0
LINE
  8
LAYER01
  6
CONTINUOUS
 62
     7
 10
57.847526
 20
75.807463
 11
57.067578
 21
75.027516
  0
ENDBLK
  8
0
  0
BLOCK
  8
0
  2
GIOCHI-G7
 70
     0
 10
0.0
 20
0.0
  0
POLYLINE
  8
LAYER01
  6
CONTINUOUS
 62
     7
 66
     1
 40
0.15
 41
0.15
  0
VERTEX
  8
LAYER01
 10
61.0
 20
83.625
  0
VERTEX
  8
LAYER01
 10
61.0
 20
87.875
 42
-0.414214
  0
VERTEX
  8
LAYER01
 10
62.0
 20
88.875
  0
VERTEX
  8
LAYER01
 10
63.75
 20
88.875
 42
-0.414214
  0
VERTEX
  8
LAYER01
 10
64.75
 20
87.875
  0
VERTEX
  8
LAYER01
 10
64.75
 20
75.875
 42
-0.414214
  0
VERTEX
  8
LAYER01
 10
63.75
 20
74.875
  0
VERTEX
  8
LAYER01
 10
62.0
 20
74.875
 42
-0.414214
  0
VERTEX
  8
LAYER01
 10
61.0
 20
75.875
  0
VERTEX
  8
LAYER01
 10
61.0
 20
79.625
  0
SEQEND
  8
LAYER01
  0
POLYLINE
  8
LAYER01
  6
CONTINUOUS
 62
     7
 66
     1
 70
     1
  0
VERTEX
  8
LAYER01
 10
64.6
 20
75.875
 42
-0.414214
  0
VERTEX
  8
LAYER01
 10
63.75
 20
75.025
  0
VERTEX
  8
LAYER01
 10
62.0
 20
75.025
 42
-0.414214
  0
VERTEX
  8
LAYER01
 10
61.15
 20
75.875
  0
VERTEX
  8
LAYER01
 10
61.15
 20
79.551356
 42
0.482243
  0
VERTEX
  8
LAYER01
 10
61.15
 20
83.698644
  0
VERTEX
  8
LAYER01
 10
61.15
 20
87.875
 42
-0.414214
  0
VERTEX
  8
LAYER01
 10
62.0
 20
88.725
  0
VERTEX
  8
LAYER01
 10
63.75
 20
88.725
 42
-0.414214
  0
VERTEX
  8
LAYER01
 10
64.6
 20
87.875
  0
SEQEND
  8
LAYER01
  0
INSERT
  8
LAYER01
  2
GIOCHI-G8
 10
0.0
 20
0.0
  0
CIRCLE
  8
LAYER01
  6
CONTINUOUS
 62
     7
 10
59.5
 20
81.625
 40
2.425
  0
CIRCLE
  8
LAYER01
  6
CONTINUOUS
 62
     7
 10
59.5
 20
81.625
 40
2.575
  0
POLYLINE
  8
LAYER01
  6
CONTINUOUS
 62
     7
 66
     1
 40
0.15
 41
0.15
  0
VERTEX
  8
LAYER01
 10
58.0
 20
83.625
  0
VERTEX
  8
LAYER01
 10
58.0
 20
87.875
 42
0.414214
  0
VERTEX
  8
LAYER01
 10
57.0
 20
88.875
  0
VERTEX
  8
LAYER01
 10
55.25
 20
88.875
 42
0.414214
  0
VERTEX
  8
LAYER01
 10
54.25
 20
87.875
  0
VERTEX
  8
LAYER01
 10
54.25
 20
75.875
 42
0.414214
  0
VERTEX
  8
LAYER01
 10
55.25
 20
74.875
  0
VERTEX
  8
LAYER01
 10
57.0
 20
74.875
 42
0.414214
  0
VERTEX
  8
LAYER01
 10
58.0
 20
75.875
  0
VERTEX
  8
LAYER01
 10
58.0
 20
79.625
  0
SEQEND
  8
LAYER01
  0
POLYLINE
  8
LAYER01
  6
CONTINUOUS
 62
     7
 66
     1
 70
     1
  0
VERTEX
  8
LAYER01
 10
56.85
 20
81.625
 42
0.228529
  0
VERTEX
  8
LAYER01
 10
57.85
 20
79.551356
  0
VERTEX
  8
LAYER01
 10
57.85
 20
75.875
 42
-0.414214
  0
VERTEX
  8
LAYER01
 10
57.0
 20
75.025
  0
VERTEX
  8
LAYER01
 10
55.25
 20
75.025
 42
-0.414214
  0
VERTEX
  8
LAYER01
 10
54.4
 20
75.875
  0
VERTEX
  8
LAYER01
 10
54.4
 20
87.875
 42
-0.414214
  0
VERTEX
  8
LAYER01
 10
55.25
 20
88.725
  0
VERTEX
  8
LAYER01
 10
57.0
 20
88.725
 42
-0.414214
  0
VERTEX
  8
LAYER01
 10
57.85
 20
87.875
  0
VERTEX
  8
LAYER01
 10
57.85
 20
83.698644
 42
0.228529
  0
SEQEND
  8
LAYER01
  0
INSERT
  8
LAYER01
  2
GIOCHI-G9
 10
0.0
 20
0.0
  0
ENDBLK
  8
0
  0
BLOCK
  8
0
  2
GIOCHI-G10
 70
     0
 10
0.0
 20
0.0
  0
POLYLINE
  8
LAYER01
  6
CONTINUOUS
 62
     7
 66
     1
 70
     1
  0
VERTEX
  8
LAYER01
 10
111.75
 20
73.625
  0
VERTEX
  8
LAYER01
 10
111.75
 20
65.625
  0
VERTEX
  8
LAYER01
 10
131.75
 20
65.625
  0
VERTEX
  8
LAYER01
 10
131.75
 20
73.625
  0
SEQEND
  8
LAYER01
  0
POLYLINE
  8
LAYER01
  6
CONTINUOUS
 62
     7
 66
     1
 70
     1
  0
VERTEX
  8
LAYER01
 10
111.75
 20
73.125
  0
VERTEX
  8
LAYER01
 10
111.75
 20
66.125
  0
VERTEX
  8
LAYER01
 10
132.5
 20
66.125
  0
VERTEX
  8
LAYER01
 10
132.5
 20
73.125
  0
SEQEND
  8
LAYER01
  0
POINT
  8
LAYER01
  6
CONTINUOUS
 62
     7
 10
111.75
 20
69.625
  0
POLYLINE
  8
LAYER01
  6
CONTINUOUS
 62
     7
 66
     1
 70
     1
 40
0.05
 41
0.05
  0
VERTEX
  8
LAYER01
 10
100.0
 20
73.875
  0
VERTEX
  8
LAYER01
 10
100.0
 20
65.375
  0
VERTEX
  8
LAYER01
 10
111.5
 20
65.375
  0
VERTEX
  8
LAYER01
 10
111.5
 20
73.875
  0
SEQEND
  8
LAYER01
  0
POLYLINE
  8
LAYER01
  6
CONTINUOUS
 62
     7
 66
     1
 70
     1
 40
0.05
 41
0.05
  0
VERTEX
  8
LAYER01
 10
91.75
 20
76.875
  0
VERTEX
  8
LAYER01
 10
91.75
 20
62.625
  0
VERTEX
  8
LAYER01
 10
100.0
 20
62.625
  0
VERTEX
  8
LAYER01
 10
100.0
 20
76.875
  0
SEQEND
  8
LAYER01
  0
POLYLINE
  8
LAYER01
  6
CONTINUOUS
 62
     7
 66
     1
  0
VERTEX
  8
LAYER01
 10
132.5
 20
66.125
  0
VERTEX
  8
LAYER01
 10
134.5
 20
69.625
  0
VERTEX
  8
LAYER01
 10
132.5
 20
73.125
  0
SEQEND
  8
LAYER01
  0
ENDBLK
  8
0
  0
BLOCK
  8
LAYER01
  2
GIOCHI-G11
 70
     0
 10
0.0
 20
0.0
  0
LINE
  8
LAYER01
  6
CONTINUOUS
 62
     7
 10
92.484371
 20
62.62501
 11
91.900327
 21
62.040965
  0
LINE
  8
LAYER01
  6
CONTINUOUS
 62
     7
 10
91.900327
 20
60.469487
 11
94.05585
 21
62.62501
  0
LINE
  8
LAYER01
  6
CONTINUOUS
 62
     7
 10
95.627328
 20
62.62501
 11
92.777482
 21
59.775163
  0
LINE
  8
LAYER01
  6
CONTINUOUS
 62
     7
 10
94.34896
 20
59.775163
 11
97.198807
 21
62.62501
  0
LINE
  8
LAYER01
  6
CONTINUOUS
 62
     7
 10
101.52001
 20
65.374735
 11
100.000043
 21
63.854768
  0
LINE
  8
LAYER01
  6
CONTINUOUS
 62
     7
 10
98.770285
 20
62.62501
 11
95.920439
 21
59.775163
  0
LINE
  8
LAYER01
  6
CONTINUOUS
 62
     7
 10
97.491917
 20
59.775163
 11
103.091488
 21
65.374735
  0
LINE
  8
LAYER01
  6
CONTINUOUS
 62
     7
 10
104.663692
 20
65.374735
 11
99.064121
 21
59.775163
  0
LINE
  8
LAYER01
  6
CONTINUOUS
 62
     7
 10
100.6356
 20
59.775163
 11
106.235534
 21
65.375097
  0
LINE
  8
LAYER01
  6
CONTINUOUS
 62
     7
 10
111.599673
 20
69.167758
 11
111.499551
 21
69.067637
  0
LINE
  8
LAYER01
  6
CONTINUOUS
 62
     7
 10
107.807012
 20
65.375097
 11
102.207078
 21
59.775163
  0
LINE
  8
LAYER01
  6
CONTINUOUS
 62
     7
 10
103.778557
 20
59.775163
 11
109.378491
 21
65.375097
  0
LINE
  8
LAYER01
  6
CONTINUOUS
 62
     7
 10
111.499551
 20
67.496158
 11
111.599673
 21
67.59628
  0
LINE
  8
LAYER01
  6
CONTINUOUS
 62
     7
 10
111.599673
 20
66.024801
 11
111.499551
 21
65.924679
  0
LINE
  8
LAYER01
  6
CONTINUOUS
 62
     7
 10
110.949969
 20
65.375097
 11
105.350035
 21
59.775163
  0
LINE
  8
LAYER01
  6
CONTINUOUS
 62
     7
 10
106.921514
 20
59.775163
 11
111.599673
 21
64.453323
  0
LINE
  8
LAYER01
  6
CONTINUOUS
 62
     7
 10
111.599673
 20
62.881844
 11
108.492992
 21
59.775163
  0
LINE
  8
LAYER01
  6
CONTINUOUS
 62
     7
 10
110.064471
 20
59.775163
 11
111.599673
 21
61.310366
  0
ENDBLK
  8
0
  0
BLOCK
  8
LAYER01
  2
GIOCHI-G12
 70
     0
 10
0.0
 20
0.0
  0
LINE
  8
LAYER01
  6
CONTINUOUS
 62
     7
 10
93.29714
 20
80.72505
 11
91.899786
 21
79.327697
  0
LINE
  8
LAYER01
  6
CONTINUOUS
 62
     7
 10
91.899806
 20
77.756199
 11
94.868638
 21
80.725031
  0
LINE
  8
LAYER01
  6
CONTINUOUS
 62
     7
 10
96.440137
 20
80.725011
 11
92.59016
 21
76.875033
  0
LINE
  8
LAYER01
  6
CONTINUOUS
 62
     7
 10
94.161658
 20
76.875013
 11
98.011635
 21
80.724991
  0
LINE
  8
LAYER01
  6
CONTINUOUS
 62
     7
 10
99.583134
 20
80.724971
 11
95.733156
 21
76.874994
  0
LINE
  8
LAYER01
  6
CONTINUOUS
 62
     7
 10
97.304655
 20
76.874974
 11
101.154632
 21
80.724951
  0
LINE
  8
LAYER01
  6
CONTINUOUS
 62
     7
 10
102.726131
 20
80.724931
 11
98.876153
 21
76.874954
  0
LINE
  8
LAYER01
  6
CONTINUOUS
 62
     7
 10
100.000005
 20
76.427287
 11
104.297629
 21
80.724911
  0
LINE
  8
LAYER01
  6
CONTINUOUS
 62
     7
 10
105.869127
 20
80.724891
 11
100.000025
 21
74.855789
  0
LINE
  8
LAYER01
  6
CONTINUOUS
 62
     7
 10
100.590619
 20
73.874865
 11
107.440626
 21
80.724871
  0
LINE
  8
LAYER01
  6
CONTINUOUS
 62
     7
 10
109.012124
 20
80.724851
 11
102.162118
 21
73.874845
  0
LINE
  8
LAYER01
  6
CONTINUOUS
 62
     7
 10
103.733616
 20
73.874825
 11
110.583623
 21
80.724831
  0
LINE
  8
LAYER01
  6
CONTINUOUS
 62
     7
 10
111.599735
 20
80.169425
 11
105.305115
 21
73.874805
  0
LINE
  8
LAYER01
  6
CONTINUOUS
 62
     7
 10
106.876976
 20
73.875148
 11
111.599755
 21
78.597927
  0
LINE
  8
LAYER01
  6
CONTINUOUS
 62
     7
 10
111.599775
 20
77.025703
 11
108.4492
 21
73.875128
  0
LINE
  8
LAYER01
  6
CONTINUOUS
 62
     7
 10
110.020698
 20
73.875108
 11
111.599795
 21
75.454204
  0
LINE
  8
LAYER01
  6
CONTINUOUS
 62
     7
 10
111.599815
 20
73.882706
 11
111.499693
 21
73.782584
  0
LINE
  8
LAYER01
  6
CONTINUOUS
 62
     7
 10
111.499713
 20
72.211086
 11
111.599834
 21
72.311207
  0
LINE
  8
LAYER01
  6
CONTINUOUS
 62
     7
 10
111.599854
 20
70.739709
 11
111.499732
 21
70.639587
  0
ENDBLK
  8
0
  0
BLOCK
  8
LAYER01
  2
GIOCHI-G13
 70
     0
 10
0.0
 20
0.0
  0
LINE
  8
LAYER01
  6
CONTINUOUS
 62
     7
 10
86.08156
 20
89.225068
 11
85.399853
 21
88.543362
  0
LINE
  8
LAYER01
  6
CONTINUOUS
 62
     7
 10
85.399893
 20
86.971755
 11
87.653166
 21
89.225028
  0
LINE
  8
LAYER01
  6
CONTINUOUS
 62
     7
 10
89.224773
 20
89.224989
 11
85.399933
 21
85.400149
  0
LINE
  8
LAYER01
  6
CONTINUOUS
 62
     7
 10
85.399972
 20
83.82912
 11
90.795801
 21
89.224949
  0
LINE
  8
LAYER01
  6
CONTINUOUS
 62
     7
 10
92.367408
 20
89.224909
 11
85.917507
 21
82.775009
  0
LINE
  8
LAYER01
  6
CONTINUOUS
 62
     7
 10
87.489114
 20
82.774969
 11
93.939303
 21
89.225159
  0
LINE
  8
LAYER01
  6
CONTINUOUS
 62
     7
 10
95.51091
 20
89.225119
 11
89.060721
 21
82.77493
  0
LINE
  8
LAYER01
  6
CONTINUOUS
 62
     7
 10
90.632327
 20
82.77489
 11
97.082517
 21
89.225079
  0
LINE
  8
LAYER01
  6
CONTINUOUS
 62
     7
 10
98.654123
 20
89.22504
 11
92.203934
 21
82.77485
  0
LINE
  8
LAYER01
  6
CONTINUOUS
 62
     7
 10
93.775251
 20
82.7751
 11
100.225152
 21
89.225
  0
LINE
  8
LAYER01
  6
CONTINUOUS
 62
     7
 10
101.099729
 20
88.527932
 11
95.346858
 21
82.77506
  0
LINE
  8
LAYER01
  6
CONTINUOUS
 62
     7
 10
96.918464
 20
82.77502
 11
101.099769
 21
86.956325
  0
LINE
  8
LAYER01
  6
CONTINUOUS
 62
     7
 10
101.099809
 20
85.384719
 11
98.490071
 21
82.774981
  0
LINE
  8
LAYER01
  6
CONTINUOUS
 62
     7
 10
100.061678
 20
82.774941
 11
101.099848
 21
83.813112
  0
ENDBLK
  8
0
  0
BLOCK
  8
0
  2
GIOCHI-G14
 70
     0
 10
0.0
 20
0.0
  0
POLYLINE
  8
LAYER01
  6
CONTINUOUS
 62
     7
 66
     1
  0
VERTEX
  8
LAYER01
 10
114.75
 20
88.875
  0
VERTEX
  8
LAYER01
 10
116.25
 20
87.125
  0
VERTEX
  8
LAYER01
 10
117.75
 20
88.875
  0
SEQEND
  8
LAYER01
  0
POLYLINE
  8
LAYER01
  6
CONTINUOUS
 62
     7
 66
     1
  0
VERTEX
  8
LAYER01
 10
117.75
 20
88.875
  0
VERTEX
  8
LAYER01
 10
119.25
 20
87.125
  0
VERTEX
  8
LAYER01
 10
120.75
 20
88.875
  0
SEQEND
  8
LAYER01
  0
POLYLINE
  8
LAYER01
  6
CONTINUOUS
 62
     7
 66
     1
  0
VERTEX
  8
LAYER01
 10
120.75
 20
88.875
  0
VERTEX
  8
LAYER01
 10
122.25
 20
87.125
  0
VERTEX
  8
LAYER01
 10
123.75
 20
88.875
  0
SEQEND
  8
LAYER01
  0
POLYLINE
  8
LAYER01
  6
CONTINUOUS
 62
     7
 66
     1
  0
VERTEX
  8
LAYER01
 10
123.75
 20
88.875
  0
VERTEX
  8
LAYER01
 10
125.25
 20
87.125
  0
VERTEX
  8
LAYER01
 10
126.75
 20
88.875
  0
SEQEND
  8
LAYER01
  0
POLYLINE
  8
LAYER01
  6
CONTINUOUS
 62
     7
 66
     1
  0
VERTEX
  8
LAYER01
 10
126.75
 20
88.875
  0
VERTEX
  8
LAYER01
 10
128.25
 20
87.125
  0
VERTEX
  8
LAYER01
 10
129.75
 20
88.875
  0
SEQEND
  8
LAYER01
  0
POLYLINE
  8
LAYER01
  6
CONTINUOUS
 62
     7
 66
     1
  0
VERTEX
  8
LAYER01
 10
129.75
 20
88.875
  0
VERTEX
  8
LAYER01
 10
131.25
 20
87.125
  0
VERTEX
  8
LAYER01
 10
132.75
 20
88.875
  0
SEQEND
  8
LAYER01
  0
LINE
  8
LAYER01
  6
CONTINUOUS
 62
     7
 10
134.969769
 20
88.016651
 11
135.75
 21
87.125
  0
POLYLINE
  8
LAYER01
  6
CONTINUOUS
 62
     7
 66
     1
  0
VERTEX
  8
LAYER01
 10
132.75
 20
88.875
  0
VERTEX
  8
LAYER01
 10
134.25
 20
87.125
  0
VERTEX
  8
LAYER01
 10
135.026945
 20
88.036364
  0
SEQEND
  8
LAYER01
  0
LINE
  8
LAYER01
  6
CONTINUOUS
 62
     7
 10
112.493096
 20
88.057255
 11
111.75
 21
87.125
  0
POLYLINE
  8
LAYER01
  6
CONTINUOUS
 62
     7
 66
     1
  0
VERTEX
  8
LAYER01
 10
112.438235
 20
88.072059
  0
VERTEX
  8
LAYER01
 10
113.25
 20
87.125
  0
VERTEX
  8
LAYER01
 10
114.75
 20
88.875
  0
SEQEND
  8
LAYER01
  0
LINE
  8
LAYER01
  6
CONTINUOUS
 62
     7
 10
111.75
 20
87.125
 11
111.75
 21
89.125
  0
LINE
  8
LAYER01
  6
CONTINUOUS
 62
     7
 10
135.75
 20
87.125
 11
135.75
 21
89.375
  0
POLYLINE
  8
LAYER01
  6
CONTINUOUS
 62
     7
 66
     1
  0
VERTEX
  8
LAYER01
 10
111.75
 20
87.375
  0
VERTEX
  8
LAYER01
 10
111.75
 20
77.625
  0
VERTEX
  8
LAYER01
 10
113.75
 20
75.625
  0
VERTEX
  8
LAYER01
 10
133.75
 20
75.625
  0
VERTEX
  8
LAYER01
 10
135.75
 20
77.625
  0
VERTEX
  8
LAYER01
 10
135.75
 20
87.375
  0
SEQEND
  8
LAYER01
  0
ENDBLK
  8
0
  0
BLOCK
  8
LAYER01
  2
GIOCHI-G15
 70
     0
 10
0.0
 20
0.0
  0
LINE
  8
LAYER01
  6
CONTINUOUS
 62
     7
 10
112.59168
 20
87.895539
 11
111.749781
 21
87.05364
  0
LINE
  8
LAYER01
  6
CONTINUOUS
 62
     7
 10
111.749807
 20
85.931082
 11
113.108778
 21
87.290052
  0
LINE
  8
LAYER01
  6
CONTINUOUS
 62
     7
 10
115.242057
 20
88.300747
 11
111.749834
 21
84.808523
  0
LINE
  8
LAYER01
  6
CONTINUOUS
 62
     7
 10
111.74986
 20
83.685965
 11
115.760039
 21
87.696144
  0
LINE
  8
LAYER01
  6
CONTINUOUS
 62
     7
 10
117.893319
 20
88.706838
 11
111.749887
 21
82.563406
  0
LINE
  8
LAYER01
  6
CONTINUOUS
 62
     7
 10
111.749913
 20
81.440848
 11
118.411743
 21
88.102677
  0
LINE
  8
LAYER01
  6
CONTINUOUS
 62
     7
 10
118.929725
 20
87.498075
 11
111.749939
 21
80.318289
  0
LINE
  8
LAYER01
  6
CONTINUOUS
 62
     7
 10
111.749966
 20
79.195731
 11
121.063004
 21
88.508769
  0
LINE
  8
LAYER01
  6
CONTINUOUS
 62
     7
 10
121.581428
 20
87.904608
 11
111.749992
 21
78.073172
  0
LINE
  8
LAYER01
  6
CONTINUOUS
 62
     7
 10
112.086779
 20
77.288257
 11
122.098969
 21
87.300447
  0
LINE
  8
LAYER01
  6
CONTINUOUS
 62
     7
 10
124.232248
 20
88.311142
 11
112.648071
 21
76.726965
  0
LINE
  8
LAYER01
  6
CONTINUOUS
 62
     7
 10
113.209363
 20
76.165672
 11
124.750672
 21
87.706981
  0
LINE
  8
LAYER01
  6
CONTINUOUS
 62
     7
 10
126.883951
 20
88.717675
 11
113.791427
 21
75.625151
  0
LINE
  8
LAYER01
  6
CONTINUOUS
 62
     7
 10
114.913986
 20
75.625125
 11
127.402375
 21
88.113514
  0
LINE
  8
LAYER01
  6
CONTINUOUS
 62
     7
 10
127.920358
 20
87.508911
 11
116.036544
 21
75.625098
  0
LINE
  8
LAYER01
  6
CONTINUOUS
 62
     7
 10
117.159103
 20
75.625072
 11
130.054079
 21
88.520048
  0
LINE
  8
LAYER01
  6
CONTINUOUS
 62
     7
 10
130.572061
 20
87.915445
 11
118.281661
 21
75.625045
  0
LINE
  8
LAYER01
  6
CONTINUOUS
 62
     7
 10
119.40422
 20
75.625019
 11
131.090485
 21
87.311284
  0
LINE
  8
LAYER01
  6
CONTINUOUS
 62
     7
 10
133.225974
 20
88.324188
 11
120.526778
 21
75.624992
  0
LINE
  8
LAYER01
  6
CONTINUOUS
 62
     7
 10
121.649337
 20
75.624966
 11
133.746166
 21
87.721795
  0
LINE
  8
LAYER01
  6
CONTINUOUS
 62
     7
 10
135.079089
 20
87.932133
 11
122.771895
 21
75.624939
  0
LINE
  8
LAYER01
  6
CONTINUOUS
 62
     7
 10
123.894454
 20
75.624913
 11
135.588674
 21
87.319133
  0
LINE
  8
LAYER01
  6
CONTINUOUS
 62
     7
 10
135.749567
 20
86.357441
 11
125.017012
 21
75.624886
  0
LINE
  8
LAYER01
  6
CONTINUOUS
 62
     7
 10
126.139571
 20
75.62486
 11
135.749594
 21
85.234883
  0
LINE
  8
LAYER01
  6
CONTINUOUS
 62
     7
 10
135.74962
 20
84.112324
 11
127.262129
 21
75.624833
  0
LINE
  8
LAYER01
  6
CONTINUOUS
 62
     7
 10
128.384688
 20
75.624807
 11
135.749647
 21
82.989766
  0
LINE
  8
LAYER01
  6
CONTINUOUS
 62
     7
 10
135.749673
 20
81.868091
 11
129.506362
 21
75.62478
  0
LINE
  8
LAYER01
  6
CONTINUOUS
 62
     7
 10
130.628921
 20
75.624754
 11
135.7497
 21
80.745533
  0
LINE
  8
LAYER01
  6
CONTINUOUS
 62
     7
 10
135.749726
 20
79.622974
 11
131.751479
 21
75.624727
  0
LINE
  8
LAYER01
  6
CONTINUOUS
 62
     7
 10
132.874038
 20
75.624701
 11
135.749753
 21
78.500416
  0
ENDBLK
  8
0
  0
BLOCK
  8
LAYER01
  2
GIOCHI-G17
 70
     0
 10
0.0
 20
0.0
  0
LINE
  8
LAYER01
  6
CONTINUOUS
 62
     7
 10
28.035133
 20
112.225022
 11
26.64989
 21
110.83978
  0
LINE
  8
LAYER01
  6
CONTINUOUS
 62
     7
 10
26.649903
 20
109.717143
 11
29.157769
 21
112.22501
  0
LINE
  8
LAYER01
  6
CONTINUOUS
 62
     7
 10
30.280406
 20
112.224997
 11
26.649916
 21
108.594506
  0
LINE
  8
LAYER01
  6
CONTINUOUS
 62
     7
 10
27.20241
 20
108.024857
 11
31.168679
 21
111.991126
  0
LINE
  8
LAYER01
  6
CONTINUOUS
 62
     7
 10
31.77617
 20
111.475967
 11
28.325047
 21
108.024844
  0
LINE
  8
LAYER01
  6
CONTINUOUS
 62
     7
 10
29.447684
 20
108.024832
 11
32.537297
 21
111.114445
  0
LINE
  8
LAYER01
  6
CONTINUOUS
 62
     7
 10
33.510334
 20
110.964833
 11
30.57032
 21
108.024819
  0
LINE
  8
LAYER01
  6
CONTINUOUS
 62
     7
 10
31.692452
 20
108.024807
 11
35.023492
 21
111.355847
  0
LINE
  8
LAYER01
  6
CONTINUOUS
 62
     7
 10
37.015469
 20
112.225174
 11
32.815089
 21
108.024794
  0
LINE
  8
LAYER01
  6
CONTINUOUS
 62
     7
 10
33.937978
 20
108.025034
 11
38.138106
 21
112.225162
  0
LINE
  8
LAYER01
  6
CONTINUOUS
 62
     7
 10
39.260742
 20
112.225149
 11
35.060614
 21
108.025021
  0
LINE
  8
LAYER01
  6
CONTINUOUS
 62
     7
 10
36.182747
 20
108.025009
 11
40.234032
 21
112.076294
  0
LINE
  8
LAYER01
  6
CONTINUOUS
 62
     7
 10
40.349586
 20
111.0692
 11
37.305383
 21
108.024996
  0
LINE
  8
LAYER01
  6
CONTINUOUS
 62
     7
 10
38.42802
 20
108.024984
 11
40.349599
 21
109.946563
  0
LINE
  8
LAYER01
  6
CONTINUOUS
 62
     7
 10
40.349612
 20
108.823926
 11
39.550656
 21
108.024971
  0
ENDBLK
  8
0
  0
BLOCK
  8
LAYER01
  2
GIOCHI-G18
 70
     0
 10
0.0
 20
0.0
  0
LINE
  8
LAYER01
  6
CONTINUOUS
 62
     7
 10
27.052006
 20
120.222258
 11
26.652402
 21
119.822654
  0
LINE
  8
LAYER01
  6
CONTINUOUS
 62
     7
 10
26.649892
 20
118.697495
 11
28.177418
 21
120.225021
  0
LINE
  8
LAYER01
  6
CONTINUOUS
 62
     7
 10
29.300054
 20
120.225008
 11
26.649905
 21
117.574858
  0
LINE
  8
LAYER01
  6
CONTINUOUS
 62
     7
 10
26.650422
 20
116.453231
 11
30.422186
 21
120.224996
  0
LINE
  8
LAYER01
  6
CONTINUOUS
 62
     7
 10
31.544823
 20
120.224983
 11
27.344695
 21
116.024855
  0
LINE
  8
LAYER01
  6
CONTINUOUS
 62
     7
 10
28.467332
 20
116.024843
 11
32.66746
 21
120.22497
  0
LINE
  8
LAYER01
  6
CONTINUOUS
 62
     7
 10
33.790348
 20
120.22521
 11
29.589968
 21
116.02483
  0
LINE
  8
LAYER01
  6
CONTINUOUS
 62
     7
 10
30.7121
 20
116.024818
 11
34.91248
 21
120.225198
  0
LINE
  8
LAYER01
  6
CONTINUOUS
 62
     7
 10
36.035117
 20
120.225185
 11
33.065083
 21
117.255151
  0
LINE
  8
LAYER01
  6
CONTINUOUS
 62
     7
 10
34.15013
 20
117.217549
 11
37.157754
 21
120.225173
  0
LINE
  8
LAYER01
  6
CONTINUOUS
 62
     7
 10
38.28039
 20
120.22516
 11
34.975082
 21
116.919852
  0
LINE
  8
LAYER01
  6
CONTINUOUS
 62
     7
 10
35.633533
 20
116.456158
 11
39.402522
 21
120.225148
  0
LINE
  8
LAYER01
  6
CONTINUOUS
 62
     7
 10
40.293318
 20
119.993294
 11
36.325284
 21
116.02526
  0
LINE
  8
LAYER01
  6
CONTINUOUS
 62
     7
 10
37.44792
 20
116.025247
 11
40.349588
 21
118.926915
  0
LINE
  8
LAYER01
  6
CONTINUOUS
 62
     7
 10
40.349601
 20
117.804278
 11
38.570557
 21
116.025235
  0
LINE
  8
LAYER01
  6
CONTINUOUS
 62
     7
 10
39.693193
 20
116.025222
 11
40.349613
 21
116.681642
  0
ENDBLK
  8
0
  0
BLOCK
  8
0
  2
GIOCHI-G16
 70
     0
 10
0.0
 20
0.0
  0
POLYLINE
  8
LAYER01
  6
CONTINUOUS
 62
     7
 66
     1
 70
     1
  0
VERTEX
  8
LAYER01
 10
40.35
 20
111.775
 42
0.414214
  0
VERTEX
  8
LAYER01
 10
39.9
 20
112.225
  0
VERTEX
  8
LAYER01
 10
36.025494
 20
112.225
 42
-0.49907
  0
VERTEX
  8
LAYER01
 10
30.974506
 20
112.225
  0
VERTEX
  8
LAYER01
 10
27.1
 20
112.225
 42
0.414214
  0
VERTEX
  8
LAYER01
 10
26.65
 20
111.775
  0
VERTEX
  8
LAYER01
 10
26.65
 20
108.475
 42
0.414214
  0
VERTEX
  8
LAYER01
 10
27.1
 20
108.025
  0
VERTEX
  8
LAYER01
 10
39.9
 20
108.025
 42
0.414214
  0
VERTEX
  8
LAYER01
 10
40.35
 20
108.475
  0
SEQEND
  8
LAYER01
  0
INSERT
  8
LAYER01
  2
GIOCHI-G17
 10
0.0
 20
0.0
  0
POLYLINE
  8
LAYER01
  6
CONTINUOUS
 62
     7
 66
     1
 40
0.15
 41
0.15
  0
VERTEX
  8
LAYER01
 10
36.0
 20
112.375
  0
VERTEX
  8
LAYER01
 10
39.9
 20
112.375
 42
-0.414214
  0
VERTEX
  8
LAYER01
 10
40.5
 20
111.775
  0
VERTEX
  8
LAYER01
 10
40.5
 20
108.475
 42
-0.414214
  0
VERTEX
  8
LAYER01
 10
39.9
 20
107.875
  0
VERTEX
  8
LAYER01
 10
27.1
 20
107.875
 42
-0.414214
  0
VERTEX
  8
LAYER01
 10
26.5
 20
108.475
  0
VERTEX
  8
LAYER01
 10
26.5
 20
111.775
 42
-0.414214
  0
VERTEX
  8
LAYER01
 10
27.1
 20
112.375
  0
VERTEX
  8
LAYER01
 10
31.0
 20
112.375
  0
SEQEND
  8
LAYER01
  0
CIRCLE
  8
LAYER01
  6
CONTINUOUS
 62
     7
 10
33.5
 20
114.125
 40
2.935399
  0
CIRCLE
  8
LAYER01
  6
CONTINUOUS
 62
     7
 10
33.5
 20
114.125
 40
3.085399
  0
POLYLINE
  8
LAYER01
  6
CONTINUOUS
 62
     7
 66
     1
 70
     1
  0
VERTEX
  8
LAYER01
 10
27.25
 20
112.375
  0
VERTEX
  8
LAYER01
 10
27.25
 20
115.875
  0
VERTEX
  8
LAYER01
 10
27.75
 20
115.875
  0
VERTEX
  8
LAYER01
 10
27.75
 20
112.375
  0
SEQEND
  8
LAYER01
  0
POLYLINE
  8
LAYER01
  6
CONTINUOUS
 62
     7
 66
     1
 70
     1
  0
VERTEX
  8
LAYER01
 10
39.0
 20
112.375
  0
VERTEX
  8
LAYER01
 10
39.0
 20
115.875
  0
VERTEX
  8
LAYER01
 10
39.5
 20
115.875
  0
VERTEX
  8
LAYER01
 10
39.5
 20
112.375
  0
SEQEND
  8
LAYER01
  0
POLYLINE
  8
LAYER01
  6
CONTINUOUS
 62
     7
 66
     1
 70
     1
  0
VERTEX
  8
LAYER01
 10
40.35
 20
116.475
 42
-0.414214
  0
VERTEX
  8
LAYER01
 10
39.9
 20
116.025
  0
VERTEX
  8
LAYER01
 10
36.025494
 20
116.025
 42
0.49907
  0
VERTEX
  8
LAYER01
 10
30.974506
 20
116.025
  0
VERTEX
  8
LAYER01
 10
27.1
 20
116.025
 42
-0.414214
  0
VERTEX
  8
LAYER01
 10
26.65
 20
116.475
  0
VERTEX
  8
LAYER01
 10
26.65
 20
119.775
 42
-0.414214
  0
VERTEX
  8
LAYER01
 10
27.1
 20
120.225
  0
VERTEX
  8
LAYER01
 10
39.9
 20
120.225
 42
-0.414214
  0
VERTEX
  8
LAYER01
 10
40.35
 20
119.775
  0
SEQEND
  8
LAYER01
  0
INSERT
  8
LAYER01
  2
GIOCHI-G18
 10
0.0
 20
0.0
  0
POLYLINE
  8
LAYER01
  6
CONTINUOUS
 62
     7
 66
     1
 40
0.15
 41
0.15
  0
VERTEX
  8
LAYER01
 10
31.0
 20
115.875
  0
VERTEX
  8
LAYER01
 10
27.1
 20
115.875
 42
-0.414214
  0
VERTEX
  8
LAYER01
 10
26.5
 20
116.475
  0
VERTEX
  8
LAYER01
 10
26.5
 20
120.025
 42
-0.414214
  0
VERTEX
  8
LAYER01
 10
27.1
 20
120.625
  0
VERTEX
  8
LAYER01
 10
39.9
 20
120.625
 42
-0.414214
  0
VERTEX
  8
LAYER01
 10
40.5
 20
120.025
  0
VERTEX
  8
LAYER01
 10
40.5
 20
116.475
 42
-0.414214
  0
VERTEX
  8
LAYER01
 10
39.9
 20
115.875
  0
VERTEX
  8
LAYER01
 10
36.0
 20
115.875
  0
SEQEND
  8
LAYER01
  0
ENDBLK
  8
0
  0
BLOCK
  8
LAYER01
  2
GIOCHI-G19
 70
     0
 10
0.0
 20
0.0
  0
LINE
  8
LAYER01
  6
CONTINUOUS
 62
     7
 10
56.350149
 20
145.177512
 11
56.018179
 21
145.509482
  0
LINE
  8
LAYER01
  6
CONTINUOUS
 62
     7
 10
54.860925
 20
144.421138
 11
56.350142
 21
142.931922
  0
LINE
  8
LAYER01
  6
CONTINUOUS
 62
     7
 10
56.350135
 20
140.687425
 11
51.242062
 21
145.795498
  0
LINE
  8
LAYER01
  6
CONTINUOUS
 62
     7
 10
49.88136
 20
144.910602
 11
56.350128
 21
138.441835
  0
LINE
  8
LAYER01
  6
CONTINUOUS
 62
     7
 10
56.350121
 20
136.197338
 11
48.520659
 21
144.0268
  0
LINE
  8
LAYER01
  6
CONTINUOUS
 62
     7
 10
47.159957
 20
143.141904
 11
56.350114
 21
133.951748
  0
LINE
  8
LAYER01
  6
CONTINUOUS
 62
     7
 10
56.350107
 20
131.707251
 11
42.271732
 21
145.785626
  0
LINE
  8
LAYER01
  6
CONTINUOUS
 62
     7
 10
40.688988
 20
145.122772
 11
56.3501
 21
129.461661
  0
LINE
  8
LAYER01
  6
CONTINUOUS
 62
     7
 10
56.350093
 20
127.217164
 11
39.534469
 21
144.032788
  0
LINE
  8
LAYER01
  6
CONTINUOUS
 62
     7
 10
38.379403
 20
142.942256
 11
56.350085
 21
124.971574
  0
LINE
  8
LAYER01
  6
CONTINUOUS
 62
     7
 10
54.301927
 20
124.775229
 11
37.057532
 21
142.019624
  0
LINE
  8
LAYER01
  6
CONTINUOUS
 62
     7
 10
31.616935
 20
145.214624
 11
53.850178
 21
122.98138
  0
LINE
  8
LAYER01
  6
CONTINUOUS
 62
     7
 10
53.850171
 20
120.736884
 11
30.254045
 21
144.333009
  0
LINE
  8
LAYER01
  6
CONTINUOUS
 62
     7
 10
28.89061
 20
143.450848
 11
53.850164
 21
118.491293
  0
LINE
  8
LAYER01
  6
CONTINUOUS
 62
     7
 10
53.850157
 20
116.246797
 11
26.650488
 21
143.446466
  0
LINE
  8
LAYER01
  6
CONTINUOUS
 62
     7
 10
26.650481
 20
141.200875
 11
53.85015
 21
114.001206
  0
LINE
  8
LAYER01
  6
CONTINUOUS
 62
     7
 10
51.832071
 20
113.774781
 11
26.650474
 21
138.956379
  0
LINE
  8
LAYER01
  6
CONTINUOUS
 62
     7
 10
26.650467
 20
136.710788
 11
49.586481
 21
113.774774
  0
LINE
  8
LAYER01
  6
CONTINUOUS
 62
     7
 10
47.341984
 20
113.774767
 11
40.65008
 21
120.466671
  0
LINE
  8
LAYER01
  6
CONTINUOUS
 62
     7
 10
40.34108
 20
120.775671
 11
26.65046
 21
134.466292
  0
LINE
  8
LAYER01
  6
CONTINUOUS
 62
     7
 10
26.650453
 20
132.220701
 11
38.09549
 21
120.775664
  0
LINE
  8
LAYER01
  6
CONTINUOUS
 62
     7
 10
40.650073
 20
118.221081
 11
45.096394
 21
113.77476
  0
LINE
  8
LAYER01
  6
CONTINUOUS
 62
     7
 10
42.851897
 20
113.774753
 11
40.650066
 21
115.976584
  0
LINE
  8
LAYER01
  6
CONTINUOUS
 62
     7
 10
35.850993
 20
120.775657
 11
26.650446
 21
129.976205
  0
LINE
  8
LAYER01
  6
CONTINUOUS
 62
     7
 10
26.650439
 20
127.730614
 11
33.605403
 21
120.77565
  0
LINE
  8
LAYER01
  6
CONTINUOUS
 62
     7
 10
31.360906
 20
120.775643
 11
26.650432
 21
125.486118
  0
LINE
  8
LAYER01
  6
CONTINUOUS
 62
     7
 10
26.650425
 20
123.240528
 11
29.115316
 21
120.775636
  0
LINE
  8
LAYER01
  6
CONTINUOUS
 62
     7
 10
26.87082
 20
120.775629
 11
26.650418
 21
120.996031
  0
ENDBLK
  8
0
  0
BLOCK
  8
LAYER01
  2
GIOCHI-G21
 70
     0
 10
0.0
 20
0.0
  0
LINE
  8
LAYER01
  6
CONTINUOUS
 62
     7
 10
62.485927
 20
124.224985
 11
61.149973
 21
122.889031
  0
LINE
  8
LAYER01
  6
CONTINUOUS
 62
     7
 10
61.149976
 20
121.766215
 11
63.608807
 21
124.225046
  0
LINE
  8
LAYER01
  6
CONTINUOUS
 62
     7
 10
64.412699
 20
123.907025
 11
61.149907
 21
120.644232
  0
LINE
  8
LAYER01
  6
CONTINUOUS
 62
     7
 10
61.246473
 20
119.61798
 11
64.599985
 21
122.971492
  0
LINE
  8
LAYER01
  6
CONTINUOUS
 62
     7
 10
64.599988
 20
121.848676
 11
61.759982
 21
119.00867
  0
LINE
  8
LAYER01
  6
CONTINUOUS
 62
     7
 10
62.084165
 20
118.21094
 11
64.599982
 21
120.726757
  0
LINE
  8
LAYER01
  6
CONTINUOUS
 62
     7
 10
64.599985
 20
119.603941
 11
62.097636
 21
117.101592
  0
LINE
  8
LAYER01
  6
CONTINUOUS
 62
     7
 10
61.150038
 20
115.031176
 11
64.599987
 21
118.481125
  0
LINE
  8
LAYER01
  6
CONTINUOUS
 62
     7
 10
64.599982
 20
117.359206
 11
61.150033
 21
113.909257
  0
LINE
  8
LAYER01
  6
CONTINUOUS
 62
     7
 10
61.150035
 20
112.786441
 11
64.599984
 21
116.23639
  0
LINE
  8
LAYER01
  6
CONTINUOUS
 62
     7
 10
64.599986
 20
115.113574
 11
61.150037
 21
111.663625
  0
LINE
  8
LAYER01
  6
CONTINUOUS
 62
     7
 10
61.391196
 20
110.781965
 11
64.599989
 21
113.990758
  0
LINE
  8
LAYER01
  6
CONTINUOUS
 62
     7
 10
64.599983
 20
112.868839
 11
62.25614
 21
110.524995
  0
LINE
  8
LAYER01
  6
CONTINUOUS
 62
     7
 10
63.37902
 20
110.525056
 11
64.599986
 21
111.746022
  0
ENDBLK
  8
0
  0
BLOCK
  8
LAYER01
  2
GIOCHI-G22
 70
     0
 10
0.0
 20
0.0
  0
LINE
  8
LAYER01
  6
CONTINUOUS
 62
     7
 10
55.750408
 20
124.224989
 11
54.400033
 21
122.874614
  0
LINE
  8
LAYER01
  6
CONTINUOUS
 62
     7
 10
54.400035
 20
121.751798
 11
56.873224
 21
124.224987
  0
LINE
  8
LAYER01
  6
CONTINUOUS
 62
     7
 10
57.669111
 20
123.898961
 11
54.40003
 21
120.629879
  0
LINE
  8
LAYER01
  6
CONTINUOUS
 62
     7
 10
54.400032
 20
119.507063
 11
57.849918
 21
122.956948
  0
LINE
  8
LAYER01
  6
CONTINUOUS
 62
     7
 10
57.849856
 20
121.834069
 11
54.400034
 21
118.384247
  0
LINE
  8
LAYER01
  6
CONTINUOUS
 62
     7
 10
54.400029
 20
117.262328
 11
57.849851
 21
120.71215
  0
LINE
  8
LAYER01
  6
CONTINUOUS
 62
     7
 10
57.197663
 20
118.937144
 11
54.400031
 21
116.139511
  0
LINE
  8
LAYER01
  6
CONTINUOUS
 62
     7
 10
54.400034
 20
115.016695
 11
56.854545
 21
117.471207
  0
LINE
  8
LAYER01
  6
CONTINUOUS
 62
     7
 10
57.070856
 20
116.565604
 11
54.400028
 21
113.894776
  0
LINE
  8
LAYER01
  6
CONTINUOUS
 62
     7
 10
54.400031
 20
112.77196
 11
57.506796
 21
115.878725
  0
LINE
  8
LAYER01
  6
CONTINUOUS
 62
     7
 10
57.849919
 20
115.09903
 11
54.400033
 21
111.649144
  0
LINE
  8
LAYER01
  6
CONTINUOUS
 62
     7
 10
54.648434
 20
110.774727
 11
57.849921
 21
113.976214
  0
LINE
  8
LAYER01
  6
CONTINUOUS
 62
     7
 10
57.849979
 20
112.854358
 11
55.52062
 21
110.524999
  0
LINE
  8
LAYER01
  6
CONTINUOUS
 62
     7
 10
56.6435
 20
110.52506
 11
57.849982
 21
111.731542
  0
ENDBLK
  8
0
  0
BLOCK
  8
0
  2
GIOCHI-G20
 70
     0
 10
0.0
 20
0.0
  0
POLYLINE
  8
LAYER01
  6
CONTINUOUS
 62
     7
 66
     1
 40
0.15
 41
0.15
  0
VERTEX
  8
LAYER01
 10
61.0
 20
115.625
  0
VERTEX
  8
LAYER01
 10
61.0
 20
111.375
 42
0.414214
  0
VERTEX
  8
LAYER01
 10
62.0
 20
110.375
  0
VERTEX
  8
LAYER01
 10
63.75
 20
110.375
 42
0.414214
  0
VERTEX
  8
LAYER01
 10
64.75
 20
111.375
  0
VERTEX
  8
LAYER01
 10
64.75
 20
123.375
 42
0.414214
  0
VERTEX
  8
LAYER01
 10
63.75
 20
124.375
  0
VERTEX
  8
LAYER01
 10
62.0
 20
124.375
 42
0.414214
  0
VERTEX
  8
LAYER01
 10
61.0
 20
123.375
  0
VERTEX
  8
LAYER01
 10
61.0
 20
119.625
  0
SEQEND
  8
LAYER01
  0
POLYLINE
  8
LAYER01
  6
CONTINUOUS
 62
     7
 66
     1
 70
     1
  0
VERTEX
  8
LAYER01
 10
64.6
 20
123.375
 42
0.414214
  0
VERTEX
  8
LAYER01
 10
63.75
 20
124.225
  0
VERTEX
  8
LAYER01
 10
62.0
 20
124.225
 42
0.414214
  0
VERTEX
  8
LAYER01
 10
61.15
 20
123.375
  0
VERTEX
  8
LAYER01
 10
61.15
 20
119.698644
 42
-0.482243
  0
VERTEX
  8
LAYER01
 10
61.15
 20
115.551356
  0
VERTEX
  8
LAYER01
 10
61.15
 20
111.375
 42
0.414214
  0
VERTEX
  8
LAYER01
 10
62.0
 20
110.525
  0
VERTEX
  8
LAYER01
 10
63.75
 20
110.525
 42
0.414214
  0
VERTEX
  8
LAYER01
 10
64.6
 20
111.375
  0
SEQEND
  8
LAYER01
  0
INSERT
  8
LAYER01
  2
GIOCHI-G21
 10
0.0
 20
0.0
  0
CIRCLE
  8
LAYER01
  6
CONTINUOUS
 62
     7
 10
59.5
 20
117.625
 40
2.425
  0
CIRCLE
  8
LAYER01
  6
CONTINUOUS
 62
     7
 10
59.5
 20
117.625
 40
2.575
  0
POLYLINE
  8
LAYER01
  6
CONTINUOUS
 62
     7
 66
     1
 40
0.15
 41
0.15
  0
VERTEX
  8
LAYER01
 10
58.0
 20
115.625
  0
VERTEX
  8
LAYER01
 10
58.0
 20
111.375
 42
-0.414214
  0
VERTEX
  8
LAYER01
 10
57.0
 20
110.375
  0
VERTEX
  8
LAYER01
 10
55.25
 20
110.375
 42
-0.414214
  0
VERTEX
  8
LAYER01
 10
54.25
 20
111.375
  0
VERTEX
  8
LAYER01
 10
54.25
 20
123.375
 42
-0.414214
  0
VERTEX
  8
LAYER01
 10
55.25
 20
124.375
  0
VERTEX
  8
LAYER01
 10
57.0
 20
124.375
 42
-0.414214
  0
VERTEX
  8
LAYER01
 10
58.0
 20
123.375
  0
VERTEX
  8
LAYER01
 10
58.0
 20
119.625
  0
SEQEND
  8
LAYER01
  0
POLYLINE
  8
LAYER01
  6
CONTINUOUS
 62
     7
 66
     1
 70
     1
  0
VERTEX
  8
LAYER01
 10
56.85
 20
117.625
 42
-0.228529
  0
VERTEX
  8
LAYER01
 10
57.85
 20
119.698644
  0
VERTEX
  8
LAYER01
 10
57.85
 20
123.375
 42
0.414214
  0
VERTEX
  8
LAYER01
 10
57.0
 20
124.225
  0
VERTEX
  8
LAYER01
 10
55.25
 20
124.225
 42
0.414214
  0
VERTEX
  8
LAYER01
 10
54.4
 20
123.375
  0
VERTEX
  8
LAYER01
 10
54.4
 20
111.375
 42
0.414214
  0
VERTEX
  8
LAYER01
 10
55.25
 20
110.525
  0
VERTEX
  8
LAYER01
 10
57.0
 20
110.525
 42
0.414214
  0
VERTEX
  8
LAYER01
 10
57.85
 20
111.375
  0
VERTEX
  8
LAYER01
 10
57.85
 20
115.551356
 42
-0.228529
  0
SEQEND
  8
LAYER01
  0
INSERT
  8
LAYER01
  2
GIOCHI-G22
 10
0.0
 20
0.0
  0
ENDBLK
  8
0
  0
BLOCK
  8
0
  2
GIOCHI-G24
 70
     0
 10
0.0
 20
0.0
  0
POLYLINE
  8
LAYER03
  6
CONTINUOUS
 62
     7
 66
     1
 70
     1
 40
0.5
 41
0.5
  0
VERTEX
  8
LAYER03
 10
4.334621
 20
190.013832
  0
VERTEX
  8
LAYER03
 10
12.959502
 20
175.179039
  0
VERTEX
  8
LAYER03
 10
-4.290257
 20
175.179039
  0
SEQEND
  8
LAYER03
  0
POLYLINE
  8
LAYER03
  6
CONTINUOUS
 62
     7
 66
     1
 40
0.5
 41
0.5
  0
VERTEX
  8
LAYER03
 10
1.078529
 20
181.953453
  0
VERTEX
  8
LAYER03
 10
-2.330304
 20
176.16494
  0
VERTEX
  8
LAYER03
 10
3.721069
 20
176.16494
  0
VERTEX
  8
LAYER03
 10
3.721069
 20
179.82869
  0
VERTEX
  8
LAYER03
 10
0.844016
 20
181.788792
  0
SEQEND
  8
LAYER03
  0
POLYLINE
  8
LAYER03
  6
CONTINUOUS
 62
     7
 66
     1
 40
0.5
 41
0.5
  0
VERTEX
  8
LAYER03
 10
7.406732
 20
182.419659
  0
VERTEX
  8
LAYER03
 10
4.34658
 20
187.598519
  0
VERTEX
  8
LAYER03
 10
1.539462
 20
182.784893
  0
SEQEND
  8
LAYER03
  0
POLYLINE
  8
LAYER03
  6
CONTINUOUS
 62
     7
 66
     1
 40
0.5
 41
0.5
  0
VERTEX
  8
LAYER03
 10
1.322215
 20
182.410324
  0
VERTEX
  8
LAYER03
 10
4.378497
 20
187.599442
  0
VERTEX
  8
LAYER03
 10
7.262883
 20
182.712586
  0
SEQEND
  8
LAYER03
  0
POLYLINE
  8
LAYER03
  6
CONTINUOUS
 62
     7
 66
     1
 40
0.5
 41
0.5
  0
VERTEX
  8
LAYER03
 10
9.850295
 20
178.063897
  0
VERTEX
  8
LAYER03
 10
11.007411
 20
176.16494
  0
VERTEX
  8
LAYER03
 10
4.956039
 20
176.16494
  0
VERTEX
  8
LAYER03
 10
4.956039
 20
179.82869
  0
VERTEX
  8
LAYER03
 10
7.833089
 20
181.788792
  0
SEQEND
  8
LAYER03
  0
POLYLINE
  8
LAYER03
  6
CONTINUOUS
 62
     7
 66
     1
 40
0.5
 41
0.5
  0
VERTEX
  8
LAYER03
 10
6.82048
 20
177.934307
  0
VERTEX
  8
LAYER03
 10
10.08607
 20
177.93063
  0
SEQEND
  8
LAYER03
  0
POLYLINE
  8
LAYER03
  6
CONTINUOUS
 62
     7
 66
     1
 40
0.5
 41
0.5
  0
VERTEX
  8
LAYER03
 10
7.598579
 20
181.953453
  0
VERTEX
  8
LAYER03
 10
9.269201
 20
179.11464
  0
SEQEND
  8
LAYER03
  0
POLYLINE
  8
LAYER03
  6
CONTINUOUS
 62
     7
 66
     1
 40
0.5
 41
0.5
  0
VERTEX
  8
LAYER03
 10
2.783603
 20
184.562352
  0
VERTEX
  8
LAYER03
 10
6.024291
 20
184.562352
  0
SEQEND
  8
LAYER03
  0
ENDBLK
  8
0
  0
BLOCK
  8
0
  2
GIOCHI-G23
 70
     0
 10
0.0
 20
0.0
  0
INSERT
  8
LAYER01
  2
GIOCHI-G24
 10
0.0
 20
0.0
  0
ENDBLK
  8
0
  0
BLOCK
  8
0
  2
GIOCHI-G25
 70
     0
 10
0.0
 20
0.0
  0
POLYLINE
  8
LAYER01
  6
CONTINUOUS
 62
     7
 66
     1
 70
     1
  0
VERTEX
  8
LAYER01
 10
111.75
 20
125.625
  0
VERTEX
  8
LAYER01
 10
111.75
 20
133.625
  0
VERTEX
  8
LAYER01
 10
131.75
 20
133.625
  0
VERTEX
  8
LAYER01
 10
131.75
 20
125.625
  0
SEQEND
  8
LAYER01
  0
POLYLINE
  8
LAYER01
  6
CONTINUOUS
 62
     7
 66
     1
 70
     1
  0
VERTEX
  8
LAYER01
 10
111.75
 20
126.125
  0
VERTEX
  8
LAYER01
 10
111.75
 20
133.125
  0
VERTEX
  8
LAYER01
 10
132.5
 20
133.125
  0
VERTEX
  8
LAYER01
 10
132.5
 20
126.125
  0
SEQEND
  8
LAYER01
  0
POINT
  8
LAYER01
  6
CONTINUOUS
 62
     7
 10
111.75
 20
129.625
  0
POLYLINE
  8
LAYER01
  6
CONTINUOUS
 62
     7
 66
     1
 70
     1
 40
0.05
 41
0.05
  0
VERTEX
  8
LAYER01
 10
100.0
 20
125.375
  0
VERTEX
  8
LAYER01
 10
100.0
 20
133.875
  0
VERTEX
  8
LAYER01
 10
111.5
 20
133.875
  0
VERTEX
  8
LAYER01
 10
111.5
 20
125.375
  0
SEQEND
  8
LAYER01
  0
POLYLINE
  8
LAYER01
  6
CONTINUOUS
 62
     7
 66
     1
 70
     1
 40
0.05
 41
0.05
  0
VERTEX
  8
LAYER01
 10
91.75
 20
122.375
  0
VERTEX
  8
LAYER01
 10
91.75
 20
136.625
  0
VERTEX
  8
LAYER01
 10
100.0
 20
136.625
  0
VERTEX
  8
LAYER01
 10
100.0
 20
122.375
  0
SEQEND
  8
LAYER01
  0
POLYLINE
  8
LAYER01
  6
CONTINUOUS
 62
     7
 66
     1
  0
VERTEX
  8
LAYER01
 10
132.5
 20
133.125
  0
VERTEX
  8
LAYER01
 10
134.5
 20
129.625
  0
VERTEX
  8
LAYER01
 10
132.5
 20
126.125
  0
SEQEND
  8
LAYER01
  0
ENDBLK
  8
0
  0
BLOCK
  8
LAYER01
  2
GIOCHI-G26
 70
     0
 10
0.0
 20
0.0
  0
LINE
  8
LAYER01
  6
CONTINUOUS
 62
     7
 10
92.328747
 20
139.475199
 11
91.899964
 21
139.046417
  0
LINE
  8
LAYER01
  6
CONTINUOUS
 62
     7
 10
91.899964
 20
137.474938
 11
93.900225
 21
139.475199
  0
LINE
  8
LAYER01
  6
CONTINUOUS
 62
     7
 10
95.471704
 20
139.475199
 11
92.621495
 21
136.62499
  0
LINE
  8
LAYER01
  6
CONTINUOUS
 62
     7
 10
94.192973
 20
136.62499
 11
97.043182
 21
139.475199
  0
LINE
  8
LAYER01
  6
CONTINUOUS
 62
     7
 10
98.614661
 20
139.475199
 11
95.764452
 21
136.62499
  0
LINE
  8
LAYER01
  6
CONTINUOUS
 62
     7
 10
97.33593
 20
136.62499
 11
100.186139
 21
139.475199
  0
LINE
  8
LAYER01
  6
CONTINUOUS
 62
     7
 10
101.758343
 20
139.475199
 11
98.908134
 21
136.62499
  0
LINE
  8
LAYER01
  6
CONTINUOUS
 62
     7
 10
100.000043
 20
136.145421
 11
103.329822
 21
139.475199
  0
LINE
  8
LAYER01
  6
CONTINUOUS
 62
     7
 10
104.901301
 20
139.475199
 11
100.000043
 21
134.573942
  0
LINE
  8
LAYER01
  6
CONTINUOUS
 62
     7
 10
100.872845
 20
133.875265
 11
106.472779
 21
139.475199
  0
LINE
  8
LAYER01
  6
CONTINUOUS
 62
     7
 10
108.044258
 20
139.475199
 11
102.444324
 21
133.875265
  0
LINE
  8
LAYER01
  6
CONTINUOUS
 62
     7
 10
104.015802
 20
133.875265
 11
109.615736
 21
139.475199
  0
LINE
  8
LAYER01
  6
CONTINUOUS
 62
     7
 10
111.187215
 20
139.475199
 11
105.587281
 21
133.875265
  0
LINE
  8
LAYER01
  6
CONTINUOUS
 62
     7
 10
107.158759
 20
133.875265
 11
111.599673
 21
138.31618
  0
LINE
  8
LAYER01
  6
CONTINUOUS
 62
     7
 10
111.599673
 20
136.744701
 11
108.730238
 21
133.875265
  0
LINE
  8
LAYER01
  6
CONTINUOUS
 62
     7
 10
110.301716
 20
133.875265
 11
111.599673
 21
135.173223
  0
LINE
  8
LAYER01
  6
CONTINUOUS
 62
     7
 10
111.599673
 20
133.601744
 11
111.499551
 21
133.501622
  0
LINE
  8
LAYER01
  6
CONTINUOUS
 62
     7
 10
111.499551
 20
131.929418
 11
111.599673
 21
132.02954
  0
LINE
  8
LAYER01
  6
CONTINUOUS
 62
     7
 10
111.599673
 20
130.458061
 11
111.499551
 21
130.35794
  0
ENDBLK
  8
0
  0
BLOCK
  8
LAYER01
  2
GIOCHI-G27
 70
     0
 10
0.0
 20
0.0
  0
LINE
  8
LAYER01
  6
CONTINUOUS
 62
     7
 10
92.515836
 20
122.374837
 11
91.899868
 21
121.75887
  0
LINE
  8
LAYER01
  6
CONTINUOUS
 62
     7
 10
91.899888
 20
120.187371
 11
94.087334
 21
122.374817
  0
LINE
  8
LAYER01
  6
CONTINUOUS
 62
     7
 10
95.658833
 20
122.374797
 11
91.899908
 21
118.615873
  0
LINE
  8
LAYER01
  6
CONTINUOUS
 62
     7
 10
93.381079
 20
118.525525
 11
97.230331
 21
122.374777
  0
LINE
  8
LAYER01
  6
CONTINUOUS
 62
     7
 10
100.000008
 20
125.144454
 11
100.230723
 21
125.375169
  0
LINE
  8
LAYER01
  6
CONTINUOUS
 62
     7
 10
101.802222
 20
125.375149
 11
100.000027
 21
123.572955
  0
LINE
  8
LAYER01
  6
CONTINUOUS
 62
     7
 10
98.80183
 20
122.374757
 11
94.952578
 21
118.525506
  0
LINE
  8
LAYER01
  6
CONTINUOUS
 62
     7
 10
96.524076
 20
118.525486
 11
103.37372
 21
125.37513
  0
LINE
  8
LAYER01
  6
CONTINUOUS
 62
     7
 10
104.945219
 20
125.37511
 11
98.095575
 21
118.525466
  0
LINE
  8
LAYER01
  6
CONTINUOUS
 62
     7
 10
99.667073
 20
118.525446
 11
106.516717
 21
125.37509
  0
LINE
  8
LAYER01
  6
CONTINUOUS
 62
     7
 10
111.599737
 20
128.886592
 11
111.499615
 21
128.78647
  0
LINE
  8
LAYER01
  6
CONTINUOUS
 62
     7
 10
108.088215
 20
125.37507
 11
101.238572
 21
118.525426
  0
LINE
  8
LAYER01
  6
CONTINUOUS
 62
     7
 10
102.81007
 20
118.525406
 11
109.659714
 21
125.37505
  0
LINE
  8
LAYER01
  6
CONTINUOUS
 62
     7
 10
111.499635
 20
127.214971
 11
111.599757
 21
127.315093
  0
LINE
  8
LAYER01
  6
CONTINUOUS
 62
     7
 10
111.599777
 20
125.743595
 11
111.499655
 21
125.643473
  0
LINE
  8
LAYER01
  6
CONTINUOUS
 62
     7
 10
111.231212
 20
125.37503
 11
104.381568
 21
118.525386
  0
LINE
  8
LAYER01
  6
CONTINUOUS
 62
     7
 10
105.953067
 20
118.525366
 11
111.599797
 21
124.172096
  0
LINE
  8
LAYER01
  6
CONTINUOUS
 62
     7
 10
111.599817
 20
122.600598
 11
107.524565
 21
118.525346
  0
LINE
  8
LAYER01
  6
CONTINUOUS
 62
     7
 10
109.096064
 20
118.525326
 11
111.599837
 21
121.029099
  0
LINE
  8
LAYER01
  6
CONTINUOUS
 62
     7
 10
111.599857
 20
119.456875
 11
110.668288
 21
118.525306
  0
ENDBLK
  8
0
  0
BLOCK
  8
LAYER01
  2
GIOCHI-G28
 70
     0
 10
0.0
 20
0.0
  0
LINE
  8
LAYER01
  6
CONTINUOUS
 62
     7
 10
86.615258
 20
116.475054
 11
85.399867
 21
115.259663
  0
LINE
  8
LAYER01
  6
CONTINUOUS
 62
     7
 10
85.399907
 20
113.688056
 11
88.186865
 21
116.475015
  0
LINE
  8
LAYER01
  6
CONTINUOUS
 62
     7
 10
89.758471
 20
116.474975
 11
85.399946
 21
112.11645
  0
LINE
  8
LAYER01
  6
CONTINUOUS
 62
     7
 10
85.399986
 20
110.545422
 11
91.3295
 21
116.474935
  0
LINE
  8
LAYER01
  6
CONTINUOUS
 62
     7
 10
92.901106
 20
116.474896
 11
86.451206
 21
110.024995
  0
LINE
  8
LAYER01
  6
CONTINUOUS
 62
     7
 10
88.022813
 20
110.024956
 11
94.473002
 21
116.475145
  0
LINE
  8
LAYER01
  6
CONTINUOUS
 62
     7
 10
96.044609
 20
116.475106
 11
89.594419
 21
110.024916
  0
LINE
  8
LAYER01
  6
CONTINUOUS
 62
     7
 10
91.166026
 20
110.024877
 11
97.616215
 21
116.475066
  0
LINE
  8
LAYER01
  6
CONTINUOUS
 62
     7
 10
99.187822
 20
116.475026
 11
92.737632
 21
110.024837
  0
LINE
  8
LAYER01
  6
CONTINUOUS
 62
     7
 10
94.30895
 20
110.025086
 11
100.75885
 21
116.474987
  0
LINE
  8
LAYER01
  6
CONTINUOUS
 62
     7
 10
101.099743
 20
115.244233
 11
95.880556
 21
110.025047
  0
LINE
  8
LAYER01
  6
CONTINUOUS
 62
     7
 10
97.452163
 20
110.025007
 11
101.099783
 21
113.672627
  0
LINE
  8
LAYER01
  6
CONTINUOUS
 62
     7
 10
101.099822
 20
112.10102
 11
99.02377
 21
110.024967
  0
LINE
  8
LAYER01
  6
CONTINUOUS
 62
     7
 10
100.595376
 20
110.024928
 11
101.099862
 21
110.529413
  0
ENDBLK
  8
0
  0
BLOCK
  8
0
  2
GIOCHI-G30
 70
     0
 10
0.0
 20
0.0
  0
POINT
  8
LAYER01
  6
CONTINUOUS
 62
     7
 10
115.25
 20
123.875
  0
ENDBLK
  8
0
  0
BLOCK
  8
0
  2
GIOCHI-G29
 70
     0
 10
0.0
 20
0.0
  0
POLYLINE
  8
LAYER01
  6
CONTINUOUS
 62
     7
 66
     1
 40
0.05
 41
0.05
  0
VERTEX
  8
LAYER01
 10
113.25
 20
110.375
  0
VERTEX
  8
LAYER01
 10
114.75
 20
112.125
  0
VERTEX
  8
LAYER01
 10
116.25
 20
110.375
  0
SEQEND
  8
LAYER01
  0
POLYLINE
  8
LAYER01
  6
CONTINUOUS
 62
     7
 66
     1
 40
0.05
 41
0.05
  0
VERTEX
  8
LAYER01
 10
116.25
 20
110.375
  0
VERTEX
  8
LAYER01
 10
117.75
 20
112.125
  0
VERTEX
  8
LAYER01
 10
119.25
 20
110.375
  0
SEQEND
  8
LAYER01
  0
POLYLINE
  8
LAYER01
  6
CONTINUOUS
 62
     7
 66
     1
 40
0.05
 41
0.05
  0
VERTEX
  8
LAYER01
 10
119.25
 20
110.375
  0
VERTEX
  8
LAYER01
 10
120.75
 20
112.125
  0
VERTEX
  8
LAYER01
 10
122.25
 20
110.375
  0
SEQEND
  8
LAYER01
  0
POLYLINE
  8
LAYER01
  6
CONTINUOUS
 62
     7
 66
     1
 40
0.05
 41
0.05
  0
VERTEX
  8
LAYER01
 10
122.25
 20
110.375
  0
VERTEX
  8
LAYER01
 10
123.75
 20
112.125
  0
VERTEX
  8
LAYER01
 10
125.25
 20
110.375
  0
SEQEND
  8
LAYER01
  0
POLYLINE
  8
LAYER01
  6
CONTINUOUS
 62
     7
 66
     1
 40
0.05
 41
0.05
  0
VERTEX
  8
LAYER01
 10
125.25
 20
110.375
  0
VERTEX
  8
LAYER01
 10
126.75
 20
112.125
  0
VERTEX
  8
LAYER01
 10
128.25
 20
110.375
  0
SEQEND
  8
LAYER01
  0
POLYLINE
  8
LAYER01
  6
CONTINUOUS
 62
     7
 66
     1
 40
0.05
 41
0.05
  0
VERTEX
  8
LAYER01
 10
128.25
 20
110.375
  0
VERTEX
  8
LAYER01
 10
129.75
 20
112.125
  0
VERTEX
  8
LAYER01
 10
131.25
 20
110.375
  0
SEQEND
  8
LAYER01
  0
POLYLINE
  8
LAYER01
  6
CONTINUOUS
 62
     7
 66
     1
 40
0.05
 41
0.05
  0
VERTEX
  8
LAYER01
 10
131.25
 20
110.375
  0
VERTEX
  8
LAYER01
 10
132.75
 20
112.125
  0
VERTEX
  8
LAYER01
 10
134.25
 20
110.375
  0
SEQEND
  8
LAYER01
  0
LINE
  8
LAYER01
  6
CONTINUOUS
 62
     7
 10
113.231019
 20
110.35873
 11
111.731019
 21
112.10873
  0
LINE
  8
LAYER01
  6
CONTINUOUS
 62
     7
 10
113.268981
 20
110.39127
 11
111.768981
 21
112.14127
  0
LINE
  8
LAYER01
  6
CONTINUOUS
 62
     7
 10
113.231019
 20
110.35873
 11
113.268981
 21
110.39127
  0
LINE
  8
LAYER01
  6
CONTINUOUS
 62
     7
 10
111.731019
 20
112.10873
 11
111.768981
 21
112.14127
  0
SOLID
  8
LAYER01
  6
CONTINUOUS
 62
     7
 10
113.231019
 20
110.35873
 11
111.731019
 21
112.10873
 12
113.268981
 22
110.39127
 13
111.768981
 23
112.14127
  0
LINE
  8
LAYER01
  6
CONTINUOUS
 62
     7
 10
134.231019
 20
110.39127
 11
135.731019
 21
112.14127
  0
LINE
  8
LAYER01
  6
CONTINUOUS
 62
     7
 10
134.268981
 20
110.35873
 11
135.768981
 21
112.10873
  0
LINE
  8
LAYER01
  6
CONTINUOUS
 62
     7
 10
134.231019
 20
110.39127
 11
134.268981
 21
110.35873
  0
LINE
  8
LAYER01
  6
CONTINUOUS
 62
     7
 10
135.731019
 20
112.14127
 11
135.768981
 21
112.10873
  0
SOLID
  8
LAYER01
  6
CONTINUOUS
 62
     7
 10
134.231019
 20
110.39127
 11
135.731019
 21
112.14127
 12
134.268981
 22
110.35873
 13
135.768981
 23
112.10873
  0
POLYLINE
  8
LAYER01
  6
CONTINUOUS
 62
     7
 66
     1
 40
0.05
 41
0.05
  0
VERTEX
  8
LAYER01
 10
111.75
 20
111.875
  0
VERTEX
  8
LAYER01
 10
111.75
 20
120.875
  0
VERTEX
  8
LAYER01
 10
113.75
 20
122.875
  0
VERTEX
  8
LAYER01
 10
133.75
 20
122.875
  0
VERTEX
  8
LAYER01
 10
135.75
 20
120.875
  0
VERTEX
  8
LAYER01
 10
135.75
 20
111.875
  0
SEQEND
  8
LAYER01
  0
INSERT
  8
LAYER01
  2
GIOCHI-G30
 10
0.0
 20
0.0
  0
ENDBLK
  8
0
  0
BLOCK
  8
LAYER01
  2
GIOCHI-G31
 70
     0
 10
0.0
 20
0.0
  0
LINE
  8
LAYER01
  6
CONTINUOUS
 62
     7
 10
113.894699
 20
122.87494
 11
111.749956
 21
120.730197
  0
LINE
  8
LAYER01
  6
CONTINUOUS
 62
     7
 10
111.749956
 20
119.607665
 11
115.017231
 21
122.87494
  0
LINE
  8
LAYER01
  6
CONTINUOUS
 62
     7
 10
116.139763
 20
122.87494
 11
111.749956
 21
118.485133
  0
LINE
  8
LAYER01
  6
CONTINUOUS
 62
     7
 10
111.749956
 20
117.362601
 11
117.262295
 21
122.87494
  0
LINE
  8
LAYER01
  6
CONTINUOUS
 62
     7
 10
118.384827
 20
122.87494
 11
111.749956
 21
116.240069
  0
LINE
  8
LAYER01
  6
CONTINUOUS
 62
     7
 10
111.749956
 20
115.117537
 11
119.507359
 21
122.87494
  0
LINE
  8
LAYER01
  6
CONTINUOUS
 62
     7
 10
120.629891
 20
122.87494
 11
111.749956
 21
113.995005
  0
LINE
  8
LAYER01
  6
CONTINUOUS
 62
     7
 10
111.749956
 20
112.872473
 11
121.752423
 21
122.87494
  0
LINE
  8
LAYER01
  6
CONTINUOUS
 62
     7
 10
122.874955
 20
122.87494
 11
111.922755
 21
111.92274
  0
LINE
  8
LAYER01
  6
CONTINUOUS
 62
     7
 10
112.441153
 20
111.318606
 11
123.997487
 21
122.87494
  0
LINE
  8
LAYER01
  6
CONTINUOUS
 62
     7
 10
125.120019
 20
122.87494
 11
112.959109
 21
110.714029
  0
LINE
  8
LAYER01
  6
CONTINUOUS
 62
     7
 10
115.092361
 20
111.72475
 11
126.242551
 21
122.87494
  0
LINE
  8
LAYER01
  6
CONTINUOUS
 62
     7
 10
127.365083
 20
122.87494
 11
115.610759
 21
111.120616
  0
LINE
  8
LAYER01
  6
CONTINUOUS
 62
     7
 10
116.128715
 20
110.516039
 11
128.487615
 21
122.87494
  0
LINE
  8
LAYER01
  6
CONTINUOUS
 62
     7
 10
129.610147
 20
122.87494
 11
118.262409
 21
111.527202
  0
LINE
  8
LAYER01
  6
CONTINUOUS
 62
     7
 10
118.780365
 20
110.922626
 11
130.732679
 21
122.87494
  0
LINE
  8
LAYER01
  6
CONTINUOUS
 62
     7
 10
131.855211
 20
122.87494
 11
120.91406
 21
111.933788
  0
LINE
  8
LAYER01
  6
CONTINUOUS
 62
     7
 10
121.432016
 20
111.329212
 11
132.977743
 21
122.87494
  0
LINE
  8
LAYER01
  6
CONTINUOUS
 62
     7
 10
133.925267
 20
122.699931
 11
121.949971
 21
110.724636
  0
LINE
  8
LAYER01
  6
CONTINUOUS
 62
     7
 10
124.083666
 20
111.735799
 11
134.486533
 21
122.138665
  0
LINE
  8
LAYER01
  6
CONTINUOUS
 62
     7
 10
135.047799
 20
121.577399
 11
124.601622
 21
111.131222
  0
LINE
  8
LAYER01
  6
CONTINUOUS
 62
     7
 10
125.119577
 20
110.526646
 11
135.609065
 21
121.016133
  0
LINE
  8
LAYER01
  6
CONTINUOUS
 62
     7
 10
135.749602
 20
120.034139
 11
127.25283
 21
111.537367
  0
LINE
  8
LAYER01
  6
CONTINUOUS
 62
     7
 10
127.771228
 20
110.933232
 11
135.749602
 21
118.911607
  0
LINE
  8
LAYER01
  6
CONTINUOUS
 62
     7
 10
135.749602
 20
117.789075
 11
129.904481
 21
111.943953
  0
LINE
  8
LAYER01
  6
CONTINUOUS
 62
     7
 10
130.422436
 20
111.339377
 11
135.749602
 21
116.666543
  0
LINE
  8
LAYER01
  6
CONTINUOUS
 62
     7
 10
135.749602
 20
115.544011
 11
130.940834
 21
110.735242
  0
LINE
  8
LAYER01
  6
CONTINUOUS
 62
     7
 10
133.074087
 20
111.745963
 11
135.749602
 21
114.421478
  0
LINE
  8
LAYER01
  6
CONTINUOUS
 62
     7
 10
135.749602
 20
113.298946
 11
133.592043
 21
111.141387
  0
LINE
  8
LAYER01
  6
CONTINUOUS
 62
     7
 10
134.11044
 20
110.537253
 11
135.749602
 21
112.176414
  0
ENDBLK
  8
0
  0
BLOCK
  8
0
  2
GIOCHI-G32
 70
     0
 10
0.0
 20
0.0
  0
POLYLINE
  8
LAYER01
  6
CONTINUOUS
 62
     7
 66
     1
 70
     1
  0
VERTEX
  8
LAYER01
 10
191.5
 20
73.625
  0
VERTEX
  8
LAYER01
 10
191.5
 20
65.625
  0
VERTEX
  8
LAYER01
 10
171.5
 20
65.625
  0
VERTEX
  8
LAYER01
 10
171.5
 20
73.625
  0
SEQEND
  8
LAYER01
  0
POLYLINE
  8
LAYER01
  6
CONTINUOUS
 62
     7
 66
     1
 70
     1
  0
VERTEX
  8
LAYER01
 10
191.5
 20
73.125
  0
VERTEX
  8
LAYER01
 10
191.5
 20
66.125
  0
VERTEX
  8
LAYER01
 10
170.75
 20
66.125
  0
VERTEX
  8
LAYER01
 10
170.75
 20
73.125
  0
SEQEND
  8
LAYER01
  0
POINT
  8
LAYER01
  6
CONTINUOUS
 62
     7
 10
191.5
 20
69.625
  0
POLYLINE
  8
LAYER01
  6
CONTINUOUS
 62
     7
 66
     1
 70
     1
 40
0.05
 41
0.05
  0
VERTEX
  8
LAYER01
 10
203.25
 20
73.875
  0
VERTEX
  8
LAYER01
 10
203.25
 20
65.375
  0
VERTEX
  8
LAYER01
 10
191.75
 20
65.375
  0
VERTEX
  8
LAYER01
 10
191.75
 20
73.875
  0
SEQEND
  8
LAYER01
  0
POLYLINE
  8
LAYER01
  6
CONTINUOUS
 62
     7
 66
     1
 70
     1
 40
0.05
 41
0.05
  0
VERTEX
  8
LAYER01
 10
211.5
 20
76.875
  0
VERTEX
  8
LAYER01
 10
211.5
 20
62.625
  0
VERTEX
  8
LAYER01
 10
203.25
 20
62.625
  0
VERTEX
  8
LAYER01
 10
203.25
 20
76.875
  0
SEQEND
  8
LAYER01
  0
POLYLINE
  8
LAYER01
  6
CONTINUOUS
 62
     7
 66
     1
  0
VERTEX
  8
LAYER01
 10
170.75
 20
66.125
  0
VERTEX
  8
LAYER01
 10
168.75
 20
69.625
  0
VERTEX
  8
LAYER01
 10
170.75
 20
73.125
  0
SEQEND
  8
LAYER01
  0
ENDBLK
  8
0
  0
BLOCK
  8
0
  2
GIOCHI-G33
 70
     0
 10
0.0
 20
0.0
  0
POLYLINE
  8
LAYER01
  6
CONTINUOUS
 62
     7
 66
     1
  0
VERTEX
  8
LAYER01
 10
165.75
 20
88.875
  0
VERTEX
  8
LAYER01
 10
167.25
 20
87.125
  0
VERTEX
  8
LAYER01
 10
168.75
 20
88.875
  0
SEQEND
  8
LAYER01
  0
POLYLINE
  8
LAYER01
  6
CONTINUOUS
 62
     7
 66
     1
  0
VERTEX
  8
LAYER01
 10
168.75
 20
88.875
  0
VERTEX
  8
LAYER01
 10
170.25
 20
87.125
  0
VERTEX
  8
LAYER01
 10
171.75
 20
88.875
  0
SEQEND
  8
LAYER01
  0
POLYLINE
  8
LAYER01
  6
CONTINUOUS
 62
     7
 66
     1
  0
VERTEX
  8
LAYER01
 10
171.75
 20
88.875
  0
VERTEX
  8
LAYER01
 10
173.25
 20
87.125
  0
VERTEX
  8
LAYER01
 10
174.75
 20
88.875
  0
SEQEND
  8
LAYER01
  0
POLYLINE
  8
LAYER01
  6
CONTINUOUS
 62
     7
 66
     1
  0
VERTEX
  8
LAYER01
 10
174.75
 20
88.875
  0
VERTEX
  8
LAYER01
 10
176.25
 20
87.125
  0
VERTEX
  8
LAYER01
 10
177.75
 20
88.875
  0
SEQEND
  8
LAYER01
  0
POLYLINE
  8
LAYER01
  6
CONTINUOUS
 62
     7
 66
     1
  0
VERTEX
  8
LAYER01
 10
177.75
 20
88.875
  0
VERTEX
  8
LAYER01
 10
179.25
 20
87.125
  0
VERTEX
  8
LAYER01
 10
180.75
 20
88.875
  0
SEQEND
  8
LAYER01
  0
POLYLINE
  8
LAYER01
  6
CONTINUOUS
 62
     7
 66
     1
  0
VERTEX
  8
LAYER01
 10
180.75
 20
88.875
  0
VERTEX
  8
LAYER01
 10
182.25
 20
87.125
  0
VERTEX
  8
LAYER01
 10
183.75
 20
88.875
  0
SEQEND
  8
LAYER01
  0
LINE
  8
LAYER01
  6
CONTINUOUS
 62
     7
 10
185.969769
 20
88.016651
 11
186.75
 21
87.125
  0
POLYLINE
  8
LAYER01
  6
CONTINUOUS
 62
     7
 66
     1
  0
VERTEX
  8
LAYER01
 10
183.75
 20
88.875
  0
VERTEX
  8
LAYER01
 10
185.25
 20
87.125
  0
VERTEX
  8
LAYER01
 10
186.026945
 20
88.036364
  0
SEQEND
  8
LAYER01
  0
LINE
  8
LAYER01
  6
CONTINUOUS
 62
     7
 10
163.493096
 20
88.057255
 11
162.75
 21
87.125
  0
POLYLINE
  8
LAYER01
  6
CONTINUOUS
 62
     7
 66
     1
  0
VERTEX
  8
LAYER01
 10
163.438235
 20
88.072059
  0
VERTEX
  8
LAYER01
 10
164.25
 20
87.125
  0
VERTEX
  8
LAYER01
 10
165.75
 20
88.875
  0
SEQEND
  8
LAYER01
  0
LINE
  8
LAYER01
  6
CONTINUOUS
 62
     7
 10
162.75
 20
87.125
 11
162.75
 21
89.125
  0
LINE
  8
LAYER01
  6
CONTINUOUS
 62
     7
 10
186.75
 20
87.125
 11
186.75
 21
89.375
  0
POLYLINE
  8
LAYER01
  6
CONTINUOUS
 62
     7
 66
     1
  0
VERTEX
  8
LAYER01
 10
162.75
 20
87.375
  0
VERTEX
  8
LAYER01
 10
162.75
 20
77.625
  0
VERTEX
  8
LAYER01
 10
164.75
 20
75.625
  0
VERTEX
  8
LAYER01
 10
184.75
 20
75.625
  0
VERTEX
  8
LAYER01
 10
186.75
 20
77.625
  0
VERTEX
  8
LAYER01
 10
186.75
 20
87.375
  0
SEQEND
  8
LAYER01
  0
ENDBLK
  8
0
  0
BLOCK
  8
LAYER01
  2
GIOCHI-G34
 70
     0
 10
0.0
 20
0.0
  0
LINE
  8
LAYER01
  6
CONTINUOUS
 62
     7
 10
163.884702
 20
87.552135
 11
162.749796
 21
86.417229
  0
LINE
  8
LAYER01
  6
CONTINUOUS
 62
     7
 10
162.749822
 20
85.29467
 11
166.017539
 21
88.562388
  0
LINE
  8
LAYER01
  6
CONTINUOUS
 62
     7
 10
166.535522
 20
87.957785
 11
162.749849
 21
84.172112
  0
LINE
  8
LAYER01
  6
CONTINUOUS
 62
     7
 10
162.749875
 20
83.049554
 11
167.053504
 21
87.353182
  0
LINE
  8
LAYER01
  6
CONTINUOUS
 62
     7
 10
169.187225
 20
88.364318
 11
162.749902
 21
81.926995
  0
LINE
  8
LAYER01
  6
CONTINUOUS
 62
     7
 10
162.749928
 20
80.804437
 11
169.705207
 21
87.759716
  0
LINE
  8
LAYER01
  6
CONTINUOUS
 62
     7
 10
171.838928
 20
88.770852
 11
170.590001
 21
87.521924
  0
LINE
  8
LAYER01
  6
CONTINUOUS
 62
     7
 10
170.223189
 20
87.155113
 11
162.749955
 21
79.681878
  0
LINE
  8
LAYER01
  6
CONTINUOUS
 62
     7
 10
162.749981
 20
78.55932
 11
172.35691
 21
88.166249
  0
LINE
  8
LAYER01
  6
CONTINUOUS
 62
     7
 10
172.874893
 20
87.561646
 11
162.844141
 21
77.530895
  0
LINE
  8
LAYER01
  6
CONTINUOUS
 62
     7
 10
163.404992
 20
76.970044
 11
175.008172
 21
88.573224
  0
LINE
  8
LAYER01
  6
CONTINUOUS
 62
     7
 10
175.526154
 20
87.968622
 11
163.966284
 21
76.408752
  0
LINE
  8
LAYER01
  6
CONTINUOUS
 62
     7
 10
164.527577
 20
75.847459
 11
176.044136
 21
87.364019
  0
LINE
  8
LAYER01
  6
CONTINUOUS
 62
     7
 10
178.177857
 20
88.375155
 11
165.427838
 21
75.625136
  0
LINE
  8
LAYER01
  6
CONTINUOUS
 62
     7
 10
166.550397
 20
75.62511
 11
178.696282
 21
87.770994
  0
LINE
  8
LAYER01
  6
CONTINUOUS
 62
     7
 10
180.829561
 20
88.781689
 11
179.711006
 21
87.663134
  0
LINE
  8
LAYER01
  6
CONTINUOUS
 62
     7
 10
179.214264
 20
87.166392
 11
167.672955
 21
75.625083
  0
LINE
  8
LAYER01
  6
CONTINUOUS
 62
     7
 10
168.795514
 20
75.625057
 11
181.347985
 21
88.177528
  0
LINE
  8
LAYER01
  6
CONTINUOUS
 62
     7
 10
181.865967
 20
87.572925
 11
169.918072
 21
75.62503
  0
LINE
  8
LAYER01
  6
CONTINUOUS
 62
     7
 10
171.040631
 20
75.625004
 11
184.000572
 21
88.584945
  0
LINE
  8
LAYER01
  6
CONTINUOUS
 62
     7
 10
184.520764
 20
87.982552
 11
172.163189
 21
75.624977
  0
LINE
  8
LAYER01
  6
CONTINUOUS
 62
     7
 10
173.285748
 20
75.624951
 11
185.040956
 21
87.380159
  0
LINE
  8
LAYER01
  6
CONTINUOUS
 62
     7
 10
186.368134
 20
87.584752
 11
174.408306
 21
75.624924
  0
LINE
  8
LAYER01
  6
CONTINUOUS
 62
     7
 10
175.530865
 20
75.624898
 11
186.749556
 21
86.843589
  0
LINE
  8
LAYER01
  6
CONTINUOUS
 62
     7
 10
186.749582
 20
85.72103
 11
176.653423
 21
75.624871
  0
LINE
  8
LAYER01
  6
CONTINUOUS
 62
     7
 10
177.775982
 20
75.624845
 11
186.749609
 21
84.598472
  0
LINE
  8
LAYER01
  6
CONTINUOUS
 62
     7
 10
186.749635
 20
83.475913
 11
178.89854
 21
75.624818
  0
LINE
  8
LAYER01
  6
CONTINUOUS
 62
     7
 10
180.021099
 20
75.624792
 11
186.749662
 21
82.353355
  0
LINE
  8
LAYER01
  6
CONTINUOUS
 62
     7
 10
186.749688
 20
81.23168
 11
181.142773
 21
75.624765
  0
LINE
  8
LAYER01
  6
CONTINUOUS
 62
     7
 10
182.265332
 20
75.624739
 11
186.749715
 21
80.109122
  0
LINE
  8
LAYER01
  6
CONTINUOUS
 62
     7
 10
186.749741
 20
78.986563
 11
183.38789
 21
75.624712
  0
LINE
  8
LAYER01
  6
CONTINUOUS
 62
     7
 10
184.510449
 20
75.624686
 11
186.749768
 21
77.864005
  0
ENDBLK
  8
0
  0
BLOCK
  8
LAYER01
  2
GIOCHI-G35
 70
     0
 10
0.0
 20
0.0
  0
LINE
  8
LAYER01
  6
CONTINUOUS
 62
     7
 10
193.047962
 20
78.324969
 11
191.899825
 21
77.176832
  0
LINE
  8
LAYER01
  6
CONTINUOUS
 62
     7
 10
191.899864
 20
75.605315
 11
194.61948
 21
78.324931
  0
LINE
  8
LAYER01
  6
CONTINUOUS
 62
     7
 10
196.190997
 20
78.324892
 11
191.899903
 21
74.033798
  0
LINE
  8
LAYER01
  6
CONTINUOUS
 62
     7
 10
193.312531
 20
73.87487
 11
197.762514
 21
78.324854
  0
LINE
  8
LAYER01
  6
CONTINUOUS
 62
     7
 10
199.334031
 20
78.324815
 11
194.884048
 21
73.874832
  0
LINE
  8
LAYER01
  6
CONTINUOUS
 62
     7
 10
196.455565
 20
73.874793
 11
200.905548
 21
78.324776
  0
LINE
  8
LAYER01
  6
CONTINUOUS
 62
     7
 10
202.477065
 20
78.324738
 11
198.027082
 21
73.874755
  0
LINE
  8
LAYER01
  6
CONTINUOUS
 62
     7
 10
199.598599
 20
73.874716
 11
204.048582
 21
78.324699
  0
LINE
  8
LAYER01
  6
CONTINUOUS
 62
     7
 10
205.67016
 20
78.374722
 11
204.170508
 21
76.87507
  0
LINE
  8
LAYER01
  6
CONTINUOUS
 62
     7
 10
203.249822
 20
75.954383
 11
201.170116
 21
73.874677
  0
LINE
  8
LAYER01
  6
CONTINUOUS
 62
     7
 10
202.741633
 20
73.874639
 11
203.249861
 21
74.382866
  0
LINE
  8
LAYER01
  6
CONTINUOUS
 62
     7
 10
205.742025
 20
76.875031
 11
207.241677
 21
78.374683
  0
LINE
  8
LAYER01
  6
CONTINUOUS
 62
     7
 10
208.813557
 20
78.375007
 11
207.313543
 21
76.874992
  0
LINE
  8
LAYER01
  6
CONTINUOUS
 62
     7
 10
208.88506
 20
76.874954
 11
210.385074
 21
78.374969
  0
LINE
  8
LAYER01
  6
CONTINUOUS
 62
     7
 10
211.599635
 20
78.017974
 11
210.456577
 21
76.874915
  0
LINE
  8
LAYER01
  6
CONTINUOUS
 62
     7
 10
211.499189
 20
76.345972
 11
211.599674
 21
76.446456
  0
LINE
  8
LAYER01
  6
CONTINUOUS
 62
     7
 10
211.599712
 20
74.874939
 11
211.499228
 21
74.774455
  0
LINE
  8
LAYER01
  6
CONTINUOUS
 62
     7
 10
211.499266
 20
73.202938
 11
211.599388
 21
73.303059
  0
LINE
  8
LAYER01
  6
CONTINUOUS
 62
     7
 10
211.599427
 20
71.731542
 11
211.499305
 21
71.63142
  0
LINE
  8
LAYER01
  6
CONTINUOUS
 62
     7
 10
211.499343
 20
70.059903
 11
211.599465
 21
70.160025
  0
ENDBLK
  8
0
  0
BLOCK
  8
LAYER01
  2
GIOCHI-G36
 70
     0
 10
0.0
 20
0.0
  0
LINE
  8
LAYER01
  6
CONTINUOUS
 62
     7
 10
192.669742
 20
65.375097
 11
191.899964
 21
64.60532
  0
LINE
  8
LAYER01
  6
CONTINUOUS
 62
     7
 10
191.899964
 20
63.033841
 11
194.24122
 21
65.375097
  0
LINE
  8
LAYER01
  6
CONTINUOUS
 62
     7
 10
195.812699
 20
65.375097
 11
191.899964
 21
61.462362
  0
LINE
  8
LAYER01
  6
CONTINUOUS
 62
     7
 10
191.899964
 20
59.890884
 11
197.384177
 21
65.375097
  0
LINE
  8
LAYER01
  6
CONTINUOUS
 62
     7
 10
198.955656
 20
65.375097
 11
193.355722
 21
59.775163
  0
LINE
  8
LAYER01
  6
CONTINUOUS
 62
     7
 10
194.9272
 20
59.775163
 11
200.527134
 21
65.375097
  0
LINE
  8
LAYER01
  6
CONTINUOUS
 62
     7
 10
202.099338
 20
65.375097
 11
196.499404
 21
59.775163
  0
LINE
  8
LAYER01
  6
CONTINUOUS
 62
     7
 10
198.070883
 20
59.775163
 11
203.249652
 21
64.953932
  0
LINE
  8
LAYER01
  6
CONTINUOUS
 62
     7
 10
203.249652
 20
63.382454
 11
199.642361
 21
59.775163
  0
LINE
  8
LAYER01
  6
CONTINUOUS
 62
     7
 10
201.21384
 20
59.775163
 11
204.063687
 21
62.62501
  0
LINE
  8
LAYER01
  6
CONTINUOUS
 62
     7
 10
211.599673
 20
68.589518
 11
211.499914
 21
68.489759
  0
LINE
  8
LAYER01
  6
CONTINUOUS
 62
     7
 10
205.635165
 20
62.62501
 11
202.785318
 21
59.775163
  0
LINE
  8
LAYER01
  6
CONTINUOUS
 62
     7
 10
204.356797
 20
59.775163
 11
207.206644
 21
62.62501
  0
LINE
  8
LAYER01
  6
CONTINUOUS
 62
     7
 10
211.499914
 20
66.918281
 11
211.599673
 21
67.01804
  0
LINE
  8
LAYER01
  6
CONTINUOUS
 62
     7
 10
211.599673
 20
65.446561
 11
211.499914
 21
65.346802
  0
LINE
  8
LAYER01
  6
CONTINUOUS
 62
     7
 10
208.778122
 20
62.62501
 11
205.928276
 21
59.775163
  0
LINE
  8
LAYER01
  6
CONTINUOUS
 62
     7
 10
207.499754
 20
59.775163
 11
210.349601
 21
62.62501
  0
LINE
  8
LAYER01
  6
CONTINUOUS
 62
     7
 10
211.499914
 20
63.775323
 11
211.599673
 21
63.875083
  0
LINE
  8
LAYER01
  6
CONTINUOUS
 62
     7
 10
211.599673
 20
62.303604
 11
209.071233
 21
59.775163
  0
LINE
  8
LAYER01
  6
CONTINUOUS
 62
     7
 10
210.642711
 20
59.775163
 11
211.599673
 21
60.732126
  0
ENDBLK
  8
0
  0
BLOCK
  8
0
  2
GIOCHI-G37
 70
     0
 10
0.0
 20
0.0
  0
POLYLINE
  8
LAYER01
  6
CONTINUOUS
 62
     7
 66
     1
 70
     1
  0
VERTEX
  8
LAYER01
 10
191.5
 20
125.625
  0
VERTEX
  8
LAYER01
 10
191.5
 20
133.625
  0
VERTEX
  8
LAYER01
 10
171.5
 20
133.625
  0
VERTEX
  8
LAYER01
 10
171.5
 20
125.625
  0
SEQEND
  8
LAYER01
  0
POLYLINE
  8
LAYER01
  6
CONTINUOUS
 62
     7
 66
     1
 70
     1
  0
VERTEX
  8
LAYER01
 10
191.5
 20
126.125
  0
VERTEX
  8
LAYER01
 10
191.5
 20
133.125
  0
VERTEX
  8
LAYER01
 10
170.75
 20
133.125
  0
VERTEX
  8
LAYER01
 10
170.75
 20
126.125
  0
SEQEND
  8
LAYER01
  0
POINT
  8
LAYER01
  6
CONTINUOUS
 62
     7
 10
191.5
 20
129.625
  0
POLYLINE
  8
LAYER01
  6
CONTINUOUS
 62
     7
 66
     1
 70
     1
 40
0.05
 41
0.05
  0
VERTEX
  8
LAYER01
 10
203.25
 20
125.375
  0
VERTEX
  8
LAYER01
 10
203.25
 20
133.875
  0
VERTEX
  8
LAYER01
 10
191.75
 20
133.875
  0
VERTEX
  8
LAYER01
 10
191.75
 20
125.375
  0
SEQEND
  8
LAYER01
  0
POLYLINE
  8
LAYER01
  6
CONTINUOUS
 62
     7
 66
     1
 70
     1
 40
0.05
 41
0.05
  0
VERTEX
  8
LAYER01
 10
211.5
 20
122.375
  0
VERTEX
  8
LAYER01
 10
211.5
 20
136.625
  0
VERTEX
  8
LAYER01
 10
203.25
 20
136.625
  0
VERTEX
  8
LAYER01
 10
203.25
 20
122.375
  0
SEQEND
  8
LAYER01
  0
POLYLINE
  8
LAYER01
  6
CONTINUOUS
 62
     7
 66
     1
  0
VERTEX
  8
LAYER01
 10
170.75
 20
133.125
  0
VERTEX
  8
LAYER01
 10
168.75
 20
129.625
  0
VERTEX
  8
LAYER01
 10
170.75
 20
126.125
  0
SEQEND
  8
LAYER01
  0
ENDBLK
  8
0
  0
BLOCK
  8
LAYER01
  2
GIOCHI-G38
 70
     0
 10
0.0
 20
0.0
  0
LINE
  8
LAYER01
  6
CONTINUOUS
 62
     7
 10
165.531095
 20
122.87494
 11
162.749956
 21
120.093801
  0
LINE
  8
LAYER01
  6
CONTINUOUS
 62
     7
 10
162.749956
 20
118.971269
 11
166.653627
 21
122.87494
  0
LINE
  8
LAYER01
  6
CONTINUOUS
 62
     7
 10
167.776159
 20
122.87494
 11
162.749956
 21
117.848737
  0
LINE
  8
LAYER01
  6
CONTINUOUS
 62
     7
 10
162.749956
 20
116.726205
 11
168.898691
 21
122.87494
  0
LINE
  8
LAYER01
  6
CONTINUOUS
 62
     7
 10
170.021223
 20
122.87494
 11
162.749956
 21
115.603673
  0
LINE
  8
LAYER01
  6
CONTINUOUS
 62
     7
 10
162.749956
 20
114.481141
 11
171.143755
 21
122.87494
  0
LINE
  8
LAYER01
  6
CONTINUOUS
 62
     7
 10
172.266287
 20
122.87494
 11
162.749956
 21
113.358609
  0
LINE
  8
LAYER01
  6
CONTINUOUS
 62
     7
 10
162.749956
 20
112.236077
 11
173.388819
 21
122.87494
  0
LINE
  8
LAYER01
  6
CONTINUOUS
 62
     7
 10
174.511351
 20
122.87494
 11
163.216646
 21
111.580235
  0
LINE
  8
LAYER01
  6
CONTINUOUS
 62
     7
 10
163.734602
 20
110.975659
 11
175.633883
 21
122.87494
  0
LINE
  8
LAYER01
  6
CONTINUOUS
 62
     7
 10
176.756415
 20
122.87494
 11
165.867855
 21
111.98638
  0
LINE
  8
LAYER01
  6
CONTINUOUS
 62
     7
 10
166.386253
 20
111.382245
 11
177.878948
 21
122.87494
  0
LINE
  8
LAYER01
  6
CONTINUOUS
 62
     7
 10
179.00148
 20
122.87494
 11
166.904208
 21
110.777669
  0
LINE
  8
LAYER01
  6
CONTINUOUS
 62
     7
 10
169.037903
 20
111.788832
 11
180.124012
 21
122.87494
  0
LINE
  8
LAYER01
  6
CONTINUOUS
 62
     7
 10
181.246544
 20
122.87494
 11
169.555859
 21
111.184255
  0
LINE
  8
LAYER01
  6
CONTINUOUS
 62
     7
 10
170.074256
 20
110.580121
 11
182.369076
 21
122.87494
  0
LINE
  8
LAYER01
  6
CONTINUOUS
 62
     7
 10
183.491608
 20
122.87494
 11
172.207509
 21
111.590842
  0
LINE
  8
LAYER01
  6
CONTINUOUS
 62
     7
 10
172.725465
 20
110.986265
 11
184.61414
 21
122.87494
  0
LINE
  8
LAYER01
  6
CONTINUOUS
 62
     7
 10
185.243465
 20
122.381733
 11
174.85916
 21
111.997428
  0
LINE
  8
LAYER01
  6
CONTINUOUS
 62
     7
 10
173.329157
 20
110.467426
 11
173.243863
 21
110.382131
  0
LINE
  8
LAYER01
  6
CONTINUOUS
 62
     7
 10
175.377115
 20
111.392852
 11
185.804731
 21
121.820467
  0
LINE
  8
LAYER01
  6
CONTINUOUS
 62
     7
 10
186.365997
 20
121.259201
 11
175.895071
 21
110.788275
  0
LINE
  8
LAYER01
  6
CONTINUOUS
 62
     7
 10
178.028766
 20
111.799438
 11
186.749602
 21
120.520274
  0
LINE
  8
LAYER01
  6
CONTINUOUS
 62
     7
 10
186.749602
 20
119.397742
 11
178.546721
 21
111.194862
  0
LINE
  8
LAYER01
  6
CONTINUOUS
 62
     7
 10
179.064677
 20
110.590286
 11
186.749602
 21
118.27521
  0
LINE
  8
LAYER01
  6
CONTINUOUS
 62
     7
 10
186.749602
 20
117.152678
 11
181.198372
 21
111.601448
  0
LINE
  8
LAYER01
  6
CONTINUOUS
 62
     7
 10
181.716328
 20
110.996872
 11
186.749602
 21
116.030146
  0
LINE
  8
LAYER01
  6
CONTINUOUS
 62
     7
 10
186.749602
 20
114.907614
 11
183.850022
 21
112.008035
  0
LINE
  8
LAYER01
  6
CONTINUOUS
 62
     7
 10
182.44067
 20
110.598682
 11
182.234283
 21
110.392296
  0
LINE
  8
LAYER01
  6
CONTINUOUS
 62
     7
 10
184.367978
 20
111.403458
 11
186.749602
 21
113.785082
  0
LINE
  8
LAYER01
  6
CONTINUOUS
 62
     7
 10
186.749602
 20
112.66255
 11
184.885934
 21
110.798882
  0
ENDBLK
  8
0
  0
BLOCK
  8
0
  2
GIOCHI-G40
 70
     0
 10
0.0
 20
0.0
  0
POINT
  8
LAYER01
  6
CONTINUOUS
 62
     7
 10
166.25
 20
124.125
  0
ENDBLK
  8
0
  0
BLOCK
  8
0
  2
GIOCHI-G39
 70
     0
 10
0.0
 20
0.0
  0
POLYLINE
  8
LAYER01
  6
CONTINUOUS
 62
     7
 66
     1
 40
0.05
 41
0.05
  0
VERTEX
  8
LAYER01
 10
164.25
 20
110.375
  0
VERTEX
  8
LAYER01
 10
165.75
 20
112.125
  0
VERTEX
  8
LAYER01
 10
167.25
 20
110.375
  0
SEQEND
  8
LAYER01
  0
POLYLINE
  8
LAYER01
  6
CONTINUOUS
 62
     7
 66
     1
 40
0.05
 41
0.05
  0
VERTEX
  8
LAYER01
 10
167.25
 20
110.375
  0
VERTEX
  8
LAYER01
 10
168.75
 20
112.125
  0
VERTEX
  8
LAYER01
 10
170.25
 20
110.375
  0
SEQEND
  8
LAYER01
  0
POLYLINE
  8
LAYER01
  6
CONTINUOUS
 62
     7
 66
     1
 40
0.05
 41
0.05
  0
VERTEX
  8
LAYER01
 10
170.25
 20
110.375
  0
VERTEX
  8
LAYER01
 10
171.75
 20
112.125
  0
VERTEX
  8
LAYER01
 10
173.25
 20
110.375
  0
SEQEND
  8
LAYER01
  0
POLYLINE
  8
LAYER01
  6
CONTINUOUS
 62
     7
 66
     1
 40
0.05
 41
0.05
  0
VERTEX
  8
LAYER01
 10
173.25
 20
110.375
  0
VERTEX
  8
LAYER01
 10
174.75
 20
112.125
  0
VERTEX
  8
LAYER01
 10
176.25
 20
110.375
  0
SEQEND
  8
LAYER01
  0
POLYLINE
  8
LAYER01
  6
CONTINUOUS
 62
     7
 66
     1
 40
0.05
 41
0.05
  0
VERTEX
  8
LAYER01
 10
176.25
 20
110.375
  0
VERTEX
  8
LAYER01
 10
177.75
 20
112.125
  0
VERTEX
  8
LAYER01
 10
179.25
 20
110.375
  0
SEQEND
  8
LAYER01
  0
POLYLINE
  8
LAYER01
  6
CONTINUOUS
 62
     7
 66
     1
 40
0.05
 41
0.05
  0
VERTEX
  8
LAYER01
 10
179.25
 20
110.375
  0
VERTEX
  8
LAYER01
 10
180.75
 20
112.125
  0
VERTEX
  8
LAYER01
 10
182.25
 20
110.375
  0
SEQEND
  8
LAYER01
  0
POLYLINE
  8
LAYER01
  6
CONTINUOUS
 62
     7
 66
     1
 40
0.05
 41
0.05
  0
VERTEX
  8
LAYER01
 10
182.25
 20
110.375
  0
VERTEX
  8
LAYER01
 10
183.75
 20
112.125
  0
VERTEX
  8
LAYER01
 10
185.25
 20
110.375
  0
SEQEND
  8
LAYER01
  0
LINE
  8
LAYER01
  6
CONTINUOUS
 62
     7
 10
164.231019
 20
110.35873
 11
162.731019
 21
112.10873
  0
LINE
  8
LAYER01
  6
CONTINUOUS
 62
     7
 10
164.268981
 20
110.39127
 11
162.768981
 21
112.14127
  0
LINE
  8
LAYER01
  6
CONTINUOUS
 62
     7
 10
164.231019
 20
110.35873
 11
164.268981
 21
110.39127
  0
LINE
  8
LAYER01
  6
CONTINUOUS
 62
     7
 10
162.731019
 20
112.10873
 11
162.768981
 21
112.14127
  0
SOLID
  8
LAYER01
  6
CONTINUOUS
 62
     7
 10
164.231019
 20
110.35873
 11
162.731019
 21
112.10873
 12
164.268981
 22
110.39127
 13
162.768981
 23
112.14127
  0
LINE
  8
LAYER01
  6
CONTINUOUS
 62
     7
 10
185.231019
 20
110.39127
 11
186.731019
 21
112.14127
  0
LINE
  8
LAYER01
  6
CONTINUOUS
 62
     7
 10
185.268981
 20
110.35873
 11
186.768981
 21
112.10873
  0
LINE
  8
LAYER01
  6
CONTINUOUS
 62
     7
 10
185.231019
 20
110.39127
 11
185.268981
 21
110.35873
  0
LINE
  8
LAYER01
  6
CONTINUOUS
 62
     7
 10
186.731019
 20
112.14127
 11
186.768981
 21
112.10873
  0
SOLID
  8
LAYER01
  6
CONTINUOUS
 62
     7
 10
185.231019
 20
110.39127
 11
186.731019
 21
112.14127
 12
185.268981
 22
110.35873
 13
186.768981
 23
112.10873
  0
POLYLINE
  8
LAYER01
  6
CONTINUOUS
 62
     7
 66
     1
 40
0.05
 41
0.05
  0
VERTEX
  8
LAYER01
 10
162.75
 20
111.875
  0
VERTEX
  8
LAYER01
 10
162.75
 20
120.875
  0
VERTEX
  8
LAYER01
 10
164.75
 20
122.875
  0
VERTEX
  8
LAYER01
 10
184.75
 20
122.875
  0
VERTEX
  8
LAYER01
 10
186.75
 20
120.875
  0
VERTEX
  8
LAYER01
 10
186.75
 20
111.875
  0
SEQEND
  8
LAYER01
  0
INSERT
  8
LAYER01
  2
GIOCHI-G40
 10
0.0
 20
0.0
  0
ENDBLK
  8
0
  0
BLOCK
  8
LAYER01
  2
GIOCHI-G41
 70
     0
 10
0.0
 20
0.0
  0
LINE
  8
LAYER01
  6
CONTINUOUS
 62
     7
 10
192.951206
 20
125.37519
 11
191.899926
 21
124.32391
  0
LINE
  8
LAYER01
  6
CONTINUOUS
 62
     7
 10
191.899965
 20
122.752393
 11
194.522723
 21
125.375152
  0
LINE
  8
LAYER01
  6
CONTINUOUS
 62
     7
 10
196.09424
 20
125.375113
 11
191.900003
 21
121.180876
  0
LINE
  8
LAYER01
  6
CONTINUOUS
 62
     7
 10
193.215774
 20
120.925091
 11
197.665757
 21
125.375074
  0
LINE
  8
LAYER01
  6
CONTINUOUS
 62
     7
 10
199.237275
 20
125.375036
 11
194.787291
 21
120.925053
  0
LINE
  8
LAYER01
  6
CONTINUOUS
 62
     7
 10
196.358808
 20
120.925014
 11
200.808792
 21
125.374997
  0
LINE
  8
LAYER01
  6
CONTINUOUS
 62
     7
 10
202.380309
 20
125.374959
 11
197.930326
 21
120.924975
  0
LINE
  8
LAYER01
  6
CONTINUOUS
 62
     7
 10
199.502205
 20
120.9253
 11
203.249884
 21
124.672978
  0
LINE
  8
LAYER01
  6
CONTINUOUS
 62
     7
 10
203.249923
 20
123.101461
 11
201.073723
 21
120.925261
  0
LINE
  8
LAYER01
  6
CONTINUOUS
 62
     7
 10
202.64524
 20
120.925222
 11
204.095193
 21
122.375176
  0
LINE
  8
LAYER01
  6
CONTINUOUS
 62
     7
 10
211.599659
 20
128.308086
 11
211.4999
 21
128.208327
  0
LINE
  8
LAYER01
  6
CONTINUOUS
 62
     7
 10
205.666711
 20
122.375138
 11
204.216757
 21
120.925184
  0
LINE
  8
LAYER01
  6
CONTINUOUS
 62
     7
 10
205.738576
 20
120.875447
 11
207.238228
 21
122.375099
  0
LINE
  8
LAYER01
  6
CONTINUOUS
 62
     7
 10
211.499938
 20
126.636809
 11
211.599697
 21
126.736569
  0
LINE
  8
LAYER01
  6
CONTINUOUS
 62
     7
 10
211.599373
 20
125.164689
 11
211.499614
 21
125.06493
  0
LINE
  8
LAYER01
  6
CONTINUOUS
 62
     7
 10
208.809745
 20
122.37506
 11
207.310093
 21
120.875408
  0
LINE
  8
LAYER01
  6
CONTINUOUS
 62
     7
 10
208.88161
 20
120.87537
 11
210.381262
 21
122.375022
  0
LINE
  8
LAYER01
  6
CONTINUOUS
 62
     7
 10
211.499653
 20
123.493412
 11
211.599412
 21
123.593172
  0
LINE
  8
LAYER01
  6
CONTINUOUS
 62
     7
 10
211.59945
 20
122.021654
 11
210.453127
 21
120.875331
  0
ENDBLK
  8
0
  0
BLOCK
  8
LAYER01
  2
GIOCHI-G42
 70
     0
 10
0.0
 20
0.0
  0
LINE
  8
LAYER01
  6
CONTINUOUS
 62
     7
 10
193.402764
 20
114.825095
 11
191.90021
 21
113.322541
  0
LINE
  8
LAYER01
  6
CONTINUOUS
 62
     7
 10
193.174245
 20
113.025058
 11
194.974262
 21
114.825075
  0
LINE
  8
LAYER01
  6
CONTINUOUS
 62
     7
 10
196.545761
 20
114.825055
 11
194.745743
 21
113.025038
  0
LINE
  8
LAYER01
  6
CONTINUOUS
 62
     7
 10
196.317241
 20
113.025018
 11
198.117259
 21
114.825035
  0
LINE
  8
LAYER01
  6
CONTINUOUS
 62
     7
 10
199.688758
 20
114.825016
 11
197.88874
 21
113.024998
  0
LINE
  8
LAYER01
  6
CONTINUOUS
 62
     7
 10
199.460238
 20
113.024978
 11
201.260256
 21
114.824996
  0
LINE
  8
LAYER01
  6
CONTINUOUS
 62
     7
 10
202.831754
 20
114.824976
 11
201.031737
 21
113.024958
  0
LINE
  8
LAYER01
  6
CONTINUOUS
 62
     7
 10
202.603598
 20
113.025301
 11
204.453677
 21
114.87538
  0
LINE
  8
LAYER01
  6
CONTINUOUS
 62
     7
 10
206.025175
 20
114.87536
 11
204.175096
 21
113.025281
  0
LINE
  8
LAYER01
  6
CONTINUOUS
 62
     7
 10
205.746595
 20
113.025261
 11
207.596673
 21
114.87534
  0
LINE
  8
LAYER01
  6
CONTINUOUS
 62
     7
 10
209.168172
 20
114.87532
 11
207.318093
 21
113.025241
  0
LINE
  8
LAYER01
  6
CONTINUOUS
 62
     7
 10
208.889592
 20
113.025221
 11
210.73967
 21
114.8753
  0
LINE
  8
LAYER01
  6
CONTINUOUS
 62
     7
 10
211.599433
 20
114.163544
 11
210.46109
 21
113.025201
  0
ENDBLK
  8
0
  0
BLOCK
  8
LAYER01
  2
GIOCHI-G43
 70
     0
 10
0.0
 20
0.0
  0
LINE
  8
LAYER01
  6
CONTINUOUS
 62
     7
 10
192.907713
 20
139.475199
 11
191.899964
 21
138.467451
  0
LINE
  8
LAYER01
  6
CONTINUOUS
 62
     7
 10
191.899964
 20
136.895972
 11
194.479191
 21
139.475199
  0
LINE
  8
LAYER01
  6
CONTINUOUS
 62
     7
 10
196.05067
 20
139.475199
 11
191.899964
 21
135.324494
  0
LINE
  8
LAYER01
  6
CONTINUOUS
 62
     7
 10
192.021851
 20
133.874903
 11
197.622148
 21
139.475199
  0
LINE
  8
LAYER01
  6
CONTINUOUS
 62
     7
 10
199.193627
 20
139.475199
 11
193.59333
 21
133.874903
  0
LINE
  8
LAYER01
  6
CONTINUOUS
 62
     7
 10
195.164808
 20
133.874903
 11
200.765105
 21
139.475199
  0
LINE
  8
LAYER01
  6
CONTINUOUS
 62
     7
 10
202.337309
 20
139.475199
 11
196.737013
 21
133.874903
  0
LINE
  8
LAYER01
  6
CONTINUOUS
 62
     7
 10
198.308491
 20
133.874903
 11
203.908788
 21
139.475199
  0
LINE
  8
LAYER01
  6
CONTINUOUS
 62
     7
 10
205.480266
 20
139.475199
 11
199.87997
 21
133.874903
  0
LINE
  8
LAYER01
  6
CONTINUOUS
 62
     7
 10
201.451448
 20
133.874903
 11
203.249652
 21
135.673107
  0
LINE
  8
LAYER01
  6
CONTINUOUS
 62
     7
 10
204.201536
 20
136.62499
 11
207.051745
 21
139.475199
  0
LINE
  8
LAYER01
  6
CONTINUOUS
 62
     7
 10
208.623223
 20
139.475199
 11
205.773014
 21
136.62499
  0
LINE
  8
LAYER01
  6
CONTINUOUS
 62
     7
 10
203.249652
 20
134.101628
 11
203.022927
 21
133.874903
  0
LINE
  8
LAYER01
  6
CONTINUOUS
 62
     7
 10
207.344493
 20
136.62499
 11
210.194702
 21
139.475199
  0
LINE
  8
LAYER01
  6
CONTINUOUS
 62
     7
 10
211.599673
 20
139.308692
 11
208.915971
 21
136.62499
  0
LINE
  8
LAYER01
  6
CONTINUOUS
 62
     7
 10
210.48745
 20
136.62499
 11
211.599673
 21
137.737214
  0
LINE
  8
LAYER01
  6
CONTINUOUS
 62
     7
 10
211.599673
 20
136.165735
 11
211.499551
 21
136.065613
  0
LINE
  8
LAYER01
  6
CONTINUOUS
 62
     7
 10
211.499551
 20
134.494135
 11
211.599673
 21
134.594257
  0
LINE
  8
LAYER01
  6
CONTINUOUS
 62
     7
 10
211.599673
 20
133.022778
 11
211.499551
 21
132.922656
  0
LINE
  8
LAYER01
  6
CONTINUOUS
 62
     7
 10
211.499551
 20
131.350452
 11
211.599673
 21
131.450574
  0
LINE
  8
LAYER01
  6
CONTINUOUS
 62
     7
 10
211.599673
 20
129.879096
 11
211.499551
 21
129.778974
  0
ENDBLK
  8
0
  0
ENDSEC
  0
SECTION
  2
ENTITIES
  0
LINE
  8
LAYER01
  6
LINEA-PUNTO
 62
     7
 10
85.75
 20
129.625
 11
215.25
 21
129.625
  0
LINE
  8
LAYER01
  6
LINEA-PUNTO
 62
     7
 10
85.75
 20
69.625
 11
215.25
 21
69.625
  0
POLYLINE
  8
LAYER01
  6
CONTINUOUS
 62
     7
 66
     1
 70
     1
 40
0.15
 41
0.15
  0
VERTEX
  8
LAYER01
 10
111.75
 20
139.625
  0
VERTEX
  8
LAYER01
 10
191.75
 20
139.625
  0
VERTEX
  8
LAYER01
 10
191.75
 20
123.625
  0
VERTEX
  8
LAYER01
 10
159.25
 20
123.625
  0
VERTEX
  8
LAYER01
 10
159.25
 20
117.375
  0
VERTEX
  8
LAYER01
 10
136.0
 20
117.375
  0
VERTEX
  8
LAYER01
 10
136.0
 20
123.625
  0
VERTEX
  8
LAYER01
 10
111.75
 20
123.625
  0
SEQEND
  8
LAYER01
  0
POLYLINE
  8
LAYER01
  6
TRATTEGGIATA
 62
     7
 66
     1
 70
     1
  0
VERTEX
  8
LAYER01
 10
154.15
 20
129.625
 42
1.0
  0
VERTEX
  8
LAYER01
 10
141.35
 20
129.625
 42
1.0
  0
SEQEND
  8
LAYER01
  0
POLYLINE
  8
LAYER01
  6
TRATTEGGIATA
 62
     7
 66
     1
 70
     1
  0
VERTEX
  8
LAYER01
 10
111.75
 20
139.625
  0
VERTEX
  8
LAYER01
 10
191.75
 20
139.625
  0
VERTEX
  8
LAYER01
 10
191.75
 20
123.625
  0
VERTEX
  8
LAYER01
 10
159.25
 20
123.625
  0
VERTEX
  8
LAYER01
 10
159.25
 20
117.375
  0
VERTEX
  8
LAYER01
 10
136.0
 20
117.375
  0
VERTEX
  8
LAYER01
 10
136.0
 20
123.625
  0
VERTEX
  8
LAYER01
 10
111.75
 20
123.625
  0
SEQEND
  8
LAYER01
  0
INSERT
  8
LAYER01
  2
GIOCHI-G1
 10
0.0
 20
0.0
  0
POLYLINE
  8
LAYER01
  6
CONTINUOUS
 62
     7
 66
     1
 70
     1
 40
0.15
 41
0.15
  0
VERTEX
  8
LAYER01
 10
111.75
 20
59.625
  0
VERTEX
  8
LAYER01
 10
191.75
 20
59.625
  0
VERTEX
  8
LAYER01
 10
191.75
 20
75.625
  0
VERTEX
  8
LAYER01
 10
159.25
 20
75.625
  0
VERTEX
  8
LAYER01
 10
159.25
 20
81.875
  0
VERTEX
  8
LAYER01
 10
136.0
 20
81.875
  0
VERTEX
  8
LAYER01
 10
136.0
 20
75.625
  0
VERTEX
  8
LAYER01
 10
111.75
 20
75.625
  0
SEQEND
  8
LAYER01
  0
POLYLINE
  8
LAYER01
  6
TRATTEGGIATA
 62
     7
 66
     1
 70
     1
  0
VERTEX
  8
LAYER01
 10
154.15
 20
69.625
 42
-1.0
  0
VERTEX
  8
LAYER01
 10
141.35
 20
69.625
 42
-1.0
  0
SEQEND
  8
LAYER01
  0
POLYLINE
  8
LAYER01
  6
TRATTEGGIATA
 62
     7
 66
     1
 70
     1
  0
VERTEX
  8
LAYER01
 10
111.75
 20
59.625
  0
VERTEX
  8
LAYER01
 10
191.75
 20
59.625
  0
VERTEX
  8
LAYER01
 10
191.75
 20
75.625
  0
VERTEX
  8
LAYER01
 10
159.25
 20
75.625
  0
VERTEX
  8
LAYER01
 10
159.25
 20
81.875
  0
VERTEX
  8
LAYER01
 10
136.0
 20
81.875
  0
VERTEX
  8
LAYER01
 10
136.0
 20
75.625
  0
VERTEX
  8
LAYER01
 10
111.75
 20
75.625
  0
SEQEND
  8
LAYER01
  0
INSERT
  8
LAYER01
  2
GIOCHI-G2
 10
0.0
 20
0.0
  0
CIRCLE
  8
LAYER01
  6
CONTINUOUS
 62
     7
 10
140.25
 20
84.625
 40
1.425
  0
CIRCLE
  8
LAYER01
  6
CONTINUOUS
 62
     7
 10
140.25
 20
84.625
 40
1.575
  0
POLYLINE
  8
LAYER01
  6
CONTINUOUS
 62
     7
 66
     1
  0
VERTEX
  8
LAYER01
 10
62.25
 20
191.875
  0
VERTEX
  8
LAYER01
 10
72.0
 20
186.875
  0
VERTEX
  8
LAYER01
 10
89.375
 20
192.125
  0
VERTEX
  8
LAYER01
 10
103.0
 20
186.25
  0
VERTEX
  8
LAYER01
 10
127.125
 20
192.75
  0
VERTEX
  8
LAYER01
 10
144.125
 20
185.5
  0
VERTEX
  8
LAYER01
 10
172.375
 20
191.875
  0
VERTEX
  8
LAYER01
 10
190.375
 20
182.625
  0
VERTEX
  8
LAYER01
 10
209.375
 20
190.25
  0
VERTEX
  8
LAYER01
 10
222.0
 20
181.25
  0
VERTEX
  8
LAYER01
 10
239.875
 20
191.875
  0
SEQEND
  8
LAYER01
  0
POLYLINE
  8
LAYER01
  6
CONTINUOUS
 62
     7
 66
     1
  0
VERTEX
  8
LAYER01
 10
60.75
 20
14.25
  0
VERTEX
  8
LAYER01
 10
76.75
 20
9.0
  0
VERTEX
  8
LAYER01
 10
94.375
 20
15.125
  0
VERTEX
  8
LAYER01
 10
112.625
 20
9.75
  0
VERTEX
  8
LAYER01
 10
127.125
 20
14.875
  0
VERTEX
  8
LAYER01
 10
148.625
 20
10.875
  0
VERTEX
  8
LAYER01
 10
158.125
 20
16.5
  0
VERTEX
  8
LAYER01
 10
180.5
 20
11.125
  0
VERTEX
  8
LAYER01
 10
199.0
 20
15.625
  0
VERTEX
  8
LAYER01
 10
218.25
 20
11.5
  0
VERTEX
  8
LAYER01
 10
230.0
 20
17.125
  0
VERTEX
  8
LAYER01
 10
246.25
 20
11.75
  0
SEQEND
  8
LAYER01
  0
LINE
  8
LAYER01
  6
LINEA-PUNTO
 62
     7
 10
-8.413965
 20
99.582694
 11
259.875
 21
99.582694
  0
LINE
  8
LAYER01
  6
CONTINUOUS
 62
     7
 10
138.774951
 20
111.626559
 11
140.274951
 21
87.626559
  0
LINE
  8
LAYER01
  6
CONTINUOUS
 62
     7
 10
138.725049
 20
111.623441
 11
140.225049
 21
87.623441
  0
LINE
  8
LAYER01
  6
CONTINUOUS
 62
     7
 10
138.774951
 20
111.626559
 11
138.725049
 21
111.623441
  0
LINE
  8
LAYER01
  6
CONTINUOUS
 62
     7
 10
140.274951
 20
87.626559
 11
140.225049
 21
87.623441
  0
SOLID
  8
LAYER01
  6
CONTINUOUS
 62
     7
 10
138.774951
 20
111.626559
 11
140.274951
 21
87.626559
 12
138.725049
 22
111.623441
 13
140.225049
 23
87.623441
  0
POLYLINE
  8
LAYER01
  6
CONTINUOUS
 62
     7
 66
     1
 40
0.15
 41
0.15
  0
VERTEX
  8
LAYER01
 10
138.75
 20
89.375
  0
VERTEX
  8
LAYER01
 10
140.25
 20
87.625
  0
VERTEX
  8
LAYER01
 10
141.75
 20
89.375
  0
SEQEND
  8
LAYER01
  0
POLYLINE
  8
LAYER01
  6
CONTINUOUS
 62
     7
 66
     1
 40
0.15
 41
0.15
  0
VERTEX
  8
LAYER01
 10
137.25
 20
109.875
  0
VERTEX
  8
LAYER01
 10
138.75
 20
111.625
  0
VERTEX
  8
LAYER01
 10
140.25
 20
109.875
  0
SEQEND
  8
LAYER01
  0
TEXT
  8
LAYER01
  6
TRATTEGGIATA
 62
     7
 10
129.625
 20
31.875
 40
10.0
  1
Scala  2 : 1
  0
TEXT
  8
LAYER01
  6
TRATTEGGIATA
 62
     7
 10
121.25
 20
160.25
 40
10.0
  1
CARRELLO
  0
LINE
  8
LAYER01
  6
TRATTEGGIATA
 62
     7
 10
91.75
 20
118.875
 11
91.75
 21
80.875
  0
LINE
  8
LAYER01
  6
CONTINUOUS
 62
     7
 10
102.774951
 20
111.626559
 11
104.274951
 21
87.626559
  0
LINE
  8
LAYER01
  6
CONTINUOUS
 62
     7
 10
102.725049
 20
111.623441
 11
104.225049
 21
87.623441
  0
LINE
  8
LAYER01
  6
CONTINUOUS
 62
     7
 10
102.774951
 20
111.626559
 11
102.725049
 21
111.623441
  0
LINE
  8
LAYER01
  6
CONTINUOUS
 62
     7
 10
104.274951
 20
87.626559
 11
104.225049
 21
87.623441
  0
SOLID
  8
LAYER01
  6
CONTINUOUS
 62
     7
 10
102.774951
 20
111.626559
 11
104.274951
 21
87.626559
 12
102.725049
 22
111.623441
 13
104.225049
 23
87.623441
  0
LINE
  8
LAYER01
  6
CONTINUOUS
 62
     7
 10
116.274935
 20
110.126803
 11
117.774935
 21
89.376803
  0
LINE
  8
LAYER01
  6
CONTINUOUS
 62
     7
 10
116.225065
 20
110.123197
 11
117.725065
 21
89.373197
  0
LINE
  8
LAYER01
  6
CONTINUOUS
 62
     7
 10
116.274935
 20
110.126803
 11
116.225065
 21
110.123197
  0
LINE
  8
LAYER01
  6
CONTINUOUS
 62
     7
 10
117.774935
 20
89.376803
 11
117.725065
 21
89.373197
  0
SOLID
  8
LAYER01
  6
CONTINUOUS
 62
     7
 10
116.274935
 20
110.126803
 11
117.774935
 21
89.376803
 12
116.225065
 22
110.123197
 13
117.725065
 23
89.373197
  0
LINE
  8
LAYER01
  6
CONTINUOUS
 62
     7
 10
117.774951
 20
111.626559
 11
119.274951
 21
87.626559
  0
LINE
  8
LAYER01
  6
CONTINUOUS
 62
     7
 10
117.725049
 20
111.623441
 11
119.225049
 21
87.623441
  0
LINE
  8
LAYER01
  6
CONTINUOUS
 62
     7
 10
117.774951
 20
111.626559
 11
117.725049
 21
111.623441
  0
LINE
  8
LAYER01
  6
CONTINUOUS
 62
     7
 10
119.274951
 20
87.626559
 11
119.225049
 21
87.623441
  0
SOLID
  8
LAYER01
  6
CONTINUOUS
 62
     7
 10
117.774951
 20
111.626559
 11
119.274951
 21
87.626559
 12
117.725049
 22
111.623441
 13
119.225049
 23
87.623441
  0
LINE
  8
LAYER01
  6
CONTINUOUS
 62
     7
 10
119.274933
 20
109.876824
 11
120.774933
 21
89.376824
  0
LINE
  8
LAYER01
  6
CONTINUOUS
 62
     7
 10
119.225067
 20
109.873176
 11
120.725067
 21
89.373176
  0
LINE
  8
LAYER01
  6
CONTINUOUS
 62
     7
 10
119.274933
 20
109.876824
 11
119.225067
 21
109.873176
  0
LINE
  8
LAYER01
  6
CONTINUOUS
 62
     7
 10
120.774933
 20
89.376824
 11
120.725067
 21
89.373176
  0
SOLID
  8
LAYER01
  6
CONTINUOUS
 62
     7
 10
119.274933
 20
109.876824
 11
120.774933
 21
89.376824
 12
119.225067
 22
109.873176
 13
120.725067
 23
89.373176
  0
LINE
  8
LAYER01
  6
CONTINUOUS
 62
     7
 10
122.274933
 20
109.876824
 11
123.774933
 21
89.376824
  0
LINE
  8
LAYER01
  6
CONTINUOUS
 62
     7
 10
122.225067
 20
109.873176
 11
123.725067
 21
89.373176
  0
LINE
  8
LAYER01
  6
CONTINUOUS
 62
     7
 10
122.274933
 20
109.876824
 11
122.225067
 21
109.873176
  0
LINE
  8
LAYER01
  6
CONTINUOUS
 62
     7
 10
123.774933
 20
89.376824
 11
123.725067
 21
89.373176
  0
SOLID
  8
LAYER01
  6
CONTINUOUS
 62
     7
 10
122.274933
 20
109.876824
 11
123.774933
 21
89.376824
 12
122.225067
 22
109.873176
 13
123.725067
 23
89.373176
  0
LINE
  8
LAYER01
  6
CONTINUOUS
 62
     7
 10
120.774951
 20
111.626559
 11
122.274951
 21
87.626559
  0
LINE
  8
LAYER01
  6
CONTINUOUS
 62
     7
 10
120.725049
 20
111.623441
 11
122.225049
 21
87.623441
  0
LINE
  8
LAYER01
  6
CONTINUOUS
 62
     7
 10
120.774951
 20
111.626559
 11
120.725049
 21
111.623441
  0
LINE
  8
LAYER01
  6
CONTINUOUS
 62
     7
 10
122.274951
 20
87.626559
 11
122.225049
 21
87.623441
  0
SOLID
  8
LAYER01
  6
CONTINUOUS
 62
     7
 10
120.774951
 20
111.626559
 11
122.274951
 21
87.626559
 12
120.725049
 22
111.623441
 13
122.225049
 23
87.623441
  0
LINE
  8
LAYER01
  6
CONTINUOUS
 62
     7
 10
125.274935
 20
110.126803
 11
126.774935
 21
89.376803
  0
LINE
  8
LAYER01
  6
CONTINUOUS
 62
     7
 10
125.225065
 20
110.123197
 11
126.725065
 21
89.373197
  0
LINE
  8
LAYER01
  6
CONTINUOUS
 62
     7
 10
125.274935
 20
110.126803
 11
125.225065
 21
110.123197
  0
LINE
  8
LAYER01
  6
CONTINUOUS
 62
     7
 10
126.774935
 20
89.376803
 11
126.725065
 21
89.373197
  0
SOLID
  8
LAYER01
  6
CONTINUOUS
 62
     7
 10
125.274935
 20
110.126803
 11
126.774935
 21
89.376803
 12
125.225065
 22
110.123197
 13
126.725065
 23
89.373197
  0
LINE
  8
LAYER01
  6
CONTINUOUS
 62
     7
 10
126.774951
 20
111.626559
 11
128.274951
 21
87.626559
  0
LINE
  8
LAYER01
  6
CONTINUOUS
 62
     7
 10
126.725049
 20
111.623441
 11
128.225049
 21
87.623441
  0
LINE
  8
LAYER01
  6
CONTINUOUS
 62
     7
 10
126.774951
 20
111.626559
 11
126.725049
 21
111.623441
  0
LINE
  8
LAYER01
  6
CONTINUOUS
 62
     7
 10
128.274951
 20
87.626559
 11
128.225049
 21
87.623441
  0
SOLID
  8
LAYER01
  6
CONTINUOUS
 62
     7
 10
126.774951
 20
111.626559
 11
128.274951
 21
87.626559
 12
126.725049
 22
111.623441
 13
128.225049
 23
87.623441
  0
LINE
  8
LAYER01
  6
CONTINUOUS
 62
     7
 10
128.274933
 20
109.876824
 11
129.774933
 21
89.376824
  0
LINE
  8
LAYER01
  6
CONTINUOUS
 62
     7
 10
128.225067
 20
109.873176
 11
129.725067
 21
89.373176
  0
LINE
  8
LAYER01
  6
CONTINUOUS
 62
     7
 10
128.274933
 20
109.876824
 11
128.225067
 21
109.873176
  0
LINE
  8
LAYER01
  6
CONTINUOUS
 62
     7
 10
129.774933
 20
89.376824
 11
129.725067
 21
89.373176
  0
SOLID
  8
LAYER01
  6
CONTINUOUS
 62
     7
 10
128.274933
 20
109.876824
 11
129.774933
 21
89.376824
 12
128.225067
 22
109.873176
 13
129.725067
 23
89.373176
  0
LINE
  8
LAYER01
  6
CONTINUOUS
 62
     7
 10
131.274933
 20
109.876824
 11
132.774933
 21
89.376824
  0
LINE
  8
LAYER01
  6
CONTINUOUS
 62
     7
 10
131.225067
 20
109.873176
 11
132.725067
 21
89.373176
  0
LINE
  8
LAYER01
  6
CONTINUOUS
 62
     7
 10
131.274933
 20
109.876824
 11
131.225067
 21
109.873176
  0
LINE
  8
LAYER01
  6
CONTINUOUS
 62
     7
 10
132.774933
 20
89.376824
 11
132.725067
 21
89.373176
  0
SOLID
  8
LAYER01
  6
CONTINUOUS
 62
     7
 10
131.274933
 20
109.876824
 11
132.774933
 21
89.376824
 12
131.225067
 22
109.873176
 13
132.725067
 23
89.373176
  0
LINE
  8
LAYER01
  6
CONTINUOUS
 62
     7
 10
123.774951
 20
111.626559
 11
125.274951
 21
87.626559
  0
LINE
  8
LAYER01
  6
CONTINUOUS
 62
     7
 10
123.725049
 20
111.623441
 11
125.225049
 21
87.623441
  0
LINE
  8
LAYER01
  6
CONTINUOUS
 62
     7
 10
123.774951
 20
111.626559
 11
123.725049
 21
111.623441
  0
LINE
  8
LAYER01
  6
CONTINUOUS
 62
     7
 10
125.274951
 20
87.626559
 11
125.225049
 21
87.623441
  0
SOLID
  8
LAYER01
  6
CONTINUOUS
 62
     7
 10
123.774951
 20
111.626559
 11
125.274951
 21
87.626559
 12
123.725049
 22
111.623441
 13
125.225049
 23
87.623441
  0
LINE
  8
LAYER01
  6
CONTINUOUS
 62
     7
 10
132.774951
 20
111.626559
 11
134.274951
 21
87.626559
  0
LINE
  8
LAYER01
  6
CONTINUOUS
 62
     7
 10
132.725049
 20
111.623441
 11
134.225049
 21
87.623441
  0
LINE
  8
LAYER01
  6
CONTINUOUS
 62
     7
 10
132.774951
 20
111.626559
 11
132.725049
 21
111.623441
  0
LINE
  8
LAYER01
  6
CONTINUOUS
 62
     7
 10
134.274951
 20
87.626559
 11
134.225049
 21
87.623441
  0
SOLID
  8
LAYER01
  6
CONTINUOUS
 62
     7
 10
132.774951
 20
111.626559
 11
134.274951
 21
87.626559
 12
132.725049
 22
111.623441
 13
134.225049
 23
87.623441
  0
LINE
  8
LAYER01
  6
CONTINUOUS
 62
     7
 10
134.274933
 20
109.876824
 11
135.774933
 21
89.376824
  0
LINE
  8
LAYER01
  6
CONTINUOUS
 62
     7
 10
134.225067
 20
109.873176
 11
135.725067
 21
89.373176
  0
LINE
  8
LAYER01
  6
CONTINUOUS
 62
     7
 10
134.274933
 20
109.876824
 11
134.225067
 21
109.873176
  0
LINE
  8
LAYER01
  6
CONTINUOUS
 62
     7
 10
135.774933
 20
89.376824
 11
135.725067
 21
89.373176
  0
SOLID
  8
LAYER01
  6
CONTINUOUS
 62
     7
 10
134.274933
 20
109.876824
 11
135.774933
 21
89.376824
 12
134.225067
 22
109.873176
 13
135.725067
 23
89.373176
  0
LINE
  8
LAYER01
  6
CONTINUOUS
 62
     7
 10
137.274933
 20
109.876824
 11
138.774933
 21
89.376824
  0
LINE
  8
LAYER01
  6
CONTINUOUS
 62
     7
 10
137.225067
 20
109.873176
 11
138.725067
 21
89.373176
  0
LINE
  8
LAYER01
  6
CONTINUOUS
 62
     7
 10
137.274933
 20
109.876824
 11
137.225067
 21
109.873176
  0
LINE
  8
LAYER01
  6
CONTINUOUS
 62
     7
 10
138.774933
 20
89.376824
 11
138.725067
 21
89.373176
  0
SOLID
  8
LAYER01
  6
CONTINUOUS
 62
     7
 10
137.274933
 20
109.876824
 11
138.774933
 21
89.376824
 12
137.225067
 22
109.873176
 13
138.725067
 23
89.373176
  0
LINE
  8
LAYER01
  6
CONTINUOUS
 62
     7
 10
135.774951
 20
111.626559
 11
137.274951
 21
87.626559
  0
LINE
  8
LAYER01
  6
CONTINUOUS
 62
     7
 10
135.725049
 20
111.623441
 11
137.225049
 21
87.623441
  0
LINE
  8
LAYER01
  6
CONTINUOUS
 62
     7
 10
135.774951
 20
111.626559
 11
135.725049
 21
111.623441
  0
LINE
  8
LAYER01
  6
CONTINUOUS
 62
     7
 10
137.274951
 20
87.626559
 11
137.225049
 21
87.623441
  0
SOLID
  8
LAYER01
  6
CONTINUOUS
 62
     7
 10
135.774951
 20
111.626559
 11
137.274951
 21
87.626559
 12
135.725049
 22
111.623441
 13
137.225049
 23
87.623441
  0
LINE
  8
LAYER01
  6
CONTINUOUS
 62
     7
 10
104.274933
 20
109.876824
 11
105.774933
 21
89.376824
  0
LINE
  8
LAYER01
  6
CONTINUOUS
 62
     7
 10
104.225067
 20
109.873176
 11
105.725067
 21
89.373176
  0
LINE
  8
LAYER01
  6
CONTINUOUS
 62
     7
 10
104.274933
 20
109.876824
 11
104.225067
 21
109.873176
  0
LINE
  8
LAYER01
  6
CONTINUOUS
 62
     7
 10
105.774933
 20
89.376824
 11
105.725067
 21
89.373176
  0
SOLID
  8
LAYER01
  6
CONTINUOUS
 62
     7
 10
104.274933
 20
109.876824
 11
105.774933
 21
89.376824
 12
104.225067
 22
109.873176
 13
105.725067
 23
89.373176
  0
LINE
  8
LAYER01
  6
CONTINUOUS
 62
     7
 10
107.274933
 20
109.876824
 11
108.774933
 21
89.376824
  0
LINE
  8
LAYER01
  6
CONTINUOUS
 62
     7
 10
107.225067
 20
109.873176
 11
108.725067
 21
89.373176
  0
LINE
  8
LAYER01
  6
CONTINUOUS
 62
     7
 10
107.274933
 20
109.876824
 11
107.225067
 21
109.873176
  0
LINE
  8
LAYER01
  6
CONTINUOUS
 62
     7
 10
108.774933
 20
89.376824
 11
108.725067
 21
89.373176
  0
SOLID
  8
LAYER01
  6
CONTINUOUS
 62
     7
 10
107.274933
 20
109.876824
 11
108.774933
 21
89.376824
 12
107.225067
 22
109.873176
 13
108.725067
 23
89.373176
  0
LINE
  8
LAYER01
  6
CONTINUOUS
 62
     7
 10
105.774951
 20
111.626559
 11
107.274951
 21
87.626559
  0
LINE
  8
LAYER01
  6
CONTINUOUS
 62
     7
 10
105.725049
 20
111.623441
 11
107.225049
 21
87.623441
  0
LINE
  8
LAYER01
  6
CONTINUOUS
 62
     7
 10
105.774951
 20
111.626559
 11
105.725049
 21
111.623441
  0
LINE
  8
LAYER01
  6
CONTINUOUS
 62
     7
 10
107.274951
 20
87.626559
 11
107.225049
 21
87.623441
  0
SOLID
  8
LAYER01
  6
CONTINUOUS
 62
     7
 10
105.774951
 20
111.626559
 11
107.274951
 21
87.626559
 12
105.725049
 22
111.623441
 13
107.225049
 23
87.623441
  0
LINE
  8
LAYER01
  6
CONTINUOUS
 62
     7
 10
110.274935
 20
110.126803
 11
111.774935
 21
89.376803
  0
LINE
  8
LAYER01
  6
CONTINUOUS
 62
     7
 10
110.225065
 20
110.123197
 11
111.725065
 21
89.373197
  0
LINE
  8
LAYER01
  6
CONTINUOUS
 62
     7
 10
110.274935
 20
110.126803
 11
110.225065
 21
110.123197
  0
LINE
  8
LAYER01
  6
CONTINUOUS
 62
     7
 10
111.774935
 20
89.376803
 11
111.725065
 21
89.373197
  0
SOLID
  8
LAYER01
  6
CONTINUOUS
 62
     7
 10
110.274935
 20
110.126803
 11
111.774935
 21
89.376803
 12
110.225065
 22
110.123197
 13
111.725065
 23
89.373197
  0
LINE
  8
LAYER01
  6
CONTINUOUS
 62
     7
 10
111.774951
 20
111.626559
 11
113.274951
 21
87.626559
  0
LINE
  8
LAYER01
  6
CONTINUOUS
 62
     7
 10
111.725049
 20
111.623441
 11
113.225049
 21
87.623441
  0
LINE
  8
LAYER01
  6
CONTINUOUS
 62
     7
 10
111.774951
 20
111.626559
 11
111.725049
 21
111.623441
  0
LINE
  8
LAYER01
  6
CONTINUOUS
 62
     7
 10
113.274951
 20
87.626559
 11
113.225049
 21
87.623441
  0
SOLID
  8
LAYER01
  6
CONTINUOUS
 62
     7
 10
111.774951
 20
111.626559
 11
113.274951
 21
87.626559
 12
111.725049
 22
111.623441
 13
113.225049
 23
87.623441
  0
LINE
  8
LAYER01
  6
CONTINUOUS
 62
     7
 10
113.274933
 20
109.876824
 11
114.774933
 21
89.376824
  0
LINE
  8
LAYER01
  6
CONTINUOUS
 62
     7
 10
113.225067
 20
109.873176
 11
114.725067
 21
89.373176
  0
LINE
  8
LAYER01
  6
CONTINUOUS
 62
     7
 10
113.274933
 20
109.876824
 11
113.225067
 21
109.873176
  0
LINE
  8
LAYER01
  6
CONTINUOUS
 62
     7
 10
114.774933
 20
89.376824
 11
114.725067
 21
89.373176
  0
SOLID
  8
LAYER01
  6
CONTINUOUS
 62
     7
 10
113.274933
 20
109.876824
 11
114.774933
 21
89.376824
 12
113.225067
 22
109.873176
 13
114.725067
 23
89.373176
  0
LINE
  8
LAYER01
  6
CONTINUOUS
 62
     7
 10
114.774951
 20
111.626559
 11
116.274951
 21
87.626559
  0
LINE
  8
LAYER01
  6
CONTINUOUS
 62
     7
 10
114.725049
 20
111.623441
 11
116.225049
 21
87.623441
  0
LINE
  8
LAYER01
  6
CONTINUOUS
 62
     7
 10
114.774951
 20
111.626559
 11
114.725049
 21
111.623441
  0
LINE
  8
LAYER01
  6
CONTINUOUS
 62
     7
 10
116.274951
 20
87.626559
 11
116.225049
 21
87.623441
  0
SOLID
  8
LAYER01
  6
CONTINUOUS
 62
     7
 10
114.774951
 20
111.626559
 11
116.274951
 21
87.626559
 12
114.725049
 22
111.623441
 13
116.225049
 23
87.623441
  0
LINE
  8
LAYER01
  6
CONTINUOUS
 62
     7
 10
108.774951
 20
111.626559
 11
110.274951
 21
87.626559
  0
LINE
  8
LAYER01
  6
CONTINUOUS
 62
     7
 10
108.725049
 20
111.623441
 11
110.225049
 21
87.623441
  0
LINE
  8
LAYER01
  6
CONTINUOUS
 62
     7
 10
108.774951
 20
111.626559
 11
108.725049
 21
111.623441
  0
LINE
  8
LAYER01
  6
CONTINUOUS
 62
     7
 10
110.274951
 20
87.626559
 11
110.225049
 21
87.623441
  0
SOLID
  8
LAYER01
  6
CONTINUOUS
 62
     7
 10
108.774951
 20
111.626559
 11
110.274951
 21
87.626559
 12
108.725049
 22
111.623441
 13
110.225049
 23
87.623441
  0
LINE
  8
LAYER01
  6
CONTINUOUS
 62
     7
 10
129.75
 20
111.625
 11
131.25
 21
87.625
  0
LINE
  8
LAYER01
  6
CONTINUOUS
 62
     7
 10
101.175
 20
89.375
 11
101.175
 21
109.875
  0
LINE
  8
LAYER01
  6
CONTINUOUS
 62
     7
 10
101.325
 20
89.375
 11
101.325
 21
109.875
  0
LINE
  8
LAYER01
  6
CONTINUOUS
 62
     7
 10
101.175
 20
89.375
 11
101.325
 21
89.375
  0
LINE
  8
LAYER01
  6
CONTINUOUS
 62
     7
 10
101.175
 20
109.875
 11
101.325
 21
109.875
  0
SOLID
  8
LAYER01
  6
CONTINUOUS
 62
     7
 10
101.175
 20
89.375
 11
101.175
 21
109.875
 12
101.325
 22
89.375
 13
101.325
 23
109.875
  0
LINE
  8
LAYER01
  6
CONTINUOUS
 62
     7
 10
101.329502
 20
109.922772
 11
102.774938
 21
89.376754
  0
LINE
  8
LAYER01
  6
CONTINUOUS
 62
     7
 10
101.279625
 20
109.919263
 11
102.725062
 21
89.373246
  0
LINE
  8
LAYER01
  6
CONTINUOUS
 62
     7
 10
101.329502
 20
109.922772
 11
101.279625
 21
109.919263
  0
LINE
  8
LAYER01
  6
CONTINUOUS
 62
     7
 10
102.774938
 20
89.376754
 11
102.725062
 21
89.373246
  0
SOLID
  8
LAYER01
  6
CONTINUOUS
 62
     7
 10
101.329502
 20
109.922772
 11
102.774938
 21
89.376754
 12
101.279625
 22
109.919263
 13
102.725062
 23
89.373246
  0
POLYLINE
  8
LAYER01
  6
CONTINUOUS
 62
     7
 66
     1
 70
     1
 40
0.15
 41
0.15
  0
VERTEX
  8
LAYER01
 10
-4.0
 20
91.625
  0
VERTEX
  8
LAYER01
 10
-4.0
 20
107.625
  0
VERTEX
  8
LAYER01
 10
46.5
 20
107.625
  0
VERTEX
  8
LAYER01
 10
46.5
 20
91.625
  0
SEQEND
  8
LAYER01
  0
POLYLINE
  8
LAYER01
  6
CONTINUOUS
 62
     7
 66
     1
 70
     1
 40
0.15
 41
0.15
  0
VERTEX
  8
LAYER01
 10
46.5
 20
89.625
  0
VERTEX
  8
LAYER01
 10
46.5
 20
109.625
  0
VERTEX
  8
LAYER01
 10
101.25
 20
109.625
  0
VERTEX
  8
LAYER01
 10
101.25
 20
89.625
  0
SEQEND
  8
LAYER01
  0
TEXT
  8
LAYER01
  6
TRATTEGGIATA
 62
     7
 10
17.25
 20
100.0
 40
5.0
  1
D.8
 41
1.2
  0
POLYLINE
  8
LAYER01
  6
CONTINUOUS
 62
     7
 66
     1
 70
     1
 40
0.15
 41
0.15
  0
VERTEX
  8
LAYER01
 10
66.75
 20
89.125
  0
VERTEX
  8
LAYER01
 10
65.0
 20
76.625
  0
VERTEX
  8
LAYER01
 10
67.0
 20
76.625
  0
VERTEX
  8
LAYER01
 10
69.0
 20
89.125
  0
SEQEND
  8
LAYER01
  0
LINE
  8
LAYER01
  6
CONTINUOUS
 62
     7
 10
64.875
 20
76.625
 11
64.875
 21
10.125
  0
LINE
  8
LAYER01
  6
CONTINUOUS
 62
     7
 10
64.625
 20
76.625
 11
64.625
 21
10.125
  0
LINE
  8
LAYER01
  6
CONTINUOUS
 62
     7
 10
64.875
 20
76.625
 11
64.625
 21
76.625
  0
LINE
  8
LAYER01
  6
CONTINUOUS
 62
     7
 10
64.875
 20
10.125
 11
64.625
 21
10.125
  0
SOLID
  8
LAYER01
  6
CONTINUOUS
 62
     7
 10
64.875
 20
76.625
 11
64.875
 21
10.125
 12
64.625
 22
76.625
 13
64.625
 23
10.125
  0
POLYLINE
  8
LAYER01
  6
CONTINUOUS
 62
     7
 66
     1
  0
VERTEX
  8
LAYER01
 10
23.25
 20
52.375
  0
VERTEX
  8
LAYER01
 10
29.25
 20
56.875
  0
VERTEX
  8
LAYER01
 10
32.75
 20
53.375
  0
VERTEX
  8
LAYER01
 10
40.25
 20
56.375
  0
VERTEX
  8
LAYER01
 10
45.25
 20
52.375
  0
VERTEX
  8
LAYER01
 10
52.5
 20
55.125
  0
VERTEX
  8
LAYER01
 10
58.5
 20
53.375
  0
SEQEND
  8
LAYER01
  0
INSERT
  8
LAYER01
  2
GIOCHI-G3
 10
0.0
 20
0.0
  0
POLYLINE
  8
LAYER01
  6
CONTINUOUS
 62
     7
 66
     1
 70
     1
  0
VERTEX
  8
LAYER01
 10
56.35
 20
74.475
  0
VERTEX
  8
LAYER01
 10
53.85
 20
74.475
  0
VERTEX
  8
LAYER01
 10
53.85
 20
85.475
  0
VERTEX
  8
LAYER01
 10
40.65
 20
85.475
  0
VERTEX
  8
LAYER01
 10
40.65
 20
78.475
  0
VERTEX
  8
LAYER01
 10
26.65
 20
78.475
  0
VERTEX
  8
LAYER01
 10
26.65
 20
54.925
  0
VERTEX
  8
LAYER01
 10
29.25
 20
56.875
  0
VERTEX
  8
LAYER01
 10
32.75
 20
53.375
  0
VERTEX
  8
LAYER01
 10
40.25
 20
56.375
  0
VERTEX
  8
LAYER01
 10
45.25
 20
52.375
  0
VERTEX
  8
LAYER01
 10
52.5
 20
55.125
  0
VERTEX
  8
LAYER01
 10
56.35
 20
54.002083
  0
SEQEND
  8
LAYER01
  0
INSERT
  8
LAYER01
  2
GIOCHI-G6
 10
0.0
 20
0.0
  0
POLYLINE
  8
LAYER01
  6
CONTINUOUS
 62
     7
 66
     1
 40
0.15
 41
0.15
  0
VERTEX
  8
LAYER01
 10
26.5
 20
54.125
  0
VERTEX
  8
LAYER01
 10
26.5
 20
78.625
  0
VERTEX
  8
LAYER01
 10
40.5
 20
78.625
  0
VERTEX
  8
LAYER01
 10
40.5
 20
85.625
  0
VERTEX
  8
LAYER01
 10
54.0
 20
85.625
  0
VERTEX
  8
LAYER01
 10
54.0
 20
74.625
  0
VERTEX
  8
LAYER01
 10
56.5
 20
74.625
  0
VERTEX
  8
LAYER01
 10
56.5
 20
53.375
  0
SEQEND
  8
LAYER01
  0
INSERT
  8
LAYER01
  2
GIOCHI-G7
 10
0.0
 20
0.0
  0
INSERT
  8
LAYER01
  2
GIOCHI-G10
 10
0.0
 20
0.0
  0
POLYLINE
  8
LAYER01
  6
CONTINUOUS
 62
     7
 66
     1
 70
     1
 40
0.15
 41
0.15
  0
VERTEX
  8
LAYER01
 10
91.75
 20
80.875
  0
VERTEX
  8
LAYER01
 10
91.75
 20
59.625
  0
VERTEX
  8
LAYER01
 10
111.75
 20
59.625
  0
VERTEX
  8
LAYER01
 10
111.75
 20
80.875
  0
SEQEND
  8
LAYER01
  0
POLYLINE
  8
LAYER01
  6
CONTINUOUS
 62
     7
 66
     1
 70
     1
  0
VERTEX
  8
LAYER01
 10
111.6
 20
59.775
  0
VERTEX
  8
LAYER01
 10
91.9
 20
59.775
  0
VERTEX
  8
LAYER01
 10
91.9
 20
62.625
  0
VERTEX
  8
LAYER01
 10
100.0
 20
62.625
  0
VERTEX
  8
LAYER01
 10
100.0
 20
65.375
  0
VERTEX
  8
LAYER01
 10
111.5
 20
65.375
  0
VERTEX
  8
LAYER01
 10
111.5
 20
69.625
  0
VERTEX
  8
LAYER01
 10
111.6
 20
69.625
  0
SEQEND
  8
LAYER01
  0
INSERT
  8
LAYER01
  2
GIOCHI-G11
 10
0.0
 20
0.0
  0
POLYLINE
  8
LAYER01
  6
CONTINUOUS
 62
     7
 66
     1
 70
     1
  0
VERTEX
  8
LAYER01
 10
111.6
 20
69.625
  0
VERTEX
  8
LAYER01
 10
111.5
 20
69.625
  0
VERTEX
  8
LAYER01
 10
111.5
 20
73.875
  0
VERTEX
  8
LAYER01
 10
100.0
 20
73.875
  0
VERTEX
  8
LAYER01
 10
100.0
 20
76.875
  0
VERTEX
  8
LAYER01
 10
91.9
 20
76.875
  0
VERTEX
  8
LAYER01
 10
91.9
 20
80.725
  0
VERTEX
  8
LAYER01
 10
111.6
 20
80.725
  0
SEQEND
  8
LAYER01
  0
INSERT
  8
LAYER01
  2
GIOCHI-G12
 10
0.0
 20
0.0
  0
POLYLINE
  8
LAYER01
  6
CONTINUOUS
 62
     7
 66
     1
 40
0.15
 41
0.15
  0
VERTEX
  8
LAYER01
 10
102.75
 20
89.375
  0
VERTEX
  8
LAYER01
 10
101.25
 20
87.625
  0
VERTEX
  8
LAYER01
 10
101.25
 20
89.375
  0
SEQEND
  8
LAYER01
  0
TEXT
  8
LAYER01
  6
TRATTEGGIATA
 62
     7
 10
82.875
 20
66.625
 40
5.0
  1
M4
 41
1.2
  0
POLYLINE
  8
LAYER01
  6
CONTINUOUS
 62
     7
 66
     1
 70
     1
 40
0.15
 41
0.15
  0
VERTEX
  8
LAYER01
 10
85.25
 20
89.375
  0
VERTEX
  8
LAYER01
 10
85.25
 20
82.625
  0
VERTEX
  8
LAYER01
 10
101.25
 20
82.625
  0
VERTEX
  8
LAYER01
 10
101.25
 20
89.375
  0
SEQEND
  8
LAYER01
  0
POLYLINE
  8
LAYER01
  6
CONTINUOUS
 62
     7
 66
     1
 70
     1
  0
VERTEX
  8
LAYER01
 10
101.1
 20
82.775
  0
VERTEX
  8
LAYER01
 10
85.4
 20
82.775
  0
VERTEX
  8
LAYER01
 10
85.4
 20
89.225
  0
VERTEX
  8
LAYER01
 10
101.1
 20
89.225
  0
SEQEND
  8
LAYER01
  0
INSERT
  8
LAYER01
  2
GIOCHI-G13
 10
0.0
 20
0.0
  0
POLYLINE
  8
LAYER01
  6
CONTINUOUS
 62
     7
 66
     1
 70
     1
 40
0.15
 41
0.15
  0
VERTEX
  8
LAYER01
 10
79.25
 20
89.125
  0
VERTEX
  8
LAYER01
 10
81.0
 20
76.625
  0
VERTEX
  8
LAYER01
 10
79.0
 20
76.625
  0
VERTEX
  8
LAYER01
 10
77.0
 20
89.125
  0
SEQEND
  8
LAYER01
  0
POLYLINE
  8
LAYER01
  6
CONTINUOUS
 62
     7
 66
     1
 70
     1
 40
0.15
 41
0.15
  0
VERTEX
  8
LAYER01
 10
74.75
 20
89.125
  0
VERTEX
  8
LAYER01
 10
73.0
 20
76.625
  0
VERTEX
  8
LAYER01
 10
75.0
 20
76.625
  0
VERTEX
  8
LAYER01
 10
77.0
 20
89.125
  0
SEQEND
  8
LAYER01
  0
POLYLINE
  8
LAYER01
  6
CONTINUOUS
 62
     7
 66
     1
 70
     1
 40
0.15
 41
0.15
  0
VERTEX
  8
LAYER01
 10
71.25
 20
89.125
  0
VERTEX
  8
LAYER01
 10
73.0
 20
76.625
  0
VERTEX
  8
LAYER01
 10
71.0
 20
76.625
  0
VERTEX
  8
LAYER01
 10
69.0
 20
89.125
  0
SEQEND
  8
LAYER01
  0
POLYLINE
  8
LAYER01
  6
CONTINUOUS
 62
     7
 66
     1
 70
     1
 40
0.15
 41
0.15
  0
VERTEX
  8
LAYER01
 10
82.75
 20
89.125
  0
VERTEX
  8
LAYER01
 10
81.0
 20
76.625
  0
VERTEX
  8
LAYER01
 10
83.0
 20
76.625
  0
VERTEX
  8
LAYER01
 10
85.0
 20
89.125
  0
SEQEND
  8
LAYER01
  0
INSERT
  8
LAYER01
  2
GIOCHI-G14
 10
0.0
 20
0.0
  0
POLYLINE
  8
LAYER01
  6
CONTINUOUS
 62
     7
 66
     1
 70
     1
  0
VERTEX
  8
LAYER01
 10
111.75
 20
87.125
  0
VERTEX
  8
LAYER01
 10
111.75
 20
77.625
  0
VERTEX
  8
LAYER01
 10
113.75
 20
75.625
  0
VERTEX
  8
LAYER01
 10
133.75
 20
75.625
  0
VERTEX
  8
LAYER01
 10
135.75
 20
77.625
  0
VERTEX
  8
LAYER01
 10
135.75
 20
87.125
  0
VERTEX
  8
LAYER01
 10
134.991935
 20
88.037707
  0
VERTEX
  8
LAYER01
 10
134.246513
 20
87.1432
  0
VERTEX
  8
LAYER01
 10
132.75
 20
88.875
  0
VERTEX
  8
LAYER01
 10
131.25
 20
87.125
  0
VERTEX
  8
LAYER01
 10
129.75
 20
88.875
  0
VERTEX
  8
LAYER01
 10
128.25
 20
87.125
  0
VERTEX
  8
LAYER01
 10
126.75
 20
88.875
  0
VERTEX
  8
LAYER01
 10
125.25
 20
87.125
  0
VERTEX
  8
LAYER01
 10
123.75
 20
88.875
  0
VERTEX
  8
LAYER01
 10
122.25
 20
87.125
  0
VERTEX
  8
LAYER01
 10
120.75
 20
88.875
  0
VERTEX
  8
LAYER01
 10
119.25
 20
87.125
  0
VERTEX
  8
LAYER01
 10
117.75
 20
88.875
  0
VERTEX
  8
LAYER01
 10
116.25
 20
87.125
  0
VERTEX
  8
LAYER01
 10
116.25
 20
87.125
  0
VERTEX
  8
LAYER01
 10
114.75
 20
88.875
  0
VERTEX
  8
LAYER01
 10
113.25
 20
87.125
  0
VERTEX
  8
LAYER01
 10
112.452977
 20
88.058384
  0
SEQEND
  8
LAYER01
  0
POLYLINE
  8
LAYER01
  6
CONTINUOUS
 62
     7
 66
     1
 70
     1
  0
VERTEX
  8
LAYER01
 10
135.75
 20
87.125
  0
VERTEX
  8
LAYER01
 10
134.991935
 20
88.037707
  0
VERTEX
  8
LAYER01
 10
134.246513
 20
87.1432
  0
VERTEX
  8
LAYER01
 10
132.75
 20
88.875
  0
VERTEX
  8
LAYER01
 10
131.25
 20
87.125
  0
VERTEX
  8
LAYER01
 10
129.75
 20
88.875
  0
VERTEX
  8
LAYER01
 10
128.25
 20
87.125
  0
VERTEX
  8
LAYER01
 10
126.75
 20
88.875
  0
VERTEX
  8
LAYER01
 10
125.25
 20
87.125
  0
VERTEX
  8
LAYER01
 10
123.75
 20
88.875
  0
VERTEX
  8
LAYER01
 10
122.25
 20
87.125
  0
VERTEX
  8
LAYER01
 10
120.75
 20
88.875
  0
VERTEX
  8
LAYER01
 10
119.25
 20
87.125
  0
VERTEX
  8
LAYER01
 10
117.75
 20
88.875
  0
VERTEX
  8
LAYER01
 10
116.25
 20
87.125
  0
VERTEX
  8
LAYER01
 10
114.75
 20
88.875
  0
VERTEX
  8
LAYER01
 10
113.25
 20
87.125
  0
VERTEX
  8
LAYER01
 10
112.452977
 20
88.058384
  0
VERTEX
  8
LAYER01
 10
111.75
 20
87.125
  0
VERTEX
  8
LAYER01
 10
111.75
 20
77.625
  0
VERTEX
  8
LAYER01
 10
113.75
 20
75.625
  0
VERTEX
  8
LAYER01
 10
133.75
 20
75.625
  0
VERTEX
  8
LAYER01
 10
135.75
 20
77.625
  0
SEQEND
  8
LAYER01
  0
INSERT
  8
LAYER01
  2
GIOCHI-G15
 10
0.0
 20
0.0
  0
LINE
  8
LAYER01
  6
CONTINUOUS
 62
     7
 10
111.328074
 20
88.882743
 11
111.774878
 21
84.377467
  0
LINE
  8
LAYER01
  6
CONTINUOUS
 62
     7
 10
111.278318
 20
88.877808
 11
111.725122
 21
84.372533
  0
LINE
  8
LAYER01
  6
CONTINUOUS
 62
     7
 10
111.328074
 20
88.882743
 11
111.278318
 21
88.877808
  0
LINE
  8
LAYER01
  6
CONTINUOUS
 62
     7
 10
111.774878
 20
84.377467
 11
111.725122
 21
84.372533
  0
SOLID
  8
LAYER01
  6
CONTINUOUS
 62
     7
 10
111.328074
 20
88.882743
 11
111.774878
 21
84.377467
 12
111.278318
 22
88.877808
 13
111.725122
 23
84.372533
  0
LINE
  8
LAYER01
  6
CONTINUOUS
 62
     7
 10
138.352626
 20
88.635178
 11
138.774878
 21
84.377467
  0
LINE
  8
LAYER01
  6
CONTINUOUS
 62
     7
 10
138.30287
 20
88.630243
 11
138.725122
 21
84.372533
  0
LINE
  8
LAYER01
  6
CONTINUOUS
 62
     7
 10
138.352626
 20
88.635178
 11
138.30287
 21
88.630243
  0
LINE
  8
LAYER01
  6
CONTINUOUS
 62
     7
 10
138.774878
 20
84.377467
 11
138.725122
 21
84.372533
  0
SOLID
  8
LAYER01
  6
CONTINUOUS
 62
     7
 10
138.352626
 20
88.635178
 11
138.774878
 21
84.377467
 12
138.30287
 22
88.630243
 13
138.725122
 23
84.372533
  0
POLYLINE
  8
LAYER01
  6
CONTINUOUS
 62
     7
 66
     1
 40
0.15
 41
0.15
  0
VERTEX
  8
LAYER01
 10
102.75
 20
89.375
  0
VERTEX
  8
LAYER01
 10
104.25
 20
87.625
  0
VERTEX
  8
LAYER01
 10
105.75
 20
89.375
  0
SEQEND
  8
LAYER01
  0
POLYLINE
  8
LAYER01
  6
CONTINUOUS
 62
     7
 66
     1
 40
0.15
 41
0.15
  0
VERTEX
  8
LAYER01
 10
117.75
 20
89.375
  0
VERTEX
  8
LAYER01
 10
119.25
 20
87.625
  0
VERTEX
  8
LAYER01
 10
120.75
 20
89.375
  0
SEQEND
  8
LAYER01
  0
POLYLINE
  8
LAYER01
  6
CONTINUOUS
 62
     7
 66
     1
 40
0.15
 41
0.15
  0
VERTEX
  8
LAYER01
 10
120.75
 20
89.375
  0
VERTEX
  8
LAYER01
 10
122.25
 20
87.625
  0
VERTEX
  8
LAYER01
 10
123.75
 20
89.375
  0
SEQEND
  8
LAYER01
  0
POLYLINE
  8
LAYER01
  6
CONTINUOUS
 62
     7
 66
     1
 40
0.15
 41
0.15
  0
VERTEX
  8
LAYER01
 10
123.75
 20
89.375
  0
VERTEX
  8
LAYER01
 10
125.25
 20
87.625
  0
VERTEX
  8
LAYER01
 10
126.75
 20
89.375
  0
SEQEND
  8
LAYER01
  0
POLYLINE
  8
LAYER01
  6
CONTINUOUS
 62
     7
 66
     1
 40
0.15
 41
0.15
  0
VERTEX
  8
LAYER01
 10
126.75
 20
89.375
  0
VERTEX
  8
LAYER01
 10
128.25
 20
87.625
  0
VERTEX
  8
LAYER01
 10
129.75
 20
89.375
  0
SEQEND
  8
LAYER01
  0
POLYLINE
  8
LAYER01
  6
CONTINUOUS
 62
     7
 66
     1
 40
0.15
 41
0.15
  0
VERTEX
  8
LAYER01
 10
129.75
 20
89.375
  0
VERTEX
  8
LAYER01
 10
131.25
 20
87.625
  0
VERTEX
  8
LAYER01
 10
132.75
 20
89.375
  0
SEQEND
  8
LAYER01
  0
POLYLINE
  8
LAYER01
  6
CONTINUOUS
 62
     7
 66
     1
 40
0.15
 41
0.15
  0
VERTEX
  8
LAYER01
 10
132.75
 20
89.375
  0
VERTEX
  8
LAYER01
 10
134.25
 20
87.625
  0
VERTEX
  8
LAYER01
 10
135.75
 20
89.375
  0
SEQEND
  8
LAYER01
  0
POLYLINE
  8
LAYER01
  6
CONTINUOUS
 62
     7
 66
     1
 40
0.15
 41
0.15
  0
VERTEX
  8
LAYER01
 10
135.75
 20
89.375
  0
VERTEX
  8
LAYER01
 10
137.25
 20
87.625
  0
VERTEX
  8
LAYER01
 10
138.75
 20
89.375
  0
SEQEND
  8
LAYER01
  0
POLYLINE
  8
LAYER01
  6
CONTINUOUS
 62
     7
 66
     1
 40
0.15
 41
0.15
  0
VERTEX
  8
LAYER01
 10
105.75
 20
89.375
  0
VERTEX
  8
LAYER01
 10
107.25
 20
87.625
  0
VERTEX
  8
LAYER01
 10
108.75
 20
89.375
  0
SEQEND
  8
LAYER01
  0
POLYLINE
  8
LAYER01
  6
CONTINUOUS
 62
     7
 66
     1
 40
0.15
 41
0.15
  0
VERTEX
  8
LAYER01
 10
108.75
 20
89.375
  0
VERTEX
  8
LAYER01
 10
110.25
 20
87.625
  0
VERTEX
  8
LAYER01
 10
111.75
 20
89.375
  0
SEQEND
  8
LAYER01
  0
POLYLINE
  8
LAYER01
  6
CONTINUOUS
 62
     7
 66
     1
 40
0.15
 41
0.15
  0
VERTEX
  8
LAYER01
 10
111.75
 20
89.375
  0
VERTEX
  8
LAYER01
 10
113.25
 20
87.625
  0
VERTEX
  8
LAYER01
 10
114.75
 20
89.375
  0
SEQEND
  8
LAYER01
  0
POLYLINE
  8
LAYER01
  6
CONTINUOUS
 62
     7
 66
     1
 40
0.15
 41
0.15
  0
VERTEX
  8
LAYER01
 10
117.75
 20
89.375
  0
VERTEX
  8
LAYER01
 10
116.25
 20
87.625
  0
VERTEX
  8
LAYER01
 10
114.75
 20
89.375
  0
SEQEND
  8
LAYER01
  0
POLYLINE
  8
LAYER01
  6
CONTINUOUS
 62
     7
 66
     1
 70
     1
 40
0.15
 41
0.15
  0
VERTEX
  8
LAYER01
 10
66.75
 20
110.125
  0
VERTEX
  8
LAYER01
 10
65.0
 20
122.625
  0
VERTEX
  8
LAYER01
 10
67.0
 20
122.625
  0
VERTEX
  8
LAYER01
 10
69.0
 20
110.125
  0
SEQEND
  8
LAYER01
  0
LINE
  8
LAYER01
  6
CONTINUOUS
 62
     7
 10
65.125
 20
192.0
 11
65.125
 21
122.5
  0
LINE
  8
LAYER01
  6
CONTINUOUS
 62
     7
 10
64.875
 20
192.0
 11
64.875
 21
122.5
  0
LINE
  8
LAYER01
  6
CONTINUOUS
 62
     7
 10
65.125
 20
192.0
 11
64.875
 21
192.0
  0
LINE
  8
LAYER01
  6
CONTINUOUS
 62
     7
 10
65.125
 20
122.5
 11
64.875
 21
122.5
  0
SOLID
  8
LAYER01
  6
CONTINUOUS
 62
     7
 10
65.125
 20
192.0
 11
65.125
 21
122.5
 12
64.875
 22
192.0
 13
64.875
 23
122.5
  0
TEXT
  8
LAYER01
  6
TRATTEGGIATA
 62
     7
 10
61.0
 20
101.5
 40
5.0
  1
D.10
 41
1.2
  0
POLYLINE
  8
LAYER01
  6
CONTINUOUS
 62
     7
 66
     1
  0
VERTEX
  8
LAYER01
 10
24.5
 20
146.875
  0
VERTEX
  8
LAYER01
 10
28.0
 20
142.875
  0
VERTEX
  8
LAYER01
 10
32.25
 20
145.625
  0
VERTEX
  8
LAYER01
 10
37.25
 20
141.875
  0
VERTEX
  8
LAYER01
 10
41.75
 20
146.125
  0
VERTEX
  8
LAYER01
 10
46.75
 20
142.875
  0
VERTEX
  8
LAYER01
 10
51.75
 20
146.125
  0
VERTEX
  8
LAYER01
 10
53.75
 20
143.375
  0
VERTEX
  8
LAYER01
 10
58.0
 20
147.375
  0
SEQEND
  8
LAYER01
  0
INSERT
  8
LAYER01
  2
GIOCHI-G16
 10
0.0
 20
0.0
  0
POLYLINE
  8
LAYER01
  6
CONTINUOUS
 62
     7
 66
     1
 70
     1
  0
VERTEX
  8
LAYER01
 10
56.35
 20
145.822059
  0
VERTEX
  8
LAYER01
 10
53.75
 20
143.375
  0
VERTEX
  8
LAYER01
 10
51.75
 20
146.125
  0
VERTEX
  8
LAYER01
 10
46.75
 20
142.875
  0
VERTEX
  8
LAYER01
 10
41.75
 20
146.125
  0
VERTEX
  8
LAYER01
 10
37.25
 20
141.875
  0
VERTEX
  8
LAYER01
 10
32.25
 20
145.625
  0
VERTEX
  8
LAYER01
 10
28.0
 20
142.875
  0
VERTEX
  8
LAYER01
 10
26.65
 20
144.417857
  0
VERTEX
  8
LAYER01
 10
26.65
 20
120.775
  0
VERTEX
  8
LAYER01
 10
40.65
 20
120.775
  0
VERTEX
  8
LAYER01
 10
40.65
 20
113.775
  0
VERTEX
  8
LAYER01
 10
53.85
 20
113.775
  0
VERTEX
  8
LAYER01
 10
53.85
 20
124.775
  0
VERTEX
  8
LAYER01
 10
56.35
 20
124.775
  0
SEQEND
  8
LAYER01
  0
INSERT
  8
LAYER01
  2
GIOCHI-G19
 10
0.0
 20
0.0
  0
POLYLINE
  8
LAYER01
  6
CONTINUOUS
 62
     7
 66
     1
 40
0.15
 41
0.15
  0
VERTEX
  8
LAYER01
 10
26.5
 20
145.125
  0
VERTEX
  8
LAYER01
 10
26.5
 20
120.625
  0
VERTEX
  8
LAYER01
 10
40.5
 20
120.625
  0
VERTEX
  8
LAYER01
 10
40.5
 20
113.625
  0
VERTEX
  8
LAYER01
 10
54.0
 20
113.625
  0
VERTEX
  8
LAYER01
 10
54.0
 20
124.625
  0
VERTEX
  8
LAYER01
 10
56.5
 20
124.625
  0
VERTEX
  8
LAYER01
 10
56.5
 20
145.875
  0
SEQEND
  8
LAYER01
  0
INSERT
  8
LAYER01
  2
GIOCHI-G20
 10
0.0
 20
0.0
  0
INSERT
  8
LAYER01
  2
GIOCHI-G23
 10
0.0
 20
0.0
  0
INSERT
  8
LAYER01
  2
GIOCHI-G25
 10
0.0
 20
0.0
  0
POLYLINE
  8
LAYER01
  6
CONTINUOUS
 62
     7
 66
     1
 70
     1
 40
0.15
 41
0.15
  0
VERTEX
  8
LAYER01
 10
91.75
 20
118.375
  0
VERTEX
  8
LAYER01
 10
91.75
 20
139.625
  0
VERTEX
  8
LAYER01
 10
111.75
 20
139.625
  0
VERTEX
  8
LAYER01
 10
111.75
 20
118.375
  0
SEQEND
  8
LAYER01
  0
POLYLINE
  8
LAYER01
  6
CONTINUOUS
 62
     7
 66
     1
 70
     1
  0
VERTEX
  8
LAYER01
 10
111.6
 20
139.475
  0
VERTEX
  8
LAYER01
 10
91.9
 20
139.475
  0
VERTEX
  8
LAYER01
 10
91.9
 20
136.625
  0
VERTEX
  8
LAYER01
 10
100.0
 20
136.625
  0
VERTEX
  8
LAYER01
 10
100.0
 20
133.875
  0
VERTEX
  8
LAYER01
 10
111.5
 20
133.875
  0
VERTEX
  8
LAYER01
 10
111.5
 20
129.625
  0
VERTEX
  8
LAYER01
 10
111.6
 20
129.625
  0
SEQEND
  8
LAYER01
  0
INSERT
  8
LAYER01
  2
GIOCHI-G26
 10
0.0
 20
0.0
  0
POLYLINE
  8
LAYER01
  6
CONTINUOUS
 62
     7
 66
     1
 70
     1
  0
VERTEX
  8
LAYER01
 10
111.6
 20
129.625
  0
VERTEX
  8
LAYER01
 10
111.5
 20
129.625
  0
VERTEX
  8
LAYER01
 10
111.5
 20
125.375
  0
VERTEX
  8
LAYER01
 10
100.0
 20
125.375
  0
VERTEX
  8
LAYER01
 10
100.0
 20
122.375
  0
VERTEX
  8
LAYER01
 10
91.9
 20
122.375
  0
VERTEX
  8
LAYER01
 10
91.9
 20
118.525
  0
VERTEX
  8
LAYER01
 10
111.6
 20
118.525
  0
SEQEND
  8
LAYER01
  0
INSERT
  8
LAYER01
  2
GIOCHI-G27
 10
0.0
 20
0.0
  0
POLYLINE
  8
LAYER01
  6
CONTINUOUS
 62
     7
 66
     1
 40
0.15
 41
0.15
  0
VERTEX
  8
LAYER01
 10
101.25
 20
109.875
  0
VERTEX
  8
LAYER01
 10
102.75
 20
111.625
  0
VERTEX
  8
LAYER01
 10
104.25
 20
109.875
  0
SEQEND
  8
LAYER01
  0
POLYLINE
  8
LAYER01
  6
CONTINUOUS
 62
     7
 66
     1
 70
     1
 40
0.15
 41
0.15
  0
VERTEX
  8
LAYER01
 10
85.25
 20
109.875
  0
VERTEX
  8
LAYER01
 10
85.25
 20
116.625
  0
VERTEX
  8
LAYER01
 10
101.25
 20
116.625
  0
VERTEX
  8
LAYER01
 10
101.25
 20
109.875
  0
SEQEND
  8
LAYER01
  0
POLYLINE
  8
LAYER01
  6
CONTINUOUS
 62
     7
 66
     1
 70
     1
  0
VERTEX
  8
LAYER01
 10
101.1
 20
116.475
  0
VERTEX
  8
LAYER01
 10
85.4
 20
116.475
  0
VERTEX
  8
LAYER01
 10
85.4
 20
110.025
  0
VERTEX
  8
LAYER01
 10
101.1
 20
110.025
  0
SEQEND
  8
LAYER01
  0
INSERT
  8
LAYER01
  2
GIOCHI-G28
 10
0.0
 20
0.0
  0
POLYLINE
  8
LAYER01
  6
CONTINUOUS
 62
     7
 66
     1
 70
     1
 40
0.15
 41
0.15
  0
VERTEX
  8
LAYER01
 10
79.25
 20
110.125
  0
VERTEX
  8
LAYER01
 10
81.0
 20
122.625
  0
VERTEX
  8
LAYER01
 10
79.0
 20
122.625
  0
VERTEX
  8
LAYER01
 10
77.0
 20
110.125
  0
SEQEND
  8
LAYER01
  0
POLYLINE
  8
LAYER01
  6
CONTINUOUS
 62
     7
 66
     1
 70
     1
 40
0.15
 41
0.15
  0
VERTEX
  8
LAYER01
 10
74.75
 20
110.125
  0
VERTEX
  8
LAYER01
 10
73.0
 20
122.625
  0
VERTEX
  8
LAYER01
 10
75.0
 20
122.625
  0
VERTEX
  8
LAYER01
 10
77.0
 20
110.125
  0
SEQEND
  8
LAYER01
  0
POLYLINE
  8
LAYER01
  6
CONTINUOUS
 62
     7
 66
     1
 70
     1
 40
0.15
 41
0.15
  0
VERTEX
  8
LAYER01
 10
71.25
 20
110.125
  0
VERTEX
  8
LAYER01
 10
73.0
 20
122.625
  0
VERTEX
  8
LAYER01
 10
71.0
 20
122.625
  0
VERTEX
  8
LAYER01
 10
69.0
 20
110.125
  0
SEQEND
  8
LAYER01
  0
POLYLINE
  8
LAYER01
  6
CONTINUOUS
 62
     7
 66
     1
 70
     1
 40
0.15
 41
0.15
  0
VERTEX
  8
LAYER01
 10
82.75
 20
110.125
  0
VERTEX
  8
LAYER01
 10
81.0
 20
122.625
  0
VERTEX
  8
LAYER01
 10
83.0
 20
122.625
  0
VERTEX
  8
LAYER01
 10
85.0
 20
110.125
  0
SEQEND
  8
LAYER01
  0
TEXT
  8
LAYER01
  6
TRATTEGGIATA
 62
     7
 10
80.375
 20
128.5
 40
5.0
  1
M4
 41
1.2
  0
POLYLINE
  8
LAYER01
  6
CONTINUOUS
 62
     7
 66
     1
 70
     1
 40
0.05
 41
0.05
  0
VERTEX
  8
LAYER01
 10
111.75
 20
112.125
  0
VERTEX
  8
LAYER01
 10
111.75
 20
120.875
  0
VERTEX
  8
LAYER01
 10
113.75
 20
122.875
  0
VERTEX
  8
LAYER01
 10
133.75
 20
122.875
  0
VERTEX
  8
LAYER01
 10
135.75
 20
120.875
  0
VERTEX
  8
LAYER01
 10
135.75
 20
112.125
  0
VERTEX
  8
LAYER01
 10
134.25
 20
110.375
  0
VERTEX
  8
LAYER01
 10
132.75
 20
112.125
  0
VERTEX
  8
LAYER01
 10
131.25
 20
110.375
  0
VERTEX
  8
LAYER01
 10
129.75
 20
112.125
  0
VERTEX
  8
LAYER01
 10
128.25
 20
110.375
  0
VERTEX
  8
LAYER01
 10
126.75
 20
112.125
  0
VERTEX
  8
LAYER01
 10
125.25
 20
110.375
  0
VERTEX
  8
LAYER01
 10
123.75
 20
112.125
  0
VERTEX
  8
LAYER01
 10
122.25
 20
110.375
  0
VERTEX
  8
LAYER01
 10
120.75
 20
112.125
  0
VERTEX
  8
LAYER01
 10
119.25
 20
110.375
  0
VERTEX
  8
LAYER01
 10
117.75
 20
112.125
  0
VERTEX
  8
LAYER01
 10
116.25
 20
110.375
  0
VERTEX
  8
LAYER01
 10
114.75
 20
112.125
  0
VERTEX
  8
LAYER01
 10
114.75
 20
112.125
  0
VERTEX
  8
LAYER01
 10
113.25
 20
110.375
  0
SEQEND
  8
LAYER01
  0
INSERT
  8
LAYER01
  2
GIOCHI-G29
 10
0.0
 20
0.0
  0
POLYLINE
  8
LAYER01
  6
CONTINUOUS
 62
     7
 66
     1
 70
     1
  0
VERTEX
  8
LAYER01
 10
135.75
 20
120.875
  0
VERTEX
  8
LAYER01
 10
133.75
 20
122.875
  0
VERTEX
  8
LAYER01
 10
113.75
 20
122.875
  0
VERTEX
  8
LAYER01
 10
111.75
 20
120.875
  0
VERTEX
  8
LAYER01
 10
111.75
 20
112.125
  0
VERTEX
  8
LAYER01
 10
113.25
 20
110.375
  0
VERTEX
  8
LAYER01
 10
114.75
 20
112.125
  0
VERTEX
  8
LAYER01
 10
116.25
 20
110.375
  0
VERTEX
  8
LAYER01
 10
117.75
 20
112.125
  0
VERTEX
  8
LAYER01
 10
119.25
 20
110.375
  0
VERTEX
  8
LAYER01
 10
120.75
 20
112.125
  0
VERTEX
  8
LAYER01
 10
122.25
 20
110.375
  0
VERTEX
  8
LAYER01
 10
123.75
 20
112.125
  0
VERTEX
  8
LAYER01
 10
125.25
 20
110.375
  0
VERTEX
  8
LAYER01
 10
126.75
 20
112.125
  0
VERTEX
  8
LAYER01
 10
128.25
 20
110.375
  0
VERTEX
  8
LAYER01
 10
129.75
 20
112.125
  0
VERTEX
  8
LAYER01
 10
131.25
 20
110.375
  0
VERTEX
  8
LAYER01
 10
132.75
 20
112.125
  0
VERTEX
  8
LAYER01
 10
134.25
 20
110.375
  0
VERTEX
  8
LAYER01
 10
135.75
 20
112.125
  0
SEQEND
  8
LAYER01
  0
INSERT
  8
LAYER01
  2
GIOCHI-G31
 10
0.0
 20
0.0
  0
LINE
  8
LAYER01
  6
CONTINUOUS
 62
     7
 10
135.774878
 20
114.627467
 11
136.096488
 21
111.384569
  0
LINE
  8
LAYER01
  6
CONTINUOUS
 62
     7
 10
135.725122
 20
114.622533
 11
136.046732
 21
111.379635
  0
LINE
  8
LAYER01
  6
CONTINUOUS
 62
     7
 10
135.774878
 20
114.627467
 11
135.725122
 21
114.622533
  0
LINE
  8
LAYER01
  6
CONTINUOUS
 62
     7
 10
136.096488
 20
111.384569
 11
136.046732
 21
111.379635
  0
SOLID
  8
LAYER01
  6
CONTINUOUS
 62
     7
 10
135.774878
 20
114.627467
 11
136.096488
 21
111.384569
 12
135.725122
 22
114.622533
 13
136.046732
 23
111.379635
  0
CIRCLE
  8
LAYER01
  6
CONTINUOUS
 62
     7
 10
137.25
 20
114.625
 40
1.425
  0
CIRCLE
  8
LAYER01
  6
CONTINUOUS
 62
     7
 10
137.25
 20
114.625
 40
1.575
  0
LINE
  8
LAYER01
  6
CONTINUOUS
 62
     7
 10
138.824634
 20
114.632402
 11
139.146244
 21
111.389503
  0
LINE
  8
LAYER01
  6
CONTINUOUS
 62
     7
 10
138.675366
 20
114.617598
 11
138.996976
 21
111.3747
  0
LINE
  8
LAYER01
  6
CONTINUOUS
 62
     7
 10
138.824634
 20
114.632402
 11
138.675366
 21
114.617598
  0
LINE
  8
LAYER01
  6
CONTINUOUS
 62
     7
 10
139.146244
 20
111.389503
 11
138.996976
 21
111.3747
  0
SOLID
  8
LAYER01
  6
CONTINUOUS
 62
     7
 10
138.824634
 20
114.632402
 11
139.146244
 21
111.389503
 12
138.675366
 22
114.617598
 13
138.996976
 23
111.3747
  0
LINE
  8
LAYER01
  6
CONTINUOUS
 62
     7
 10
136.025
 20
117.375
 11
136.025
 21
115.625
  0
LINE
  8
LAYER01
  6
CONTINUOUS
 62
     7
 10
135.975
 20
117.375
 11
135.975
 21
115.625
  0
LINE
  8
LAYER01
  6
CONTINUOUS
 62
     7
 10
136.025
 20
117.375
 11
135.975
 21
117.375
  0
LINE
  8
LAYER01
  6
CONTINUOUS
 62
     7
 10
136.025
 20
115.625
 11
135.975
 21
115.625
  0
SOLID
  8
LAYER01
  6
CONTINUOUS
 62
     7
 10
136.025
 20
117.375
 11
136.025
 21
115.625
 12
135.975
 22
117.375
 13
135.975
 23
115.625
  0
POLYLINE
  8
LAYER01
  6
CONTINUOUS
 62
     7
 66
     1
 40
0.15
 41
0.15
  0
VERTEX
  8
LAYER01
 10
116.25
 20
109.875
  0
VERTEX
  8
LAYER01
 10
117.75
 20
111.625
  0
VERTEX
  8
LAYER01
 10
119.25
 20
109.875
  0
SEQEND
  8
LAYER01
  0
POLYLINE
  8
LAYER01
  6
CONTINUOUS
 62
     7
 66
     1
 40
0.15
 41
0.15
  0
VERTEX
  8
LAYER01
 10
119.25
 20
109.875
  0
VERTEX
  8
LAYER01
 10
120.75
 20
111.625
  0
VERTEX
  8
LAYER01
 10
122.25
 20
109.875
  0
SEQEND
  8
LAYER01
  0
POLYLINE
  8
LAYER01
  6
CONTINUOUS
 62
     7
 66
     1
 40
0.15
 41
0.15
  0
VERTEX
  8
LAYER01
 10
122.25
 20
109.875
  0
VERTEX
  8
LAYER01
 10
123.75
 20
111.625
  0
VERTEX
  8
LAYER01
 10
125.25
 20
109.875
  0
SEQEND
  8
LAYER01
  0
POLYLINE
  8
LAYER01
  6
CONTINUOUS
 62
     7
 66
     1
 40
0.15
 41
0.15
  0
VERTEX
  8
LAYER01
 10
125.25
 20
109.875
  0
VERTEX
  8
LAYER01
 10
126.75
 20
111.625
  0
VERTEX
  8
LAYER01
 10
128.25
 20
109.875
  0
SEQEND
  8
LAYER01
  0
POLYLINE
  8
LAYER01
  6
CONTINUOUS
 62
     7
 66
     1
 40
0.15
 41
0.15
  0
VERTEX
  8
LAYER01
 10
128.25
 20
109.875
  0
VERTEX
  8
LAYER01
 10
129.75
 20
111.625
  0
VERTEX
  8
LAYER01
 10
131.25
 20
109.875
  0
SEQEND
  8
LAYER01
  0
POLYLINE
  8
LAYER01
  6
CONTINUOUS
 62
     7
 66
     1
 40
0.15
 41
0.15
  0
VERTEX
  8
LAYER01
 10
131.25
 20
109.875
  0
VERTEX
  8
LAYER01
 10
132.75
 20
111.625
  0
VERTEX
  8
LAYER01
 10
134.25
 20
109.875
  0
SEQEND
  8
LAYER01
  0
POLYLINE
  8
LAYER01
  6
CONTINUOUS
 62
     7
 66
     1
 40
0.15
 41
0.15
  0
VERTEX
  8
LAYER01
 10
134.25
 20
109.875
  0
VERTEX
  8
LAYER01
 10
135.75
 20
111.625
  0
VERTEX
  8
LAYER01
 10
137.25
 20
109.875
  0
SEQEND
  8
LAYER01
  0
POLYLINE
  8
LAYER01
  6
CONTINUOUS
 62
     7
 66
     1
 40
0.15
 41
0.15
  0
VERTEX
  8
LAYER01
 10
104.25
 20
109.875
  0
VERTEX
  8
LAYER01
 10
105.75
 20
111.625
  0
VERTEX
  8
LAYER01
 10
107.25
 20
109.875
  0
SEQEND
  8
LAYER01
  0
POLYLINE
  8
LAYER01
  6
CONTINUOUS
 62
     7
 66
     1
 40
0.15
 41
0.15
  0
VERTEX
  8
LAYER01
 10
107.25
 20
109.875
  0
VERTEX
  8
LAYER01
 10
108.75
 20
111.625
  0
VERTEX
  8
LAYER01
 10
110.25
 20
109.875
  0
SEQEND
  8
LAYER01
  0
POLYLINE
  8
LAYER01
  6
CONTINUOUS
 62
     7
 66
     1
 40
0.15
 41
0.15
  0
VERTEX
  8
LAYER01
 10
110.25
 20
109.875
  0
VERTEX
  8
LAYER01
 10
111.75
 20
111.625
  0
VERTEX
  8
LAYER01
 10
113.25
 20
109.875
  0
SEQEND
  8
LAYER01
  0
POLYLINE
  8
LAYER01
  6
CONTINUOUS
 62
     7
 66
     1
 40
0.15
 41
0.15
  0
VERTEX
  8
LAYER01
 10
113.25
 20
109.875
  0
VERTEX
  8
LAYER01
 10
114.75
 20
111.625
  0
VERTEX
  8
LAYER01
 10
116.25
 20
109.875
  0
SEQEND
  8
LAYER01
  0
LINE
  8
LAYER01
  6
TRATTEGGIATA
 62
     7
 10
191.75
 20
112.875
 11
191.75
 21
86.125
  0
LINE
  8
LAYER01
  6
TRATTEGGIATA
 62
     7
 10
211.75
 20
112.875
 11
211.75
 21
86.375
  0
LINE
  8
LAYER01
  6
CONTINUOUS
 62
     7
 10
152.274933
 20
109.876824
 11
153.774933
 21
89.376824
  0
LINE
  8
LAYER01
  6
CONTINUOUS
 62
     7
 10
152.225067
 20
109.873176
 11
153.725067
 21
89.373176
  0
LINE
  8
LAYER01
  6
CONTINUOUS
 62
     7
 10
152.274933
 20
109.876824
 11
152.225067
 21
109.873176
  0
LINE
  8
LAYER01
  6
CONTINUOUS
 62
     7
 10
153.774933
 20
89.376824
 11
153.725067
 21
89.373176
  0
SOLID
  8
LAYER01
  6
CONTINUOUS
 62
     7
 10
152.274933
 20
109.876824
 11
153.774933
 21
89.376824
 12
152.225067
 22
109.873176
 13
153.725067
 23
89.373176
  0
LINE
  8
LAYER01
  6
CONTINUOUS
 62
     7
 10
140.274935
 20
110.126803
 11
141.774935
 21
89.376803
  0
LINE
  8
LAYER01
  6
CONTINUOUS
 62
     7
 10
140.225065
 20
110.123197
 11
141.725065
 21
89.373197
  0
LINE
  8
LAYER01
  6
CONTINUOUS
 62
     7
 10
140.274935
 20
110.126803
 11
140.225065
 21
110.123197
  0
LINE
  8
LAYER01
  6
CONTINUOUS
 62
     7
 10
141.774935
 20
89.376803
 11
141.725065
 21
89.373197
  0
SOLID
  8
LAYER01
  6
CONTINUOUS
 62
     7
 10
140.274935
 20
110.126803
 11
141.774935
 21
89.376803
 12
140.225065
 22
110.123197
 13
141.725065
 23
89.373197
  0
LINE
  8
LAYER01
  6
CONTINUOUS
 62
     7
 10
141.774951
 20
111.626559
 11
143.274951
 21
87.626559
  0
LINE
  8
LAYER01
  6
CONTINUOUS
 62
     7
 10
141.725049
 20
111.623441
 11
143.225049
 21
87.623441
  0
LINE
  8
LAYER01
  6
CONTINUOUS
 62
     7
 10
141.774951
 20
111.626559
 11
141.725049
 21
111.623441
  0
LINE
  8
LAYER01
  6
CONTINUOUS
 62
     7
 10
143.274951
 20
87.626559
 11
143.225049
 21
87.623441
  0
SOLID
  8
LAYER01
  6
CONTINUOUS
 62
     7
 10
141.774951
 20
111.626559
 11
143.274951
 21
87.626559
 12
141.725049
 22
111.623441
 13
143.225049
 23
87.623441
  0
LINE
  8
LAYER01
  6
CONTINUOUS
 62
     7
 10
143.274933
 20
109.876824
 11
144.774933
 21
89.376824
  0
LINE
  8
LAYER01
  6
CONTINUOUS
 62
     7
 10
143.225067
 20
109.873176
 11
144.725067
 21
89.373176
  0
LINE
  8
LAYER01
  6
CONTINUOUS
 62
     7
 10
143.274933
 20
109.876824
 11
143.225067
 21
109.873176
  0
LINE
  8
LAYER01
  6
CONTINUOUS
 62
     7
 10
144.774933
 20
89.376824
 11
144.725067
 21
89.373176
  0
SOLID
  8
LAYER01
  6
CONTINUOUS
 62
     7
 10
143.274933
 20
109.876824
 11
144.774933
 21
89.376824
 12
143.225067
 22
109.873176
 13
144.725067
 23
89.373176
  0
LINE
  8
LAYER01
  6
CONTINUOUS
 62
     7
 10
146.274933
 20
109.876824
 11
147.774933
 21
89.376824
  0
LINE
  8
LAYER01
  6
CONTINUOUS
 62
     7
 10
146.225067
 20
109.873176
 11
147.725067
 21
89.373176
  0
LINE
  8
LAYER01
  6
CONTINUOUS
 62
     7
 10
146.274933
 20
109.876824
 11
146.225067
 21
109.873176
  0
LINE
  8
LAYER01
  6
CONTINUOUS
 62
     7
 10
147.774933
 20
89.376824
 11
147.725067
 21
89.373176
  0
SOLID
  8
LAYER01
  6
CONTINUOUS
 62
     7
 10
146.274933
 20
109.876824
 11
147.774933
 21
89.376824
 12
146.225067
 22
109.873176
 13
147.725067
 23
89.373176
  0
LINE
  8
LAYER01
  6
CONTINUOUS
 62
     7
 10
144.774951
 20
111.626559
 11
146.274951
 21
87.626559
  0
LINE
  8
LAYER01
  6
CONTINUOUS
 62
     7
 10
144.725049
 20
111.623441
 11
146.225049
 21
87.623441
  0
LINE
  8
LAYER01
  6
CONTINUOUS
 62
     7
 10
144.774951
 20
111.626559
 11
144.725049
 21
111.623441
  0
LINE
  8
LAYER01
  6
CONTINUOUS
 62
     7
 10
146.274951
 20
87.626559
 11
146.225049
 21
87.623441
  0
SOLID
  8
LAYER01
  6
CONTINUOUS
 62
     7
 10
144.774951
 20
111.626559
 11
146.274951
 21
87.626559
 12
144.725049
 22
111.623441
 13
146.225049
 23
87.623441
  0
LINE
  8
LAYER01
  6
CONTINUOUS
 62
     7
 10
147.774951
 20
111.626559
 11
149.274951
 21
87.626559
  0
LINE
  8
LAYER01
  6
CONTINUOUS
 62
     7
 10
147.725049
 20
111.623441
 11
149.225049
 21
87.623441
  0
LINE
  8
LAYER01
  6
CONTINUOUS
 62
     7
 10
147.774951
 20
111.626559
 11
147.725049
 21
111.623441
  0
LINE
  8
LAYER01
  6
CONTINUOUS
 62
     7
 10
149.274951
 20
87.626559
 11
149.225049
 21
87.623441
  0
SOLID
  8
LAYER01
  6
CONTINUOUS
 62
     7
 10
147.774951
 20
111.626559
 11
149.274951
 21
87.626559
 12
147.725049
 22
111.623441
 13
149.225049
 23
87.623441
  0
LINE
  8
LAYER01
  6
CONTINUOUS
 62
     7
 10
149.274933
 20
109.876824
 11
150.774933
 21
89.376824
  0
LINE
  8
LAYER01
  6
CONTINUOUS
 62
     7
 10
149.225067
 20
109.873176
 11
150.725067
 21
89.373176
  0
LINE
  8
LAYER01
  6
CONTINUOUS
 62
     7
 10
149.274933
 20
109.876824
 11
149.225067
 21
109.873176
  0
LINE
  8
LAYER01
  6
CONTINUOUS
 62
     7
 10
150.774933
 20
89.376824
 11
150.725067
 21
89.373176
  0
SOLID
  8
LAYER01
  6
CONTINUOUS
 62
     7
 10
149.274933
 20
109.876824
 11
150.774933
 21
89.376824
 12
149.225067
 22
109.873176
 13
150.725067
 23
89.373176
  0
LINE
  8
LAYER01
  6
CONTINUOUS
 62
     7
 10
150.774951
 20
111.626559
 11
152.274951
 21
87.626559
  0
LINE
  8
LAYER01
  6
CONTINUOUS
 62
     7
 10
150.725049
 20
111.623441
 11
152.225049
 21
87.623441
  0
LINE
  8
LAYER01
  6
CONTINUOUS
 62
     7
 10
150.774951
 20
111.626559
 11
150.725049
 21
111.623441
  0
LINE
  8
LAYER01
  6
CONTINUOUS
 62
     7
 10
152.274951
 20
87.626559
 11
152.225049
 21
87.623441
  0
SOLID
  8
LAYER01
  6
CONTINUOUS
 62
     7
 10
150.774951
 20
111.626559
 11
152.274951
 21
87.626559
 12
150.725049
 22
111.623441
 13
152.225049
 23
87.623441
  0
LINE
  8
LAYER01
  6
CONTINUOUS
 62
     7
 10
168.774951
 20
111.626559
 11
170.274951
 21
87.626559
  0
LINE
  8
LAYER01
  6
CONTINUOUS
 62
     7
 10
168.725049
 20
111.623441
 11
170.225049
 21
87.623441
  0
LINE
  8
LAYER01
  6
CONTINUOUS
 62
     7
 10
168.774951
 20
111.626559
 11
168.725049
 21
111.623441
  0
LINE
  8
LAYER01
  6
CONTINUOUS
 62
     7
 10
170.274951
 20
87.626559
 11
170.225049
 21
87.623441
  0
SOLID
  8
LAYER01
  6
CONTINUOUS
 62
     7
 10
168.774951
 20
111.626559
 11
170.274951
 21
87.626559
 12
168.725049
 22
111.623441
 13
170.225049
 23
87.623441
  0
LINE
  8
LAYER01
  6
CONTINUOUS
 62
     7
 10
170.274933
 20
109.876824
 11
171.774933
 21
89.376824
  0
LINE
  8
LAYER01
  6
CONTINUOUS
 62
     7
 10
170.225067
 20
109.873176
 11
171.725067
 21
89.373176
  0
LINE
  8
LAYER01
  6
CONTINUOUS
 62
     7
 10
170.274933
 20
109.876824
 11
170.225067
 21
109.873176
  0
LINE
  8
LAYER01
  6
CONTINUOUS
 62
     7
 10
171.774933
 20
89.376824
 11
171.725067
 21
89.373176
  0
SOLID
  8
LAYER01
  6
CONTINUOUS
 62
     7
 10
170.274933
 20
109.876824
 11
171.774933
 21
89.376824
 12
170.225067
 22
109.873176
 13
171.725067
 23
89.373176
  0
LINE
  8
LAYER01
  6
CONTINUOUS
 62
     7
 10
167.274933
 20
109.876824
 11
168.774933
 21
89.376824
  0
LINE
  8
LAYER01
  6
CONTINUOUS
 62
     7
 10
167.225067
 20
109.873176
 11
168.725067
 21
89.373176
  0
LINE
  8
LAYER01
  6
CONTINUOUS
 62
     7
 10
167.274933
 20
109.876824
 11
167.225067
 21
109.873176
  0
LINE
  8
LAYER01
  6
CONTINUOUS
 62
     7
 10
168.774933
 20
89.376824
 11
168.725067
 21
89.373176
  0
SOLID
  8
LAYER01
  6
CONTINUOUS
 62
     7
 10
167.274933
 20
109.876824
 11
168.774933
 21
89.376824
 12
167.225067
 22
109.873176
 13
168.725067
 23
89.373176
  0
LINE
  8
LAYER01
  6
CONTINUOUS
 62
     7
 10
165.774951
 20
111.626559
 11
167.274951
 21
87.626559
  0
LINE
  8
LAYER01
  6
CONTINUOUS
 62
     7
 10
165.725049
 20
111.623441
 11
167.225049
 21
87.623441
  0
LINE
  8
LAYER01
  6
CONTINUOUS
 62
     7
 10
165.774951
 20
111.626559
 11
165.725049
 21
111.623441
  0
LINE
  8
LAYER01
  6
CONTINUOUS
 62
     7
 10
167.274951
 20
87.626559
 11
167.225049
 21
87.623441
  0
SOLID
  8
LAYER01
  6
CONTINUOUS
 62
     7
 10
165.774951
 20
111.626559
 11
167.274951
 21
87.626559
 12
165.725049
 22
111.623441
 13
167.225049
 23
87.623441
  0
LINE
  8
LAYER01
  6
CONTINUOUS
 62
     7
 10
153.774951
 20
111.626559
 11
155.274951
 21
87.626559
  0
LINE
  8
LAYER01
  6
CONTINUOUS
 62
     7
 10
153.725049
 20
111.623441
 11
155.225049
 21
87.623441
  0
LINE
  8
LAYER01
  6
CONTINUOUS
 62
     7
 10
153.774951
 20
111.626559
 11
153.725049
 21
111.623441
  0
LINE
  8
LAYER01
  6
CONTINUOUS
 62
     7
 10
155.274951
 20
87.626559
 11
155.225049
 21
87.623441
  0
SOLID
  8
LAYER01
  6
CONTINUOUS
 62
     7
 10
153.774951
 20
111.626559
 11
155.274951
 21
87.626559
 12
153.725049
 22
111.623441
 13
155.225049
 23
87.623441
  0
LINE
  8
LAYER01
  6
CONTINUOUS
 62
     7
 10
155.274933
 20
109.876824
 11
156.774933
 21
89.376824
  0
LINE
  8
LAYER01
  6
CONTINUOUS
 62
     7
 10
155.225067
 20
109.873176
 11
156.725067
 21
89.373176
  0
LINE
  8
LAYER01
  6
CONTINUOUS
 62
     7
 10
155.274933
 20
109.876824
 11
155.225067
 21
109.873176
  0
LINE
  8
LAYER01
  6
CONTINUOUS
 62
     7
 10
156.774933
 20
89.376824
 11
156.725067
 21
89.373176
  0
SOLID
  8
LAYER01
  6
CONTINUOUS
 62
     7
 10
155.274933
 20
109.876824
 11
156.774933
 21
89.376824
 12
155.225067
 22
109.873176
 13
156.725067
 23
89.373176
  0
LINE
  8
LAYER01
  6
CONTINUOUS
 62
     7
 10
158.274933
 20
109.876824
 11
159.774933
 21
89.376824
  0
LINE
  8
LAYER01
  6
CONTINUOUS
 62
     7
 10
158.225067
 20
109.873176
 11
159.725067
 21
89.373176
  0
LINE
  8
LAYER01
  6
CONTINUOUS
 62
     7
 10
158.274933
 20
109.876824
 11
158.225067
 21
109.873176
  0
LINE
  8
LAYER01
  6
CONTINUOUS
 62
     7
 10
159.774933
 20
89.376824
 11
159.725067
 21
89.373176
  0
SOLID
  8
LAYER01
  6
CONTINUOUS
 62
     7
 10
158.274933
 20
109.876824
 11
159.774933
 21
89.376824
 12
158.225067
 22
109.873176
 13
159.725067
 23
89.373176
  0
LINE
  8
LAYER01
  6
CONTINUOUS
 62
     7
 10
156.774951
 20
111.626559
 11
158.274951
 21
87.626559
  0
LINE
  8
LAYER01
  6
CONTINUOUS
 62
     7
 10
156.725049
 20
111.623441
 11
158.225049
 21
87.623441
  0
LINE
  8
LAYER01
  6
CONTINUOUS
 62
     7
 10
156.774951
 20
111.626559
 11
156.725049
 21
111.623441
  0
LINE
  8
LAYER01
  6
CONTINUOUS
 62
     7
 10
158.274951
 20
87.626559
 11
158.225049
 21
87.623441
  0
SOLID
  8
LAYER01
  6
CONTINUOUS
 62
     7
 10
156.774951
 20
111.626559
 11
158.274951
 21
87.626559
 12
156.725049
 22
111.623441
 13
158.225049
 23
87.623441
  0
LINE
  8
LAYER01
  6
CONTINUOUS
 62
     7
 10
161.274935
 20
110.126803
 11
162.774935
 21
89.376803
  0
LINE
  8
LAYER01
  6
CONTINUOUS
 62
     7
 10
161.225065
 20
110.123197
 11
162.725065
 21
89.373197
  0
LINE
  8
LAYER01
  6
CONTINUOUS
 62
     7
 10
161.274935
 20
110.126803
 11
161.225065
 21
110.123197
  0
LINE
  8
LAYER01
  6
CONTINUOUS
 62
     7
 10
162.774935
 20
89.376803
 11
162.725065
 21
89.373197
  0
SOLID
  8
LAYER01
  6
CONTINUOUS
 62
     7
 10
161.274935
 20
110.126803
 11
162.774935
 21
89.376803
 12
161.225065
 22
110.123197
 13
162.725065
 23
89.373197
  0
LINE
  8
LAYER01
  6
CONTINUOUS
 62
     7
 10
162.774951
 20
111.626559
 11
164.274951
 21
87.626559
  0
LINE
  8
LAYER01
  6
CONTINUOUS
 62
     7
 10
162.725049
 20
111.623441
 11
164.225049
 21
87.623441
  0
LINE
  8
LAYER01
  6
CONTINUOUS
 62
     7
 10
162.774951
 20
111.626559
 11
162.725049
 21
111.623441
  0
LINE
  8
LAYER01
  6
CONTINUOUS
 62
     7
 10
164.274951
 20
87.626559
 11
164.225049
 21
87.623441
  0
SOLID
  8
LAYER01
  6
CONTINUOUS
 62
     7
 10
162.774951
 20
111.626559
 11
164.274951
 21
87.626559
 12
162.725049
 22
111.623441
 13
164.225049
 23
87.623441
  0
LINE
  8
LAYER01
  6
CONTINUOUS
 62
     7
 10
164.274933
 20
109.876824
 11
165.774933
 21
89.376824
  0
LINE
  8
LAYER01
  6
CONTINUOUS
 62
     7
 10
164.225067
 20
109.873176
 11
165.725067
 21
89.373176
  0
LINE
  8
LAYER01
  6
CONTINUOUS
 62
     7
 10
164.274933
 20
109.876824
 11
164.225067
 21
109.873176
  0
LINE
  8
LAYER01
  6
CONTINUOUS
 62
     7
 10
165.774933
 20
89.376824
 11
165.725067
 21
89.373176
  0
SOLID
  8
LAYER01
  6
CONTINUOUS
 62
     7
 10
164.274933
 20
109.876824
 11
165.774933
 21
89.376824
 12
164.225067
 22
109.873176
 13
165.725067
 23
89.373176
  0
LINE
  8
LAYER01
  6
CONTINUOUS
 62
     7
 10
159.774951
 20
111.626559
 11
161.274951
 21
87.626559
  0
LINE
  8
LAYER01
  6
CONTINUOUS
 62
     7
 10
159.725049
 20
111.623441
 11
161.225049
 21
87.623441
  0
LINE
  8
LAYER01
  6
CONTINUOUS
 62
     7
 10
159.774951
 20
111.626559
 11
159.725049
 21
111.623441
  0
LINE
  8
LAYER01
  6
CONTINUOUS
 62
     7
 10
161.274951
 20
87.626559
 11
161.225049
 21
87.623441
  0
SOLID
  8
LAYER01
  6
CONTINUOUS
 62
     7
 10
159.774951
 20
111.626559
 11
161.274951
 21
87.626559
 12
159.725049
 22
111.623441
 13
161.225049
 23
87.623441
  0
LINE
  8
LAYER01
  6
CONTINUOUS
 62
     7
 10
173.274933
 20
109.876824
 11
174.774933
 21
89.376824
  0
LINE
  8
LAYER01
  6
CONTINUOUS
 62
     7
 10
173.225067
 20
109.873176
 11
174.725067
 21
89.373176
  0
LINE
  8
LAYER01
  6
CONTINUOUS
 62
     7
 10
173.274933
 20
109.876824
 11
173.225067
 21
109.873176
  0
LINE
  8
LAYER01
  6
CONTINUOUS
 62
     7
 10
174.774933
 20
89.376824
 11
174.725067
 21
89.373176
  0
SOLID
  8
LAYER01
  6
CONTINUOUS
 62
     7
 10
173.274933
 20
109.876824
 11
174.774933
 21
89.376824
 12
173.225067
 22
109.873176
 13
174.725067
 23
89.373176
  0
LINE
  8
LAYER01
  6
CONTINUOUS
 62
     7
 10
171.774951
 20
111.626559
 11
173.274951
 21
87.626559
  0
LINE
  8
LAYER01
  6
CONTINUOUS
 62
     7
 10
171.725049
 20
111.623441
 11
173.225049
 21
87.623441
  0
LINE
  8
LAYER01
  6
CONTINUOUS
 62
     7
 10
171.774951
 20
111.626559
 11
171.725049
 21
111.623441
  0
LINE
  8
LAYER01
  6
CONTINUOUS
 62
     7
 10
173.274951
 20
87.626559
 11
173.225049
 21
87.623441
  0
SOLID
  8
LAYER01
  6
CONTINUOUS
 62
     7
 10
171.774951
 20
111.626559
 11
173.274951
 21
87.626559
 12
171.725049
 22
111.623441
 13
173.225049
 23
87.623441
  0
LINE
  8
LAYER01
  6
CONTINUOUS
 62
     7
 10
174.774951
 20
111.626559
 11
176.274951
 21
87.626559
  0
LINE
  8
LAYER01
  6
CONTINUOUS
 62
     7
 10
174.725049
 20
111.623441
 11
176.225049
 21
87.623441
  0
LINE
  8
LAYER01
  6
CONTINUOUS
 62
     7
 10
174.774951
 20
111.626559
 11
174.725049
 21
111.623441
  0
LINE
  8
LAYER01
  6
CONTINUOUS
 62
     7
 10
176.274951
 20
87.626559
 11
176.225049
 21
87.623441
  0
SOLID
  8
LAYER01
  6
CONTINUOUS
 62
     7
 10
174.774951
 20
111.626559
 11
176.274951
 21
87.626559
 12
174.725049
 22
111.623441
 13
176.225049
 23
87.623441
  0
LINE
  8
LAYER01
  6
CONTINUOUS
 62
     7
 10
176.274933
 20
109.876824
 11
177.774933
 21
89.376824
  0
LINE
  8
LAYER01
  6
CONTINUOUS
 62
     7
 10
176.225067
 20
109.873176
 11
177.725067
 21
89.373176
  0
LINE
  8
LAYER01
  6
CONTINUOUS
 62
     7
 10
176.274933
 20
109.876824
 11
176.225067
 21
109.873176
  0
LINE
  8
LAYER01
  6
CONTINUOUS
 62
     7
 10
177.774933
 20
89.376824
 11
177.725067
 21
89.373176
  0
SOLID
  8
LAYER01
  6
CONTINUOUS
 62
     7
 10
176.274933
 20
109.876824
 11
177.774933
 21
89.376824
 12
176.225067
 22
109.873176
 13
177.725067
 23
89.373176
  0
LINE
  8
LAYER01
  6
CONTINUOUS
 62
     7
 10
179.274933
 20
109.876824
 11
180.774933
 21
89.376824
  0
LINE
  8
LAYER01
  6
CONTINUOUS
 62
     7
 10
179.225067
 20
109.873176
 11
180.725067
 21
89.373176
  0
LINE
  8
LAYER01
  6
CONTINUOUS
 62
     7
 10
179.274933
 20
109.876824
 11
179.225067
 21
109.873176
  0
LINE
  8
LAYER01
  6
CONTINUOUS
 62
     7
 10
180.774933
 20
89.376824
 11
180.725067
 21
89.373176
  0
SOLID
  8
LAYER01
  6
CONTINUOUS
 62
     7
 10
179.274933
 20
109.876824
 11
180.774933
 21
89.376824
 12
179.225067
 22
109.873176
 13
180.725067
 23
89.373176
  0
LINE
  8
LAYER01
  6
CONTINUOUS
 62
     7
 10
177.774951
 20
111.626559
 11
179.274951
 21
87.626559
  0
LINE
  8
LAYER01
  6
CONTINUOUS
 62
     7
 10
177.725049
 20
111.623441
 11
179.225049
 21
87.623441
  0
LINE
  8
LAYER01
  6
CONTINUOUS
 62
     7
 10
177.774951
 20
111.626559
 11
177.725049
 21
111.623441
  0
LINE
  8
LAYER01
  6
CONTINUOUS
 62
     7
 10
179.274951
 20
87.626559
 11
179.225049
 21
87.623441
  0
SOLID
  8
LAYER01
  6
CONTINUOUS
 62
     7
 10
177.774951
 20
111.626559
 11
179.274951
 21
87.626559
 12
177.725049
 22
111.623441
 13
179.225049
 23
87.623441
  0
LINE
  8
LAYER01
  6
CONTINUOUS
 62
     7
 10
182.274935
 20
110.126803
 11
183.774935
 21
89.376803
  0
LINE
  8
LAYER01
  6
CONTINUOUS
 62
     7
 10
182.225065
 20
110.123197
 11
183.725065
 21
89.373197
  0
LINE
  8
LAYER01
  6
CONTINUOUS
 62
     7
 10
182.274935
 20
110.126803
 11
182.225065
 21
110.123197
  0
LINE
  8
LAYER01
  6
CONTINUOUS
 62
     7
 10
183.774935
 20
89.376803
 11
183.725065
 21
89.373197
  0
SOLID
  8
LAYER01
  6
CONTINUOUS
 62
     7
 10
182.274935
 20
110.126803
 11
183.774935
 21
89.376803
 12
182.225065
 22
110.123197
 13
183.725065
 23
89.373197
  0
LINE
  8
LAYER01
  6
CONTINUOUS
 62
     7
 10
183.774951
 20
111.626559
 11
185.274951
 21
87.626559
  0
LINE
  8
LAYER01
  6
CONTINUOUS
 62
     7
 10
183.725049
 20
111.623441
 11
185.225049
 21
87.623441
  0
LINE
  8
LAYER01
  6
CONTINUOUS
 62
     7
 10
183.774951
 20
111.626559
 11
183.725049
 21
111.623441
  0
LINE
  8
LAYER01
  6
CONTINUOUS
 62
     7
 10
185.274951
 20
87.626559
 11
185.225049
 21
87.623441
  0
SOLID
  8
LAYER01
  6
CONTINUOUS
 62
     7
 10
183.774951
 20
111.626559
 11
185.274951
 21
87.626559
 12
183.725049
 22
111.623441
 13
185.225049
 23
87.623441
  0
LINE
  8
LAYER01
  6
CONTINUOUS
 62
     7
 10
185.274933
 20
109.876824
 11
186.774933
 21
89.376824
  0
LINE
  8
LAYER01
  6
CONTINUOUS
 62
     7
 10
185.225067
 20
109.873176
 11
186.725067
 21
89.373176
  0
LINE
  8
LAYER01
  6
CONTINUOUS
 62
     7
 10
185.274933
 20
109.876824
 11
185.225067
 21
109.873176
  0
LINE
  8
LAYER01
  6
CONTINUOUS
 62
     7
 10
186.774933
 20
89.376824
 11
186.725067
 21
89.373176
  0
SOLID
  8
LAYER01
  6
CONTINUOUS
 62
     7
 10
185.274933
 20
109.876824
 11
186.774933
 21
89.376824
 12
185.225067
 22
109.873176
 13
186.725067
 23
89.373176
  0
LINE
  8
LAYER01
  6
CONTINUOUS
 62
     7
 10
188.274933
 20
109.876824
 11
189.774933
 21
89.376824
  0
LINE
  8
LAYER01
  6
CONTINUOUS
 62
     7
 10
188.225067
 20
109.873176
 11
189.725067
 21
89.373176
  0
LINE
  8
LAYER01
  6
CONTINUOUS
 62
     7
 10
188.274933
 20
109.876824
 11
188.225067
 21
109.873176
  0
LINE
  8
LAYER01
  6
CONTINUOUS
 62
     7
 10
189.774933
 20
89.376824
 11
189.725067
 21
89.373176
  0
SOLID
  8
LAYER01
  6
CONTINUOUS
 62
     7
 10
188.274933
 20
109.876824
 11
189.774933
 21
89.376824
 12
188.225067
 22
109.873176
 13
189.725067
 23
89.373176
  0
LINE
  8
LAYER01
  6
CONTINUOUS
 62
     7
 10
186.774951
 20
111.626559
 11
188.274951
 21
87.626559
  0
LINE
  8
LAYER01
  6
CONTINUOUS
 62
     7
 10
186.725049
 20
111.623441
 11
188.225049
 21
87.623441
  0
LINE
  8
LAYER01
  6
CONTINUOUS
 62
     7
 10
186.774951
 20
111.626559
 11
186.725049
 21
111.623441
  0
LINE
  8
LAYER01
  6
CONTINUOUS
 62
     7
 10
188.274951
 20
87.626559
 11
188.225049
 21
87.623441
  0
SOLID
  8
LAYER01
  6
CONTINUOUS
 62
     7
 10
186.774951
 20
111.626559
 11
188.274951
 21
87.626559
 12
186.725049
 22
111.623441
 13
188.225049
 23
87.623441
  0
LINE
  8
LAYER01
  6
CONTINUOUS
 62
     7
 10
180.774951
 20
111.626559
 11
182.274951
 21
87.626559
  0
LINE
  8
LAYER01
  6
CONTINUOUS
 62
     7
 10
180.725049
 20
111.623441
 11
182.225049
 21
87.623441
  0
LINE
  8
LAYER01
  6
CONTINUOUS
 62
     7
 10
180.774951
 20
111.626559
 11
180.725049
 21
111.623441
  0
LINE
  8
LAYER01
  6
CONTINUOUS
 62
     7
 10
182.274951
 20
87.626559
 11
182.225049
 21
87.623441
  0
SOLID
  8
LAYER01
  6
CONTINUOUS
 62
     7
 10
180.774951
 20
111.626559
 11
182.274951
 21
87.626559
 12
180.725049
 22
111.623441
 13
182.225049
 23
87.623441
  0
LINE
  8
LAYER01
  6
CONTINUOUS
 62
     7
 10
189.774951
 20
111.626559
 11
191.274951
 21
87.626559
  0
LINE
  8
LAYER01
  6
CONTINUOUS
 62
     7
 10
189.725049
 20
111.623441
 11
191.225049
 21
87.623441
  0
LINE
  8
LAYER01
  6
CONTINUOUS
 62
     7
 10
189.774951
 20
111.626559
 11
189.725049
 21
111.623441
  0
LINE
  8
LAYER01
  6
CONTINUOUS
 62
     7
 10
191.274951
 20
87.626559
 11
191.225049
 21
87.623441
  0
SOLID
  8
LAYER01
  6
CONTINUOUS
 62
     7
 10
189.774951
 20
111.626559
 11
191.274951
 21
87.626559
 12
189.725049
 22
111.623441
 13
191.225049
 23
87.623441
  0
LINE
  8
LAYER01
  6
CONTINUOUS
 62
     7
 10
191.274933
 20
109.876824
 11
192.774933
 21
89.376824
  0
LINE
  8
LAYER01
  6
CONTINUOUS
 62
     7
 10
191.225067
 20
109.873176
 11
192.725067
 21
89.373176
  0
LINE
  8
LAYER01
  6
CONTINUOUS
 62
     7
 10
191.274933
 20
109.876824
 11
191.225067
 21
109.873176
  0
LINE
  8
LAYER01
  6
CONTINUOUS
 62
     7
 10
192.774933
 20
89.376824
 11
192.725067
 21
89.373176
  0
SOLID
  8
LAYER01
  6
CONTINUOUS
 62
     7
 10
191.274933
 20
109.876824
 11
192.774933
 21
89.376824
 12
191.225067
 22
109.873176
 13
192.725067
 23
89.373176
  0
LINE
  8
LAYER01
  6
CONTINUOUS
 62
     7
 10
194.274933
 20
109.876824
 11
195.774933
 21
89.376824
  0
LINE
  8
LAYER01
  6
CONTINUOUS
 62
     7
 10
194.225067
 20
109.873176
 11
195.725067
 21
89.373176
  0
LINE
  8
LAYER01
  6
CONTINUOUS
 62
     7
 10
194.274933
 20
109.876824
 11
194.225067
 21
109.873176
  0
LINE
  8
LAYER01
  6
CONTINUOUS
 62
     7
 10
195.774933
 20
89.376824
 11
195.725067
 21
89.373176
  0
SOLID
  8
LAYER01
  6
CONTINUOUS
 62
     7
 10
194.274933
 20
109.876824
 11
195.774933
 21
89.376824
 12
194.225067
 22
109.873176
 13
195.725067
 23
89.373176
  0
LINE
  8
LAYER01
  6
CONTINUOUS
 62
     7
 10
192.774951
 20
111.626559
 11
194.274951
 21
87.626559
  0
LINE
  8
LAYER01
  6
CONTINUOUS
 62
     7
 10
192.725049
 20
111.623441
 11
194.225049
 21
87.623441
  0
LINE
  8
LAYER01
  6
CONTINUOUS
 62
     7
 10
192.774951
 20
111.626559
 11
192.725049
 21
111.623441
  0
LINE
  8
LAYER01
  6
CONTINUOUS
 62
     7
 10
194.274951
 20
87.626559
 11
194.225049
 21
87.623441
  0
SOLID
  8
LAYER01
  6
CONTINUOUS
 62
     7
 10
192.774951
 20
111.626559
 11
194.274951
 21
87.626559
 12
192.725049
 22
111.623441
 13
194.225049
 23
87.623441
  0
LINE
  8
LAYER01
  6
CONTINUOUS
 62
     7
 10
195.774951
 20
111.626559
 11
197.274951
 21
87.626559
  0
LINE
  8
LAYER01
  6
CONTINUOUS
 62
     7
 10
195.725049
 20
111.623441
 11
197.225049
 21
87.623441
  0
LINE
  8
LAYER01
  6
CONTINUOUS
 62
     7
 10
195.774951
 20
111.626559
 11
195.725049
 21
111.623441
  0
LINE
  8
LAYER01
  6
CONTINUOUS
 62
     7
 10
197.274951
 20
87.626559
 11
197.225049
 21
87.623441
  0
SOLID
  8
LAYER01
  6
CONTINUOUS
 62
     7
 10
195.774951
 20
111.626559
 11
197.274951
 21
87.626559
 12
195.725049
 22
111.623441
 13
197.225049
 23
87.623441
  0
LINE
  8
LAYER01
  6
CONTINUOUS
 62
     7
 10
197.274933
 20
109.876824
 11
198.774933
 21
89.376824
  0
LINE
  8
LAYER01
  6
CONTINUOUS
 62
     7
 10
197.225067
 20
109.873176
 11
198.725067
 21
89.373176
  0
LINE
  8
LAYER01
  6
CONTINUOUS
 62
     7
 10
197.274933
 20
109.876824
 11
197.225067
 21
109.873176
  0
LINE
  8
LAYER01
  6
CONTINUOUS
 62
     7
 10
198.774933
 20
89.376824
 11
198.725067
 21
89.373176
  0
SOLID
  8
LAYER01
  6
CONTINUOUS
 62
     7
 10
197.274933
 20
109.876824
 11
198.774933
 21
89.376824
 12
197.225067
 22
109.873176
 13
198.725067
 23
89.373176
  0
LINE
  8
LAYER01
  6
CONTINUOUS
 62
     7
 10
200.274933
 20
109.876824
 11
201.774933
 21
89.376824
  0
LINE
  8
LAYER01
  6
CONTINUOUS
 62
     7
 10
200.225067
 20
109.873176
 11
201.725067
 21
89.373176
  0
LINE
  8
LAYER01
  6
CONTINUOUS
 62
     7
 10
200.274933
 20
109.876824
 11
200.225067
 21
109.873176
  0
LINE
  8
LAYER01
  6
CONTINUOUS
 62
     7
 10
201.774933
 20
89.376824
 11
201.725067
 21
89.373176
  0
SOLID
  8
LAYER01
  6
CONTINUOUS
 62
     7
 10
200.274933
 20
109.876824
 11
201.774933
 21
89.376824
 12
200.225067
 22
109.873176
 13
201.725067
 23
89.373176
  0
LINE
  8
LAYER01
  6
CONTINUOUS
 62
     7
 10
198.774951
 20
111.626559
 11
200.274951
 21
87.626559
  0
LINE
  8
LAYER01
  6
CONTINUOUS
 62
     7
 10
198.725049
 20
111.623441
 11
200.225049
 21
87.623441
  0
LINE
  8
LAYER01
  6
CONTINUOUS
 62
     7
 10
198.774951
 20
111.626559
 11
198.725049
 21
111.623441
  0
LINE
  8
LAYER01
  6
CONTINUOUS
 62
     7
 10
200.274951
 20
87.626559
 11
200.225049
 21
87.623441
  0
SOLID
  8
LAYER01
  6
CONTINUOUS
 62
     7
 10
198.774951
 20
111.626559
 11
200.274951
 21
87.626559
 12
198.725049
 22
111.623441
 13
200.225049
 23
87.623441
  0
LINE
  8
LAYER01
  6
CONTINUOUS
 62
     7
 10
203.274935
 20
110.126803
 11
204.774935
 21
89.376803
  0
LINE
  8
LAYER01
  6
CONTINUOUS
 62
     7
 10
203.225065
 20
110.123197
 11
204.725065
 21
89.373197
  0
LINE
  8
LAYER01
  6
CONTINUOUS
 62
     7
 10
203.274935
 20
110.126803
 11
203.225065
 21
110.123197
  0
LINE
  8
LAYER01
  6
CONTINUOUS
 62
     7
 10
204.774935
 20
89.376803
 11
204.725065
 21
89.373197
  0
SOLID
  8
LAYER01
  6
CONTINUOUS
 62
     7
 10
203.274935
 20
110.126803
 11
204.774935
 21
89.376803
 12
203.225065
 22
110.123197
 13
204.725065
 23
89.373197
  0
LINE
  8
LAYER01
  6
CONTINUOUS
 62
     7
 10
204.774951
 20
111.626559
 11
206.274951
 21
87.626559
  0
LINE
  8
LAYER01
  6
CONTINUOUS
 62
     7
 10
204.725049
 20
111.623441
 11
206.225049
 21
87.623441
  0
LINE
  8
LAYER01
  6
CONTINUOUS
 62
     7
 10
204.774951
 20
111.626559
 11
204.725049
 21
111.623441
  0
LINE
  8
LAYER01
  6
CONTINUOUS
 62
     7
 10
206.274951
 20
87.626559
 11
206.225049
 21
87.623441
  0
SOLID
  8
LAYER01
  6
CONTINUOUS
 62
     7
 10
204.774951
 20
111.626559
 11
206.274951
 21
87.626559
 12
204.725049
 22
111.623441
 13
206.225049
 23
87.623441
  0
LINE
  8
LAYER01
  6
CONTINUOUS
 62
     7
 10
206.274933
 20
109.876824
 11
207.774933
 21
89.376824
  0
LINE
  8
LAYER01
  6
CONTINUOUS
 62
     7
 10
206.225067
 20
109.873176
 11
207.725067
 21
89.373176
  0
LINE
  8
LAYER01
  6
CONTINUOUS
 62
     7
 10
206.274933
 20
109.876824
 11
206.225067
 21
109.873176
  0
LINE
  8
LAYER01
  6
CONTINUOUS
 62
     7
 10
207.774933
 20
89.376824
 11
207.725067
 21
89.373176
  0
SOLID
  8
LAYER01
  6
CONTINUOUS
 62
     7
 10
206.274933
 20
109.876824
 11
207.774933
 21
89.376824
 12
206.225067
 22
109.873176
 13
207.725067
 23
89.373176
  0
LINE
  8
LAYER01
  6
CONTINUOUS
 62
     7
 10
209.274933
 20
109.876824
 11
210.774933
 21
89.376824
  0
LINE
  8
LAYER01
  6
CONTINUOUS
 62
     7
 10
209.225067
 20
109.873176
 11
210.725067
 21
89.373176
  0
LINE
  8
LAYER01
  6
CONTINUOUS
 62
     7
 10
209.274933
 20
109.876824
 11
209.225067
 21
109.873176
  0
LINE
  8
LAYER01
  6
CONTINUOUS
 62
     7
 10
210.774933
 20
89.376824
 11
210.725067
 21
89.373176
  0
SOLID
  8
LAYER01
  6
CONTINUOUS
 62
     7
 10
209.274933
 20
109.876824
 11
210.774933
 21
89.376824
 12
209.225067
 22
109.873176
 13
210.725067
 23
89.373176
  0
LINE
  8
LAYER01
  6
CONTINUOUS
 62
     7
 10
207.774951
 20
111.626559
 11
209.274951
 21
87.626559
  0
LINE
  8
LAYER01
  6
CONTINUOUS
 62
     7
 10
207.725049
 20
111.623441
 11
209.225049
 21
87.623441
  0
LINE
  8
LAYER01
  6
CONTINUOUS
 62
     7
 10
207.774951
 20
111.626559
 11
207.725049
 21
111.623441
  0
LINE
  8
LAYER01
  6
CONTINUOUS
 62
     7
 10
209.274951
 20
87.626559
 11
209.225049
 21
87.623441
  0
SOLID
  8
LAYER01
  6
CONTINUOUS
 62
     7
 10
207.774951
 20
111.626559
 11
209.274951
 21
87.626559
 12
207.725049
 22
111.623441
 13
209.225049
 23
87.623441
  0
LINE
  8
LAYER01
  6
CONTINUOUS
 62
     7
 10
201.774951
 20
111.626559
 11
203.274951
 21
87.626559
  0
LINE
  8
LAYER01
  6
CONTINUOUS
 62
     7
 10
201.725049
 20
111.623441
 11
203.225049
 21
87.623441
  0
LINE
  8
LAYER01
  6
CONTINUOUS
 62
     7
 10
201.774951
 20
111.626559
 11
201.725049
 21
111.623441
  0
LINE
  8
LAYER01
  6
CONTINUOUS
 62
     7
 10
203.274951
 20
87.626559
 11
203.225049
 21
87.623441
  0
SOLID
  8
LAYER01
  6
CONTINUOUS
 62
     7
 10
201.774951
 20
111.626559
 11
203.274951
 21
87.626559
 12
201.725049
 22
111.623441
 13
203.225049
 23
87.623441
  0
LINE
  8
LAYER01
  6
CONTINUOUS
 62
     7
 10
210.774951
 20
111.626559
 11
212.274951
 21
87.626559
  0
LINE
  8
LAYER01
  6
CONTINUOUS
 62
     7
 10
210.725049
 20
111.623441
 11
212.225049
 21
87.623441
  0
LINE
  8
LAYER01
  6
CONTINUOUS
 62
     7
 10
210.774951
 20
111.626559
 11
210.725049
 21
111.623441
  0
LINE
  8
LAYER01
  6
CONTINUOUS
 62
     7
 10
212.274951
 20
87.626559
 11
212.225049
 21
87.623441
  0
SOLID
  8
LAYER01
  6
CONTINUOUS
 62
     7
 10
210.774951
 20
111.626559
 11
212.274951
 21
87.626559
 12
210.725049
 22
111.623441
 13
212.225049
 23
87.623441
  0
LINE
  8
LAYER01
  6
CONTINUOUS
 62
     7
 10
212.274933
 20
109.876824
 11
213.774933
 21
89.376824
  0
LINE
  8
LAYER01
  6
CONTINUOUS
 62
     7
 10
212.225067
 20
109.873176
 11
213.725067
 21
89.373176
  0
LINE
  8
LAYER01
  6
CONTINUOUS
 62
     7
 10
212.274933
 20
109.876824
 11
212.225067
 21
109.873176
  0
LINE
  8
LAYER01
  6
CONTINUOUS
 62
     7
 10
213.774933
 20
89.376824
 11
213.725067
 21
89.373176
  0
SOLID
  8
LAYER01
  6
CONTINUOUS
 62
     7
 10
212.274933
 20
109.876824
 11
213.774933
 21
89.376824
 12
212.225067
 22
109.873176
 13
213.725067
 23
89.373176
  0
LINE
  8
LAYER01
  6
CONTINUOUS
 62
     7
 10
215.274933
 20
109.876824
 11
216.774933
 21
89.376824
  0
LINE
  8
LAYER01
  6
CONTINUOUS
 62
     7
 10
215.225067
 20
109.873176
 11
216.725067
 21
89.373176
  0
LINE
  8
LAYER01
  6
CONTINUOUS
 62
     7
 10
215.274933
 20
109.876824
 11
215.225067
 21
109.873176
  0
LINE
  8
LAYER01
  6
CONTINUOUS
 62
     7
 10
216.774933
 20
89.376824
 11
216.725067
 21
89.373176
  0
SOLID
  8
LAYER01
  6
CONTINUOUS
 62
     7
 10
215.274933
 20
109.876824
 11
216.774933
 21
89.376824
 12
215.225067
 22
109.873176
 13
216.725067
 23
89.373176
  0
LINE
  8
LAYER01
  6
CONTINUOUS
 62
     7
 10
213.774951
 20
111.626559
 11
215.274951
 21
87.626559
  0
LINE
  8
LAYER01
  6
CONTINUOUS
 62
     7
 10
213.725049
 20
111.623441
 11
215.225049
 21
87.623441
  0
LINE
  8
LAYER01
  6
CONTINUOUS
 62
     7
 10
213.774951
 20
111.626559
 11
213.725049
 21
111.623441
  0
LINE
  8
LAYER01
  6
CONTINUOUS
 62
     7
 10
215.274951
 20
87.626559
 11
215.225049
 21
87.623441
  0
SOLID
  8
LAYER01
  6
CONTINUOUS
 62
     7
 10
213.774951
 20
111.626559
 11
215.274951
 21
87.626559
 12
213.725049
 22
111.623441
 13
215.225049
 23
87.623441
  0
LINE
  8
LAYER01
  6
CONTINUOUS
 62
     7
 10
216.774951
 20
111.626559
 11
218.274951
 21
87.626559
  0
LINE
  8
LAYER01
  6
CONTINUOUS
 62
     7
 10
216.725049
 20
111.623441
 11
218.225049
 21
87.623441
  0
LINE
  8
LAYER01
  6
CONTINUOUS
 62
     7
 10
216.774951
 20
111.626559
 11
216.725049
 21
111.623441
  0
LINE
  8
LAYER01
  6
CONTINUOUS
 62
     7
 10
218.274951
 20
87.626559
 11
218.225049
 21
87.623441
  0
SOLID
  8
LAYER01
  6
CONTINUOUS
 62
     7
 10
216.774951
 20
111.626559
 11
218.274951
 21
87.626559
 12
216.725049
 22
111.623441
 13
218.225049
 23
87.623441
  0
LINE
  8
LAYER01
  6
CONTINUOUS
 62
     7
 10
218.274933
 20
109.876824
 11
219.774933
 21
89.376824
  0
LINE
  8
LAYER01
  6
CONTINUOUS
 62
     7
 10
218.225067
 20
109.873176
 11
219.725067
 21
89.373176
  0
LINE
  8
LAYER01
  6
CONTINUOUS
 62
     7
 10
218.274933
 20
109.876824
 11
218.225067
 21
109.873176
  0
LINE
  8
LAYER01
  6
CONTINUOUS
 62
     7
 10
219.774933
 20
89.376824
 11
219.725067
 21
89.373176
  0
SOLID
  8
LAYER01
  6
CONTINUOUS
 62
     7
 10
218.274933
 20
109.876824
 11
219.774933
 21
89.376824
 12
218.225067
 22
109.873176
 13
219.725067
 23
89.373176
  0
LINE
  8
LAYER01
  6
CONTINUOUS
 62
     7
 10
221.274933
 20
109.876824
 11
222.774933
 21
89.376824
  0
LINE
  8
LAYER01
  6
CONTINUOUS
 62
     7
 10
221.225067
 20
109.873176
 11
222.725067
 21
89.373176
  0
LINE
  8
LAYER01
  6
CONTINUOUS
 62
     7
 10
221.274933
 20
109.876824
 11
221.225067
 21
109.873176
  0
LINE
  8
LAYER01
  6
CONTINUOUS
 62
     7
 10
222.774933
 20
89.376824
 11
222.725067
 21
89.373176
  0
SOLID
  8
LAYER01
  6
CONTINUOUS
 62
     7
 10
221.274933
 20
109.876824
 11
222.774933
 21
89.376824
 12
221.225067
 22
109.873176
 13
222.725067
 23
89.373176
  0
LINE
  8
LAYER01
  6
CONTINUOUS
 62
     7
 10
219.774951
 20
111.626559
 11
221.274951
 21
87.626559
  0
LINE
  8
LAYER01
  6
CONTINUOUS
 62
     7
 10
219.725049
 20
111.623441
 11
221.225049
 21
87.623441
  0
LINE
  8
LAYER01
  6
CONTINUOUS
 62
     7
 10
219.774951
 20
111.626559
 11
219.725049
 21
111.623441
  0
LINE
  8
LAYER01
  6
CONTINUOUS
 62
     7
 10
221.274951
 20
87.626559
 11
221.225049
 21
87.623441
  0
SOLID
  8
LAYER01
  6
CONTINUOUS
 62
     7
 10
219.774951
 20
111.626559
 11
221.274951
 21
87.626559
 12
219.725049
 22
111.623441
 13
221.225049
 23
87.623441
  0
LINE
  8
LAYER01
  6
CONTINUOUS
 62
     7
 10
222.774951
 20
111.626559
 11
224.274951
 21
87.626559
  0
LINE
  8
LAYER01
  6
CONTINUOUS
 62
     7
 10
222.725049
 20
111.623441
 11
224.225049
 21
87.623441
  0
LINE
  8
LAYER01
  6
CONTINUOUS
 62
     7
 10
222.774951
 20
111.626559
 11
222.725049
 21
111.623441
  0
LINE
  8
LAYER01
  6
CONTINUOUS
 62
     7
 10
224.274951
 20
87.626559
 11
224.225049
 21
87.623441
  0
SOLID
  8
LAYER01
  6
CONTINUOUS
 62
     7
 10
222.774951
 20
111.626559
 11
224.274951
 21
87.626559
 12
222.725049
 22
111.623441
 13
224.225049
 23
87.623441
  0
LINE
  8
LAYER01
  6
CONTINUOUS
 62
     7
 10
224.274935
 20
110.126803
 11
225.774935
 21
89.376803
  0
LINE
  8
LAYER01
  6
CONTINUOUS
 62
     7
 10
224.225065
 20
110.123197
 11
225.725065
 21
89.373197
  0
LINE
  8
LAYER01
  6
CONTINUOUS
 62
     7
 10
224.274935
 20
110.126803
 11
224.225065
 21
110.123197
  0
LINE
  8
LAYER01
  6
CONTINUOUS
 62
     7
 10
225.774935
 20
89.376803
 11
225.725065
 21
89.373197
  0
SOLID
  8
LAYER01
  6
CONTINUOUS
 62
     7
 10
224.274935
 20
110.126803
 11
225.774935
 21
89.376803
 12
224.225065
 22
110.123197
 13
225.725065
 23
89.373197
  0
LINE
  8
LAYER01
  6
CONTINUOUS
 62
     7
 10
227.399933
 20
109.876824
 11
228.899933
 21
89.376824
  0
LINE
  8
LAYER01
  6
CONTINUOUS
 62
     7
 10
227.350067
 20
109.873176
 11
228.850067
 21
89.373176
  0
LINE
  8
LAYER01
  6
CONTINUOUS
 62
     7
 10
227.399933
 20
109.876824
 11
227.350067
 21
109.873176
  0
LINE
  8
LAYER01
  6
CONTINUOUS
 62
     7
 10
228.899933
 20
89.376824
 11
228.850067
 21
89.373176
  0
SOLID
  8
LAYER01
  6
CONTINUOUS
 62
     7
 10
227.399933
 20
109.876824
 11
228.899933
 21
89.376824
 12
227.350067
 22
109.873176
 13
228.850067
 23
89.373176
  0
LINE
  8
LAYER01
  6
CONTINUOUS
 62
     7
 10
225.899951
 20
111.626559
 11
227.399951
 21
87.626559
  0
LINE
  8
LAYER01
  6
CONTINUOUS
 62
     7
 10
225.850049
 20
111.623441
 11
227.350049
 21
87.623441
  0
LINE
  8
LAYER01
  6
CONTINUOUS
 62
     7
 10
225.899951
 20
111.626559
 11
225.850049
 21
111.623441
  0
LINE
  8
LAYER01
  6
CONTINUOUS
 62
     7
 10
227.399951
 20
87.626559
 11
227.350049
 21
87.623441
  0
SOLID
  8
LAYER01
  6
CONTINUOUS
 62
     7
 10
225.899951
 20
111.626559
 11
227.399951
 21
87.626559
 12
225.850049
 22
111.623441
 13
227.350049
 23
87.623441
  0
LINE
  8
LAYER01
  6
CONTINUOUS
 62
     7
 10
228.899951
 20
111.626559
 11
230.399951
 21
87.626559
  0
LINE
  8
LAYER01
  6
CONTINUOUS
 62
     7
 10
228.850049
 20
111.623441
 11
230.350049
 21
87.623441
  0
LINE
  8
LAYER01
  6
CONTINUOUS
 62
     7
 10
228.899951
 20
111.626559
 11
228.850049
 21
111.623441
  0
LINE
  8
LAYER01
  6
CONTINUOUS
 62
     7
 10
230.399951
 20
87.626559
 11
230.350049
 21
87.623441
  0
SOLID
  8
LAYER01
  6
CONTINUOUS
 62
     7
 10
228.899951
 20
111.626559
 11
230.399951
 21
87.626559
 12
228.850049
 22
111.623441
 13
230.350049
 23
87.623441
  0
LINE
  8
LAYER01
  6
CONTINUOUS
 62
     7
 10
230.399933
 20
109.876824
 11
231.899933
 21
89.376824
  0
LINE
  8
LAYER01
  6
CONTINUOUS
 62
     7
 10
230.350067
 20
109.873176
 11
231.850067
 21
89.373176
  0
LINE
  8
LAYER01
  6
CONTINUOUS
 62
     7
 10
230.399933
 20
109.876824
 11
230.350067
 21
109.873176
  0
LINE
  8
LAYER01
  6
CONTINUOUS
 62
     7
 10
231.899933
 20
89.376824
 11
231.850067
 21
89.373176
  0
SOLID
  8
LAYER01
  6
CONTINUOUS
 62
     7
 10
230.399933
 20
109.876824
 11
231.899933
 21
89.376824
 12
230.350067
 22
109.873176
 13
231.850067
 23
89.373176
  0
LINE
  8
LAYER01
  6
CONTINUOUS
 62
     7
 10
233.399933
 20
109.876824
 11
234.899933
 21
89.376824
  0
LINE
  8
LAYER01
  6
CONTINUOUS
 62
     7
 10
233.350067
 20
109.873176
 11
234.850067
 21
89.373176
  0
LINE
  8
LAYER01
  6
CONTINUOUS
 62
     7
 10
233.399933
 20
109.876824
 11
233.350067
 21
109.873176
  0
LINE
  8
LAYER01
  6
CONTINUOUS
 62
     7
 10
234.899933
 20
89.376824
 11
234.850067
 21
89.373176
  0
SOLID
  8
LAYER01
  6
CONTINUOUS
 62
     7
 10
233.399933
 20
109.876824
 11
234.899933
 21
89.376824
 12
233.350067
 22
109.873176
 13
234.850067
 23
89.373176
  0
LINE
  8
LAYER01
  6
CONTINUOUS
 62
     7
 10
231.899951
 20
111.626559
 11
233.399951
 21
87.626559
  0
LINE
  8
LAYER01
  6
CONTINUOUS
 62
     7
 10
231.850049
 20
111.623441
 11
233.350049
 21
87.623441
  0
LINE
  8
LAYER01
  6
CONTINUOUS
 62
     7
 10
231.899951
 20
111.626559
 11
231.850049
 21
111.623441
  0
LINE
  8
LAYER01
  6
CONTINUOUS
 62
     7
 10
233.399951
 20
87.626559
 11
233.350049
 21
87.623441
  0
SOLID
  8
LAYER01
  6
CONTINUOUS
 62
     7
 10
231.899951
 20
111.626559
 11
233.399951
 21
87.626559
 12
231.850049
 22
111.623441
 13
233.350049
 23
87.623441
  0
LINE
  8
LAYER01
  6
CONTINUOUS
 62
     7
 10
234.899951
 20
111.626559
 11
236.399951
 21
87.626559
  0
LINE
  8
LAYER01
  6
CONTINUOUS
 62
     7
 10
234.850049
 20
111.623441
 11
236.350049
 21
87.623441
  0
LINE
  8
LAYER01
  6
CONTINUOUS
 62
     7
 10
234.899951
 20
111.626559
 11
234.850049
 21
111.623441
  0
LINE
  8
LAYER01
  6
CONTINUOUS
 62
     7
 10
236.399951
 20
87.626559
 11
236.350049
 21
87.623441
  0
SOLID
  8
LAYER01
  6
CONTINUOUS
 62
     7
 10
234.899951
 20
111.626559
 11
236.399951
 21
87.626559
 12
234.850049
 22
111.623441
 13
236.350049
 23
87.623441
  0
LINE
  8
LAYER01
  6
CONTINUOUS
 62
     7
 10
236.399935
 20
110.126803
 11
237.899935
 21
89.376803
  0
LINE
  8
LAYER01
  6
CONTINUOUS
 62
     7
 10
236.350065
 20
110.123197
 11
237.850065
 21
89.373197
  0
LINE
  8
LAYER01
  6
CONTINUOUS
 62
     7
 10
236.399935
 20
110.126803
 11
236.350065
 21
110.123197
  0
LINE
  8
LAYER01
  6
CONTINUOUS
 62
     7
 10
237.899935
 20
89.376803
 11
237.850065
 21
89.373197
  0
SOLID
  8
LAYER01
  6
CONTINUOUS
 62
     7
 10
236.399935
 20
110.126803
 11
237.899935
 21
89.376803
 12
236.350065
 22
110.123197
 13
237.850065
 23
89.373197
  0
LINE
  8
LAYER01
  6
CONTINUOUS
 62
     7
 10
239.399933
 20
109.876824
 11
240.899933
 21
89.376824
  0
LINE
  8
LAYER01
  6
CONTINUOUS
 62
     7
 10
239.350067
 20
109.873176
 11
240.850067
 21
89.373176
  0
LINE
  8
LAYER01
  6
CONTINUOUS
 62
     7
 10
239.399933
 20
109.876824
 11
239.350067
 21
109.873176
  0
LINE
  8
LAYER01
  6
CONTINUOUS
 62
     7
 10
240.899933
 20
89.376824
 11
240.850067
 21
89.373176
  0
SOLID
  8
LAYER01
  6
CONTINUOUS
 62
     7
 10
239.399933
 20
109.876824
 11
240.899933
 21
89.376824
 12
239.350067
 22
109.873176
 13
240.850067
 23
89.373176
  0
LINE
  8
LAYER01
  6
CONTINUOUS
 62
     7
 10
240.899951
 20
111.626559
 11
242.399951
 21
87.626559
  0
LINE
  8
LAYER01
  6
CONTINUOUS
 62
     7
 10
240.850049
 20
111.623441
 11
242.350049
 21
87.623441
  0
LINE
  8
LAYER01
  6
CONTINUOUS
 62
     7
 10
240.899951
 20
111.626559
 11
240.850049
 21
111.623441
  0
LINE
  8
LAYER01
  6
CONTINUOUS
 62
     7
 10
242.399951
 20
87.626559
 11
242.350049
 21
87.623441
  0
SOLID
  8
LAYER01
  6
CONTINUOUS
 62
     7
 10
240.899951
 20
111.626559
 11
242.399951
 21
87.626559
 12
240.850049
 22
111.623441
 13
242.350049
 23
87.623441
  0
LINE
  8
LAYER01
  6
CONTINUOUS
 62
     7
 10
242.399933
 20
109.876824
 11
243.899933
 21
89.376824
  0
LINE
  8
LAYER01
  6
CONTINUOUS
 62
     7
 10
242.350067
 20
109.873176
 11
243.850067
 21
89.373176
  0
LINE
  8
LAYER01
  6
CONTINUOUS
 62
     7
 10
242.399933
 20
109.876824
 11
242.350067
 21
109.873176
  0
LINE
  8
LAYER01
  6
CONTINUOUS
 62
     7
 10
243.899933
 20
89.376824
 11
243.850067
 21
89.373176
  0
SOLID
  8
LAYER01
  6
CONTINUOUS
 62
     7
 10
242.399933
 20
109.876824
 11
243.899933
 21
89.376824
 12
242.350067
 22
109.873176
 13
243.850067
 23
89.373176
  0
LINE
  8
LAYER01
  6
CONTINUOUS
 62
     7
 10
245.399933
 20
109.876824
 11
246.899933
 21
89.376824
  0
LINE
  8
LAYER01
  6
CONTINUOUS
 62
     7
 10
245.350067
 20
109.873176
 11
246.850067
 21
89.373176
  0
LINE
  8
LAYER01
  6
CONTINUOUS
 62
     7
 10
245.399933
 20
109.876824
 11
245.350067
 21
109.873176
  0
LINE
  8
LAYER01
  6
CONTINUOUS
 62
     7
 10
246.899933
 20
89.376824
 11
246.850067
 21
89.373176
  0
SOLID
  8
LAYER01
  6
CONTINUOUS
 62
     7
 10
245.399933
 20
109.876824
 11
246.899933
 21
89.376824
 12
245.350067
 22
109.873176
 13
246.850067
 23
89.373176
  0
LINE
  8
LAYER01
  6
CONTINUOUS
 62
     7
 10
243.899951
 20
111.626559
 11
245.399951
 21
87.626559
  0
LINE
  8
LAYER01
  6
CONTINUOUS
 62
     7
 10
243.850049
 20
111.623441
 11
245.350049
 21
87.623441
  0
LINE
  8
LAYER01
  6
CONTINUOUS
 62
     7
 10
243.899951
 20
111.626559
 11
243.850049
 21
111.623441
  0
LINE
  8
LAYER01
  6
CONTINUOUS
 62
     7
 10
245.399951
 20
87.626559
 11
245.350049
 21
87.623441
  0
SOLID
  8
LAYER01
  6
CONTINUOUS
 62
     7
 10
243.899951
 20
111.626559
 11
245.399951
 21
87.626559
 12
243.850049
 22
111.623441
 13
245.350049
 23
87.623441
  0
LINE
  8
LAYER01
  6
CONTINUOUS
 62
     7
 10
246.899951
 20
111.626559
 11
248.399951
 21
87.626559
  0
LINE
  8
LAYER01
  6
CONTINUOUS
 62
     7
 10
246.850049
 20
111.623441
 11
248.350049
 21
87.623441
  0
LINE
  8
LAYER01
  6
CONTINUOUS
 62
     7
 10
246.899951
 20
111.626559
 11
246.850049
 21
111.623441
  0
LINE
  8
LAYER01
  6
CONTINUOUS
 62
     7
 10
248.399951
 20
87.626559
 11
248.350049
 21
87.623441
  0
SOLID
  8
LAYER01
  6
CONTINUOUS
 62
     7
 10
246.899951
 20
111.626559
 11
248.399951
 21
87.626559
 12
246.850049
 22
111.623441
 13
248.350049
 23
87.623441
  0
LINE
  8
LAYER01
  6
CONTINUOUS
 62
     7
 10
248.399935
 20
110.126803
 11
249.899935
 21
89.376803
  0
LINE
  8
LAYER01
  6
CONTINUOUS
 62
     7
 10
248.350065
 20
110.123197
 11
249.850065
 21
89.373197
  0
LINE
  8
LAYER01
  6
CONTINUOUS
 62
     7
 10
248.399935
 20
110.126803
 11
248.350065
 21
110.123197
  0
LINE
  8
LAYER01
  6
CONTINUOUS
 62
     7
 10
249.899935
 20
89.376803
 11
249.850065
 21
89.373197
  0
SOLID
  8
LAYER01
  6
CONTINUOUS
 62
     7
 10
248.399935
 20
110.126803
 11
249.899935
 21
89.376803
 12
248.350065
 22
110.123197
 13
249.850065
 23
89.373197
  0
LINE
  8
LAYER01
  6
CONTINUOUS
 62
     7
 10
237.899951
 20
111.626559
 11
239.399951
 21
87.626559
  0
LINE
  8
LAYER01
  6
CONTINUOUS
 62
     7
 10
237.850049
 20
111.623441
 11
239.350049
 21
87.623441
  0
LINE
  8
LAYER01
  6
CONTINUOUS
 62
     7
 10
237.899951
 20
111.626559
 11
237.850049
 21
111.623441
  0
LINE
  8
LAYER01
  6
CONTINUOUS
 62
     7
 10
239.399951
 20
87.626559
 11
239.350049
 21
87.623441
  0
SOLID
  8
LAYER01
  6
CONTINUOUS
 62
     7
 10
237.899951
 20
111.626559
 11
239.399951
 21
87.626559
 12
237.850049
 22
111.623441
 13
239.350049
 23
87.623441
  0
POLYLINE
  8
LAYER01
  6
CONTINUOUS
 62
     7
 66
     1
 40
0.15
 41
0.15
  0
VERTEX
  8
LAYER01
 10
248.375
 20
109.875
  0
VERTEX
  8
LAYER01
 10
249.875
 20
111.625
  0
VERTEX
  8
LAYER01
 10
249.875
 20
89.375
  0
SEQEND
  8
LAYER01
  0
LINE
  8
LAYER01
  6
TRATTEGGIATA
 62
     7
 10
235.125
 20
111.625
 11
235.125
 21
88.625
  0
TEXT
  8
LAYER01
  6
TRATTEGGIATA
 62
     7
 10
254.625
 20
95.625
 40
5.0
  1
M12
 41
1.2
  0
POLYLINE
  8
LAYER01
  6
CONTINUOUS
 62
     7
 66
     1
 40
0.15
 41
0.15
  0
VERTEX
  8
LAYER01
 10
210.75
 20
89.375
  0
VERTEX
  8
LAYER01
 10
212.25
 20
87.625
  0
VERTEX
  8
LAYER01
 10
213.75
 20
89.375
  0
SEQEND
  8
LAYER01
  0
INSERT
  8
LAYER01
  2
GIOCHI-G32
 10
0.0
 20
0.0
  0
INSERT
  8
LAYER01
  2
GIOCHI-G33
 10
0.0
 20
0.0
  0
POLYLINE
  8
LAYER01
  6
CONTINUOUS
 62
     7
 66
     1
 70
     1
  0
VERTEX
  8
LAYER01
 10
162.75
 20
87.125
  0
VERTEX
  8
LAYER01
 10
162.75
 20
77.625
  0
VERTEX
  8
LAYER01
 10
164.75
 20
75.625
  0
VERTEX
  8
LAYER01
 10
184.75
 20
75.625
  0
VERTEX
  8
LAYER01
 10
186.75
 20
77.625
  0
VERTEX
  8
LAYER01
 10
186.75
 20
87.125
  0
VERTEX
  8
LAYER01
 10
185.991935
 20
88.037707
  0
VERTEX
  8
LAYER01
 10
185.246513
 20
87.1432
  0
VERTEX
  8
LAYER01
 10
183.75
 20
88.875
  0
VERTEX
  8
LAYER01
 10
182.25
 20
87.125
  0
VERTEX
  8
LAYER01
 10
180.75
 20
88.875
  0
VERTEX
  8
LAYER01
 10
179.25
 20
87.125
  0
VERTEX
  8
LAYER01
 10
177.75
 20
88.875
  0
VERTEX
  8
LAYER01
 10
176.25
 20
87.125
  0
VERTEX
  8
LAYER01
 10
174.75
 20
88.875
  0
VERTEX
  8
LAYER01
 10
173.25
 20
87.125
  0
VERTEX
  8
LAYER01
 10
171.75
 20
88.875
  0
VERTEX
  8
LAYER01
 10
170.25
 20
87.125
  0
VERTEX
  8
LAYER01
 10
168.75
 20
88.875
  0
VERTEX
  8
LAYER01
 10
167.25
 20
87.125
  0
VERTEX
  8
LAYER01
 10
167.25
 20
87.125
  0
VERTEX
  8
LAYER01
 10
165.75
 20
88.875
  0
VERTEX
  8
LAYER01
 10
164.25
 20
87.125
  0
VERTEX
  8
LAYER01
 10
163.452977
 20
88.058384
  0
SEQEND
  8
LAYER01
  0
POLYLINE
  8
LAYER01
  6
CONTINUOUS
 62
     7
 66
     1
 70
     1
  0
VERTEX
  8
LAYER01
 10
186.75
 20
87.125
  0
VERTEX
  8
LAYER01
 10
185.991935
 20
88.037707
  0
VERTEX
  8
LAYER01
 10
185.246513
 20
87.1432
  0
VERTEX
  8
LAYER01
 10
183.75
 20
88.875
  0
VERTEX
  8
LAYER01
 10
182.25
 20
87.125
  0
VERTEX
  8
LAYER01
 10
180.75
 20
88.875
  0
VERTEX
  8
LAYER01
 10
179.25
 20
87.125
  0
VERTEX
  8
LAYER01
 10
177.75
 20
88.875
  0
VERTEX
  8
LAYER01
 10
176.25
 20
87.125
  0
VERTEX
  8
LAYER01
 10
174.75
 20
88.875
  0
VERTEX
  8
LAYER01
 10
173.25
 20
87.125
  0
VERTEX
  8
LAYER01
 10
171.75
 20
88.875
  0
VERTEX
  8
LAYER01
 10
170.25
 20
87.125
  0
VERTEX
  8
LAYER01
 10
168.75
 20
88.875
  0
VERTEX
  8
LAYER01
 10
167.25
 20
87.125
  0
VERTEX
  8
LAYER01
 10
165.75
 20
88.875
  0
VERTEX
  8
LAYER01
 10
164.25
 20
87.125
  0
VERTEX
  8
LAYER01
 10
163.452977
 20
88.058384
  0
VERTEX
  8
LAYER01
 10
162.75
 20
87.125
  0
VERTEX
  8
LAYER01
 10
162.75
 20
77.625
  0
VERTEX
  8
LAYER01
 10
164.75
 20
75.625
  0
VERTEX
  8
LAYER01
 10
184.75
 20
75.625
  0
VERTEX
  8
LAYER01
 10
186.75
 20
77.625
  0
SEQEND
  8
LAYER01
  0
INSERT
  8
LAYER01
  2
GIOCHI-G34
 10
0.0
 20
0.0
  0
POLYLINE
  8
LAYER01
  6
CONTINUOUS
 62
     7
 66
     1
 40
0.15
 41
0.15
  0
VERTEX
  8
LAYER01
 10
174.75
 20
89.375
  0
VERTEX
  8
LAYER01
 10
176.25
 20
87.625
  0
VERTEX
  8
LAYER01
 10
177.75
 20
89.375
  0
SEQEND
  8
LAYER01
  0
LINE
  8
LAYER01
  6
LINEA-PUNTO
 62
     7
 10
147.75
 20
55.125
 11
147.75
 21
84.125
  0
CIRCLE
  8
LAYER01
  6
CONTINUOUS
 62
     7
 10
147.75
 20
69.625
 40
6.175
  0
CIRCLE
  8
LAYER01
  6
CONTINUOUS
 62
     7
 10
147.75
 20
69.625
 40
6.325
  0
TEXT
  8
LAYER01
  6
TRATTEGGIATA
 62
     7
 10
141.875
 20
67.375
 40
5.0
  1
D6.2
 41
1.2
  0
CIRCLE
  8
LAYER01
  6
CONTINUOUS
 62
     7
 10
146.25
 20
84.625
 40
1.425
  0
CIRCLE
  8
LAYER01
  6
CONTINUOUS
 62
     7
 10
146.25
 20
84.625
 40
1.575
  0
LINE
  8
LAYER01
  6
CONTINUOUS
 62
     7
 10
141.352626
 20
88.635178
 11
141.774878
 21
84.377467
  0
LINE
  8
LAYER01
  6
CONTINUOUS
 62
     7
 10
141.30287
 20
88.630243
 11
141.725122
 21
84.372533
  0
LINE
  8
LAYER01
  6
CONTINUOUS
 62
     7
 10
141.352626
 20
88.635178
 11
141.30287
 21
88.630243
  0
LINE
  8
LAYER01
  6
CONTINUOUS
 62
     7
 10
141.774878
 20
84.377467
 11
141.725122
 21
84.372533
  0
SOLID
  8
LAYER01
  6
CONTINUOUS
 62
     7
 10
141.352626
 20
88.635178
 11
141.774878
 21
84.377467
 12
141.30287
 22
88.630243
 13
141.725122
 23
84.372533
  0
LINE
  8
LAYER01
  6
CONTINUOUS
 62
     7
 10
147.352626
 20
88.635178
 11
147.774878
 21
84.377467
  0
LINE
  8
LAYER01
  6
CONTINUOUS
 62
     7
 10
147.30287
 20
88.630243
 11
147.725122
 21
84.372533
  0
LINE
  8
LAYER01
  6
CONTINUOUS
 62
     7
 10
147.352626
 20
88.635178
 11
147.30287
 21
88.630243
  0
LINE
  8
LAYER01
  6
CONTINUOUS
 62
     7
 10
147.774878
 20
84.377467
 11
147.725122
 21
84.372533
  0
SOLID
  8
LAYER01
  6
CONTINUOUS
 62
     7
 10
147.352626
 20
88.635178
 11
147.774878
 21
84.377467
 12
147.30287
 22
88.630243
 13
147.725122
 23
84.372533
  0
LINE
  8
LAYER01
  6
CONTINUOUS
 62
     7
 10
144.328074
 20
88.882743
 11
144.774878
 21
84.377467
  0
LINE
  8
LAYER01
  6
CONTINUOUS
 62
     7
 10
144.278318
 20
88.877808
 11
144.725122
 21
84.372533
  0
LINE
  8
LAYER01
  6
CONTINUOUS
 62
     7
 10
144.328074
 20
88.882743
 11
144.278318
 21
88.877808
  0
LINE
  8
LAYER01
  6
CONTINUOUS
 62
     7
 10
144.774878
 20
84.377467
 11
144.725122
 21
84.372533
  0
SOLID
  8
LAYER01
  6
CONTINUOUS
 62
     7
 10
144.328074
 20
88.882743
 11
144.774878
 21
84.377467
 12
144.278318
 22
88.877808
 13
144.725122
 23
84.372533
  0
CIRCLE
  8
LAYER01
  6
CONTINUOUS
 62
     7
 10
158.25
 20
84.625
 40
1.425
  0
CIRCLE
  8
LAYER01
  6
CONTINUOUS
 62
     7
 10
158.25
 20
84.625
 40
1.575
  0
CIRCLE
  8
LAYER01
  6
CONTINUOUS
 62
     7
 10
152.25
 20
84.625
 40
1.425
  0
CIRCLE
  8
LAYER01
  6
CONTINUOUS
 62
     7
 10
152.25
 20
84.625
 40
1.575
  0
LINE
  8
LAYER01
  6
CONTINUOUS
 62
     7
 10
153.328074
 20
88.882743
 11
153.774878
 21
84.377467
  0
LINE
  8
LAYER01
  6
CONTINUOUS
 62
     7
 10
153.278318
 20
88.877808
 11
153.725122
 21
84.372533
  0
LINE
  8
LAYER01
  6
CONTINUOUS
 62
     7
 10
153.328074
 20
88.882743
 11
153.278318
 21
88.877808
  0
LINE
  8
LAYER01
  6
CONTINUOUS
 62
     7
 10
153.774878
 20
84.377467
 11
153.725122
 21
84.372533
  0
SOLID
  8
LAYER01
  6
CONTINUOUS
 62
     7
 10
153.328074
 20
88.882743
 11
153.774878
 21
84.377467
 12
153.278318
 22
88.877808
 13
153.725122
 23
84.372533
  0
LINE
  8
LAYER01
  6
CONTINUOUS
 62
     7
 10
150.352626
 20
88.635178
 11
150.774878
 21
84.377467
  0
LINE
  8
LAYER01
  6
CONTINUOUS
 62
     7
 10
150.30287
 20
88.630243
 11
150.725122
 21
84.372533
  0
LINE
  8
LAYER01
  6
CONTINUOUS
 62
     7
 10
150.352626
 20
88.635178
 11
150.30287
 21
88.630243
  0
LINE
  8
LAYER01
  6
CONTINUOUS
 62
     7
 10
150.774878
 20
84.377467
 11
150.725122
 21
84.372533
  0
SOLID
  8
LAYER01
  6
CONTINUOUS
 62
     7
 10
150.352626
 20
88.635178
 11
150.774878
 21
84.377467
 12
150.30287
 22
88.630243
 13
150.725122
 23
84.372533
  0
LINE
  8
LAYER01
  6
CONTINUOUS
 62
     7
 10
156.352626
 20
88.635178
 11
156.774878
 21
84.377467
  0
LINE
  8
LAYER01
  6
CONTINUOUS
 62
     7
 10
156.30287
 20
88.630243
 11
156.725122
 21
84.372533
  0
LINE
  8
LAYER01
  6
CONTINUOUS
 62
     7
 10
156.352626
 20
88.635178
 11
156.30287
 21
88.630243
  0
LINE
  8
LAYER01
  6
CONTINUOUS
 62
     7
 10
156.774878
 20
84.377467
 11
156.725122
 21
84.372533
  0
SOLID
  8
LAYER01
  6
CONTINUOUS
 62
     7
 10
156.352626
 20
88.635178
 11
156.774878
 21
84.377467
 12
156.30287
 22
88.630243
 13
156.725122
 23
84.372533
  0
LINE
  8
LAYER01
  6
CONTINUOUS
 62
     7
 10
159.328074
 20
88.882743
 11
159.774878
 21
84.377467
  0
LINE
  8
LAYER01
  6
CONTINUOUS
 62
     7
 10
159.278318
 20
88.877808
 11
159.725122
 21
84.372533
  0
LINE
  8
LAYER01
  6
CONTINUOUS
 62
     7
 10
159.328074
 20
88.882743
 11
159.278318
 21
88.877808
  0
LINE
  8
LAYER01
  6
CONTINUOUS
 62
     7
 10
159.774878
 20
84.377467
 11
159.725122
 21
84.372533
  0
SOLID
  8
LAYER01
  6
CONTINUOUS
 62
     7
 10
159.328074
 20
88.882743
 11
159.774878
 21
84.377467
 12
159.278318
 22
88.877808
 13
159.725122
 23
84.372533
  0
LINE
  8
LAYER01
  6
CONTINUOUS
 62
     7
 10
162.328074
 20
88.882743
 11
162.774878
 21
84.377467
  0
LINE
  8
LAYER01
  6
CONTINUOUS
 62
     7
 10
162.278318
 20
88.877808
 11
162.725122
 21
84.372533
  0
LINE
  8
LAYER01
  6
CONTINUOUS
 62
     7
 10
162.328074
 20
88.882743
 11
162.278318
 21
88.877808
  0
LINE
  8
LAYER01
  6
CONTINUOUS
 62
     7
 10
162.774878
 20
84.377467
 11
162.725122
 21
84.372533
  0
SOLID
  8
LAYER01
  6
CONTINUOUS
 62
     7
 10
162.328074
 20
88.882743
 11
162.774878
 21
84.377467
 12
162.278318
 22
88.877808
 13
162.725122
 23
84.372533
  0
POLYLINE
  8
LAYER01
  6
CONTINUOUS
 62
     7
 66
     1
 40
0.15
 41
0.15
  0
VERTEX
  8
LAYER01
 10
150.75
 20
89.375
  0
VERTEX
  8
LAYER01
 10
152.25
 20
87.625
  0
VERTEX
  8
LAYER01
 10
153.75
 20
89.375
  0
SEQEND
  8
LAYER01
  0
POLYLINE
  8
LAYER01
  6
CONTINUOUS
 62
     7
 66
     1
 40
0.15
 41
0.15
  0
VERTEX
  8
LAYER01
 10
141.75
 20
89.375
  0
VERTEX
  8
LAYER01
 10
143.25
 20
87.625
  0
VERTEX
  8
LAYER01
 10
144.75
 20
89.375
  0
SEQEND
  8
LAYER01
  0
POLYLINE
  8
LAYER01
  6
CONTINUOUS
 62
     7
 66
     1
 40
0.15
 41
0.15
  0
VERTEX
  8
LAYER01
 10
144.75
 20
89.375
  0
VERTEX
  8
LAYER01
 10
146.25
 20
87.625
  0
VERTEX
  8
LAYER01
 10
147.75
 20
89.375
  0
SEQEND
  8
LAYER01
  0
POLYLINE
  8
LAYER01
  6
CONTINUOUS
 62
     7
 66
     1
 40
0.15
 41
0.15
  0
VERTEX
  8
LAYER01
 10
147.75
 20
89.375
  0
VERTEX
  8
LAYER01
 10
149.25
 20
87.625
  0
VERTEX
  8
LAYER01
 10
150.75
 20
89.375
  0
SEQEND
  8
LAYER01
  0
POLYLINE
  8
LAYER01
  6
CONTINUOUS
 62
     7
 66
     1
 40
0.15
 41
0.15
  0
VERTEX
  8
LAYER01
 10
168.75
 20
89.375
  0
VERTEX
  8
LAYER01
 10
170.25
 20
87.625
  0
VERTEX
  8
LAYER01
 10
171.75
 20
89.375
  0
SEQEND
  8
LAYER01
  0
POLYLINE
  8
LAYER01
  6
CONTINUOUS
 62
     7
 66
     1
 40
0.15
 41
0.15
  0
VERTEX
  8
LAYER01
 10
165.75
 20
89.375
  0
VERTEX
  8
LAYER01
 10
167.25
 20
87.625
  0
VERTEX
  8
LAYER01
 10
168.75
 20
89.375
  0
SEQEND
  8
LAYER01
  0
POLYLINE
  8
LAYER01
  6
CONTINUOUS
 62
     7
 66
     1
 40
0.15
 41
0.15
  0
VERTEX
  8
LAYER01
 10
153.75
 20
89.375
  0
VERTEX
  8
LAYER01
 10
155.25
 20
87.625
  0
VERTEX
  8
LAYER01
 10
156.75
 20
89.375
  0
SEQEND
  8
LAYER01
  0
POLYLINE
  8
LAYER01
  6
CONTINUOUS
 62
     7
 66
     1
 40
0.15
 41
0.15
  0
VERTEX
  8
LAYER01
 10
156.75
 20
89.375
  0
VERTEX
  8
LAYER01
 10
158.25
 20
87.625
  0
VERTEX
  8
LAYER01
 10
159.75
 20
89.375
  0
SEQEND
  8
LAYER01
  0
POLYLINE
  8
LAYER01
  6
CONTINUOUS
 62
     7
 66
     1
 40
0.15
 41
0.15
  0
VERTEX
  8
LAYER01
 10
159.75
 20
89.375
  0
VERTEX
  8
LAYER01
 10
161.25
 20
87.625
  0
VERTEX
  8
LAYER01
 10
162.75
 20
89.375
  0
SEQEND
  8
LAYER01
  0
POLYLINE
  8
LAYER01
  6
CONTINUOUS
 62
     7
 66
     1
 40
0.15
 41
0.15
  0
VERTEX
  8
LAYER01
 10
162.75
 20
89.375
  0
VERTEX
  8
LAYER01
 10
164.25
 20
87.625
  0
VERTEX
  8
LAYER01
 10
165.75
 20
89.375
  0
SEQEND
  8
LAYER01
  0
POLYLINE
  8
LAYER01
  6
CONTINUOUS
 62
     7
 66
     1
 40
0.15
 41
0.15
  0
VERTEX
  8
LAYER01
 10
171.75
 20
89.375
  0
VERTEX
  8
LAYER01
 10
173.25
 20
87.625
  0
VERTEX
  8
LAYER01
 10
174.75
 20
89.375
  0
SEQEND
  8
LAYER01
  0
POLYLINE
  8
LAYER01
  6
CONTINUOUS
 62
     7
 66
     1
 70
     1
  0
VERTEX
  8
LAYER01
 10
203.25
 20
73.875
  0
VERTEX
  8
LAYER01
 10
191.9
 20
73.875
  0
VERTEX
  8
LAYER01
 10
191.9
 20
78.325
  0
VERTEX
  8
LAYER01
 10
204.25
 20
78.325
  0
VERTEX
  8
LAYER01
 10
204.25
 20
78.375
  0
VERTEX
  8
LAYER01
 10
204.285355
 20
78.339645
  0
VERTEX
  8
LAYER01
 10
204.320711
 20
78.375
  0
VERTEX
  8
LAYER01
 10
211.6
 20
78.375
  0
VERTEX
  8
LAYER01
 10
211.6
 20
69.625
  0
VERTEX
  8
LAYER01
 10
211.5
 20
69.625
  0
VERTEX
  8
LAYER01
 10
211.5
 20
76.875
  0
VERTEX
  8
LAYER01
 10
203.25
 20
76.875
  0
SEQEND
  8
LAYER01
  0
INSERT
  8
LAYER01
  2
GIOCHI-G35
 10
0.0
 20
0.0
  0
POLYLINE
  8
LAYER01
  6
CONTINUOUS
 62
     7
 66
     1
 40
0.15
 41
0.15
  0
VERTEX
  8
LAYER01
 10
191.75
 20
78.375
  0
VERTEX
  8
LAYER01
 10
191.75
 20
59.625
  0
VERTEX
  8
LAYER01
 10
211.75
 20
59.625
  0
VERTEX
  8
LAYER01
 10
211.75
 20
86.375
  0
VERTEX
  8
LAYER01
 10
191.75
 20
86.375
  0
VERTEX
  8
LAYER01
 10
191.75
 20
84.375
  0
SEQEND
  8
LAYER01
  0
POLYLINE
  8
LAYER01
  6
CONTINUOUS
 62
     7
 66
     1
 70
     1
  0
VERTEX
  8
LAYER01
 10
211.6
 20
59.775
  0
VERTEX
  8
LAYER01
 10
191.9
 20
59.775
  0
VERTEX
  8
LAYER01
 10
191.9
 20
65.375
  0
VERTEX
  8
LAYER01
 10
203.25
 20
65.375
  0
VERTEX
  8
LAYER01
 10
203.25
 20
62.625
  0
VERTEX
  8
LAYER01
 10
211.5
 20
62.625
  0
VERTEX
  8
LAYER01
 10
211.5
 20
69.625
  0
VERTEX
  8
LAYER01
 10
211.6
 20
69.625
  0
SEQEND
  8
LAYER01
  0
INSERT
  8
LAYER01
  2
GIOCHI-G36
 10
0.0
 20
0.0
  0
POLYLINE
  8
LAYER01
  6
CONTINUOUS
 62
     7
 66
     1
  0
VERTEX
  8
LAYER01
 10
191.75
 20
78.375
  0
VERTEX
  8
LAYER01
 10
211.75
 20
78.375
  0
VERTEX
  8
LAYER01
 10
211.75
 20
84.375
  0
VERTEX
  8
LAYER01
 10
191.75
 20
84.375
  0
SEQEND
  8
LAYER01
  0
POLYLINE
  8
LAYER01
  6
CONTINUOUS
 62
     7
 66
     1
 70
     1
  0
VERTEX
  8
LAYER01
 10
192.25
 20
83.875
  0
VERTEX
  8
LAYER01
 10
192.25
 20
78.875
  0
VERTEX
  8
LAYER01
 10
211.25
 20
78.875
  0
VERTEX
  8
LAYER01
 10
211.25
 20
83.875
  0
SEQEND
  8
LAYER01
  0
LINE
  8
LAYER01
  6
CONTINUOUS
 62
     7
 10
191.75
 20
78.375
 11
192.25
 21
78.875
  0
LINE
  8
LAYER01
  6
CONTINUOUS
 62
     7
 10
192.25
 20
78.875
 11
187.5
 21
78.875
  0
LINE
  8
LAYER01
  6
CONTINUOUS
 62
     7
 10
192.25
 20
78.875
 11
192.25
 21
78.875
  0
LINE
  8
LAYER01
  6
CONTINUOUS
 62
     7
 10
204.232322
 20
78.392678
 11
204.732322
 21
78.892678
  0
LINE
  8
LAYER01
  6
CONTINUOUS
 62
     7
 10
204.267678
 20
78.357322
 11
204.767678
 21
78.857322
  0
LINE
  8
LAYER01
  6
CONTINUOUS
 62
     7
 10
204.232322
 20
78.392678
 11
204.267678
 21
78.357322
  0
LINE
  8
LAYER01
  6
CONTINUOUS
 62
     7
 10
204.732322
 20
78.892678
 11
204.767678
 21
78.857322
  0
SOLID
  8
LAYER01
  6
CONTINUOUS
 62
     7
 10
204.232322
 20
78.392678
 11
204.732322
 21
78.892678
 12
204.267678
 22
78.357322
 13
204.767678
 23
78.857322
  0
LINE
  8
LAYER01
  6
CONTINUOUS
 62
     7
 10
191.75
 20
78.375
 11
192.25
 21
78.875
  0
LINE
  8
LAYER01
  6
CONTINUOUS
 62
     7
 10
191.75
 20
84.375
 11
192.25
 21
83.875
  0
POLYLINE
  8
LAYER01
  6
CONTINUOUS
 62
     7
 66
     1
 40
0.05
 41
0.05
  0
VERTEX
  8
LAYER01
 10
188.0
 20
78.375
  0
VERTEX
  8
LAYER01
 10
186.75
 20
79.625
  0
VERTEX
  8
LAYER01
 10
186.75
 20
83.375
  0
VERTEX
  8
LAYER01
 10
188.0
 20
84.375
  0
SEQEND
  8
LAYER01
  0
LINE
  8
LAYER01
  6
CONTINUOUS
 62
     7
 10
192.25
 20
78.875
 11
187.5
 21
78.875
  0
LINE
  8
LAYER01
  6
CONTINUOUS
 62
     7
 10
187.5
 20
78.875
 11
187.5
 21
83.875
  0
LINE
  8
LAYER01
  6
CONTINUOUS
 62
     7
 10
187.5
 20
83.875
 11
192.25
 21
83.875
  0
LINE
  8
LAYER01
  6
CONTINUOUS
 62
     7
 10
191.75
 20
78.375
 11
191.75
 21
84.375
  0
POLYLINE
  8
LAYER01
  6
CONTINUOUS
 62
     7
 66
     1
 40
0.05
 41
0.05
  0
VERTEX
  8
LAYER01
 10
204.75
 20
78.875
  0
VERTEX
  8
LAYER01
 10
204.75
 20
83.875
  0
SEQEND
  8
LAYER01
  0
POLYLINE
  8
LAYER01
  6
CONTINUOUS
 62
     7
 66
     1
 40
0.05
 41
0.05
  0
VERTEX
  8
LAYER01
 10
204.25
 20
84.375
  0
VERTEX
  8
LAYER01
 10
188.0
 20
84.375
  0
VERTEX
  8
LAYER01
 10
188.0
 20
78.375
  0
VERTEX
  8
LAYER01
 10
204.25
 20
78.375
  0
SEQEND
  8
LAYER01
  0
LINE
  8
LAYER01
  6
CONTINUOUS
 62
     7
 10
192.25
 20
78.875
 11
192.25
 21
78.875
  0
LINE
  8
LAYER01
  6
CONTINUOUS
 62
     7
 10
192.25
 20
83.875
 11
192.5
 21
83.875
  0
LINE
  8
LAYER01
  6
CONTINUOUS
 62
     7
 10
204.232322
 20
78.392678
 11
204.732322
 21
78.892678
  0
LINE
  8
LAYER01
  6
CONTINUOUS
 62
     7
 10
204.267678
 20
78.357322
 11
204.767678
 21
78.857322
  0
LINE
  8
LAYER01
  6
CONTINUOUS
 62
     7
 10
204.232322
 20
78.392678
 11
204.267678
 21
78.357322
  0
LINE
  8
LAYER01
  6
CONTINUOUS
 62
     7
 10
204.732322
 20
78.892678
 11
204.767678
 21
78.857322
  0
SOLID
  8
LAYER01
  6
CONTINUOUS
 62
     7
 10
204.232322
 20
78.392678
 11
204.732322
 21
78.892678
 12
204.267678
 22
78.357322
 13
204.767678
 23
78.857322
  0
LINE
  8
LAYER01
  6
CONTINUOUS
 62
     7
 10
204.267678
 20
84.392678
 11
204.767678
 21
83.892678
  0
LINE
  8
LAYER01
  6
CONTINUOUS
 62
     7
 10
204.232322
 20
84.357322
 11
204.732322
 21
83.857322
  0
LINE
  8
LAYER01
  6
CONTINUOUS
 62
     7
 10
204.267678
 20
84.392678
 11
204.232322
 21
84.357322
  0
LINE
  8
LAYER01
  6
CONTINUOUS
 62
     7
 10
204.767678
 20
83.892678
 11
204.732322
 21
83.857322
  0
SOLID
  8
LAYER01
  6
CONTINUOUS
 62
     7
 10
204.267678
 20
84.392678
 11
204.767678
 21
83.892678
 12
204.232322
 22
84.357322
 13
204.732322
 23
83.857322
  0
LINE
  8
LAYER01
  6
CONTINUOUS
 62
     7
 10
204.25
 20
78.375
 11
204.25
 21
84.375
  0
POLYLINE
  8
LAYER01
  6
CONTINUOUS
 62
     7
 66
     1
  0
VERTEX
  8
LAYER01
 10
204.75
 20
80.125
  0
VERTEX
  8
LAYER01
 10
199.75
 20
80.125
  0
VERTEX
  8
LAYER01
 10
198.75
 20
81.375
  0
VERTEX
  8
LAYER01
 10
199.75
 20
82.625
  0
VERTEX
  8
LAYER01
 10
204.75
 20
82.625
  0
SEQEND
  8
LAYER01
  0
POLYLINE
  8
LAYER01
  6
CONTINUOUS
 62
     7
 66
     1
  0
VERTEX
  8
LAYER01
 10
199.75
 20
80.375
  0
VERTEX
  8
LAYER01
 10
199.75
 20
82.625
  0
VERTEX
  8
LAYER01
 10
199.75
 20
80.125
  0
SEQEND
  8
LAYER01
  0
LINE
  8
LAYER01
  6
CONTINUOUS
 62
     7
 10
211.25
 20
78.875
 11
211.75
 21
78.375
  0
LINE
  8
LAYER01
  6
CONTINUOUS
 62
     7
 10
211.25
 20
78.875
 11
211.75
 21
78.375
  0
LINE
  8
LAYER01
  6
CONTINUOUS
 62
     7
 10
211.25
 20
83.875
 11
211.75
 21
84.375
  0
POLYLINE
  8
LAYER01
  6
CONTINUOUS
 62
     7
 66
     1
 40
0.15
 41
0.15
  0
VERTEX
  8
LAYER01
 10
177.75
 20
89.375
  0
VERTEX
  8
LAYER01
 10
179.25
 20
87.625
  0
VERTEX
  8
LAYER01
 10
180.75
 20
89.375
  0
SEQEND
  8
LAYER01
  0
POLYLINE
  8
LAYER01
  6
CONTINUOUS
 62
     7
 66
     1
 40
0.15
 41
0.15
  0
VERTEX
  8
LAYER01
 10
180.75
 20
89.375
  0
VERTEX
  8
LAYER01
 10
182.25
 20
87.625
  0
VERTEX
  8
LAYER01
 10
183.75
 20
89.375
  0
SEQEND
  8
LAYER01
  0
POLYLINE
  8
LAYER01
  6
CONTINUOUS
 62
     7
 66
     1
 40
0.15
 41
0.15
  0
VERTEX
  8
LAYER01
 10
198.75
 20
89.375
  0
VERTEX
  8
LAYER01
 10
200.25
 20
87.625
  0
VERTEX
  8
LAYER01
 10
201.75
 20
89.375
  0
SEQEND
  8
LAYER01
  0
POLYLINE
  8
LAYER01
  6
CONTINUOUS
 62
     7
 66
     1
 40
0.15
 41
0.15
  0
VERTEX
  8
LAYER01
 10
183.75
 20
89.375
  0
VERTEX
  8
LAYER01
 10
185.25
 20
87.625
  0
VERTEX
  8
LAYER01
 10
186.75
 20
89.375
  0
SEQEND
  8
LAYER01
  0
POLYLINE
  8
LAYER01
  6
CONTINUOUS
 62
     7
 66
     1
 40
0.15
 41
0.15
  0
VERTEX
  8
LAYER01
 10
186.75
 20
89.375
  0
VERTEX
  8
LAYER01
 10
188.25
 20
87.625
  0
VERTEX
  8
LAYER01
 10
189.75
 20
89.375
  0
SEQEND
  8
LAYER01
  0
POLYLINE
  8
LAYER01
  6
CONTINUOUS
 62
     7
 66
     1
 40
0.15
 41
0.15
  0
VERTEX
  8
LAYER01
 10
189.75
 20
89.375
  0
VERTEX
  8
LAYER01
 10
191.25
 20
87.625
  0
VERTEX
  8
LAYER01
 10
192.75
 20
89.375
  0
SEQEND
  8
LAYER01
  0
POLYLINE
  8
LAYER01
  6
CONTINUOUS
 62
     7
 66
     1
 40
0.15
 41
0.15
  0
VERTEX
  8
LAYER01
 10
192.75
 20
89.375
  0
VERTEX
  8
LAYER01
 10
194.25
 20
87.625
  0
VERTEX
  8
LAYER01
 10
195.75
 20
89.375
  0
SEQEND
  8
LAYER01
  0
POLYLINE
  8
LAYER01
  6
CONTINUOUS
 62
     7
 66
     1
 40
0.15
 41
0.15
  0
VERTEX
  8
LAYER01
 10
195.75
 20
89.375
  0
VERTEX
  8
LAYER01
 10
197.25
 20
87.625
  0
VERTEX
  8
LAYER01
 10
198.75
 20
89.375
  0
SEQEND
  8
LAYER01
  0
POLYLINE
  8
LAYER01
  6
CONTINUOUS
 62
     7
 66
     1
 40
0.15
 41
0.15
  0
VERTEX
  8
LAYER01
 10
201.75
 20
89.375
  0
VERTEX
  8
LAYER01
 10
203.25
 20
87.625
  0
VERTEX
  8
LAYER01
 10
204.75
 20
89.375
  0
SEQEND
  8
LAYER01
  0
POLYLINE
  8
LAYER01
  6
CONTINUOUS
 62
     7
 66
     1
 40
0.15
 41
0.15
  0
VERTEX
  8
LAYER01
 10
204.75
 20
89.375
  0
VERTEX
  8
LAYER01
 10
206.25
 20
87.625
  0
VERTEX
  8
LAYER01
 10
207.75
 20
89.375
  0
SEQEND
  8
LAYER01
  0
POLYLINE
  8
LAYER01
  6
CONTINUOUS
 62
     7
 66
     1
 40
0.15
 41
0.15
  0
VERTEX
  8
LAYER01
 10
207.75
 20
89.375
  0
VERTEX
  8
LAYER01
 10
209.25
 20
87.625
  0
VERTEX
  8
LAYER01
 10
210.75
 20
89.375
  0
SEQEND
  8
LAYER01
  0
LINE
  8
LAYER01
  6
CONTINUOUS
 62
     7
 10
235.25
 20
89.0
 11
235.25
 21
15.125
  0
LINE
  8
LAYER01
  6
CONTINUOUS
 62
     7
 10
235.0
 20
89.0
 11
235.0
 21
15.125
  0
LINE
  8
LAYER01
  6
CONTINUOUS
 62
     7
 10
235.25
 20
89.0
 11
235.0
 21
89.0
  0
LINE
  8
LAYER01
  6
CONTINUOUS
 62
     7
 10
235.25
 20
15.125
 11
235.0
 21
15.125
  0
SOLID
  8
LAYER01
  6
CONTINUOUS
 62
     7
 10
235.25
 20
89.0
 11
235.25
 21
15.125
 12
235.0
 22
89.0
 13
235.0
 23
15.125
  0
TEXT
  8
LAYER01
  6
TRATTEGGIATA
 62
     7
 10
218.5
 20
66.625
 40
5.0
  1
M4
 41
1.2
  0
POLYLINE
  8
LAYER01
  6
CONTINUOUS
 62
     7
 66
     1
 40
0.15
 41
0.15
  0
VERTEX
  8
LAYER01
 10
213.75
 20
89.375
  0
VERTEX
  8
LAYER01
 10
215.25
 20
87.625
  0
VERTEX
  8
LAYER01
 10
216.75
 20
89.375
  0
SEQEND
  8
LAYER01
  0
POLYLINE
  8
LAYER01
  6
CONTINUOUS
 62
     7
 66
     1
 40
0.15
 41
0.15
  0
VERTEX
  8
LAYER01
 10
216.75
 20
89.375
  0
VERTEX
  8
LAYER01
 10
218.25
 20
87.625
  0
VERTEX
  8
LAYER01
 10
219.75
 20
89.375
  0
SEQEND
  8
LAYER01
  0
POLYLINE
  8
LAYER01
  6
CONTINUOUS
 62
     7
 66
     1
 40
0.15
 41
0.15
  0
VERTEX
  8
LAYER01
 10
219.75
 20
89.375
  0
VERTEX
  8
LAYER01
 10
221.25
 20
87.625
  0
VERTEX
  8
LAYER01
 10
222.75
 20
89.375
  0
SEQEND
  8
LAYER01
  0
POLYLINE
  8
LAYER01
  6
CONTINUOUS
 62
     7
 66
     1
 40
0.15
 41
0.15
  0
VERTEX
  8
LAYER01
 10
222.75
 20
89.375
  0
VERTEX
  8
LAYER01
 10
224.25
 20
87.625
  0
VERTEX
  8
LAYER01
 10
225.75
 20
89.375
  0
SEQEND
  8
LAYER01
  0
POLYLINE
  8
LAYER01
  6
CONTINUOUS
 62
     7
 66
     1
 40
0.15
 41
0.15
  0
VERTEX
  8
LAYER01
 10
225.875
 20
89.375
  0
VERTEX
  8
LAYER01
 10
227.375
 20
87.625
  0
VERTEX
  8
LAYER01
 10
228.875
 20
89.375
  0
SEQEND
  8
LAYER01
  0
POLYLINE
  8
LAYER01
  6
CONTINUOUS
 62
     7
 66
     1
 40
0.15
 41
0.15
  0
VERTEX
  8
LAYER01
 10
228.875
 20
89.375
  0
VERTEX
  8
LAYER01
 10
230.375
 20
87.625
  0
VERTEX
  8
LAYER01
 10
231.875
 20
89.375
  0
SEQEND
  8
LAYER01
  0
POLYLINE
  8
LAYER01
  6
CONTINUOUS
 62
     7
 66
     1
 40
0.15
 41
0.15
  0
VERTEX
  8
LAYER01
 10
231.875
 20
89.375
  0
VERTEX
  8
LAYER01
 10
233.375
 20
87.625
  0
VERTEX
  8
LAYER01
 10
234.875
 20
89.375
  0
SEQEND
  8
LAYER01
  0
POLYLINE
  8
LAYER01
  6
CONTINUOUS
 62
     7
 66
     1
 40
0.15
 41
0.15
  0
VERTEX
  8
LAYER01
 10
234.875
 20
89.375
  0
VERTEX
  8
LAYER01
 10
236.375
 20
87.625
  0
VERTEX
  8
LAYER01
 10
237.875
 20
89.375
  0
SEQEND
  8
LAYER01
  0
POLYLINE
  8
LAYER01
  6
CONTINUOUS
 62
     7
 66
     1
 40
0.15
 41
0.15
  0
VERTEX
  8
LAYER01
 10
240.875
 20
89.375
  0
VERTEX
  8
LAYER01
 10
242.375
 20
87.625
  0
VERTEX
  8
LAYER01
 10
243.875
 20
89.375
  0
SEQEND
  8
LAYER01
  0
POLYLINE
  8
LAYER01
  6
CONTINUOUS
 62
     7
 66
     1
 40
0.15
 41
0.15
  0
VERTEX
  8
LAYER01
 10
243.875
 20
89.375
  0
VERTEX
  8
LAYER01
 10
245.375
 20
87.625
  0
VERTEX
  8
LAYER01
 10
246.875
 20
89.375
  0
SEQEND
  8
LAYER01
  0
POLYLINE
  8
LAYER01
  6
CONTINUOUS
 62
     7
 66
     1
 40
0.15
 41
0.15
  0
VERTEX
  8
LAYER01
 10
246.875
 20
89.375
  0
VERTEX
  8
LAYER01
 10
248.375
 20
87.625
  0
VERTEX
  8
LAYER01
 10
249.875
 20
89.375
  0
SEQEND
  8
LAYER01
  0
POLYLINE
  8
LAYER01
  6
CONTINUOUS
 62
     7
 66
     1
 40
0.15
 41
0.15
  0
VERTEX
  8
LAYER01
 10
237.875
 20
89.375
  0
VERTEX
  8
LAYER01
 10
239.375
 20
87.625
  0
VERTEX
  8
LAYER01
 10
240.875
 20
89.375
  0
SEQEND
  8
LAYER01
  0
TEXT
  8
LAYER01
  6
TRATTEGGIATA
 62
     7
 10
214.625
 20
80.125
 40
5.0
  1
M3
 41
1.2
  0
POLYLINE
  8
LAYER01
  6
CONTINUOUS
 62
     7
 66
     1
 40
0.15
 41
0.15
  0
VERTEX
  8
LAYER01
 10
212.25
 20
109.875
  0
VERTEX
  8
LAYER01
 10
213.75
 20
111.625
  0
VERTEX
  8
LAYER01
 10
215.25
 20
109.875
  0
SEQEND
  8
LAYER01
  0
INSERT
  8
LAYER01
  2
GIOCHI-G37
 10
0.0
 20
0.0
  0
POLYLINE
  8
LAYER01
  6
CONTINUOUS
 62
     7
 66
     1
 70
     1
  0
VERTEX
  8
LAYER01
 10
162.75
 20
112.125
  0
VERTEX
  8
LAYER01
 10
162.75
 20
120.875
  0
VERTEX
  8
LAYER01
 10
164.75
 20
122.875
  0
VERTEX
  8
LAYER01
 10
184.75
 20
122.875
  0
VERTEX
  8
LAYER01
 10
186.75
 20
120.875
  0
VERTEX
  8
LAYER01
 10
186.75
 20
112.125
  0
VERTEX
  8
LAYER01
 10
185.25
 20
110.375
  0
VERTEX
  8
LAYER01
 10
183.75
 20
112.125
  0
VERTEX
  8
LAYER01
 10
182.25
 20
110.375
  0
VERTEX
  8
LAYER01
 10
180.75
 20
112.125
  0
VERTEX
  8
LAYER01
 10
179.25
 20
110.375
  0
VERTEX
  8
LAYER01
 10
177.75
 20
112.125
  0
VERTEX
  8
LAYER01
 10
176.25
 20
110.375
  0
VERTEX
  8
LAYER01
 10
174.75
 20
112.125
  0
VERTEX
  8
LAYER01
 10
173.25
 20
110.375
  0
VERTEX
  8
LAYER01
 10
171.75
 20
112.125
  0
VERTEX
  8
LAYER01
 10
170.25
 20
110.375
  0
VERTEX
  8
LAYER01
 10
168.75
 20
112.125
  0
VERTEX
  8
LAYER01
 10
167.25
 20
110.375
  0
VERTEX
  8
LAYER01
 10
165.75
 20
112.125
  0
VERTEX
  8
LAYER01
 10
165.75
 20
112.125
  0
VERTEX
  8
LAYER01
 10
164.25
 20
110.375
  0
SEQEND
  8
LAYER01
  0
POLYLINE
  8
LAYER01
  6
CONTINUOUS
 62
     7
 66
     1
 70
     1
  0
VERTEX
  8
LAYER01
 10
186.75
 20
120.875
  0
VERTEX
  8
LAYER01
 10
184.75
 20
122.875
  0
VERTEX
  8
LAYER01
 10
164.75
 20
122.875
  0
VERTEX
  8
LAYER01
 10
162.75
 20
120.875
  0
VERTEX
  8
LAYER01
 10
162.75
 20
112.125
  0
VERTEX
  8
LAYER01
 10
164.25
 20
110.375
  0
VERTEX
  8
LAYER01
 10
165.75
 20
112.125
  0
VERTEX
  8
LAYER01
 10
167.25
 20
110.375
  0
VERTEX
  8
LAYER01
 10
168.75
 20
112.125
  0
VERTEX
  8
LAYER01
 10
170.25
 20
110.375
  0
VERTEX
  8
LAYER01
 10
171.75
 20
112.125
  0
VERTEX
  8
LAYER01
 10
173.25
 20
110.375
  0
VERTEX
  8
LAYER01
 10
174.75
 20
112.125
  0
VERTEX
  8
LAYER01
 10
176.25
 20
110.375
  0
VERTEX
  8
LAYER01
 10
177.75
 20
112.125
  0
VERTEX
  8
LAYER01
 10
179.25
 20
110.375
  0
VERTEX
  8
LAYER01
 10
180.75
 20
112.125
  0
VERTEX
  8
LAYER01
 10
182.25
 20
110.375
  0
VERTEX
  8
LAYER01
 10
183.75
 20
112.125
  0
VERTEX
  8
LAYER01
 10
185.25
 20
110.375
  0
VERTEX
  8
LAYER01
 10
186.75
 20
112.125
  0
SEQEND
  8
LAYER01
  0
INSERT
  8
LAYER01
  2
GIOCHI-G38
 10
0.0
 20
0.0
  0
INSERT
  8
LAYER01
  2
GIOCHI-G39
 10
0.0
 20
0.0
  0
POLYLINE
  8
LAYER01
  6
CONTINUOUS
 62
     7
 66
     1
 40
0.15
 41
0.15
  0
VERTEX
  8
LAYER01
 10
176.25
 20
109.875
  0
VERTEX
  8
LAYER01
 10
177.75
 20
111.625
  0
VERTEX
  8
LAYER01
 10
179.25
 20
109.875
  0
SEQEND
  8
LAYER01
  0
LINE
  8
LAYER01
  6
LINEA-PUNTO
 62
     7
 10
147.75
 20
144.125
 11
147.75
 21
115.125
  0
CIRCLE
  8
LAYER01
  6
CONTINUOUS
 62
     7
 10
147.75
 20
129.625
 40
6.175
  0
CIRCLE
  8
LAYER01
  6
CONTINUOUS
 62
     7
 10
147.75
 20
129.625
 40
6.325
  0
CIRCLE
  8
LAYER01
  6
CONTINUOUS
 62
     7
 10
149.25
 20
114.625
 40
1.425
  0
CIRCLE
  8
LAYER01
  6
CONTINUOUS
 62
     7
 10
149.25
 20
114.625
 40
1.575
  0
CIRCLE
  8
LAYER01
  6
CONTINUOUS
 62
     7
 10
143.25
 20
114.625
 40
1.425
  0
CIRCLE
  8
LAYER01
  6
CONTINUOUS
 62
     7
 10
143.25
 20
114.625
 40
1.575
  0
LINE
  8
LAYER01
  6
CONTINUOUS
 62
     7
 10
144.774878
 20
114.627467
 11
145.096488
 21
111.384569
  0
LINE
  8
LAYER01
  6
CONTINUOUS
 62
     7
 10
144.725122
 20
114.622533
 11
145.046732
 21
111.379635
  0
LINE
  8
LAYER01
  6
CONTINUOUS
 62
     7
 10
144.774878
 20
114.627467
 11
144.725122
 21
114.622533
  0
LINE
  8
LAYER01
  6
CONTINUOUS
 62
     7
 10
145.096488
 20
111.384569
 11
145.046732
 21
111.379635
  0
SOLID
  8
LAYER01
  6
CONTINUOUS
 62
     7
 10
144.774878
 20
114.627467
 11
145.096488
 21
111.384569
 12
144.725122
 22
114.622533
 13
145.046732
 23
111.379635
  0
LINE
  8
LAYER01
  6
CONTINUOUS
 62
     7
 10
141.774878
 20
114.627467
 11
142.096488
 21
111.384569
  0
LINE
  8
LAYER01
  6
CONTINUOUS
 62
     7
 10
141.725122
 20
114.622533
 11
142.046732
 21
111.379635
  0
LINE
  8
LAYER01
  6
CONTINUOUS
 62
     7
 10
141.774878
 20
114.627467
 11
141.725122
 21
114.622533
  0
LINE
  8
LAYER01
  6
CONTINUOUS
 62
     7
 10
142.096488
 20
111.384569
 11
142.046732
 21
111.379635
  0
SOLID
  8
LAYER01
  6
CONTINUOUS
 62
     7
 10
141.774878
 20
114.627467
 11
142.096488
 21
111.384569
 12
141.725122
 22
114.622533
 13
142.046732
 23
111.379635
  0
LINE
  8
LAYER01
  6
CONTINUOUS
 62
     7
 10
147.774878
 20
114.627467
 11
148.096488
 21
111.384569
  0
LINE
  8
LAYER01
  6
CONTINUOUS
 62
     7
 10
147.725122
 20
114.622533
 11
148.046732
 21
111.379635
  0
LINE
  8
LAYER01
  6
CONTINUOUS
 62
     7
 10
147.774878
 20
114.627467
 11
147.725122
 21
114.622533
  0
LINE
  8
LAYER01
  6
CONTINUOUS
 62
     7
 10
148.096488
 20
111.384569
 11
148.046732
 21
111.379635
  0
SOLID
  8
LAYER01
  6
CONTINUOUS
 62
     7
 10
147.774878
 20
114.627467
 11
148.096488
 21
111.384569
 12
147.725122
 22
114.622533
 13
148.046732
 23
111.379635
  0
CIRCLE
  8
LAYER01
  6
CONTINUOUS
 62
     7
 10
161.25
 20
114.625
 40
1.425
  0
CIRCLE
  8
LAYER01
  6
CONTINUOUS
 62
     7
 10
161.25
 20
114.625
 40
1.575
  0
CIRCLE
  8
LAYER01
  6
CONTINUOUS
 62
     7
 10
155.25
 20
114.625
 40
1.425
  0
CIRCLE
  8
LAYER01
  6
CONTINUOUS
 62
     7
 10
155.25
 20
114.625
 40
1.575
  0
LINE
  8
LAYER01
  6
CONTINUOUS
 62
     7
 10
150.774878
 20
114.627467
 11
151.096488
 21
111.384569
  0
LINE
  8
LAYER01
  6
CONTINUOUS
 62
     7
 10
150.725122
 20
114.622533
 11
151.046732
 21
111.379635
  0
LINE
  8
LAYER01
  6
CONTINUOUS
 62
     7
 10
150.774878
 20
114.627467
 11
150.725122
 21
114.622533
  0
LINE
  8
LAYER01
  6
CONTINUOUS
 62
     7
 10
151.096488
 20
111.384569
 11
151.046732
 21
111.379635
  0
SOLID
  8
LAYER01
  6
CONTINUOUS
 62
     7
 10
150.774878
 20
114.627467
 11
151.096488
 21
111.384569
 12
150.725122
 22
114.622533
 13
151.046732
 23
111.379635
  0
LINE
  8
LAYER01
  6
CONTINUOUS
 62
     7
 10
153.774878
 20
114.627467
 11
154.096488
 21
111.384569
  0
LINE
  8
LAYER01
  6
CONTINUOUS
 62
     7
 10
153.725122
 20
114.622533
 11
154.046732
 21
111.379635
  0
LINE
  8
LAYER01
  6
CONTINUOUS
 62
     7
 10
153.774878
 20
114.627467
 11
153.725122
 21
114.622533
  0
LINE
  8
LAYER01
  6
CONTINUOUS
 62
     7
 10
154.096488
 20
111.384569
 11
154.046732
 21
111.379635
  0
SOLID
  8
LAYER01
  6
CONTINUOUS
 62
     7
 10
153.774878
 20
114.627467
 11
154.096488
 21
111.384569
 12
153.725122
 22
114.622533
 13
154.046732
 23
111.379635
  0
LINE
  8
LAYER01
  6
CONTINUOUS
 62
     7
 10
156.774878
 20
114.627467
 11
157.096488
 21
111.384569
  0
LINE
  8
LAYER01
  6
CONTINUOUS
 62
     7
 10
156.725122
 20
114.622533
 11
157.046732
 21
111.379635
  0
LINE
  8
LAYER01
  6
CONTINUOUS
 62
     7
 10
156.774878
 20
114.627467
 11
156.725122
 21
114.622533
  0
LINE
  8
LAYER01
  6
CONTINUOUS
 62
     7
 10
157.096488
 20
111.384569
 11
157.046732
 21
111.379635
  0
SOLID
  8
LAYER01
  6
CONTINUOUS
 62
     7
 10
156.774878
 20
114.627467
 11
157.096488
 21
111.384569
 12
156.725122
 22
114.622533
 13
157.046732
 23
111.379635
  0
LINE
  8
LAYER01
  6
CONTINUOUS
 62
     7
 10
159.774878
 20
114.627467
 11
160.096488
 21
111.384569
  0
LINE
  8
LAYER01
  6
CONTINUOUS
 62
     7
 10
159.725122
 20
114.622533
 11
160.046732
 21
111.379635
  0
LINE
  8
LAYER01
  6
CONTINUOUS
 62
     7
 10
159.774878
 20
114.627467
 11
159.725122
 21
114.622533
  0
LINE
  8
LAYER01
  6
CONTINUOUS
 62
     7
 10
160.096488
 20
111.384569
 11
160.046732
 21
111.379635
  0
SOLID
  8
LAYER01
  6
CONTINUOUS
 62
     7
 10
159.774878
 20
114.627467
 11
160.096488
 21
111.384569
 12
159.725122
 22
114.622533
 13
160.046732
 23
111.379635
  0
LINE
  8
LAYER01
  6
CONTINUOUS
 62
     7
 10
159.325
 20
117.375
 11
159.325
 21
111.125
  0
LINE
  8
LAYER01
  6
CONTINUOUS
 62
     7
 10
159.175
 20
117.375
 11
159.175
 21
111.125
  0
LINE
  8
LAYER01
  6
CONTINUOUS
 62
     7
 10
159.325
 20
117.375
 11
159.175
 21
117.375
  0
LINE
  8
LAYER01
  6
CONTINUOUS
 62
     7
 10
159.325
 20
111.125
 11
159.175
 21
111.125
  0
SOLID
  8
LAYER01
  6
CONTINUOUS
 62
     7
 10
159.325
 20
117.375
 11
159.325
 21
111.125
 12
159.175
 22
117.375
 13
159.175
 23
111.125
  0
POLYLINE
  8
LAYER01
  6
CONTINUOUS
 62
     7
 66
     1
 40
0.15
 41
0.15
  0
VERTEX
  8
LAYER01
 10
152.25
 20
109.875
  0
VERTEX
  8
LAYER01
 10
153.75
 20
111.625
  0
VERTEX
  8
LAYER01
 10
155.25
 20
109.875
  0
SEQEND
  8
LAYER01
  0
POLYLINE
  8
LAYER01
  6
CONTINUOUS
 62
     7
 66
     1
 40
0.15
 41
0.15
  0
VERTEX
  8
LAYER01
 10
140.25
 20
109.875
  0
VERTEX
  8
LAYER01
 10
141.75
 20
111.625
  0
VERTEX
  8
LAYER01
 10
143.25
 20
109.875
  0
SEQEND
  8
LAYER01
  0
POLYLINE
  8
LAYER01
  6
CONTINUOUS
 62
     7
 66
     1
 40
0.15
 41
0.15
  0
VERTEX
  8
LAYER01
 10
143.25
 20
109.875
  0
VERTEX
  8
LAYER01
 10
144.75
 20
111.625
  0
VERTEX
  8
LAYER01
 10
146.25
 20
109.875
  0
SEQEND
  8
LAYER01
  0
POLYLINE
  8
LAYER01
  6
CONTINUOUS
 62
     7
 66
     1
 40
0.15
 41
0.15
  0
VERTEX
  8
LAYER01
 10
146.25
 20
109.875
  0
VERTEX
  8
LAYER01
 10
147.75
 20
111.625
  0
VERTEX
  8
LAYER01
 10
149.25
 20
109.875
  0
SEQEND
  8
LAYER01
  0
POLYLINE
  8
LAYER01
  6
CONTINUOUS
 62
     7
 66
     1
 40
0.15
 41
0.15
  0
VERTEX
  8
LAYER01
 10
149.25
 20
109.875
  0
VERTEX
  8
LAYER01
 10
150.75
 20
111.625
  0
VERTEX
  8
LAYER01
 10
152.25
 20
109.875
  0
SEQEND
  8
LAYER01
  0
POLYLINE
  8
LAYER01
  6
CONTINUOUS
 62
     7
 66
     1
 40
0.15
 41
0.15
  0
VERTEX
  8
LAYER01
 10
167.25
 20
109.875
  0
VERTEX
  8
LAYER01
 10
168.75
 20
111.625
  0
VERTEX
  8
LAYER01
 10
170.25
 20
109.875
  0
SEQEND
  8
LAYER01
  0
POLYLINE
  8
LAYER01
  6
CONTINUOUS
 62
     7
 66
     1
 40
0.15
 41
0.15
  0
VERTEX
  8
LAYER01
 10
170.25
 20
109.875
  0
VERTEX
  8
LAYER01
 10
171.75
 20
111.625
  0
VERTEX
  8
LAYER01
 10
173.25
 20
109.875
  0
SEQEND
  8
LAYER01
  0
POLYLINE
  8
LAYER01
  6
CONTINUOUS
 62
     7
 66
     1
 40
0.15
 41
0.15
  0
VERTEX
  8
LAYER01
 10
164.25
 20
109.875
  0
VERTEX
  8
LAYER01
 10
165.75
 20
111.625
  0
VERTEX
  8
LAYER01
 10
167.25
 20
109.875
  0
SEQEND
  8
LAYER01
  0
POLYLINE
  8
LAYER01
  6
CONTINUOUS
 62
     7
 66
     1
 40
0.15
 41
0.15
  0
VERTEX
  8
LAYER01
 10
155.25
 20
109.875
  0
VERTEX
  8
LAYER01
 10
156.75
 20
111.625
  0
VERTEX
  8
LAYER01
 10
158.25
 20
109.875
  0
SEQEND
  8
LAYER01
  0
POLYLINE
  8
LAYER01
  6
CONTINUOUS
 62
     7
 66
     1
 40
0.15
 41
0.15
  0
VERTEX
  8
LAYER01
 10
158.25
 20
109.875
  0
VERTEX
  8
LAYER01
 10
159.75
 20
111.625
  0
VERTEX
  8
LAYER01
 10
161.25
 20
109.875
  0
SEQEND
  8
LAYER01
  0
POLYLINE
  8
LAYER01
  6
CONTINUOUS
 62
     7
 66
     1
 40
0.15
 41
0.15
  0
VERTEX
  8
LAYER01
 10
161.25
 20
109.875
  0
VERTEX
  8
LAYER01
 10
162.75
 20
111.625
  0
VERTEX
  8
LAYER01
 10
164.25
 20
109.875
  0
SEQEND
  8
LAYER01
  0
POLYLINE
  8
LAYER01
  6
CONTINUOUS
 62
     7
 66
     1
 40
0.15
 41
0.15
  0
VERTEX
  8
LAYER01
 10
173.25
 20
109.875
  0
VERTEX
  8
LAYER01
 10
174.75
 20
111.625
  0
VERTEX
  8
LAYER01
 10
176.25
 20
109.875
  0
SEQEND
  8
LAYER01
  0
LINE
  8
LAYER01
  6
CONTINUOUS
 62
     7
 10
154.66189
 20
110.475861
 11
154.740464
 21
110.304435
  0
TEXT
  8
LAYER01
  6
TRATTEGGIATA
 62
     7
 10
141.875
 20
127.0
 40
5.0
  1
D6.2
 41
1.2
  0
POLYLINE
  8
LAYER01
  6
CONTINUOUS
 62
     7
 66
     1
 40
0.15
 41
0.15
  0
VERTEX
  8
LAYER01
 10
191.75
 20
120.875
  0
VERTEX
  8
LAYER01
 10
191.75
 20
139.625
  0
VERTEX
  8
LAYER01
 10
211.75
 20
139.625
  0
VERTEX
  8
LAYER01
 10
211.75
 20
112.875
  0
VERTEX
  8
LAYER01
 10
191.75
 20
112.875
  0
VERTEX
  8
LAYER01
 10
191.75
 20
114.875
  0
SEQEND
  8
LAYER01
  0
POLYLINE
  8
LAYER01
  6
CONTINUOUS
 62
     7
 66
     1
 70
     1
  0
VERTEX
  8
LAYER01
 10
203.25
 20
125.375
  0
VERTEX
  8
LAYER01
 10
191.9
 20
125.375
  0
VERTEX
  8
LAYER01
 10
191.9
 20
120.925
  0
VERTEX
  8
LAYER01
 10
204.25
 20
120.925
  0
VERTEX
  8
LAYER01
 10
204.25
 20
120.875
  0
VERTEX
  8
LAYER01
 10
204.285355
 20
120.910355
  0
VERTEX
  8
LAYER01
 10
204.320711
 20
120.875
  0
VERTEX
  8
LAYER01
 10
211.6
 20
120.875
  0
VERTEX
  8
LAYER01
 10
211.6
 20
129.625
  0
VERTEX
  8
LAYER01
 10
211.5
 20
129.625
  0
VERTEX
  8
LAYER01
 10
211.5
 20
122.375
  0
VERTEX
  8
LAYER01
 10
203.25
 20
122.375
  0
SEQEND
  8
LAYER01
  0
INSERT
  8
LAYER01
  2
GIOCHI-G41
 10
0.0
 20
0.0
  0
POLYLINE
  8
LAYER01
  6
CONTINUOUS
 62
     7
 66
     1
  0
VERTEX
  8
LAYER01
 10
191.75
 20
120.875
  0
VERTEX
  8
LAYER01
 10
211.75
 20
120.875
  0
VERTEX
  8
LAYER01
 10
211.75
 20
114.875
  0
VERTEX
  8
LAYER01
 10
191.75
 20
114.875
  0
SEQEND
  8
LAYER01
  0
POLYLINE
  8
LAYER01
  6
CONTINUOUS
 62
     7
 66
     1
 70
     1
  0
VERTEX
  8
LAYER01
 10
192.25
 20
115.375
  0
VERTEX
  8
LAYER01
 10
192.25
 20
120.375
  0
VERTEX
  8
LAYER01
 10
211.25
 20
120.375
  0
VERTEX
  8
LAYER01
 10
211.25
 20
115.375
  0
SEQEND
  8
LAYER01
  0
POLYLINE
  8
LAYER01
  6
CONTINUOUS
 62
     7
 66
     1
 70
     1
  0
VERTEX
  8
LAYER01
 10
211.6
 20
114.875
  0
VERTEX
  8
LAYER01
 10
204.320711
 20
114.875
  0
VERTEX
  8
LAYER01
 10
204.285355
 20
114.839645
  0
VERTEX
  8
LAYER01
 10
204.25
 20
114.875
  0
VERTEX
  8
LAYER01
 10
204.25
 20
114.825
  0
VERTEX
  8
LAYER01
 10
191.9
 20
114.825
  0
VERTEX
  8
LAYER01
 10
191.9
 20
113.025
  0
VERTEX
  8
LAYER01
 10
211.6
 20
113.025
  0
SEQEND
  8
LAYER01
  0
INSERT
  8
LAYER01
  2
GIOCHI-G42
 10
0.0
 20
0.0
  0
LINE
  8
LAYER01
  6
CONTINUOUS
 62
     7
 10
191.75
 20
120.875
 11
192.25
 21
120.375
  0
LINE
  8
LAYER01
  6
CONTINUOUS
 62
     7
 10
191.75
 20
114.875
 11
192.25
 21
115.375
  0
POLYLINE
  8
LAYER01
  6
CONTINUOUS
 62
     7
 66
     1
 40
0.05
 41
0.05
  0
VERTEX
  8
LAYER01
 10
188.0
 20
120.875
  0
VERTEX
  8
LAYER01
 10
186.75
 20
119.625
  0
VERTEX
  8
LAYER01
 10
186.75
 20
115.875
  0
VERTEX
  8
LAYER01
 10
188.0
 20
114.875
  0
SEQEND
  8
LAYER01
  0
LINE
  8
LAYER01
  6
CONTINUOUS
 62
     7
 10
192.25
 20
120.375
 11
187.5
 21
120.375
  0
LINE
  8
LAYER01
  6
CONTINUOUS
 62
     7
 10
187.5
 20
120.375
 11
187.5
 21
115.375
  0
LINE
  8
LAYER01
  6
CONTINUOUS
 62
     7
 10
187.5
 20
115.375
 11
192.25
 21
115.375
  0
LINE
  8
LAYER01
  6
CONTINUOUS
 62
     7
 10
191.75
 20
120.875
 11
191.75
 21
114.875
  0
POLYLINE
  8
LAYER01
  6
CONTINUOUS
 62
     7
 66
     1
 40
0.05
 41
0.05
  0
VERTEX
  8
LAYER01
 10
204.75
 20
120.375
  0
VERTEX
  8
LAYER01
 10
204.75
 20
115.375
  0
SEQEND
  8
LAYER01
  0
POLYLINE
  8
LAYER01
  6
CONTINUOUS
 62
     7
 66
     1
 40
0.05
 41
0.05
  0
VERTEX
  8
LAYER01
 10
204.25
 20
114.875
  0
VERTEX
  8
LAYER01
 10
188.0
 20
114.875
  0
VERTEX
  8
LAYER01
 10
188.0
 20
120.875
  0
VERTEX
  8
LAYER01
 10
204.25
 20
120.875
  0
SEQEND
  8
LAYER01
  0
LINE
  8
LAYER01
  6
CONTINUOUS
 62
     7
 10
192.25
 20
120.375
 11
192.25
 21
120.375
  0
LINE
  8
LAYER01
  6
CONTINUOUS
 62
     7
 10
192.25
 20
115.375
 11
192.5
 21
115.375
  0
LINE
  8
LAYER01
  6
CONTINUOUS
 62
     7
 10
204.267678
 20
120.892678
 11
204.767678
 21
120.392678
  0
LINE
  8
LAYER01
  6
CONTINUOUS
 62
     7
 10
204.232322
 20
120.857322
 11
204.732322
 21
120.357322
  0
LINE
  8
LAYER01
  6
CONTINUOUS
 62
     7
 10
204.267678
 20
120.892678
 11
204.232322
 21
120.857322
  0
LINE
  8
LAYER01
  6
CONTINUOUS
 62
     7
 10
204.767678
 20
120.392678
 11
204.732322
 21
120.357322
  0
SOLID
  8
LAYER01
  6
CONTINUOUS
 62
     7
 10
204.267678
 20
120.892678
 11
204.767678
 21
120.392678
 12
204.232322
 22
120.857322
 13
204.732322
 23
120.357322
  0
LINE
  8
LAYER01
  6
CONTINUOUS
 62
     7
 10
204.232322
 20
114.892678
 11
204.732322
 21
115.392678
  0
LINE
  8
LAYER01
  6
CONTINUOUS
 62
     7
 10
204.267678
 20
114.857322
 11
204.767678
 21
115.357322
  0
LINE
  8
LAYER01
  6
CONTINUOUS
 62
     7
 10
204.232322
 20
114.892678
 11
204.267678
 21
114.857322
  0
LINE
  8
LAYER01
  6
CONTINUOUS
 62
     7
 10
204.732322
 20
115.392678
 11
204.767678
 21
115.357322
  0
SOLID
  8
LAYER01
  6
CONTINUOUS
 62
     7
 10
204.232322
 20
114.892678
 11
204.732322
 21
115.392678
 12
204.267678
 22
114.857322
 13
204.767678
 23
115.357322
  0
LINE
  8
LAYER01
  6
CONTINUOUS
 62
     7
 10
204.25
 20
120.875
 11
204.25
 21
114.875
  0
POLYLINE
  8
LAYER01
  6
CONTINUOUS
 62
     7
 66
     1
  0
VERTEX
  8
LAYER01
 10
204.75
 20
119.125
  0
VERTEX
  8
LAYER01
 10
199.75
 20
119.125
  0
VERTEX
  8
LAYER01
 10
198.75
 20
117.875
  0
VERTEX
  8
LAYER01
 10
199.75
 20
116.625
  0
VERTEX
  8
LAYER01
 10
204.75
 20
116.625
  0
SEQEND
  8
LAYER01
  0
POLYLINE
  8
LAYER01
  6
CONTINUOUS
 62
     7
 66
     1
  0
VERTEX
  8
LAYER01
 10
199.75
 20
118.875
  0
VERTEX
  8
LAYER01
 10
199.75
 20
116.625
  0
VERTEX
  8
LAYER01
 10
199.75
 20
119.125
  0
SEQEND
  8
LAYER01
  0
LINE
  8
LAYER01
  6
CONTINUOUS
 62
     7
 10
211.25
 20
120.375
 11
211.75
 21
120.875
  0
LINE
  8
LAYER01
  6
CONTINUOUS
 62
     7
 10
211.25
 20
115.375
 11
211.75
 21
114.875
  0
POLYLINE
  8
LAYER01
  6
CONTINUOUS
 62
     7
 66
     1
 40
0.15
 41
0.15
  0
VERTEX
  8
LAYER01
 10
179.25
 20
109.875
  0
VERTEX
  8
LAYER01
 10
180.75
 20
111.625
  0
VERTEX
  8
LAYER01
 10
182.25
 20
109.875
  0
SEQEND
  8
LAYER01
  0
POLYLINE
  8
LAYER01
  6
CONTINUOUS
 62
     7
 66
     1
 40
0.15
 41
0.15
  0
VERTEX
  8
LAYER01
 10
209.25
 20
109.875
  0
VERTEX
  8
LAYER01
 10
210.75
 20
111.625
  0
VERTEX
  8
LAYER01
 10
212.25
 20
109.875
  0
SEQEND
  8
LAYER01
  0
POLYLINE
  8
LAYER01
  6
CONTINUOUS
 62
     7
 66
     1
 40
0.15
 41
0.15
  0
VERTEX
  8
LAYER01
 10
182.25
 20
109.875
  0
VERTEX
  8
LAYER01
 10
183.75
 20
111.625
  0
VERTEX
  8
LAYER01
 10
185.25
 20
109.875
  0
SEQEND
  8
LAYER01
  0
POLYLINE
  8
LAYER01
  6
CONTINUOUS
 62
     7
 66
     1
 40
0.15
 41
0.15
  0
VERTEX
  8
LAYER01
 10
185.25
 20
109.875
  0
VERTEX
  8
LAYER01
 10
186.75
 20
111.625
  0
VERTEX
  8
LAYER01
 10
188.25
 20
109.875
  0
SEQEND
  8
LAYER01
  0
POLYLINE
  8
LAYER01
  6
CONTINUOUS
 62
     7
 66
     1
 40
0.15
 41
0.15
  0
VERTEX
  8
LAYER01
 10
203.25
 20
109.875
  0
VERTEX
  8
LAYER01
 10
204.75
 20
111.625
  0
VERTEX
  8
LAYER01
 10
206.25
 20
109.875
  0
SEQEND
  8
LAYER01
  0
POLYLINE
  8
LAYER01
  6
CONTINUOUS
 62
     7
 66
     1
 40
0.15
 41
0.15
  0
VERTEX
  8
LAYER01
 10
206.25
 20
109.875
  0
VERTEX
  8
LAYER01
 10
207.75
 20
111.625
  0
VERTEX
  8
LAYER01
 10
209.25
 20
109.875
  0
SEQEND
  8
LAYER01
  0
POLYLINE
  8
LAYER01
  6
CONTINUOUS
 62
     7
 66
     1
 40
0.15
 41
0.15
  0
VERTEX
  8
LAYER01
 10
200.25
 20
109.875
  0
VERTEX
  8
LAYER01
 10
201.75
 20
111.625
  0
VERTEX
  8
LAYER01
 10
203.25
 20
109.875
  0
SEQEND
  8
LAYER01
  0
POLYLINE
  8
LAYER01
  6
CONTINUOUS
 62
     7
 66
     1
 40
0.15
 41
0.15
  0
VERTEX
  8
LAYER01
 10
197.25
 20
109.875
  0
VERTEX
  8
LAYER01
 10
198.75
 20
111.625
  0
VERTEX
  8
LAYER01
 10
200.25
 20
109.875
  0
SEQEND
  8
LAYER01
  0
POLYLINE
  8
LAYER01
  6
CONTINUOUS
 62
     7
 66
     1
 40
0.15
 41
0.15
  0
VERTEX
  8
LAYER01
 10
194.25
 20
109.875
  0
VERTEX
  8
LAYER01
 10
195.75
 20
111.625
  0
VERTEX
  8
LAYER01
 10
197.25
 20
109.875
  0
SEQEND
  8
LAYER01
  0
POLYLINE
  8
LAYER01
  6
CONTINUOUS
 62
     7
 66
     1
 40
0.15
 41
0.15
  0
VERTEX
  8
LAYER01
 10
191.25
 20
109.875
  0
VERTEX
  8
LAYER01
 10
192.75
 20
111.625
  0
VERTEX
  8
LAYER01
 10
194.25
 20
109.875
  0
SEQEND
  8
LAYER01
  0
POLYLINE
  8
LAYER01
  6
CONTINUOUS
 62
     7
 66
     1
 40
0.15
 41
0.15
  0
VERTEX
  8
LAYER01
 10
188.25
 20
109.875
  0
VERTEX
  8
LAYER01
 10
189.75
 20
111.625
  0
VERTEX
  8
LAYER01
 10
191.25
 20
109.875
  0
SEQEND
  8
LAYER01
  0
POLYLINE
  8
LAYER01
  6
CONTINUOUS
 62
     7
 66
     1
 70
     1
  0
VERTEX
  8
LAYER01
 10
211.6
 20
139.475
  0
VERTEX
  8
LAYER01
 10
191.9
 20
139.475
  0
VERTEX
  8
LAYER01
 10
191.9
 20
133.875
  0
VERTEX
  8
LAYER01
 10
203.25
 20
133.875
  0
VERTEX
  8
LAYER01
 10
203.25
 20
136.625
  0
VERTEX
  8
LAYER01
 10
211.5
 20
136.625
  0
VERTEX
  8
LAYER01
 10
211.5
 20
129.625
  0
VERTEX
  8
LAYER01
 10
211.6
 20
129.625
  0
SEQEND
  8
LAYER01
  0
INSERT
  8
LAYER01
  2
GIOCHI-G43
 10
0.0
 20
0.0
  0
LINE
  8
LAYER01
  6
CONTINUOUS
 62
     7
 10
235.25
 20
190.0
 11
235.25
 21
111.25
  0
LINE
  8
LAYER01
  6
CONTINUOUS
 62
     7
 10
235.0
 20
190.0
 11
235.0
 21
111.25
  0
LINE
  8
LAYER01
  6
CONTINUOUS
 62
     7
 10
235.25
 20
190.0
 11
235.0
 21
190.0
  0
LINE
  8
LAYER01
  6
CONTINUOUS
 62
     7
 10
235.25
 20
111.25
 11
235.0
 21
111.25
  0
SOLID
  8
LAYER01
  6
CONTINUOUS
 62
     7
 10
235.25
 20
190.0
 11
235.25
 21
111.25
 12
235.0
 22
190.0
 13
235.0
 23
111.25
  0
POLYLINE
  8
LAYER01
  6
CONTINUOUS
 62
     7
 66
     1
 40
0.15
 41
0.15
  0
VERTEX
  8
LAYER01
 10
215.25
 20
109.875
  0
VERTEX
  8
LAYER01
 10
216.75
 20
111.625
  0
VERTEX
  8
LAYER01
 10
218.25
 20
109.875
  0
SEQEND
  8
LAYER01
  0
POLYLINE
  8
LAYER01
  6
CONTINUOUS
 62
     7
 66
     1
 40
0.15
 41
0.15
  0
VERTEX
  8
LAYER01
 10
218.25
 20
109.875
  0
VERTEX
  8
LAYER01
 10
219.75
 20
111.625
  0
VERTEX
  8
LAYER01
 10
221.25
 20
109.875
  0
SEQEND
  8
LAYER01
  0
POLYLINE
  8
LAYER01
  6
CONTINUOUS
 62
     7
 66
     1
 40
0.15
 41
0.15
  0
VERTEX
  8
LAYER01
 10
221.25
 20
109.875
  0
VERTEX
  8
LAYER01
 10
222.75
 20
111.625
  0
VERTEX
  8
LAYER01
 10
224.25
 20
109.875
  0
SEQEND
  8
LAYER01
  0
POLYLINE
  8
LAYER01
  6
CONTINUOUS
 62
     7
 66
     1
 40
0.15
 41
0.15
  0
VERTEX
  8
LAYER01
 10
227.375
 20
109.875
  0
VERTEX
  8
LAYER01
 10
228.875
 20
111.625
  0
VERTEX
  8
LAYER01
 10
230.375
 20
109.875
  0
SEQEND
  8
LAYER01
  0
POLYLINE
  8
LAYER01
  6
CONTINUOUS
 62
     7
 66
     1
 40
0.15
 41
0.15
  0
VERTEX
  8
LAYER01
 10
230.375
 20
109.875
  0
VERTEX
  8
LAYER01
 10
231.875
 20
111.625
  0
VERTEX
  8
LAYER01
 10
233.375
 20
109.875
  0
SEQEND
  8
LAYER01
  0
POLYLINE
  8
LAYER01
  6
CONTINUOUS
 62
     7
 66
     1
 40
0.15
 41
0.15
  0
VERTEX
  8
LAYER01
 10
233.375
 20
109.875
  0
VERTEX
  8
LAYER01
 10
234.875
 20
111.625
  0
VERTEX
  8
LAYER01
 10
236.375
 20
109.875
  0
SEQEND
  8
LAYER01
  0
POLYLINE
  8
LAYER01
  6
CONTINUOUS
 62
     7
 66
     1
 40
0.15
 41
0.15
  0
VERTEX
  8
LAYER01
 10
239.375
 20
109.875
  0
VERTEX
  8
LAYER01
 10
240.875
 20
111.625
  0
VERTEX
  8
LAYER01
 10
242.375
 20
109.875
  0
SEQEND
  8
LAYER01
  0
POLYLINE
  8
LAYER01
  6
CONTINUOUS
 62
     7
 66
     1
 40
0.15
 41
0.15
  0
VERTEX
  8
LAYER01
 10
242.375
 20
109.875
  0
VERTEX
  8
LAYER01
 10
243.875
 20
111.625
  0
VERTEX
  8
LAYER01
 10
245.375
 20
109.875
  0
SEQEND
  8
LAYER01
  0
POLYLINE
  8
LAYER01
  6
CONTINUOUS
 62
     7
 66
     1
 40
0.15
 41
0.15
  0
VERTEX
  8
LAYER01
 10
245.375
 20
109.875
  0
VERTEX
  8
LAYER01
 10
246.875
 20
111.625
  0
VERTEX
  8
LAYER01
 10
248.375
 20
109.875
  0
SEQEND
  8
LAYER01
  0
POLYLINE
  8
LAYER01
  6
CONTINUOUS
 62
     7
 66
     1
 40
0.15
 41
0.15
  0
VERTEX
  8
LAYER01
 10
224.375
 20
109.875
  0
VERTEX
  8
LAYER01
 10
225.875
 20
111.625
  0
VERTEX
  8
LAYER01
 10
227.375
 20
109.875
  0
SEQEND
  8
LAYER01
  0
POLYLINE
  8
LAYER01
  6
CONTINUOUS
 62
     7
 66
     1
 40
0.15
 41
0.15
  0
VERTEX
  8
LAYER01
 10
236.375
 20
109.875
  0
VERTEX
  8
LAYER01
 10
237.875
 20
111.625
  0
VERTEX
  8
LAYER01
 10
239.375
 20
109.875
  0
SEQEND
  8
LAYER01
  0
TEXT
  8
LAYER01
  6
TRATTEGGIATA
 62
     7
 10
214.625
 20
116.25
 40
5.0
  1
M3
 41
1.2
  0
TEXT
  8
LAYER01
  6
TRATTEGGIATA
 62
     7
 10
218.25
 20
126.625
 40
5.0
  1
M4
 41
1.2
  0
ENDSEC
  0
EOF
