  0
SECTION
  2
HEADER
  9
$ACADVER
  1
AC1009
  9
$INSBASE
 10
0.0
 20
0.0
 30
0.0
  9
$EXTMIN
 10
-2.8601297386353619
 20
-2.8601297386353499
 30
-40.0
  9
$EXTMAX
 10
9.3438328021587793
 20
5.7086780413815017
 30
40.0
  9
$LIMMIN
 10
0.0
 20
0.0
  9
$LIMMAX
 10
420.0
 20
297.0
  9
$ORTHOMODE
 70
     1
  9
$REGENMODE
 70
     1
  9
$FILLMODE
 70
     1
  9
$QTEXTMODE
 70
     0
  9
$MIRRTEXT
 70
     0
  9
$DRAGMODE
 70
     2
  9
$LTSCALE
 40
1.0
  9
$OSMODE
 70
    41
  9
$ATTMODE
 70
     1
  9
$TEXTSIZE
 40
2.5
  9
$TRACEWID
 40
1.0
  9
$TEXTSTYLE
  7
STANDARD
  9
$CLAYER
  8
0
  9
$CELTYPE
  6
BYLAYER
  9
$CECOLOR
 62
   256
  9
$DIMSCALE
 40
1.0
  9
$DIMASZ
 40
2.5
  9
$DIMEXO
 40
0.625
  9
$DIMDLI
 40
3.75
  9
$DIMRND
 40
0.0
  9
$DIMDLE
 40
0.0
  9
$DIMEXE
 40
1.25
  9
$DIMTP
 40
0.0
  9
$DIMTM
 40
0.0
  9
$DIMTXT
 40
2.5
  9
$DIMCEN
 40
2.5
  9
$DIMTSZ
 40
0.0
  9
$DIMTOL
 70
     0
  9
$DIMLIM
 70
     0
  9
$DIMTIH
 70
     0
  9
$DIMTOH
 70
     0
  9
$DIMSE1
 70
     0
  9
$DIMSE2
 70
     0
  9
$DIMTAD
 70
     1
  9
$DIMZIN
 70
     8
  9
$DIMBLK
  1

  9
$DIMASO
 70
     1
  9
$DIMSHO
 70
     1
  9
$DIMPOST
  1

  9
$DIMAPOST
  1

  9
$DIMALT
 70
     0
  9
$DIMALTD
 70
     3
  9
$DIMALTF
 40
0.03937007874016
  9
$DIMLFAC
 40
1.0
  9
$DIMTOFL
 70
     1
  9
$DIMTVP
 40
0.0
  9
$DIMTIX
 70
     0
  9
$DIMSOXD
 70
     0
  9
$DIMSAH
 70
     0
  9
$DIMBLK1
  1

  9
$DIMBLK2
  1

  9
$DIMSTYLE
  2
ISO-25
  9
$DIMCLRD
 70
     0
  9
$DIMCLRE
 70
     0
  9
$DIMCLRT
 70
     0
  9
$DIMTFAC
 40
1.0
  9
$DIMGAP
 40
0.625
  9
$LUNITS
 70
     2
  9
$LUPREC
 70
     4
  9
$SKETCHINC
 40
1.0
  9
$FILLETRAD
 40
0.0
  9
$AUNITS
 70
     0
  9
$AUPREC
 70
     0
  9
$MENU
  1
.
  9
$ELEVATION
 40
0.0
  9
$PELEVATION
 40
0.0
  9
$THICKNESS
 40
0.0
  9
$LIMCHECK
 70
     0
  9
$BLIPMODE
 70
     0
  9
$CHAMFERA
 40
0.0
  9
$CHAMFERB
 40
0.0
  9
$SKPOLY
 70
     0
  9
$TDCREATE
 40
2454967.4048489928
  9
$TDUPDATE
 40
2454967.4119845838
  9
$TDINDWG
 40
0.0071390278
  9
$TDUSRTIMER
 40
0.007137037
  9
$USRTIMER
 70
     1
  9
$ANGBASE
 50
0.0
  9
$ANGDIR
 70
     0
  9
$PDMODE
 70
     0
  9
$PDSIZE
 40
0.0
  9
$PLINEWID
 40
0.0
  9
$COORDS
 70
     1
  9
$SPLFRAME
 70
     0
  9
$SPLINETYPE
 70
     6
  9
$SPLINESEGS
 70
     8
  9
$ATTDIA
 70
     0
  9
$ATTREQ
 70
     1
  9
$HANDLING
 70
     1
  9
$HANDSEED
  5
610
  9
$SURFTAB1
 70
     6
  9
$SURFTAB2
 70
     6
  9
$SURFTYPE
 70
     6
  9
$SURFU
 70
     6
  9
$SURFV
 70
     6
  9
$UCSNAME
  2

  9
$UCSORG
 10
0.0
 20
0.0
 30
0.0
  9
$UCSXDIR
 10
1.0
 20
0.0
 30
0.0
  9
$UCSYDIR
 10
0.0
 20
1.0
 30
0.0
  9
$PUCSNAME
  2

  9
$PUCSORG
 10
0.0
 20
0.0
 30
0.0
  9
$PUCSXDIR
 10
1.0
 20
0.0
 30
0.0
  9
$PUCSYDIR
 10
0.0
 20
1.0
 30
0.0
  9
$USERI1
 70
     0
  9
$USERI2
 70
     0
  9
$USERI3
 70
     0
  9
$USERI4
 70
     0
  9
$USERI5
 70
     0
  9
$USERR1
 40
0.0
  9
$USERR2
 40
0.0
  9
$USERR3
 40
0.0
  9
$USERR4
 40
0.0
  9
$USERR5
 40
0.0
  9
$WORLDVIEW
 70
     1
  9
$SHADEDGE
 70
     3
  9
$SHADEDIF
 70
    70
  9
$TILEMODE
 70
     1
  9
$MAXACTVP
 70
    64
  9
$PLIMCHECK
 70
     0
  9
$PEXTMIN
 10
0.0
 20
0.0
 30
0.0
  9
$PEXTMAX
 10
0.0
 20
0.0
 30
0.0
  9
$PLIMMIN
 10
0.0
 20
0.0
  9
$PLIMMAX
 10
12.0
 20
9.0
  9
$UNITMODE
 70
     0
  9
$VISRETAIN
 70
     1
  9
$PLINEGEN
 70
     0
  9
$PSLTSCALE
 70
     1
  0
ENDSEC
  0
SECTION
  2
TABLES
  0
TABLE
  2
VPORT
 70
     4
  0
VPORT
  2
*ACTIVE
 70
     0
 10
0.0
 20
0.0
 11
1.0
 21
1.0
 12
-2.1264184110170201
 22
4.7346516941170833
 13
0.0
 23
0.0
 14
10.0
 24
10.0
 15
10.0
 25
10.0
 16
-12.861457253698021
 26
-66.991436774652769
 36
77.479253472082434
 17
14.482789058675969
 27
34.425418821240108
 37
-23.64470449947283
 40
41.574469840022239
 41
2.117829457364341
 42
50.0
 43
0.0
 44
0.0
 50
0.0
 51
354.16269876306779
 71
     0
 72
  1000
 73
     1
 74
     3
 75
     0
 76
     0
 77
     0
 78
     0
  0
ENDTAB
  0
TABLE
  2
LTYPE
 70
     1
  0
LTYPE
  2
CONTINUOUS
 70
     0
  3
Solid line
 72
    65
 73
     0
 40
0.0
  0
ENDTAB
  0
TABLE
  2
LAYER
 70
     1
  0
LAYER
  2
0
 70
     0
 62
     7
  6
CONTINUOUS
  0
ENDTAB
  0
TABLE
  2
STYLE
 70
     1
  0
STYLE
  2
STANDARD
 70
     0
 40
0.0
 41
1.0
 50
0.0
 71
     0
 42
2.5
  3
txt
  4

  0
ENDTAB
  0
TABLE
  2
VIEW
 70
     0
  0
ENDTAB
  0
TABLE
  2
UCS
 70
     0
  0
ENDTAB
  0
TABLE
  2
APPID
 70
     2
  0
APPID
  2
ACAD
 70
     0
  0
APPID
  2
ACAD_PSEXT
 70
     0
  0
ENDTAB
  0
TABLE
  2
DIMSTYLE
 70
     1
  0
DIMSTYLE
  2
ISO-25
 70
     0
  3

  4

  5

  6

  7

 40
1.0
 41
2.5
 42
0.625
 43
3.75
 44
1.25
 45
0.0
 46
0.0
 47
0.0
 48
0.0
140
2.5
141
2.5
142
0.0
143
0.03937007874016
144
1.0
145
0.0
146
1.0
147
0.625
 71
     0
 72
     0
 73
     0
 74
     0
 75
     0
 76
     0
 77
     1
 78
     8
170
     0
171
     3
172
     1
173
     0
174
     0
175
     0
176
     0
177
     0
178
     0
  0
ENDTAB
  0
ENDSEC
  0
SECTION
  2
BLOCKS
  0
BLOCK
  8
0
  2
$MODEL_SPACE
 70
     0
 10
0.0
 20
0.0
 30
0.0
  3
$MODEL_SPACE
  1

  0
ENDBLK
  5
21
  8
0
  0
BLOCK
 67
     1
  8
0
  2
$PAPER_SPACE
 70
     0
 10
0.0
 20
0.0
 30
0.0
  3
$PAPER_SPACE
  1

  0
ENDBLK
  5
D5
 67
     1
  8
0
  0
BLOCK
  8
0
  2
*U1
 70
     1
 10
0.0
 20
0.0
 30
0.0
  3
*U1
  1

  0
ARC
  5
4EE
  8
0
 62
     2
 10
2.4629893001653791
 20
1.4310739991073249
 30
40.0
 40
0.3129868793569235
 50
122.125610863362
 51
298.19025049314968
  0
LINE
  5
4EF
  8
0
 62
     2
 10
2.6108445506592548
 20
1.1552124186888471
 30
0.0
 11
2.6108445506592548
 21
1.1552124186888471
 31
40.0
  0
LINE
  5
4F0
  8
0
 62
     2
 10
2.296550018600175
 20
1.6961376748564581
 30
0.0
 11
2.296550018600175
 21
1.6961376748564581
 31
40.0
  0
ARC
  5
4F1
  8
0
 62
     2
 10
-2.4629893001653791
 20
1.4310739991073249
 30
0.0
 40
0.3129868793569235
210
0.0
220
0.0
230
-1.0
 50
241.8097495068503
 51
57.874389136637951
  0
ARC
  5
4F2
  8
0
 62
     2
 10
-0.0000000000000746
 20
0.0000000000001417
 30
-40.0
 40
2.854999999999829
210
0.0
220
0.0
230
-1.0
 50
156.1321936305855
 51
158.55194501291081
  0
LINE
  5
4F3
  8
0
 62
     2
 10
2.6572897076993232
 20
1.0439523022414781
 30
0.0
 11
2.6572897076993232
 21
1.0439523022414781
 31
40.0
  0
LINE
  5
4F4
  8
0
 62
     2
 10
2.6108445506592548
 20
1.1552124186888471
 30
0.0
 11
2.6108445506592548
 21
1.1552124186888471
 31
40.0
  0
ARC
  5
4F5
  8
0
 62
     2
 10
0.0000000000000746
 20
0.0000000000001417
 30
0.0
 40
2.854999999999829
 50
21.448054987089179
 51
23.867806369414499
  0
ARC
  5
4F6
  8
0
 62
     2
 10
2.7494541808233812
 20
0.7448427963020659
 30
40.0
 40
0.31298687935691
 50
107.1256108633615
 51
283.19025049314348
  0
LINE
  5
4F7
  8
0
 62
     2
 10
2.8208731550034432
 20
0.4401132165486952
 30
0.0
 11
2.8208731550034432
 21
0.4401132165486952
 31
40.0
  0
LINE
  5
4F8
  8
0
 62
     2
 10
2.6572897076993232
 20
1.0439523022414781
 30
0.0
 11
2.6572897076993232
 21
1.0439523022414781
 31
40.0
  0
ARC
  5
4F9
  8
0
 62
     2
 10
-2.7494541808233812
 20
0.7448427963020659
 30
0.0
 40
0.31298687935691
210
0.0
220
0.0
230
-1.0
 50
256.80974950685652
 51
72.87438913663847
  0
ARC
  5
4FA
  8
0
 62
     2
 10
0.0000000000005507
 20
0.0000000000002269
 30
-40.0
 40
2.855000000000508
210
0.0
220
0.0
230
-1.0
 50
171.13219363058909
 51
173.55194501291459
  0
LINE
  5
4FB
  8
0
 62
     2
 10
2.8369394945975901
 20
0.320623305441472
 30
0.0
 11
2.8369394945975901
 21
0.320623305441472
 31
40.0
  0
LINE
  5
4FC
  8
0
 62
     2
 10
2.8208731550034432
 20
0.4401132165486952
 30
0.0
 11
2.8208731550034432
 21
0.4401132165486952
 31
40.0
  0
ARC
  5
4FD
  8
0
 62
     2
 10
-0.0000000000005507
 20
0.0000000000002269
 30
0.0
 40
2.855000000000508
 50
6.4480549870854249
 51
8.8678063694108875
  0
ARC
  5
4FE
  8
0
 62
     2
 10
2.8485483027461842
 20
0.0078517878396549
 30
40.0
 40
0.31298687935691
 50
92.125610863373225
 51
268.19025049314251
  0
LINE
  5
4FF
  8
0
 62
     2
 10
2.8386639155475168
 20
-0.3049789739777968
 30
0.0
 11
2.8386639155475168
 21
-0.3049789739777968
 31
40.0
  0
LINE
  5
500
  8
0
 62
     2
 10
2.8369394945975901
 20
0.320623305441472
 30
0.0
 11
2.8369394945975901
 21
0.320623305441472
 31
40.0
  0
ARC
  5
501
  8
0
 62
     2
 10
-2.8485483027461842
 20
0.0078517878396549
 30
0.0
 40
0.31298687935691
210
0.0
220
0.0
230
-1.0
 50
271.80974950685737
 51
87.874389136626746
  0
ARC
  5
502
  8
0
 62
     2
 10
-0.0000000000002451
 20
0.000000000001108
 30
-40.0
 40
2.8549999999998881
210
0.0
220
0.0
230
-1.0
 50
186.1321936306056
 51
188.55194501293099
  0
LINE
  5
503
  8
0
 62
     2
 10
2.8232565432032461
 20
-0.4245556397692672
 30
0.0
 11
2.8232565432032461
 21
-0.4245556397692672
 31
40.0
  0
LINE
  5
504
  8
0
 62
     2
 10
2.8386639155475168
 20
-0.3049789739777968
 30
0.0
 11
2.8386639155475168
 21
-0.3049789739777968
 31
40.0
  0
ARC
  5
505
  8
0
 62
     2
 10
0.0000000000002451
 20
0.000000000001108
 30
0.0
 40
2.8549999999998881
 50
351.44805498706899
 51
353.86780636939437
  0
ARC
  5
506
  8
0
 62
     2
 10
2.7535185652853502
 20
-0.7296743069883012
 30
40.0
 40
0.3129868793569182
 50
77.125610863358361
 51
253.19025049315499
  0
LINE
  5
507
  8
0
 62
     2
 10
2.6630044213608981
 20
-1.0292873514292751
 30
0.0
 11
2.6630044213608981
 21
-1.0292873514292751
 31
40.0
  0
LINE
  5
508
  8
0
 62
     2
 10
2.8232565432032461
 20
-0.4245556397692672
 30
0.0
 11
2.8232565432032461
 21
-0.4245556397692672
 31
40.0
  0
ARC
  5
509
  8
0
 62
     2
 10
-2.7535185652853502
 20
-0.7296743069883012
 30
0.0
 40
0.3129868793569182
210
0.0
220
0.0
230
-1.0
 50
286.80974950684509
 51
102.8743891366416
  0
ARC
  5
50A
  8
0
 62
     2
 10
0.0000000000002096
 20
0.0000000000004259
 30
-40.0
 40
2.8550000000003228
210
0.0
220
0.0
230
-1.0
 50
201.13219363058931
 51
203.55194501291481
  0
LINE
  5
50B
  8
0
 62
     2
 10
2.617173324041647
 20
-1.140801819741142
 30
0.0
 11
2.617173324041647
 21
-1.140801819741142
 31
40.0
  0
LINE
  5
50C
  8
0
 62
     2
 10
2.6630044213608981
 20
-1.0292873514292751
 30
0.0
 11
2.6630044213608981
 21
-1.0292873514292751
 31
40.0
  0
ARC
  5
50D
  8
0
 62
     2
 10
-0.0000000000002096
 20
0.0000000000004259
 30
0.0
 40
2.8550000000003228
 50
336.44805498708519
 51
338.86780636941057
  0
ARC
  5
50E
  8
0
 62
     2
 10
2.4708410880049492
 20
-1.417474303638784
 30
40.0
 40
0.3129868793569219
 50
62.125610863348761
 51
238.19025049316249
  0
LINE
  5
50F
  8
0
 62
     2
 10
2.30586557668143
 20
-1.683451496858652
 30
0.0
 11
2.30586557668143
 21
-1.683451496858652
 31
40.0
  0
LINE
  5
510
  8
0
 62
     2
 10
2.617173324041647
 20
-1.140801819741142
 30
0.0
 11
2.617173324041647
 21
-1.140801819741142
 31
40.0
  0
ARC
  5
511
  8
0
 62
     2
 10
-2.4708410880049492
 20
-1.417474303638784
 30
0.0
 40
0.3129868793569219
210
0.0
220
0.0
230
-1.0
 50
301.80974950683748
 51
117.8743891366512
  0
ARC
  5
512
  8
0
 62
     2
 10
-0.0000000000005862
 20
0.0000000000006248
 30
-40.0
 40
2.8549999999998881
210
0.0
220
0.0
230
-1.0
 50
216.13219363060051
 51
218.5519450129259
  0
LINE
  5
513
  8
0
 62
     2
 10
2.2327340679300001
 20
-1.7793042409617781
 30
0.0
 11
2.2327340679300001
 21
-1.7793042409617781
 31
40.0
  0
LINE
  5
514
  8
0
 62
     2
 10
2.30586557668143
 20
-1.683451496858652
 30
0.0
 11
2.30586557668143
 21
-1.683451496858652
 31
40.0
  0
ARC
  5
515
  8
0
 62
     2
 10
0.0000000000005862
 20
0.0000000000006248
 30
0.0
 40
2.8549999999998881
 50
321.4480549870741
 51
323.8678063693996
  0
ARC
  5
516
  8
0
 62
     2
 10
2.019779873835108
 20
-2.0086757689834092
 30
40.0
 40
0.312986879356917
 50
47.125610863374931
 51
223.19025049313871
  0
LINE
  5
517
  8
0
 62
     2
 10
1.7915858035741681
 20
-2.222891204812214
 30
0.0
 11
1.7915858035741681
 21
-2.222891204812214
 31
40.0
  0
LINE
  5
518
  8
0
 62
     2
 10
2.2327340679300001
 20
-1.7793042409617781
 30
0.0
 11
2.2327340679300001
 21
-1.7793042409617781
 31
40.0
  0
ARC
  5
519
  8
0
 62
     2
 10
-2.019779873835108
 20
-2.0086757689834092
 30
0.0
 40
0.312986879356917
210
0.0
220
0.0
230
-1.0
 50
316.80974950686118
 51
132.87438913662501
  0
ARC
  5
51A
  8
0
 62
     2
 10
-0.0000000000000178
 20
-0.0000000000003983
 30
-40.0
 40
2.8549999999996771
210
0.0
220
0.0
230
-1.0
 50
231.13219363057851
 51
233.55194501290421
  0
LINE
  5
51B
  8
0
 62
     2
 10
1.696137674856476
 20
-2.2965500186001861
 30
0.0
 11
1.696137674856476
 21
-2.2965500186001861
 31
40.0
  0
LINE
  5
51C
  8
0
 62
     2
 10
1.7915858035741681
 20
-2.222891204812214
 30
0.0
 11
1.7915858035741681
 21
-2.222891204812214
 31
40.0
  0
ARC
  5
51D
  8
0
 62
     2
 10
0.0000000000000178
 20
-0.0000000000003983
 30
0.0
 40
2.8549999999996771
 50
306.44805498709582
 51
308.86780636942149
  0
ARC
  5
51E
  8
0
 62
     2
 10
1.431073999107372
 20
-2.4629893001653902
 30
40.0
 40
0.3129868793569162
 50
32.125610863364841
 51
208.19025049314271
  0
LINE
  5
51F
  8
0
 62
     2
 10
1.155212418688865
 20
-2.610844550659237
 30
0.0
 11
1.155212418688865
 21
-2.610844550659237
 31
40.0
  0
LINE
  5
520
  8
0
 62
     2
 10
1.696137674856476
 20
-2.2965500186001861
 30
0.0
 11
1.696137674856476
 21
-2.2965500186001861
 31
40.0
  0
ARC
  5
521
  8
0
 62
     2
 10
-1.431073999107372
 20
-2.4629893001653902
 30
0.0
 40
0.3129868793569162
210
0.0
220
0.0
230
-1.0
 50
331.80974950685732
 51
147.87438913663519
  0
ARC
  5
522
  8
0
 62
     2
 10
-0.0000000000001883
 20
0.0000000000005396
 30
-40.0
 40
2.8550000000004312
210
0.0
220
0.0
230
-1.0
 50
246.13219363059079
 51
248.55194501291621
  0
LINE
  5
523
  8
0
 62
     2
 10
1.0439523022414681
 20
-2.6572897076993058
 30
0.0
 11
1.0439523022414681
 21
-2.6572897076993058
 31
40.0
  0
LINE
  5
524
  8
0
 62
     2
 10
1.155212418688865
 20
-2.610844550659237
 30
0.0
 11
1.155212418688865
 21
-2.610844550659237
 31
40.0
  0
ARC
  5
525
  8
0
 62
     2
 10
0.0000000000001883
 20
0.0000000000005396
 30
0.0
 40
2.8550000000004312
 50
291.44805498708371
 51
293.86780636940921
  0
ARC
  5
526
  8
0
 62
     2
 10
0.7448427963020272
 20
-2.7494541808234199
 30
40.0
 40
0.3129868793569271
 50
17.125610863369939
 51
193.19025049313851
  0
LINE
  5
527
  8
0
 62
     2
 10
0.4401132165486566
 20
-2.8208731550034538
 30
0.0
 11
0.4401132165486566
 21
-2.8208731550034538
 31
40.0
  0
LINE
  5
528
  8
0
 62
     2
 10
1.0439523022414681
 20
-2.6572897076993058
 30
0.0
 11
1.0439523022414681
 21
-2.6572897076993058
 31
40.0
  0
ARC
  5
529
  8
0
 62
     2
 10
-0.7448427963020272
 20
-2.7494541808234199
 30
0.0
 40
0.3129868793569271
210
0.0
220
0.0
230
-1.0
 50
346.80974950686152
 51
162.87438913662999
  0
ARC
  5
52A
  8
0
 62
     2
 10
-0.0000000000001883
 20
-0.000000000000711
 30
-40.0
 40
2.8549999999992601
210
0.0
220
0.0
230
-1.0
 50
261.13219363058528
 51
263.55194501291061
  0
LINE
  5
52B
  8
0
 62
     2
 10
0.3206233054414902
 20
-2.8369394945976012
 30
0.0
 11
0.3206233054414902
 21
-2.8369394945976012
 31
40.0
  0
LINE
  5
52C
  8
0
 62
     2
 10
0.4401132165486566
 20
-2.8208731550034538
 30
0.0
 11
0.4401132165486566
 21
-2.8208731550034538
 31
40.0
  0
ARC
  5
52D
  8
0
 62
     2
 10
0.0000000000001883
 20
-0.000000000000711
 30
0.0
 40
2.8549999999992601
 50
276.44805498708928
 51
278.86780636941472
  0
ARC
  5
52E
  8
0
 62
     2
 10
0.0078517878396447
 20
-2.848548302746138
 30
40.0
 40
0.3129868793569242
 50
2.1256108633631099
 51
178.1902504931482
  0
LINE
  5
52F
  8
0
 62
     2
 10
-0.304978973977807
 20
-2.8386639155474991
 30
0.0
 11
-0.304978973977807
 21
-2.8386639155474991
 31
40.0
  0
LINE
  5
530
  8
0
 62
     2
 10
0.3206233054414902
 20
-2.8369394945976012
 30
0.0
 11
0.3206233054414902
 21
-2.8369394945976012
 31
40.0
  0
ARC
  5
531
  8
0
 62
     2
 10
-0.0078517878396447
 20
-2.848548302746138
 30
0.0
 40
0.3129868793569242
210
0.0
220
0.0
230
-1.0
 50
1.8097495068518079
 51
177.87438913663689
  0
ARC
  5
532
  8
0
 62
     2
 10
-0.0000000000004157
 20
0.0000000000003975
 30
-40.0
 40
2.8550000000004201
210
0.0
220
0.0
230
-1.0
 50
276.13219363059068
 51
278.55194501291612
  0
LINE
  5
533
  8
0
 62
     2
 10
-0.4245556397693058
 20
-2.8232565432032568
 30
0.0
 11
-0.4245556397693058
 21
-2.8232565432032568
 31
40.0
  0
LINE
  5
534
  8
0
 62
     2
 10
-0.304978973977807
 20
-2.8386639155474991
 30
0.0
 11
-0.304978973977807
 21
-2.8386639155474991
 31
40.0
  0
ARC
  5
535
  8
0
 62
     2
 10
0.0000000000004157
 20
0.0000000000003975
 30
0.0
 40
2.8550000000004201
 50
261.44805498708388
 51
263.86780636940932
  0
ARC
  5
536
  8
0
 62
     2
 10
-0.7296743069883114
 20
-2.7535185652854182
 30
40.0
 40
0.3129868793568949
 50
347.12561086336729
 51
163.19025049313839
  0
LINE
  5
537
  8
0
 62
     2
 10
-1.0292873514292571
 20
-2.6630044213608808
 30
0.0
 11
-1.0292873514292571
 21
-2.6630044213608808
 31
40.0
  0
LINE
  5
538
  8
0
 62
     2
 10
-0.4245556397693058
 20
-2.8232565432032568
 30
0.0
 11
-0.4245556397693058
 21
-2.8232565432032568
 31
40.0
  0
ARC
  5
539
  8
0
 62
     2
 10
0.7296743069883114
 20
-2.7535185652854182
 30
0.0
 40
0.3129868793568949
210
0.0
220
0.0
230
-1.0
 50
16.809749506861529
 51
192.8743891366326
  0
ARC
  5
53A
  8
0
 62
     2
 10
0.0000000000003233
 20
0.0000000000007669
 30
-40.0
 40
2.8550000000005769
210
0.0
220
0.0
230
-1.0
 50
291.13219363057112
 51
293.55194501289668
  0
LINE
  5
53B
  8
0
 62
     2
 10
-1.140801819741152
 20
-2.617173324041659
 30
0.0
 11
-1.140801819741152
 21
-2.617173324041659
 31
40.0
  0
LINE
  5
53C
  8
0
 62
     2
 10
-1.0292873514292571
 20
-2.6630044213608808
 30
0.0
 11
-1.0292873514292571
 21
-2.6630044213608808
 31
40.0
  0
ARC
  5
53D
  8
0
 62
     2
 10
-0.0000000000003233
 20
0.0000000000007669
 30
0.0
 40
2.8550000000005769
 50
246.44805498710329
 51
248.86780636942891
  0
ARC
  5
53E
  8
0
 62
     2
 10
-1.4174743036388511
 20
-2.4708410880050451
 30
40.0
 40
0.3129868793569113
 50
332.1256108633674
 51
148.19025049314109
  0
LINE
  5
53F
  8
0
 62
     2
 10
-1.683451496858634
 20
-2.3058655766814411
 30
0.0
 11
-1.683451496858634
 21
-2.3058655766814411
 31
40.0
  0
LINE
  5
540
  8
0
 62
     2
 10
-1.140801819741152
 20
-2.617173324041659
 30
0.0
 11
-1.140801819741152
 21
-2.617173324041659
 31
40.0
  0
ARC
  5
541
  8
0
 62
     2
 10
1.4174743036388511
 20
-2.4708410880050451
 30
0.0
 40
0.3129868793569113
210
0.0
220
0.0
230
-1.0
 50
31.809749506858971
 51
207.8743891366326
  0
ARC
  5
542
  8
0
 62
     2
 10
0.0000000000000391
 20
-0.0000000000005973
 30
-40.0
 40
2.8549999999995248
210
0.0
220
0.0
230
-1.0
 50
306.13219363058943
 51
308.55194501291493
  0
LINE
  5
543
  8
0
 62
     2
 10
-1.7793042409617601
 20
-2.2327340679300391
 30
0.0
 11
-1.7793042409617601
 21
-2.2327340679300391
 31
40.0
  0
LINE
  5
544
  8
0
 62
     2
 10
-1.683451496858634
 20
-2.3058655766814411
 30
0.0
 11
-1.683451496858634
 21
-2.3058655766814411
 31
40.0
  0
ARC
  5
545
  8
0
 62
     2
 10
-0.0000000000000391
 20
-0.0000000000005973
 30
0.0
 40
2.8549999999995248
 50
231.4480549870851
 51
233.8678063694106
  0
ARC
  5
546
  8
0
 62
     2
 10
-2.0086757689834189
 20
-2.0197798738350912
 30
40.0
 40
0.3129868793569357
 50
317.12561086337092
 51
133.19025049314229
  0
LINE
  5
547
  8
0
 62
     2
 10
-2.2228912048122238
 20
-1.791585803574179
 30
0.0
 11
-2.2228912048122238
 21
-1.791585803574179
 31
40.0
  0
LINE
  5
548
  8
0
 62
     2
 10
-1.7793042409617601
 20
-2.2327340679300391
 30
0.0
 11
-1.7793042409617601
 21
-2.2327340679300391
 31
40.0
  0
ARC
  5
549
  8
0
 62
     2
 10
2.0086757689834189
 20
-2.0197798738350912
 30
0.0
 40
0.3129868793569357
210
0.0
220
0.0
230
-1.0
 50
46.809749506857678
 51
222.87438913662919
  0
ARC
  5
54A
  8
0
 62
     2
 10
-0.0000000000004157
 20
0.0000000000001132
 30
-40.0
 40
2.8550000000004441
210
0.0
220
0.0
230
-1.0
 50
321.13219363058658
 51
323.5519450129122
  0
LINE
  5
54B
  8
0
 62
     2
 10
-2.2965500186001959
 20
-1.6961376748564589
 30
0.0
 11
-2.2965500186001959
 21
-1.6961376748564589
 31
40.0
  0
LINE
  5
54C
  8
0
 62
     2
 10
-2.2228912048122238
 20
-1.791585803574179
 30
0.0
 11
-2.2228912048122238
 21
-1.791585803574179
 31
40.0
  0
ARC
  5
54D
  8
0
 62
     2
 10
0.0000000000004157
 20
0.0000000000001132
 30
0.0
 40
2.8550000000004441
 50
216.44805498708789
 51
218.8678063694133
  0
ARC
  5
54E
  8
0
 62
     2
 10
-2.4629893001653431
 20
-1.431073999107326
 30
40.0
 40
0.3129868793569089
 50
302.12561086335319
 51
118.1902504931497
  0
LINE
  5
54F
  8
0
 62
     2
 10
-2.6108445506592188
 20
-1.1552124186888479
 30
0.0
 11
-2.6108445506592188
 21
-1.1552124186888479
 31
40.0
  0
LINE
  5
550
  8
0
 62
     2
 10
-2.2965500186001959
 20
-1.6961376748564589
 30
0.0
 11
-2.2965500186001959
 21
-1.6961376748564589
 31
40.0
  0
ARC
  5
551
  8
0
 62
     2
 10
2.4629893001653431
 20
-1.431073999107326
 30
0.0
 40
0.3129868793569089
210
0.0
220
0.0
230
-1.0
 50
61.809749506850252
 51
237.87438913664681
  0
ARC
  5
552
  8
0
 62
     2
 10
0.0000000000002096
 20
-0.0000000000001994
 30
-40.0
 40
2.8549999999996811
210
0.0
220
0.0
230
-1.0
 50
336.13219363058522
 51
338.55194501291072
  0
LINE
  5
553
  8
0
 62
     2
 10
-2.6572897076992881
 20
-1.0439523022414789
 30
0.0
 11
-2.6572897076992881
 21
-1.0439523022414789
 31
40.0
  0
LINE
  5
554
  8
0
 62
     2
 10
-2.6108445506592188
 20
-1.1552124186888479
 30
0.0
 11
-2.6108445506592188
 21
-1.1552124186888479
 31
40.0
  0
ARC
  5
555
  8
0
 62
     2
 10
-0.0000000000002096
 20
-0.0000000000001994
 30
0.0
 40
2.8549999999996811
 50
201.44805498708931
 51
203.86780636941489
  0
ARC
  5
556
  8
0
 62
     2
 10
-2.7494541808234021
 20
-0.7448427963020384
 30
40.0
 40
0.312986879356917
 50
287.1256108633699
 51
103.1902504931447
  0
LINE
  5
557
  8
0
 62
     2
 10
-2.820873155003464
 20
-0.4401132165486961
 30
0.0
 11
-2.820873155003464
 21
-0.4401132165486961
 31
40.0
  0
LINE
  5
558
  8
0
 62
     2
 10
-2.6572897076992881
 20
-1.0439523022414789
 30
0.0
 11
-2.6572897076992881
 21
-1.0439523022414789
 31
40.0
  0
ARC
  5
559
  8
0
 62
     2
 10
2.7494541808234021
 20
-0.7448427963020384
 30
0.0
 40
0.312986879356917
210
0.0
220
0.0
230
-1.0
 50
76.809749506855297
 51
252.8743891366301
  0
ARC
  5
55A
  8
0
 62
     2
 10
-0.0000000000005294
 20
-0.0000000000002278
 30
-40.0
 40
2.8550000000004392
210
0.0
220
0.0
230
-1.0
 50
351.1321936305892
 51
353.55194501291459
  0
LINE
  5
55B
  8
0
 62
     2
 10
-2.836939494597611
 20
-0.3206233054414729
 30
0.0
 11
-2.836939494597611
 21
-0.3206233054414729
 31
40.0
  0
LINE
  5
55C
  8
0
 62
     2
 10
-2.820873155003464
 20
-0.4401132165486961
 30
0.0
 11
-2.820873155003464
 21
-0.4401132165486961
 31
40.0
  0
ARC
  5
55D
  8
0
 62
     2
 10
0.0000000000005294
 20
-0.0000000000002278
 30
0.0
 40
2.8550000000004392
 50
186.44805498708541
 51
188.8678063694108
  0
ARC
  5
55E
  8
0
 62
     2
 10
-2.8485483027461491
 20
-0.0078517878396558
 30
40.0
 40
0.3129868793569097
 50
272.12561086336109
 51
88.190250493140823
  0
LINE
  5
55F
  8
0
 62
     2
 10
-2.8386639155474809
 20
0.3049789739777959
 30
0.0
 11
-2.8386639155474809
 21
0.3049789739777959
 31
40.0
  0
LINE
  5
560
  8
0
 62
     2
 10
-2.836939494597611
 20
-0.3206233054414729
 30
0.0
 11
-2.836939494597611
 21
-0.3206233054414729
 31
40.0
  0
ARC
  5
561
  8
0
 62
     2
 10
2.8485483027461491
 20
-0.0078517878396558
 30
0.0
 40
0.3129868793569097
210
0.0
220
0.0
230
-1.0
 50
91.809749506859163
 51
267.87438913663891
  0
ARC
  5
562
  8
0
 62
     2
 10
-0.0000000000004725
 20
0.0000000000002269
 30
-40.0
 40
2.8550000000004259
210
0.0
220
0.0
230
-1.0
 50
6.13219363057748
 51
8.5519450129028698
  0
LINE
  5
563
  8
0
 62
     2
 10
-2.823256543203267
 20
0.4245556397692947
 30
0.0
 11
-2.823256543203267
 21
0.4245556397692947
 31
40.0
  0
LINE
  5
564
  8
0
 62
     2
 10
-2.8386639155474809
 20
0.3049789739777959
 30
0.0
 11
-2.8386639155474809
 21
0.3049789739777959
 31
40.0
  0
ARC
  5
565
  8
0
 62
     2
 10
0.0000000000004725
 20
0.0000000000002269
 30
0.0
 40
2.8550000000004259
 50
171.44805498709709
 51
173.86780636942251
  0
ARC
  5
566
  8
0
 62
     2
 10
-2.7535185652854279
 20
0.7296743069883287
 30
40.0
 40
0.3129868793569043
 50
257.12561086336859
 51
73.190250493143452
  0
LINE
  5
567
  8
0
 62
     2
 10
-2.6630044213609199
 20
1.029287351429274
 30
0.0
 11
-2.6630044213609199
 21
1.029287351429274
 31
40.0
  0
LINE
  5
568
  8
0
 62
     2
 10
-2.823256543203267
 20
0.4245556397692947
 30
0.0
 11
-2.823256543203267
 21
0.4245556397692947
 31
40.0
  0
ARC
  5
569
  8
0
 62
     2
 10
2.7535185652854279
 20
0.7296743069883287
 30
0.0
 40
0.3129868793569043
210
0.0
220
0.0
230
-1.0
 50
106.80974950685651
 51
282.87438913663152
  0
ARC
  5
56A
  8
0
 62
     2
 10
-0.0000000000001883
 20
-0.0000000000004552
 30
-40.0
 40
2.855000000000353
210
0.0
220
0.0
230
-1.0
 50
21.132193630589899
 51
23.551945012915361
  0
LINE
  5
56B
  8
0
 62
     2
 10
-2.6171733240416688
 20
1.1408018197411409
 30
0.0
 11
-2.6171733240416688
 21
1.1408018197411409
 31
40.0
  0
LINE
  5
56C
  8
0
 62
     2
 10
-2.6630044213609199
 20
1.029287351429274
 30
0.0
 11
-2.6630044213609199
 21
1.029287351429274
 31
40.0
  0
ARC
  5
56D
  8
0
 62
     2
 10
0.0000000000001883
 20
-0.0000000000004552
 30
0.0
 40
2.855000000000353
 50
156.44805498708459
 51
158.86780636941009
  0
ARC
  5
56E
  8
0
 62
     2
 10
-2.4708410880050842
 20
1.4174743036388111
 30
40.0
 40
0.3129868793569232
 50
242.12561086336959
 51
58.190250493142138
  0
LINE
  5
56F
  8
0
 62
     2
 10
-2.3058655766814509
 20
1.6834514968586509
 30
0.0
 11
-2.3058655766814509
 21
1.6834514968586509
 31
40.0
  0
LINE
  5
570
  8
0
 62
     2
 10
-2.6171733240416688
 20
1.1408018197411409
 30
0.0
 11
-2.6171733240416688
 21
1.1408018197411409
 31
40.0
  0
ARC
  5
571
  8
0
 62
     2
 10
2.4708410880050842
 20
1.4174743036388111
 30
0.0
 40
0.3129868793569232
210
0.0
220
0.0
230
-1.0
 50
121.8097495068579
 51
297.87438913663038
  0
ARC
  5
572
  8
0
 62
     2
 10
0.0000000000006075
 20
-0.0000000000006257
 30
-40.0
 40
2.85499999999992
210
0.0
220
0.0
230
-1.0
 50
36.132193630600497
 51
38.551945012925913
  0
LINE
  5
573
  8
0
 62
     2
 10
-2.2327340679300209
 20
1.779304240961777
 30
0.0
 11
-2.2327340679300209
 21
1.779304240961777
 31
40.0
  0
LINE
  5
574
  8
0
 62
     2
 10
-2.3058655766814509
 20
1.6834514968586509
 30
0.0
 11
-2.3058655766814509
 21
1.6834514968586509
 31
40.0
  0
ARC
  5
575
  8
0
 62
     2
 10
-0.0000000000006075
 20
-0.0000000000006257
 30
0.0
 40
2.85499999999992
 50
141.4480549870741
 51
143.86780636939949
  0
ARC
  5
576
  8
0
 62
     2
 10
-2.0197798738351298
 20
2.008675768983351
 30
40.0
 40
0.312986879356915
 50
227.12561086336791
 51
43.190250493146273
  0
LINE
  5
577
  8
0
 62
     2
 10
-1.791585803574189
 20
2.2228912048122131
 30
0.0
 11
-1.791585803574189
 21
2.2228912048122131
 31
40.0
  0
LINE
  5
578
  8
0
 62
     2
 10
-2.2327340679300209
 20
1.779304240961777
 30
0.0
 11
-2.2327340679300209
 21
1.779304240961777
 31
40.0
  0
ARC
  5
579
  8
0
 62
     2
 10
2.0197798738351298
 20
2.008675768983351
 30
0.0
 40
0.312986879356915
210
0.0
220
0.0
230
-1.0
 50
136.80974950685359
 51
312.87438913663209
  0
ARC
  5
57A
  8
0
 62
     2
 10
-0.0000000000000746
 20
-0.0000000000010805
 30
-40.0
 40
2.855000000000917
210
0.0
220
0.0
230
-1.0
 50
51.132193630595339
 51
53.551945012920839
  0
LINE
  5
57B
  8
0
 62
     2
 10
-1.696137674856441
 20
2.2965500186001848
 30
0.0
 11
-1.696137674856441
 21
2.2965500186001848
 31
40.0
  0
LINE
  5
57C
  8
0
 62
     2
 10
-1.791585803574189
 20
2.2228912048122131
 30
0.0
 11
-1.791585803574189
 21
2.2228912048122131
 31
40.0
  0
ARC
  5
57D
  8
0
 62
     2
 10
0.0000000000000746
 20
-0.0000000000010805
 30
0.0
 40
2.855000000000917
 50
126.4480549870792
 51
128.86780636940469
  0
ARC
  5
57E
  8
0
 62
     2
 10
-1.431073999107336
 20
2.46298930016536
 30
40.0
 40
0.3129868793569161
 50
212.12561086336041
 51
28.190250493147211
  0
LINE
  5
57F
  8
0
 62
     2
 10
-1.1552124186888291
 20
2.610844550659237
 30
0.0
 11
-1.1552124186888291
 21
2.610844550659237
 31
40.0
  0
LINE
  5
580
  8
0
 62
     2
 10
-1.696137674856441
 20
2.2965500186001848
 30
0.0
 11
-1.696137674856441
 21
2.2965500186001848
 31
40.0
  0
ARC
  5
581
  8
0
 62
     2
 10
1.431073999107336
 20
2.46298930016536
 30
0.0
 40
0.3129868793569161
210
0.0
220
0.0
230
-1.0
 50
151.80974950685271
 51
327.87438913663959
  0
ARC
  5
582
  8
0
 62
     2
 10
0.0000000000002096
 20
0.0000000000008522
 30
-40.0
 40
2.8549999999991211
210
0.0
220
0.0
230
-1.0
 50
66.132193630580588
 51
68.551945012906032
  0
LINE
  5
583
  8
0
 62
     2
 10
-1.0439523022414889
 20
2.6572897076993049
 30
0.0
 11
-1.0439523022414889
 21
2.6572897076993049
 31
40.0
  0
LINE
  5
584
  8
0
 62
     2
 10
-1.1552124186888291
 20
2.610844550659237
 30
0.0
 11
-1.1552124186888291
 21
2.610844550659237
 31
40.0
  0
ARC
  5
585
  8
0
 62
     2
 10
-0.0000000000002096
 20
0.0000000000008522
 30
0.0
 40
2.8549999999991211
 50
111.448054987094
 51
113.8678063694194
  0
ARC
  5
586
  8
0
 62
     2
 10
-0.7448427963020486
 20
2.749454180823419
 30
40.0
 40
0.3129868793569273
 50
197.1256108633699
 51
13.190250493138469
  0
LINE
  5
587
  8
0
 62
     2
 10
-0.4401132165486779
 20
2.8208731550034529
 30
0.0
 11
-0.4401132165486779
 21
2.8208731550034529
 31
40.0
  0
LINE
  5
588
  8
0
 62
     2
 10
-1.0439523022414889
 20
2.6572897076993049
 30
0.0
 11
-1.0439523022414889
 21
2.6572897076993049
 31
40.0
  0
ARC
  5
589
  8
0
 62
     2
 10
0.7448427963020486
 20
2.749454180823419
 30
0.0
 40
0.3129868793569273
210
0.0
220
0.0
230
-1.0
 50
166.80974950686149
 51
342.8743891366301
  0
ARC
  5
58A
  8
0
 62
     2
 10
0.0000000000001528
 20
-0.0000000000005689
 30
-40.0
 40
2.8550000000005342
210
0.0
220
0.0
230
-1.0
 50
81.132193630588063
 51
83.551945012913478
  0
LINE
  5
58B
  8
0
 62
     2
 10
-0.3206233054414547
 20
2.8369394945975999
 30
0.0
 11
-0.3206233054414547
 21
2.8369394945975999
 31
40.0
  0
LINE
  5
58C
  8
0
 62
     2
 10
-0.4401132165486779
 20
2.8208731550034529
 30
0.0
 11
-0.4401132165486779
 21
2.8208731550034529
 31
40.0
  0
ARC
  5
58D
  8
0
 62
     2
 10
-0.0000000000001528
 20
-0.0000000000005689
 30
0.0
 40
2.8550000000005342
 50
96.448054987086508
 51
98.867806369411966
  0
ARC
  5
58E
  8
0
 62
     2
 10
-0.007851787839666
 20
2.848548302746138
 30
40.0
 40
0.3129868793568956
 50
182.12561086336351
 51
358.1902504931482
  0
LINE
  5
58F
  8
0
 62
     2
 10
0.3049789739777857
 20
2.8386639155474991
 30
0.0
 11
0.3049789739777857
 21
2.8386639155474991
 31
40.0
  0
LINE
  5
590
  8
0
 62
     2
 10
-0.3206233054414547
 20
2.8369394945975999
 30
0.0
 11
-0.3206233054414547
 21
2.8369394945975999
 31
40.0
  0
ARC
  5
591
  8
0
 62
     2
 10
0.007851787839666
 20
2.848548302746138
 30
0.0
 40
0.3129868793568956
210
0.0
220
0.0
230
-1.0
 50
181.8097495068518
 51
357.87438913663652
  0
ARC
  5
592
  8
0
 62
     2
 10
0.0000000000003801
 20
-0.0000000000003699
 30
-40.0
 40
2.8550000000003881
210
0.0
220
0.0
230
-1.0
 50
96.132193630589583
 51
98.551945012915127
  0
LINE
  5
593
  8
0
 62
     2
 10
0.4245556397692845
 20
2.8232565432032559
 30
0.0
 11
0.4245556397692845
 21
2.8232565432032559
 31
40.0
  0
LINE
  5
594
  8
0
 62
     2
 10
0.3049789739777857
 20
2.8386639155474991
 30
0.0
 11
0.3049789739777857
 21
2.8386639155474991
 31
40.0
  0
ARC
  5
595
  8
0
 62
     2
 10
-0.0000000000003801
 20
-0.0000000000003699
 30
0.0
 40
2.8550000000003881
 50
81.448054987084916
 51
83.867806369410374
  0
ARC
  5
596
  8
0
 62
     2
 10
0.7296743069883469
 20
2.7535185652853889
 30
40.0
 40
0.3129868793569211
 50
167.12561086336461
 51
343.19025049314342
  0
LINE
  5
597
  8
0
 62
     2
 10
1.029287351429292
 20
2.6630044213608799
 30
0.0
 11
1.029287351429292
 21
2.6630044213608799
 31
40.0
  0
LINE
  5
598
  8
0
 62
     2
 10
0.4245556397692845
 20
2.8232565432032559
 30
0.0
 11
0.4245556397692845
 21
2.8232565432032559
 31
40.0
  0
ARC
  5
599
  8
0
 62
     2
 10
-0.7296743069883469
 20
2.7535185652853889
 30
0.0
 40
0.3129868793569211
210
0.0
220
0.0
230
-1.0
 50
196.8097495068566
 51
12.874389136635401
  0
ARC
  5
59A
  8
0
 62
     2
 10
-0.0000000000002451
 20
0.0000000000004259
 30
-40.0
 40
2.8549999999994928
210
0.0
220
0.0
230
-1.0
 50
111.1321936305819
 51
113.5519450129073
  0
LINE
  5
59B
  8
0
 62
     2
 10
1.1408018197411309
 20
2.6171733240416581
 30
0.0
 11
1.1408018197411309
 21
2.6171733240416581
 31
40.0
  0
LINE
  5
59C
  8
0
 62
     2
 10
1.029287351429292
 20
2.6630044213608799
 30
0.0
 11
1.029287351429292
 21
2.6630044213608799
 31
40.0
  0
ARC
  5
59D
  8
0
 62
     2
 10
0.0000000000002451
 20
0.0000000000004259
 30
0.0
 40
2.8549999999994928
 50
66.448054987092689
 51
68.867806369418133
  0
ARC
  5
59E
  8
0
 62
     2
 10
1.4174743036388291
 20
2.4708410880050442
 30
40.0
 40
0.3129868793569352
 50
152.1256108633674
 51
328.19025049314649
  0
LINE
  5
59F
  8
0
 62
     2
 10
1.6834514968586689
 20
2.3058655766814402
 30
0.0
 11
1.6834514968586689
 21
2.3058655766814402
 31
40.0
  0
LINE
  5
5A0
  8
0
 62
     2
 10
1.1408018197411309
 20
2.6171733240416581
 30
0.0
 11
1.1408018197411309
 21
2.6171733240416581
 31
40.0
  0
ARC
  5
5A1
  8
0
 62
     2
 10
-1.4174743036388291
 20
2.4708410880050442
 30
0.0
 40
0.3129868793569352
210
0.0
220
0.0
230
-1.0
 50
211.80974950685351
 51
27.874389136632551
  0
ARC
  5
5A2
  8
0
 62
     2
 10
-0.0000000000000178
 20
0.0000000000005396
 30
-40.0
 40
2.8549999999995901
210
0.0
220
0.0
230
-1.0
 50
126.1321936305897
 51
128.55194501291501
  0
LINE
  5
5A3
  8
0
 62
     2
 10
1.7793042409617961
 20
2.2327340679300378
 30
0.0
 11
1.7793042409617961
 21
2.2327340679300378
 31
40.0
  0
LINE
  5
5A4
  8
0
 62
     2
 10
1.6834514968586689
 20
2.3058655766814402
 30
0.0
 11
1.6834514968586689
 21
2.3058655766814402
 31
40.0
  0
ARC
  5
5A5
  8
0
 62
     2
 10
0.0000000000000178
 20
0.0000000000005396
 30
0.0
 40
2.8549999999995901
 50
51.448054987084959
 51
53.867806369410289
  0
ARC
  5
5A6
  8
0
 62
     2
 10
2.0086757689833981
 20
2.0197798738351191
 30
40.0
 40
0.3129868793569166
 50
137.1256108633676
 51
313.19025049313871
  0
LINE
  5
5A7
  8
0
 62
     2
 10
2.2228912048122029
 20
1.7915858035741781
 30
0.0
 11
2.2228912048122029
 21
1.7915858035741781
 31
40.0
  0
LINE
  5
5A8
  8
0
 62
     2
 10
1.7793042409617961
 20
2.2327340679300378
 30
0.0
 11
1.7793042409617961
 21
2.2327340679300378
 31
40.0
  0
ARC
  5
5A9
  8
0
 62
     2
 10
-2.0086757689833981
 20
2.0197798738351191
 30
0.0
 40
0.3129868793569166
210
0.0
220
0.0
230
-1.0
 50
226.80974950686121
 51
42.874389136632409
  0
ARC
  5
5AA
  8
0
 62
     2
 10
0.0000000000003233
 20
-0.0000000000000004
 30
-40.0
 40
2.8550000000002358
210
0.0
220
0.0
230
-1.0
 50
141.13219363058701
 51
143.5519450129126
  0
LINE
  5
5AB
  8
0
 62
     2
 10
2.296550018600175
 20
1.6961376748564581
 30
0.0
 11
2.296550018600175
 21
1.6961376748564581
 31
40.0
  0
LINE
  5
5AC
  8
0
 62
     2
 10
2.2228912048122029
 20
1.7915858035741781
 30
0.0
 11
2.2228912048122029
 21
1.7915858035741781
 31
40.0
  0
ARC
  5
5AD
  8
0
 62
     2
 10
-0.0000000000003233
 20
-0.0000000000000004
 30
0.0
 40
2.8550000000002358
 50
36.448054987087389
 51
38.867806369412989
  0
ARC
  5
5AE
  8
0
 62
     2
 10
2.4629893001653791
 20
1.4310739991073249
 30
40.0
 40
0.3129868793569235
 50
122.125610863362
 51
298.19025049314968
  0
ARC
  5
5AF
  8
0
 62
     2
 10
-0.0000000000003233
 20
-0.0000000000000004
 30
40.0
 40
2.8550000000002358
 50
36.448054987087403
 51
38.867806369412982
  0
ARC
  5
5B0
  8
0
 62
     2
 10
0.0000000000000746
 20
0.0000000000001417
 30
40.0
 40
2.854999999999829
 50
21.44805498708914
 51
23.86780636941447
  0
ARC
  5
5B1
  8
0
 62
     2
 10
2.0086757689833981
 20
2.0197798738351191
 30
40.0
 40
0.3129868793569166
 50
137.1256108633676
 51
313.19025049313871
  0
ARC
  5
5B2
  8
0
 62
     2
 10
2.7494541808233812
 20
0.7448427963020659
 30
40.0
 40
0.31298687935691
 50
107.1256108633615
 51
283.19025049314348
  0
ARC
  5
5B3
  8
0
 62
     2
 10
0.0000000000000178
 20
0.0000000000005396
 30
40.0
 40
2.8549999999995901
 50
51.448054987084937
 51
53.867806369410289
  0
ARC
  5
5B4
  8
0
 62
     2
 10
-0.0000000000005507
 20
0.0000000000002269
 30
40.0
 40
2.855000000000508
 50
6.4480549870854214
 51
8.8678063694108769
  0
ARC
  5
5B5
  8
0
 62
     2
 10
1.4174743036388291
 20
2.4708410880050442
 30
40.0
 40
0.3129868793569352
 50
152.1256108633674
 51
328.19025049314649
  0
ARC
  5
5B6
  8
0
 62
     2
 10
2.8485483027461842
 20
0.0078517878396549
 30
40.0
 40
0.31298687935691
 50
92.125610863373225
 51
268.19025049314251
  0
ARC
  5
5B7
  8
0
 62
     2
 10
0.0000000000002451
 20
0.0000000000004259
 30
40.0
 40
2.8549999999994928
 50
66.448054987092675
 51
68.867806369418119
  0
ARC
  5
5B8
  8
0
 62
     2
 10
0.0000000000002451
 20
0.000000000001108
 30
40.0
 40
2.8549999999998881
 50
351.44805498706899
 51
353.86780636939437
  0
ARC
  5
5B9
  8
0
 62
     2
 10
0.7296743069883469
 20
2.7535185652853889
 30
40.0
 40
0.3129868793569211
 50
167.12561086336461
 51
343.19025049314342
  0
ARC
  5
5BA
  8
0
 62
     2
 10
2.7535185652853502
 20
-0.7296743069883012
 30
40.0
 40
0.3129868793569182
 50
77.125610863358361
 51
253.19025049315499
  0
ARC
  5
5BB
  8
0
 62
     2
 10
-0.0000000000003801
 20
-0.0000000000003699
 30
40.0
 40
2.8550000000003881
 50
81.448054987084916
 51
83.867806369410374
  0
ARC
  5
5BC
  8
0
 62
     2
 10
-0.0000000000002096
 20
0.0000000000004259
 30
40.0
 40
2.8550000000003228
 50
336.44805498708519
 51
338.86780636941057
  0
ARC
  5
5BD
  8
0
 62
     2
 10
-0.007851787839666
 20
2.848548302746138
 30
40.0
 40
0.3129868793568956
 50
182.12561086336351
 51
358.1902504931482
  0
ARC
  5
5BE
  8
0
 62
     2
 10
2.4708410880049492
 20
-1.417474303638784
 30
40.0
 40
0.3129868793569219
 50
62.125610863348761
 51
238.19025049316249
  0
ARC
  5
5BF
  8
0
 62
     2
 10
-0.0000000000001528
 20
-0.0000000000005689
 30
40.0
 40
2.8550000000005342
 50
96.448054987086508
 51
98.867806369411966
  0
ARC
  5
5C0
  8
0
 62
     2
 10
0.0000000000005862
 20
0.0000000000006248
 30
40.0
 40
2.8549999999998881
 50
321.4480549870741
 51
323.8678063693996
  0
ARC
  5
5C1
  8
0
 62
     2
 10
-0.7448427963020486
 20
2.749454180823419
 30
40.0
 40
0.3129868793569273
 50
197.1256108633699
 51
13.190250493138469
  0
ARC
  5
5C2
  8
0
 62
     2
 10
2.019779873835108
 20
-2.0086757689834092
 30
40.0
 40
0.312986879356917
 50
47.125610863374931
 51
223.19025049313871
  0
ARC
  5
5C3
  8
0
 62
     2
 10
-0.0000000000002096
 20
0.0000000000008522
 30
40.0
 40
2.8549999999991211
 50
111.448054987094
 51
113.8678063694194
  0
ARC
  5
5C4
  8
0
 62
     2
 10
0.0000000000000178
 20
-0.0000000000003983
 30
40.0
 40
2.8549999999996771
 50
306.44805498709582
 51
308.86780636942149
  0
ARC
  5
5C5
  8
0
 62
     2
 10
-1.431073999107336
 20
2.46298930016536
 30
40.0
 40
0.3129868793569161
 50
212.12561086336041
 51
28.190250493147211
  0
ARC
  5
5C6
  8
0
 62
     2
 10
1.431073999107372
 20
-2.4629893001653902
 30
40.0
 40
0.3129868793569162
 50
32.125610863364841
 51
208.19025049314271
  0
ARC
  5
5C7
  8
0
 62
     2
 10
0.0000000000000746
 20
-0.0000000000010805
 30
40.0
 40
2.855000000000917
 50
126.4480549870791
 51
128.8678063694046
  0
ARC
  5
5C8
  8
0
 62
     2
 10
0.0000000000001883
 20
0.0000000000005396
 30
40.0
 40
2.8550000000004312
 50
291.44805498708382
 51
293.86780636940921
  0
ARC
  5
5C9
  8
0
 62
     2
 10
-2.0197798738351298
 20
2.008675768983351
 30
40.0
 40
0.312986879356915
 50
227.12561086336791
 51
43.190250493146273
  0
ARC
  5
5CA
  8
0
 62
     2
 10
0.7448427963020272
 20
-2.7494541808234199
 30
40.0
 40
0.3129868793569271
 50
17.125610863369939
 51
193.19025049313851
  0
ARC
  5
5CB
  8
0
 62
     2
 10
-0.0000000000006075
 20
-0.0000000000006257
 30
40.0
 40
2.85499999999992
 50
141.4480549870741
 51
143.86780636939949
  0
ARC
  5
5CC
  8
0
 62
     2
 10
0.0000000000001883
 20
-0.000000000000711
 30
40.0
 40
2.8549999999992601
 50
276.44805498708928
 51
278.86780636941472
  0
ARC
  5
5CD
  8
0
 62
     2
 10
-2.4708410880050842
 20
1.4174743036388111
 30
40.0
 40
0.3129868793569232
 50
242.12561086336959
 51
58.190250493142138
  0
ARC
  5
5CE
  8
0
 62
     2
 10
0.0078517878396447
 20
-2.848548302746138
 30
40.0
 40
0.3129868793569242
 50
2.1256108633631099
 51
178.1902504931482
  0
ARC
  5
5CF
  8
0
 62
     2
 10
0.0000000000001883
 20
-0.0000000000004552
 30
40.0
 40
2.855000000000353
 50
156.44805498708459
 51
158.86780636941009
  0
ARC
  5
5D0
  8
0
 62
     2
 10
0.0000000000004157
 20
0.0000000000003975
 30
40.0
 40
2.8550000000004201
 50
261.44805498708388
 51
263.86780636940932
  0
ARC
  5
5D1
  8
0
 62
     2
 10
-2.7535185652854279
 20
0.7296743069883287
 30
40.0
 40
0.3129868793569043
 50
257.12561086336859
 51
73.190250493143452
  0
ARC
  5
5D2
  8
0
 62
     2
 10
-0.7296743069883114
 20
-2.7535185652854182
 30
40.0
 40
0.3129868793568949
 50
347.12561086336729
 51
163.19025049313839
  0
ARC
  5
5D3
  8
0
 62
     2
 10
0.0000000000004725
 20
0.0000000000002269
 30
40.0
 40
2.8550000000004259
 50
171.44805498709709
 51
173.86780636942251
  0
ARC
  5
5D4
  8
0
 62
     2
 10
-0.0000000000003233
 20
0.0000000000007669
 30
40.0
 40
2.8550000000005769
 50
246.44805498710329
 51
248.86780636942891
  0
ARC
  5
5D5
  8
0
 62
     2
 10
-2.8485483027461491
 20
-0.0078517878396558
 30
40.0
 40
0.3129868793569097
 50
272.12561086336109
 51
88.190250493140823
  0
ARC
  5
5D6
  8
0
 62
     2
 10
-1.4174743036388511
 20
-2.4708410880050451
 30
40.0
 40
0.3129868793569113
 50
332.1256108633674
 51
148.19025049314109
  0
ARC
  5
5D7
  8
0
 62
     2
 10
0.0000000000005294
 20
-0.0000000000002278
 30
40.0
 40
2.8550000000004392
 50
186.44805498708541
 51
188.8678063694108
  0
ARC
  5
5D8
  8
0
 62
     2
 10
-0.0000000000000391
 20
-0.0000000000005973
 30
40.0
 40
2.8549999999995248
 50
231.4480549870851
 51
233.8678063694106
  0
ARC
  5
5D9
  8
0
 62
     2
 10
-2.7494541808234021
 20
-0.7448427963020384
 30
40.0
 40
0.312986879356917
 50
287.1256108633699
 51
103.1902504931447
  0
ARC
  5
5DA
  8
0
 62
     2
 10
-2.0086757689834189
 20
-2.0197798738350912
 30
40.0
 40
0.3129868793569357
 50
317.12561086337092
 51
133.19025049314229
  0
ARC
  5
5DB
  8
0
 62
     2
 10
-0.0000000000002096
 20
-0.0000000000001994
 30
40.0
 40
2.8549999999996811
 50
201.44805498708931
 51
203.86780636941489
  0
ARC
  5
5DC
  8
0
 62
     2
 10
0.0000000000004157
 20
0.0000000000001132
 30
40.0
 40
2.8550000000004441
 50
216.44805498708789
 51
218.8678063694133
  0
ARC
  5
5DD
  8
0
 62
     2
 10
-2.4629893001653431
 20
-1.431073999107326
 30
40.0
 40
0.3129868793569089
 50
302.12561086335319
 51
118.1902504931497
  0
ARC
  5
5DE
  8
0
 62
     2
 10
0.0000000000003233
 20
-0.0000000000000004
 30
0.0
 40
2.8550000000002358
210
0.0
220
0.0
230
-1.0
 50
141.13219363058701
 51
143.5519450129126
  0
ARC
  5
5DF
  8
0
 62
     2
 10
-2.4629893001653791
 20
1.4310739991073249
 30
0.0
 40
0.3129868793569235
210
0.0
220
0.0
230
-1.0
 50
241.8097495068503
 51
57.874389136637951
  0
ARC
  5
5E0
  8
0
 62
     2
 10
-2.0086757689833981
 20
2.0197798738351191
 30
0.0
 40
0.3129868793569166
210
0.0
220
0.0
230
-1.0
 50
226.80974950686121
 51
42.874389136632409
  0
ARC
  5
5E1
  8
0
 62
     2
 10
-0.0000000000000746
 20
0.0000000000001417
 30
0.0
 40
2.854999999999829
210
0.0
220
0.0
230
-1.0
 50
156.1321936305855
 51
158.55194501291081
  0
ARC
  5
5E2
  8
0
 62
     2
 10
-0.0000000000000178
 20
0.0000000000005396
 30
0.0
 40
2.8549999999995901
210
0.0
220
0.0
230
-1.0
 50
126.1321936305897
 51
128.55194501291501
  0
ARC
  5
5E3
  8
0
 62
     2
 10
-2.7494541808233812
 20
0.7448427963020659
 30
0.0
 40
0.31298687935691
210
0.0
220
0.0
230
-1.0
 50
256.80974950685652
 51
72.87438913663847
  0
ARC
  5
5E4
  8
0
 62
     2
 10
-1.4174743036388291
 20
2.4708410880050442
 30
0.0
 40
0.3129868793569352
210
0.0
220
0.0
230
-1.0
 50
211.80974950685351
 51
27.874389136632551
  0
ARC
  5
5E5
  8
0
 62
     2
 10
0.0000000000005507
 20
0.0000000000002269
 30
0.0
 40
2.855000000000508
210
0.0
220
0.0
230
-1.0
 50
171.13219363058909
 51
173.55194501291459
  0
ARC
  5
5E6
  8
0
 62
     2
 10
-0.0000000000002451
 20
0.0000000000004259
 30
0.0
 40
2.8549999999994928
210
0.0
220
0.0
230
-1.0
 50
111.1321936305818
 51
113.5519450129073
  0
ARC
  5
5E7
  8
0
 62
     2
 10
-2.8485483027461842
 20
0.0078517878396549
 30
0.0
 40
0.31298687935691
210
0.0
220
0.0
230
-1.0
 50
271.80974950685737
 51
87.874389136626746
  0
ARC
  5
5E8
  8
0
 62
     2
 10
-0.7296743069883469
 20
2.7535185652853889
 30
0.0
 40
0.3129868793569211
210
0.0
220
0.0
230
-1.0
 50
196.8097495068566
 51
12.874389136635401
  0
ARC
  5
5E9
  8
0
 62
     2
 10
-0.0000000000002451
 20
0.000000000001108
 30
0.0
 40
2.8549999999998881
210
0.0
220
0.0
230
-1.0
 50
186.1321936306056
 51
188.55194501293099
  0
ARC
  5
5EA
  8
0
 62
     2
 10
0.0000000000003801
 20
-0.0000000000003699
 30
0.0
 40
2.8550000000003881
210
0.0
220
0.0
230
-1.0
 50
96.132193630589583
 51
98.551945012915127
  0
ARC
  5
5EB
  8
0
 62
     2
 10
-2.7535185652853502
 20
-0.7296743069883012
 30
0.0
 40
0.3129868793569182
210
0.0
220
0.0
230
-1.0
 50
286.80974950684509
 51
102.8743891366416
  0
ARC
  5
5EC
  8
0
 62
     2
 10
0.007851787839666
 20
2.848548302746138
 30
0.0
 40
0.3129868793568956
210
0.0
220
0.0
230
-1.0
 50
181.8097495068518
 51
357.87438913663652
  0
ARC
  5
5ED
  8
0
 62
     2
 10
0.0000000000002096
 20
0.0000000000004259
 30
0.0
 40
2.8550000000003228
210
0.0
220
0.0
230
-1.0
 50
201.13219363058931
 51
203.55194501291481
  0
ARC
  5
5EE
  8
0
 62
     2
 10
0.0000000000001528
 20
-0.0000000000005689
 30
0.0
 40
2.8550000000005342
210
0.0
220
0.0
230
-1.0
 50
81.132193630588048
 51
83.551945012913478
  0
ARC
  5
5EF
  8
0
 62
     2
 10
-2.4708410880049492
 20
-1.417474303638784
 30
0.0
 40
0.3129868793569219
210
0.0
220
0.0
230
-1.0
 50
301.80974950683748
 51
117.8743891366512
  0
ARC
  5
5F0
  8
0
 62
     2
 10
0.7448427963020486
 20
2.749454180823419
 30
0.0
 40
0.3129868793569273
210
0.0
220
0.0
230
-1.0
 50
166.80974950686149
 51
342.8743891366301
  0
ARC
  5
5F1
  8
0
 62
     2
 10
-0.0000000000005862
 20
0.0000000000006248
 30
0.0
 40
2.8549999999998881
210
0.0
220
0.0
230
-1.0
 50
216.13219363060051
 51
218.5519450129259
  0
ARC
  5
5F2
  8
0
 62
     2
 10
0.0000000000002096
 20
0.0000000000008522
 30
0.0
 40
2.8549999999991211
210
0.0
220
0.0
230
-1.0
 50
66.132193630580588
 51
68.551945012906032
  0
ARC
  5
5F3
  8
0
 62
     2
 10
-2.019779873835108
 20
-2.0086757689834092
 30
0.0
 40
0.312986879356917
210
0.0
220
0.0
230
-1.0
 50
316.80974950686118
 51
132.87438913662501
  0
ARC
  5
5F4
  8
0
 62
     2
 10
1.431073999107336
 20
2.46298930016536
 30
0.0
 40
0.3129868793569161
210
0.0
220
0.0
230
-1.0
 50
151.80974950685271
 51
327.87438913663959
  0
ARC
  5
5F5
  8
0
 62
     2
 10
-0.0000000000000178
 20
-0.0000000000003983
 30
0.0
 40
2.8549999999996771
210
0.0
220
0.0
230
-1.0
 50
231.13219363057851
 51
233.55194501290421
  0
ARC
  5
5F6
  8
0
 62
     2
 10
-0.0000000000000746
 20
-0.0000000000010805
 30
0.0
 40
2.855000000000917
210
0.0
220
0.0
230
-1.0
 50
51.13219363059531
 51
53.551945012920818
  0
ARC
  5
5F7
  8
0
 62
     2
 10
-1.431073999107372
 20
-2.4629893001653902
 30
0.0
 40
0.3129868793569162
210
0.0
220
0.0
230
-1.0
 50
331.80974950685732
 51
147.87438913663519
  0
ARC
  5
5F8
  8
0
 62
     2
 10
2.0197798738351298
 20
2.008675768983351
 30
0.0
 40
0.312986879356915
210
0.0
220
0.0
230
-1.0
 50
136.80974950685359
 51
312.87438913663209
  0
ARC
  5
5F9
  8
0
 62
     2
 10
-0.0000000000001883
 20
0.0000000000005396
 30
0.0
 40
2.8550000000004312
210
0.0
220
0.0
230
-1.0
 50
246.1321936305909
 51
248.55194501291621
  0
ARC
  5
5FA
  8
0
 62
     2
 10
0.0000000000006075
 20
-0.0000000000006257
 30
0.0
 40
2.85499999999992
210
0.0
220
0.0
230
-1.0
 50
36.132193630600469
 51
38.551945012925898
  0
ARC
  5
5FB
  8
0
 62
     2
 10
-0.7448427963020272
 20
-2.7494541808234199
 30
0.0
 40
0.3129868793569271
210
0.0
220
0.0
230
-1.0
 50
346.80974950686152
 51
162.87438913662999
  0
ARC
  5
5FC
  8
0
 62
     2
 10
2.4708410880050842
 20
1.4174743036388111
 30
0.0
 40
0.3129868793569232
210
0.0
220
0.0
230
-1.0
 50
121.8097495068579
 51
297.87438913663038
  0
ARC
  5
5FD
  8
0
 62
     2
 10
-0.0000000000001883
 20
-0.000000000000711
 30
0.0
 40
2.8549999999992601
210
0.0
220
0.0
230
-1.0
 50
261.13219363058528
 51
263.55194501291061
  0
ARC
  5
5FE
  8
0
 62
     2
 10
-0.0000000000001883
 20
-0.0000000000004552
 30
0.0
 40
2.855000000000353
210
0.0
220
0.0
230
-1.0
 50
21.132193630589899
 51
23.551945012915361
  0
ARC
  5
5FF
  8
0
 62
     2
 10
-0.0078517878396447
 20
-2.848548302746138
 30
0.0
 40
0.3129868793569242
210
0.0
220
0.0
230
-1.0
 50
1.8097495068518079
 51
177.87438913663689
  0
ARC
  5
600
  8
0
 62
     2
 10
2.7535185652854279
 20
0.7296743069883287
 30
0.0
 40
0.3129868793569043
210
0.0
220
0.0
230
-1.0
 50
106.80974950685651
 51
282.87438913663152
  0
ARC
  5
601
  8
0
 62
     2
 10
-0.0000000000004157
 20
0.0000000000003975
 30
0.0
 40
2.8550000000004201
210
0.0
220
0.0
230
-1.0
 50
276.13219363059068
 51
278.55194501291612
  0
ARC
  5
602
  8
0
 62
     2
 10
-0.0000000000004725
 20
0.0000000000002269
 30
0.0
 40
2.8550000000004259
210
0.0
220
0.0
230
-1.0
 50
6.1321936305775031
 51
8.5519450129028822
  0
ARC
  5
603
  8
0
 62
     2
 10
0.7296743069883114
 20
-2.7535185652854182
 30
0.0
 40
0.3129868793568949
210
0.0
220
0.0
230
-1.0
 50
16.809749506861529
 51
192.8743891366326
  0
ARC
  5
604
  8
0
 62
     2
 10
2.8485483027461491
 20
-0.0078517878396558
 30
0.0
 40
0.3129868793569097
210
0.0
220
0.0
230
-1.0
 50
91.809749506859163
 51
267.87438913663891
  0
ARC
  5
605
  8
0
 62
     2
 10
0.0000000000003233
 20
0.0000000000007669
 30
0.0
 40
2.8550000000005769
210
0.0
220
0.0
230
-1.0
 50
291.13219363057112
 51
293.55194501289668
  0
ARC
  5
606
  8
0
 62
     2
 10
-0.0000000000005294
 20
-0.0000000000002278
 30
0.0
 40
2.8550000000004392
210
0.0
220
0.0
230
-1.0
 50
351.1321936305892
 51
353.55194501291447
  0
ARC
  5
607
  8
0
 62
     2
 10
1.4174743036388511
 20
-2.4708410880050451
 30
0.0
 40
0.3129868793569113
210
0.0
220
0.0
230
-1.0
 50
31.809749506858971
 51
207.8743891366326
  0
ARC
  5
608
  8
0
 62
     2
 10
2.7494541808234021
 20
-0.7448427963020384
 30
0.0
 40
0.312986879356917
210
0.0
220
0.0
230
-1.0
 50
76.809749506855297
 51
252.8743891366301
  0
ARC
  5
609
  8
0
 62
     2
 10
0.0000000000000391
 20
-0.0000000000005973
 30
0.0
 40
2.8549999999995248
210
0.0
220
0.0
230
-1.0
 50
306.13219363058943
 51
308.55194501291493
  0
ARC
  5
60A
  8
0
 62
     2
 10
0.0000000000002096
 20
-0.0000000000001994
 30
0.0
 40
2.8549999999996811
210
0.0
220
0.0
230
-1.0
 50
336.13219363058522
 51
338.55194501291072
  0
ARC
  5
60B
  8
0
 62
     2
 10
2.0086757689834189
 20
-2.0197798738350912
 30
0.0
 40
0.3129868793569357
210
0.0
220
0.0
230
-1.0
 50
46.809749506857678
 51
222.87438913662919
  0
ARC
  5
60C
  8
0
 62
     2
 10
2.4629893001653431
 20
-1.431073999107326
 30
0.0
 40
0.3129868793569089
210
0.0
220
0.0
230
-1.0
 50
61.809749506850252
 51
237.87438913664681
  0
ARC
  5
60D
  8
0
 62
     2
 10
-0.0000000000004157
 20
0.0000000000001132
 30
0.0
 40
2.8550000000004441
210
0.0
220
0.0
230
-1.0
 50
321.13219363058658
 51
323.5519450129122
  0
ENDBLK
  5
60F
  8
0
  0
ENDSEC
  0
SECTION
  2
ENTITIES
  0
INSERT
  5
17B
  8
0
  2
*U1
 10
0.0
 20
0.0
 30
0.0
  0
ENDSEC
  0
EOF
