  0
SECTION
  2
HEADER
  9
$ACADVER
  1
AC1006
  9
$EXTMIN
 10
-36.619610
 20
-15.377343
  9
$EXTMAX
 10
32.426846
 20
20.547591
  9
$LTSCALE
 40
0.000394
  9
$PDMODE
 70
    35
  9
$PDSIZE
 40
0.000315
  0
ENDSEC
  0
SECTION
  2
TABLES
  0
TABLE
  2
LTYPE
 70
     9
  0
LTYPE
  2
CONTINUOUS
 70
    64
  3
Solid line
 72
    65
 73
     0
 40
0.000000
  0
LTYPE
  2
DASHED
 70
    64
  3
__ __ __ __ __ __ __ __ __ __ __ __ __ __ __
 72
    65
 73
     2
 40
0.000003
 49
0.000002
 49
-0.000001
  0
LTYPE
  2
HIDDEN
 70
    64
  3
 _ _ _ _ _ _ _ _ _ _ _ _ _ _ _ _ _ _ _ _ _ _
 72
    65
 73
     2
 40
0.000001
 49
0.000001
 49
-0.000000
  0
LTYPE
  2
CENTER
 70
    64
  3
____ _ ____ _ ____ _ ____ _ ____ _ ____ _ ____
 72
    65
 73
     4
 40
0.000008
 49
0.000005
 49
-0.000001
 49
0.000001
 49
-0.000001
  0
LTYPE
  2
PHANTOM
 70
    64
  3
_____ _ _ _____ _ _ _____ _ _ _____ _ _ ____
 72
    65
 73
     6
 40
0.000010
 49
0.000005
 49
-0.000001
 49
0.000001
 49
-0.000001
 49
0.000001
 49
-0.000001
  0
LTYPE
  2
DOT
 70
    64
  3
...............................................
 72
    65
 73
     2
 40
0.000001
 49
0.000000
 49
-0.000001
  0
LTYPE
  2
DASHDOT
 70
    64
  3
__ . __ . __ . __ . __ . __ . __ . __ . __ . __
 72
    65
 73
     4
 40
0.000004
 49
0.000002
 49
-0.000001
 49
0.000000
 49
-0.000001
  0
LTYPE
  2
BORDER
 70
    64
  3
__ __ . __ __ . __ __ . __ __ . __ __ . __ __
 72
    65
 73
     6
 40
0.000007
 49
0.000002
 49
-0.000001
 49
0.000002
 49
-0.000001
 49
0.000000
 49
-0.000001
  0
LTYPE
  2
DIVIDE
 70
    64
  3
__ . . __ . . __ . . __ . . __ . . __ . . __
 72
    65
 73
     6
 40
0.000005
 49
0.000002
 49
-0.000001
 49
0.000000
 49
-0.000001
 49
0.000000
 49
-0.000001
  0
LTYPE
  2
DOTDOT
 70
    64
  3
 . .  . .  . .  . .  . .  . . 
 72
    65
 73
     5
 40
0.000002
 49
-0.000001
 49
0.000000
 49
-0.000001
 49
0.000000
 49
-0.000001
  0
ENDTAB
  0
TABLE
  2
STYLE
 70
     4
  0
STYLE
 70
     0
  2
SN0
 40
0.000000
 41
0.000004
 50
0.000000
 71
     0
 42
0.000000
  3
SCRIPTS
  0
STYLE
 70
    68
  2
SV0
 40
0.000000
 41
0.000004
 50
0.000000
 71
     0
 42
0.000000
  3
SCRIPTS
  0
STYLE
 70
     0
  2
SN1
 40
0.000000
 41
0.000004
 50
0.000000
 71
     0
 42
0.000000
  3
SCRIPTS
  0
STYLE
 70
    68
  2
SV1
 40
0.000000
 41
0.000004
 50
0.000000
 71
     0
 42
0.000000
  3
SCRIPTS
  0
ENDTAB
  0
TABLE
  2
LAYER
 70
     3
  0
LAYER
  2
FOREGROUND
 70
    64
 62
     7
  6
CONTINUOUS
  0
LAYER
  2
BACKGROUND
 70
    65
 62
    -7
  6
CONTINUOUS
  0
LAYER
  2
LAYER_1
 70
    64
 62
     7
  6
CONTINUOUS
  0
ENDTAB
  0
ENDSEC
  0
SECTION
  2
ENTITIES
  0
POLYLINE
  8
LAYER_1
 62
    39
  6
CONTINUOUS
 66
     1
 40
0.006945
 41
0.006945
 70
     1
  0
VERTEX
  8
LAYER_1
 62
    39
  6
CONTINUOUS
 10
-36.616138
 20
-15.373866
  0
VERTEX
  8
LAYER_1
 62
    39
  6
CONTINUOUS
 10
32.423374
 20
-15.373866
  0
VERTEX
  8
LAYER_1
 62
    39
  6
CONTINUOUS
 10
32.423374
 20
20.544118
  0
VERTEX
  8
LAYER_1
 62
    39
  6
CONTINUOUS
 10
-36.616138
 20
20.544118
  0
SEQEND
  8
0
  0
POLYLINE
  8
LAYER_1
 62
    39
  6
CONTINUOUS
 66
     1
 40
0.006945
 41
0.006945
 70
     1
  0
VERTEX
  8
LAYER_1
 62
    39
  6
CONTINUOUS
 10
6.471362
 20
11.264803
  0
VERTEX
  8
LAYER_1
 62
    39
  6
CONTINUOUS
 10
5.978664
 20
11.261088
  0
VERTEX
  8
LAYER_1
 62
    39
  6
CONTINUOUS
 10
5.495364
 20
11.252623
  0
VERTEX
  8
LAYER_1
 62
    39
  6
CONTINUOUS
 10
5.022626
 20
11.239571
  0
VERTEX
  8
LAYER_1
 62
    39
  6
CONTINUOUS
 10
4.561611
 20
11.222100
  0
VERTEX
  8
LAYER_1
 62
    39
  6
CONTINUOUS
 10
4.113480
 20
11.200373
  0
VERTEX
  8
LAYER_1
 62
    39
  6
CONTINUOUS
 10
3.679395
 20
11.174557
  0
VERTEX
  8
LAYER_1
 62
    39
  6
CONTINUOUS
 10
3.260519
 20
11.144816
  0
VERTEX
  8
LAYER_1
 62
    39
  6
CONTINUOUS
 10
2.858012
 20
11.111315
  0
VERTEX
  8
LAYER_1
 62
    39
  6
CONTINUOUS
 10
2.858012
 20
9.429622
  0
VERTEX
  8
LAYER_1
 62
    39
  6
CONTINUOUS
 10
3.260519
 20
9.396122
  0
VERTEX
  8
LAYER_1
 62
    39
  6
CONTINUOUS
 10
3.679395
 20
9.366379
  0
VERTEX
  8
LAYER_1
 62
    39
  6
CONTINUOUS
 10
4.113480
 20
9.340560
  0
VERTEX
  8
LAYER_1
 62
    39
  6
CONTINUOUS
 10
4.561611
 20
9.318831
  0
VERTEX
  8
LAYER_1
 62
    39
  6
CONTINUOUS
 10
5.022626
 20
9.301356
  0
VERTEX
  8
LAYER_1
 62
    39
  6
CONTINUOUS
 10
5.495364
 20
9.288302
  0
VERTEX
  8
LAYER_1
 62
    39
  6
CONTINUOUS
 10
5.978664
 20
9.279834
  0
VERTEX
  8
LAYER_1
 62
    39
  6
CONTINUOUS
 10
6.471362
 20
9.276118
  0
SEQEND
  8
0
  0
POLYLINE
  8
LAYER_1
 62
    39
  6
CONTINUOUS
 66
     1
 40
0.006945
 41
0.006945
 70
     1
  0
VERTEX
  8
LAYER_1
 62
    39
  6
CONTINUOUS
 10
3.434343
 20
10.829319
  0
VERTEX
  8
LAYER_1
 62
    39
  6
CONTINUOUS
 10
5.870650
 20
10.906969
  0
VERTEX
  8
LAYER_1
 62
    39
  6
CONTINUOUS
 10
5.989380
 20
10.856750
  0
VERTEX
  8
LAYER_1
 62
    39
  6
CONTINUOUS
 10
6.074098
 20
10.734756
  0
VERTEX
  8
LAYER_1
 62
    39
  6
CONTINUOUS
 10
6.106421
 20
10.596370
  0
VERTEX
  8
LAYER_1
 62
    39
  6
CONTINUOUS
 10
6.106421
 20
9.949291
  0
VERTEX
  8
LAYER_1
 62
    39
  6
CONTINUOUS
 10
6.074089
 20
9.806229
  0
VERTEX
  8
LAYER_1
 62
    39
  6
CONTINUOUS
 10
5.989363
 20
9.675724
  0
VERTEX
  8
LAYER_1
 62
    39
  6
CONTINUOUS
 10
5.870650
 20
9.621441
  0
VERTEX
  8
LAYER_1
 62
    39
  6
CONTINUOUS
 10
3.434343
 20
9.716346
  0
VERTEX
  8
LAYER_1
 62
    39
  6
CONTINUOUS
 10
3.315629
 20
9.750511
  0
VERTEX
  8
LAYER_1
 62
    39
  6
CONTINUOUS
 10
3.230903
 20
9.833077
  0
VERTEX
  8
LAYER_1
 62
    39
  6
CONTINUOUS
 10
3.198571
 20
9.949291
  0
VERTEX
  8
LAYER_1
 62
    39
  6
CONTINUOUS
 10
3.198571
 20
10.596370
  0
VERTEX
  8
LAYER_1
 62
    39
  6
CONTINUOUS
 10
3.230895
 20
10.712791
  0
VERTEX
  8
LAYER_1
 62
    39
  6
CONTINUOUS
 10
3.315612
 20
10.795562
  0
SEQEND
  8
0
  0
POLYLINE
  8
LAYER_1
 62
    39
  6
CONTINUOUS
 66
     1
 40
0.006945
 41
0.006945
 70
     1
  0
VERTEX
  8
LAYER_1
 62
    39
  6
CONTINUOUS
 10
15.383898
 20
14.156236
  0
VERTEX
  8
LAYER_1
 62
    39
  6
CONTINUOUS
 10
15.486409
 20
14.097965
  0
VERTEX
  8
LAYER_1
 62
    39
  6
CONTINUOUS
 10
15.613083
 20
14.048693
  0
VERTEX
  8
LAYER_1
 62
    39
  6
CONTINUOUS
 10
15.762465
 20
13.992528
  0
VERTEX
  8
LAYER_1
 62
    39
  6
CONTINUOUS
 10
15.938110
 20
13.944713
  0
VERTEX
  8
LAYER_1
 62
    39
  6
CONTINUOUS
 10
16.128787
 20
13.893339
  0
VERTEX
  8
LAYER_1
 62
    39
  6
CONTINUOUS
 10
16.285055
 20
13.867898
  0
VERTEX
  8
LAYER_1
 62
    39
  6
CONTINUOUS
 10
16.497878
 20
13.836114
  0
VERTEX
  8
LAYER_1
 62
    39
  6
CONTINUOUS
 10
16.548331
 20
13.831122
  0
VERTEX
  8
LAYER_1
 62
    39
  6
CONTINUOUS
 10
16.560291
 20
13.948705
  0
VERTEX
  8
LAYER_1
 62
    39
  6
CONTINUOUS
 10
16.621106
 20
13.942520
  0
VERTEX
  8
LAYER_1
 62
    39
  6
CONTINUOUS
 10
16.609165
 20
13.825106
  0
VERTEX
  8
LAYER_1
 62
    39
  6
CONTINUOUS
 10
16.672846
 20
13.818807
  0
VERTEX
  8
LAYER_1
 62
    39
  6
CONTINUOUS
 10
16.881539
 20
13.798492
  0
VERTEX
  8
LAYER_1
 62
    39
  6
CONTINUOUS
 10
17.056287
 20
13.788524
  0
VERTEX
  8
LAYER_1
 62
    39
  6
CONTINUOUS
 10
17.253406
 20
13.783012
  0
VERTEX
  8
LAYER_1
 62
    39
  6
CONTINUOUS
 10
17.499602
 20
13.782744
  0
VERTEX
  8
LAYER_1
 62
    39
  6
CONTINUOUS
 10
17.522492
 20
13.782614
  0
VERTEX
  8
LAYER_1
 62
    39
  6
CONTINUOUS
 10
17.522492
 20
13.907732
  0
VERTEX
  8
LAYER_1
 62
    39
  6
CONTINUOUS
 10
17.715016
 20
13.907732
  0
VERTEX
  8
LAYER_1
 62
    39
  6
CONTINUOUS
 10
17.715016
 20
13.907594
  0
VERTEX
  8
LAYER_1
 62
    39
  6
CONTINUOUS
 10
17.771484
 20
13.907594
  0
VERTEX
  8
LAYER_1
 62
    39
  6
CONTINUOUS
 10
17.771484
 20
13.781213
  0
VERTEX
  8
LAYER_1
 62
    39
  6
CONTINUOUS
 10
17.821374
 20
13.780933
  0
VERTEX
  8
LAYER_1
 62
    39
  6
CONTINUOUS
 10
18.094067
 20
13.788795
  0
VERTEX
  8
LAYER_1
 62
    39
  6
CONTINUOUS
 10
18.423291
 20
13.798795
  0
VERTEX
  8
LAYER_1
 62
    39
  6
CONTINUOUS
 10
18.813063
 20
13.810362
  0
VERTEX
  8
LAYER_1
 62
    39
  6
CONTINUOUS
 10
19.236791
 20
13.834299
  0
VERTEX
  8
LAYER_1
 62
    39
  6
CONTINUOUS
 10
19.603417
 20
13.859878
  0
VERTEX
  8
LAYER_1
 62
    39
  6
CONTINUOUS
 10
19.969921
 20
13.882575
  0
VERTEX
  8
LAYER_1
 62
    39
  6
CONTINUOUS
 10
20.400650
 20
13.917630
  0
VERTEX
  8
LAYER_1
 62
    39
  6
CONTINUOUS
 10
20.834929
 20
13.953701
  0
VERTEX
  8
LAYER_1
 62
    39
  6
CONTINUOUS
 10
21.242949
 20
13.996106
  0
VERTEX
  8
LAYER_1
 62
    39
  6
CONTINUOUS
 10
22.453618
 20
14.121705
  0
VERTEX
  8
LAYER_1
 62
    39
  6
CONTINUOUS
 10
22.453618
 20
14.443520
  0
VERTEX
  8
LAYER_1
 62
    39
  6
CONTINUOUS
 10
21.242972
 20
14.566933
  0
VERTEX
  8
LAYER_1
 62
    39
  6
CONTINUOUS
 10
20.834953
 20
14.609339
  0
VERTEX
  8
LAYER_1
 62
    39
  6
CONTINUOUS
 10
20.400677
 20
14.645409
  0
VERTEX
  8
LAYER_1
 62
    39
  6
CONTINUOUS
 10
19.969945
 20
14.680465
  0
VERTEX
  8
LAYER_1
 62
    39
  6
CONTINUOUS
 10
19.603441
 20
14.703157
  0
VERTEX
  8
LAYER_1
 62
    39
  6
CONTINUOUS
 10
19.236815
 20
14.728736
  0
VERTEX
  8
LAYER_1
 62
    39
  6
CONTINUOUS
 10
18.813087
 20
14.752677
  0
VERTEX
  8
LAYER_1
 62
    39
  6
CONTINUOUS
 10
18.423315
 20
14.764240
  0
VERTEX
  8
LAYER_1
 62
    39
  6
CONTINUOUS
 10
18.094091
 20
14.774240
  0
VERTEX
  8
LAYER_1
 62
    39
  6
CONTINUOUS
 10
17.821402
 20
14.782102
  0
VERTEX
  8
LAYER_1
 62
    39
  6
CONTINUOUS
 10
17.771484
 20
14.781823
  0
VERTEX
  8
LAYER_1
 62
    39
  6
CONTINUOUS
 10
17.771484
 20
14.651311
  0
VERTEX
  8
LAYER_1
 62
    39
  6
CONTINUOUS
 10
17.524614
 20
14.651311
  0
VERTEX
  8
LAYER_1
 62
    39
  6
CONTINUOUS
 10
17.524614
 20
14.653291
  0
VERTEX
  8
LAYER_1
 62
    39
  6
CONTINUOUS
 10
17.523618
 20
14.653291
  0
VERTEX
  8
LAYER_1
 62
    39
  6
CONTINUOUS
 10
17.523618
 20
14.780425
  0
VERTEX
  8
LAYER_1
 62
    39
  6
CONTINUOUS
 10
17.499626
 20
14.780291
  0
VERTEX
  8
LAYER_1
 62
    39
  6
CONTINUOUS
 10
17.253429
 20
14.780028
  0
VERTEX
  8
LAYER_1
 62
    39
  6
CONTINUOUS
 10
17.056311
 20
14.774512
  0
VERTEX
  8
LAYER_1
 62
    39
  6
CONTINUOUS
 10
16.881563
 20
14.764543
  0
VERTEX
  8
LAYER_1
 62
    39
  6
CONTINUOUS
 10
16.672870
 20
14.744228
  0
VERTEX
  8
LAYER_1
 62
    39
  6
CONTINUOUS
 10
16.605870
 20
14.737602
  0
VERTEX
  8
LAYER_1
 62
    39
  6
CONTINUOUS
 10
16.617835
 20
14.620008
  0
VERTEX
  8
LAYER_1
 62
    39
  6
CONTINUOUS
 10
16.557024
 20
14.613827
  0
VERTEX
  8
LAYER_1
 62
    39
  6
CONTINUOUS
 10
16.545043
 20
14.731583
  0
VERTEX
  8
LAYER_1
 62
    39
  6
CONTINUOUS
 10
16.497902
 20
14.726921
  0
VERTEX
  8
LAYER_1
 62
    39
  6
CONTINUOUS
 10
16.285079
 20
14.695138
  0
VERTEX
  8
LAYER_1
 62
    39
  6
CONTINUOUS
 10
16.128811
 20
14.669701
  0
VERTEX
  8
LAYER_1
 62
    39
  6
CONTINUOUS
 10
15.938134
 20
14.618323
  0
VERTEX
  8
LAYER_1
 62
    39
  6
CONTINUOUS
 10
15.762488
 20
14.570508
  0
VERTEX
  8
LAYER_1
 62
    39
  6
CONTINUOUS
 10
15.613106
 20
14.514343
  0
VERTEX
  8
LAYER_1
 62
    39
  6
CONTINUOUS
 10
15.486433
 20
14.465075
  0
VERTEX
  8
LAYER_1
 62
    39
  6
CONTINUOUS
 10
15.384650
 20
14.407217
  0
VERTEX
  8
LAYER_1
 62
    39
  6
CONTINUOUS
 10
15.509764
 20
14.282102
  0
SEQEND
  8
0
  0
TEXT
  8
LAYER_1
 62
    39
 10
17.074126
 20
14.150925
 40
0.306980
  1
W1
 41
1.000000
  7
SN0
 71
     0
 72
     5
 11
17.578165
 21
14.150925
  0
POLYLINE
  8
LAYER_1
 62
    39
  6
CONTINUOUS
 66
     1
 40
0.006945
 41
0.006945
 70
     1
  0
VERTEX
  8
LAYER_1
 62
    39
  6
CONTINUOUS
 10
15.383898
 20
12.903201
  0
VERTEX
  8
LAYER_1
 62
    39
  6
CONTINUOUS
 10
15.463835
 20
12.857756
  0
VERTEX
  8
LAYER_1
 62
    39
  6
CONTINUOUS
 10
15.579626
 20
12.812720
  0
VERTEX
  8
LAYER_1
 62
    39
  6
CONTINUOUS
 10
15.716169
 20
12.761382
  0
VERTEX
  8
LAYER_1
 62
    39
  6
CONTINUOUS
 10
15.876724
 20
12.717677
  0
VERTEX
  8
LAYER_1
 62
    39
  6
CONTINUOUS
 10
16.051020
 20
12.670713
  0
VERTEX
  8
LAYER_1
 62
    39
  6
CONTINUOUS
 10
16.193862
 20
12.647461
  0
VERTEX
  8
LAYER_1
 62
    39
  6
CONTINUOUS
 10
16.388398
 20
12.618409
  0
VERTEX
  8
LAYER_1
 62
    39
  6
CONTINUOUS
 10
16.432894
 20
12.614008
  0
VERTEX
  8
LAYER_1
 62
    39
  6
CONTINUOUS
 10
16.444772
 20
12.730787
  0
VERTEX
  8
LAYER_1
 62
    39
  6
CONTINUOUS
 10
16.505587
 20
12.724602
  0
VERTEX
  8
LAYER_1
 62
    39
  6
CONTINUOUS
 10
16.493724
 20
12.607988
  0
VERTEX
  8
LAYER_1
 62
    39
  6
CONTINUOUS
 10
16.548331
 20
12.602587
  0
VERTEX
  8
LAYER_1
 62
    39
  6
CONTINUOUS
 10
16.739094
 20
12.584016
  0
VERTEX
  8
LAYER_1
 62
    39
  6
CONTINUOUS
 10
16.898827
 20
12.574906
  0
VERTEX
  8
LAYER_1
 62
    39
  6
CONTINUOUS
 10
17.079008
 20
12.569866
  0
VERTEX
  8
LAYER_1
 62
    39
  6
CONTINUOUS
 10
17.304051
 20
12.569622
  0
VERTEX
  8
LAYER_1
 62
    39
  6
CONTINUOUS
 10
17.315291
 20
12.569559
  0
VERTEX
  8
LAYER_1
 62
    39
  6
CONTINUOUS
 10
17.315291
 20
12.696622
  0
VERTEX
  8
LAYER_1
 62
    39
  6
CONTINUOUS
 10
17.507815
 20
12.696622
  0
VERTEX
  8
LAYER_1
 62
    39
  6
CONTINUOUS
 10
17.507815
 20
12.696224
  0
VERTEX
  8
LAYER_1
 62
    39
  6
CONTINUOUS
 10
17.563768
 20
12.696224
  0
VERTEX
  8
LAYER_1
 62
    39
  6
CONTINUOUS
 10
17.563768
 20
12.568161
  0
VERTEX
  8
LAYER_1
 62
    39
  6
CONTINUOUS
 10
17.598177
 20
12.567969
  0
VERTEX
  8
LAYER_1
 62
    39
  6
CONTINUOUS
 10
17.847437
 20
12.575154
  0
VERTEX
  8
LAYER_1
 62
    39
  6
CONTINUOUS
 10
18.148374
 20
12.584295
  0
VERTEX
  8
LAYER_1
 62
    39
  6
CONTINUOUS
 10
18.504657
 20
12.594866
  0
VERTEX
  8
LAYER_1
 62
    39
  6
CONTINUOUS
 10
18.891976
 20
12.616748
  0
VERTEX
  8
LAYER_1
 62
    39
  6
CONTINUOUS
 10
19.227102
 20
12.640130
  0
VERTEX
  8
LAYER_1
 62
    39
  6
CONTINUOUS
 10
19.562114
 20
12.660874
  0
VERTEX
  8
LAYER_1
 62
    39
  6
CONTINUOUS
 10
19.955839
 20
12.692917
  0
VERTEX
  8
LAYER_1
 62
    39
  6
CONTINUOUS
 10
20.352803
 20
12.725890
  0
VERTEX
  8
LAYER_1
 62
    39
  6
CONTINUOUS
 10
20.725764
 20
12.764650
  0
VERTEX
  8
LAYER_1
 62
    39
  6
CONTINUOUS
 10
21.734307
 20
12.869362
  0
VERTEX
  8
LAYER_1
 62
    39
  6
CONTINUOUS
 10
21.732126
 20
13.179539
  0
VERTEX
  8
LAYER_1
 62
    39
  6
CONTINUOUS
 10
20.725783
 20
13.286429
  0
VERTEX
  8
LAYER_1
 62
    39
  6
CONTINUOUS
 10
20.352823
 20
13.325193
  0
VERTEX
  8
LAYER_1
 62
    39
  6
CONTINUOUS
 10
19.955858
 20
13.358165
  0
VERTEX
  8
LAYER_1
 62
    39
  6
CONTINUOUS
 10
19.562138
 20
13.390209
  0
VERTEX
  8
LAYER_1
 62
    39
  6
CONTINUOUS
 10
19.227122
 20
13.410953
  0
VERTEX
  8
LAYER_1
 62
    39
  6
CONTINUOUS
 10
18.892000
 20
13.434335
  0
VERTEX
  8
LAYER_1
 62
    39
  6
CONTINUOUS
 10
18.504681
 20
13.456217
  0
VERTEX
  8
LAYER_1
 62
    39
  6
CONTINUOUS
 10
18.148398
 20
13.466787
  0
VERTEX
  8
LAYER_1
 62
    39
  6
CONTINUOUS
 10
17.847461
 20
13.475929
  0
VERTEX
  8
LAYER_1
 62
    39
  6
CONTINUOUS
 10
17.598201
 20
13.483114
  0
VERTEX
  8
LAYER_1
 62
    39
  6
CONTINUOUS
 10
17.559398
 20
13.482898
  0
VERTEX
  8
LAYER_1
 62
    39
  6
CONTINUOUS
 10
17.559398
 20
13.356909
  0
VERTEX
  8
LAYER_1
 62
    39
  6
CONTINUOUS
 10
17.312528
 20
13.356909
  0
VERTEX
  8
LAYER_1
 62
    39
  6
CONTINUOUS
 10
17.312528
 20
13.356921
  0
VERTEX
  8
LAYER_1
 62
    39
  6
CONTINUOUS
 10
17.311957
 20
13.356921
  0
VERTEX
  8
LAYER_1
 62
    39
  6
CONTINUOUS
 10
17.311957
 20
13.481504
  0
VERTEX
  8
LAYER_1
 62
    39
  6
CONTINUOUS
 10
17.304075
 20
13.481461
  0
VERTEX
  8
LAYER_1
 62
    39
  6
CONTINUOUS
 10
17.079028
 20
13.481217
  0
VERTEX
  8
LAYER_1
 62
    39
  6
CONTINUOUS
 10
16.898850
 20
13.476177
  0
VERTEX
  8
LAYER_1
 62
    39
  6
CONTINUOUS
 10
16.739114
 20
13.467067
  0
VERTEX
  8
LAYER_1
 62
    39
  6
CONTINUOUS
 10
16.548350
 20
13.448496
  0
VERTEX
  8
LAYER_1
 62
    39
  6
CONTINUOUS
 10
16.492571
 20
13.442976
  0
VERTEX
  8
LAYER_1
 62
    39
  6
CONTINUOUS
 10
16.504496
 20
13.325752
  0
VERTEX
  8
LAYER_1
 62
    39
  6
CONTINUOUS
 10
16.443685
 20
13.319571
  0
VERTEX
  8
LAYER_1
 62
    39
  6
CONTINUOUS
 10
16.431744
 20
13.436961
  0
VERTEX
  8
LAYER_1
 62
    39
  6
CONTINUOUS
 10
16.388417
 20
13.432673
  0
VERTEX
  8
LAYER_1
 62
    39
  6
CONTINUOUS
 10
16.193882
 20
13.403622
  0
VERTEX
  8
LAYER_1
 62
    39
  6
CONTINUOUS
 10
16.051039
 20
13.380370
  0
VERTEX
  8
LAYER_1
 62
    39
  6
CONTINUOUS
 10
15.876744
 20
13.333406
  0
VERTEX
  8
LAYER_1
 62
    39
  6
CONTINUOUS
 10
15.716193
 20
13.289701
  0
VERTEX
  8
LAYER_1
 62
    39
  6
CONTINUOUS
 10
15.579646
 20
13.238362
  0
VERTEX
  8
LAYER_1
 62
    39
  6
CONTINUOUS
 10
15.463854
 20
13.193327
  0
VERTEX
  8
LAYER_1
 62
    39
  6
CONTINUOUS
 10
15.384327
 20
13.148118
  0
VERTEX
  8
LAYER_1
 62
    39
  6
CONTINUOUS
 10
15.506571
 20
13.025874
  0
SEQEND
  8
0
  0
TEXT
  8
LAYER_1
 62
    39
 10
16.736870
 20
12.939169
 40
0.306980
  1
W2
 41
1.000000
  7
SN0
 71
     0
 72
     5
 11
17.240909
 21
12.939169
  0
POLYLINE
  8
LAYER_1
 62
    39
  6
CONTINUOUS
 66
     1
 40
0.006945
 41
0.006945
 70
     1
  0
VERTEX
  8
LAYER_1
 62
    39
  6
CONTINUOUS
 10
15.385205
 20
11.732803
  0
VERTEX
  8
LAYER_1
 62
    39
  6
CONTINUOUS
 10
15.439937
 20
11.701693
  0
VERTEX
  8
LAYER_1
 62
    39
  6
CONTINUOUS
 10
15.545193
 20
11.660756
  0
VERTEX
  8
LAYER_1
 62
    39
  6
CONTINUOUS
 10
15.669315
 20
11.614083
  0
VERTEX
  8
LAYER_1
 62
    39
  6
CONTINUOUS
 10
15.815260
 20
11.574354
  0
VERTEX
  8
LAYER_1
 62
    39
  6
CONTINUOUS
 10
15.973697
 20
11.531665
  0
VERTEX
  8
LAYER_1
 62
    39
  6
CONTINUOUS
 10
16.103543
 20
11.510528
  0
VERTEX
  8
LAYER_1
 62
    39
  6
CONTINUOUS
 10
16.280378
 20
11.484118
  0
VERTEX
  8
LAYER_1
 62
    39
  6
CONTINUOUS
 10
16.326827
 20
11.479524
  0
VERTEX
  8
LAYER_1
 62
    39
  6
CONTINUOUS
 10
16.338862
 20
11.597858
  0
VERTEX
  8
LAYER_1
 62
    39
  6
CONTINUOUS
 10
16.399677
 20
11.591673
  0
VERTEX
  8
LAYER_1
 62
    39
  6
CONTINUOUS
 10
16.387657
 20
11.473508
  0
VERTEX
  8
LAYER_1
 62
    39
  6
CONTINUOUS
 10
16.425760
 20
11.469740
  0
VERTEX
  8
LAYER_1
 62
    39
  6
CONTINUOUS
 10
16.599165
 20
11.452858
  0
VERTEX
  8
LAYER_1
 62
    39
  6
CONTINUOUS
 10
16.744366
 20
11.444575
  0
VERTEX
  8
LAYER_1
 62
    39
  6
CONTINUOUS
 10
16.908150
 20
11.439996
  0
VERTEX
  8
LAYER_1
 62
    39
  6
CONTINUOUS
 10
17.112720
 20
11.439772
  0
VERTEX
  8
LAYER_1
 62
    39
  6
CONTINUOUS
 10
17.129878
 20
11.439673
  0
VERTEX
  8
LAYER_1
 62
    39
  6
CONTINUOUS
 10
17.129878
 20
11.567039
  0
VERTEX
  8
LAYER_1
 62
    39
  6
CONTINUOUS
 10
17.322402
 20
11.567039
  0
VERTEX
  8
LAYER_1
 62
    39
  6
CONTINUOUS
 10
17.322402
 20
11.566390
  0
VERTEX
  8
LAYER_1
 62
    39
  6
CONTINUOUS
 10
17.377177
 20
11.566390
  0
VERTEX
  8
LAYER_1
 62
    39
  6
CONTINUOUS
 10
17.377177
 20
11.438283
  0
VERTEX
  8
LAYER_1
 62
    39
  6
CONTINUOUS
 10
17.380087
 20
11.438268
  0
VERTEX
  8
LAYER_1
 62
    39
  6
CONTINUOUS
 10
17.606665
 20
11.444803
  0
VERTEX
  8
LAYER_1
 62
    39
  6
CONTINUOUS
 10
17.880220
 20
11.453110
  0
VERTEX
  8
LAYER_1
 62
    39
  6
CONTINUOUS
 10
18.204087
 20
11.462720
  0
VERTEX
  8
LAYER_1
 62
    39
  6
CONTINUOUS
 10
18.556165
 20
11.482610
  0
VERTEX
  8
LAYER_1
 62
    39
  6
CONTINUOUS
 10
18.860799
 20
11.503866
  0
VERTEX
  8
LAYER_1
 62
    39
  6
CONTINUOUS
 10
19.165331
 20
11.522720
  0
VERTEX
  8
LAYER_1
 62
    39
  6
CONTINUOUS
 10
19.523228
 20
11.551850
  0
VERTEX
  8
LAYER_1
 62
    39
  6
CONTINUOUS
 10
19.884075
 20
11.581823
  0
VERTEX
  8
LAYER_1
 62
    39
  6
CONTINUOUS
 10
20.223102
 20
11.617059
  0
VERTEX
  8
LAYER_1
 62
    39
  6
CONTINUOUS
 10
21.012815
 20
11.703370
  0
VERTEX
  8
LAYER_1
 62
    39
  6
CONTINUOUS
 10
21.012815
 20
12.007236
  0
VERTEX
  8
LAYER_1
 62
    39
  6
CONTINUOUS
 10
20.223122
 20
12.091362
  0
VERTEX
  8
LAYER_1
 62
    39
  6
CONTINUOUS
 10
19.884094
 20
12.126598
  0
VERTEX
  8
LAYER_1
 62
    39
  6
CONTINUOUS
 10
19.523248
 20
12.156567
  0
VERTEX
  8
LAYER_1
 62
    39
  6
CONTINUOUS
 10
19.165350
 20
12.185697
  0
VERTEX
  8
LAYER_1
 62
    39
  6
CONTINUOUS
 10
18.860819
 20
12.204555
  0
VERTEX
  8
LAYER_1
 62
    39
  6
CONTINUOUS
 10
18.556185
 20
12.225807
  0
VERTEX
  8
LAYER_1
 62
    39
  6
CONTINUOUS
 10
18.204106
 20
12.245697
  0
VERTEX
  8
LAYER_1
 62
    39
  6
CONTINUOUS
 10
17.880240
 20
12.255307
  0
VERTEX
  8
LAYER_1
 62
    39
  6
CONTINUOUS
 10
17.606685
 20
12.263618
  0
VERTEX
  8
LAYER_1
 62
    39
  6
CONTINUOUS
 10
17.380106
 20
12.270150
  0
VERTEX
  8
LAYER_1
 62
    39
  6
CONTINUOUS
 10
17.372807
 20
12.270110
  0
VERTEX
  8
LAYER_1
 62
    39
  6
CONTINUOUS
 10
17.372807
 20
12.144043
  0
VERTEX
  8
LAYER_1
 62
    39
  6
CONTINUOUS
 10
17.125937
 20
12.144043
  0
VERTEX
  8
LAYER_1
 62
    39
  6
CONTINUOUS
 10
17.125937
 20
12.268720
  0
VERTEX
  8
LAYER_1
 62
    39
  6
CONTINUOUS
 10
17.112740
 20
12.268646
  0
VERTEX
  8
LAYER_1
 62
    39
  6
CONTINUOUS
 10
16.908173
 20
12.268425
  0
VERTEX
  8
LAYER_1
 62
    39
  6
CONTINUOUS
 10
16.744386
 20
12.263843
  0
VERTEX
  8
LAYER_1
 62
    39
  6
CONTINUOUS
 10
16.599185
 20
12.255563
  0
VERTEX
  8
LAYER_1
 62
    39
  6
CONTINUOUS
 10
16.425780
 20
12.238681
  0
VERTEX
  8
LAYER_1
 62
    39
  6
CONTINUOUS
 10
16.386768
 20
12.234823
  0
VERTEX
  8
LAYER_1
 62
    39
  6
CONTINUOUS
 10
16.398587
 20
12.118665
  0
VERTEX
  8
LAYER_1
 62
    39
  6
CONTINUOUS
 10
16.337776
 20
12.112484
  0
VERTEX
  8
LAYER_1
 62
    39
  6
CONTINUOUS
 10
16.325941
 20
12.228803
  0
VERTEX
  8
LAYER_1
 62
    39
  6
CONTINUOUS
 10
16.280398
 20
12.224299
  0
VERTEX
  8
LAYER_1
 62
    39
  6
CONTINUOUS
 10
16.103563
 20
12.197890
  0
VERTEX
  8
LAYER_1
 62
    39
  6
CONTINUOUS
 10
15.973717
 20
12.176752
  0
VERTEX
  8
LAYER_1
 62
    39
  6
CONTINUOUS
 10
15.815280
 20
12.134063
  0
VERTEX
  8
LAYER_1
 62
    39
  6
CONTINUOUS
 10
15.669335
 20
12.094335
  0
VERTEX
  8
LAYER_1
 62
    39
  6
CONTINUOUS
 10
15.545213
 20
12.047665
  0
VERTEX
  8
LAYER_1
 62
    39
  6
CONTINUOUS
 10
15.439957
 20
12.006728
  0
VERTEX
  8
LAYER_1
 62
    39
  6
CONTINUOUS
 10
15.383898
 20
11.974858
  0
VERTEX
  8
LAYER_1
 62
    39
  6
CONTINUOUS
 10
15.505579
 20
11.853177
  0
SEQEND
  8
0
  0
TEXT
  8
LAYER_1
 62
    39
 10
16.669106
 20
11.745142
 40
0.306980
  1
W3
 41
1.000000
  7
SN0
 71
     0
 72
     5
 11
17.173145
 21
11.745142
  0
POLYLINE
  8
LAYER_1
 62
    39
  6
CONTINUOUS
 66
     1
 40
0.006945
 41
0.006945
 70
     1
  0
VERTEX
  8
LAYER_1
 62
    39
  6
CONTINUOUS
 10
15.385268
 20
10.648787
  0
VERTEX
  8
LAYER_1
 62
    39
  6
CONTINUOUS
 10
15.416500
 20
10.631035
  0
VERTEX
  8
LAYER_1
 62
    39
  6
CONTINUOUS
 10
15.510969
 20
10.594291
  0
VERTEX
  8
LAYER_1
 62
    39
  6
CONTINUOUS
 10
15.622374
 20
10.552406
  0
VERTEX
  8
LAYER_1
 62
    39
  6
CONTINUOUS
 10
15.753366
 20
10.516748
  0
VERTEX
  8
LAYER_1
 62
    39
  6
CONTINUOUS
 10
15.895567
 20
10.478429
  0
VERTEX
  8
LAYER_1
 62
    39
  6
CONTINUOUS
 10
16.012106
 20
10.459461
  0
VERTEX
  8
LAYER_1
 62
    39
  6
CONTINUOUS
 10
16.170823
 20
10.435756
  0
VERTEX
  8
LAYER_1
 62
    39
  6
CONTINUOUS
 10
16.207720
 20
10.432106
  0
VERTEX
  8
LAYER_1
 62
    39
  6
CONTINUOUS
 10
16.219795
 20
10.550823
  0
VERTEX
  8
LAYER_1
 62
    39
  6
CONTINUOUS
 10
16.280610
 20
10.544638
  0
VERTEX
  8
LAYER_1
 62
    39
  6
CONTINUOUS
 10
16.268555
 20
10.426091
  0
VERTEX
  8
LAYER_1
 62
    39
  6
CONTINUOUS
 10
16.301307
 20
10.422850
  0
VERTEX
  8
LAYER_1
 62
    39
  6
CONTINUOUS
 10
16.456945
 20
10.407697
  0
VERTEX
  8
LAYER_1
 62
    39
  6
CONTINUOUS
 10
16.587268
 20
10.400264
  0
VERTEX
  8
LAYER_1
 62
    39
  6
CONTINUOUS
 10
16.734268
 20
10.396154
  0
VERTEX
  8
LAYER_1
 62
    39
  6
CONTINUOUS
 10
16.917878
 20
10.395953
  0
VERTEX
  8
LAYER_1
 62
    39
  6
CONTINUOUS
 10
16.938681
 20
10.395835
  0
VERTEX
  8
LAYER_1
 62
    39
  6
CONTINUOUS
 10
16.938681
 20
10.520827
  0
VERTEX
  8
LAYER_1
 62
    39
  6
CONTINUOUS
 10
16.938846
 20
10.520827
  0
VERTEX
  8
LAYER_1
 62
    39
  6
CONTINUOUS
 10
16.938846
 20
10.521496
  0
VERTEX
  8
LAYER_1
 62
    39
  6
CONTINUOUS
 10
17.131370
 20
10.521496
  0
VERTEX
  8
LAYER_1
 62
    39
  6
CONTINUOUS
 10
17.131370
 20
10.520827
  0
VERTEX
  8
LAYER_1
 62
    39
  6
CONTINUOUS
 10
17.185551
 20
10.520827
  0
VERTEX
  8
LAYER_1
 62
    39
  6
CONTINUOUS
 10
17.185551
 20
10.395406
  0
VERTEX
  8
LAYER_1
 62
    39
  6
CONTINUOUS
 10
17.361209
 20
10.400469
  0
VERTEX
  8
LAYER_1
 62
    39
  6
CONTINUOUS
 10
17.606736
 20
10.407925
  0
VERTEX
  8
LAYER_1
 62
    39
  6
CONTINUOUS
 10
17.897413
 20
10.416551
  0
VERTEX
  8
LAYER_1
 62
    39
  6
CONTINUOUS
 10
18.213417
 20
10.434402
  0
VERTEX
  8
LAYER_1
 62
    39
  6
CONTINUOUS
 10
18.486835
 20
10.453480
  0
VERTEX
  8
LAYER_1
 62
    39
  6
CONTINUOUS
 10
18.760161
 20
10.470406
  0
VERTEX
  8
LAYER_1
 62
    39
  6
CONTINUOUS
 10
19.081386
 20
10.496547
  0
VERTEX
  8
LAYER_1
 62
    39
  6
CONTINUOUS
 10
19.405260
 20
10.523449
  0
VERTEX
  8
LAYER_1
 62
    39
  6
CONTINUOUS
 10
19.709547
 20
10.555071
  0
VERTEX
  8
LAYER_1
 62
    39
  6
CONTINUOUS
 10
20.314071
 20
10.616079
  0
VERTEX
  8
LAYER_1
 62
    39
  6
CONTINUOUS
 10
20.314071
 20
10.915409
  0
VERTEX
  8
LAYER_1
 62
    39
  6
CONTINUOUS
 10
19.709563
 20
10.980776
  0
VERTEX
  8
LAYER_1
 62
    39
  6
CONTINUOUS
 10
19.405276
 20
11.012402
  0
VERTEX
  8
LAYER_1
 62
    39
  6
CONTINUOUS
 10
19.081406
 20
11.039303
  0
VERTEX
  8
LAYER_1
 62
    39
  6
CONTINUOUS
 10
18.760181
 20
11.065445
  0
VERTEX
  8
LAYER_1
 62
    39
  6
CONTINUOUS
 10
18.486850
 20
11.082370
  0
VERTEX
  8
LAYER_1
 62
    39
  6
CONTINUOUS
 10
18.213433
 20
11.101445
  0
VERTEX
  8
LAYER_1
 62
    39
  6
CONTINUOUS
 10
17.897433
 20
11.119299
  0
VERTEX
  8
LAYER_1
 62
    39
  6
CONTINUOUS
 10
17.606752
 20
11.127925
  0
VERTEX
  8
LAYER_1
 62
    39
  6
CONTINUOUS
 10
17.361224
 20
11.135382
  0
VERTEX
  8
LAYER_1
 62
    39
  6
CONTINUOUS
 10
17.185551
 20
11.140445
  0
VERTEX
  8
LAYER_1
 62
    39
  6
CONTINUOUS
 10
17.185551
 20
11.015449
  0
VERTEX
  8
LAYER_1
 62
    39
  6
CONTINUOUS
 10
16.938681
 20
11.015449
  0
VERTEX
  8
LAYER_1
 62
    39
  6
CONTINUOUS
 10
16.938681
 20
11.015850
  0
VERTEX
  8
LAYER_1
 62
    39
  6
CONTINUOUS
 10
16.937744
 20
11.015850
  0
VERTEX
  8
LAYER_1
 62
    39
  6
CONTINUOUS
 10
16.937744
 20
11.140004
  0
VERTEX
  8
LAYER_1
 62
    39
  6
CONTINUOUS
 10
16.917894
 20
11.139894
  0
VERTEX
  8
LAYER_1
 62
    39
  6
CONTINUOUS
 10
16.734287
 20
11.139697
  0
VERTEX
  8
LAYER_1
 62
    39
  6
CONTINUOUS
 10
16.587283
 20
11.135583
  0
VERTEX
  8
LAYER_1
 62
    39
  6
CONTINUOUS
 10
16.456965
 20
11.128150
  0
VERTEX
  8
LAYER_1
 62
    39
  6
CONTINUOUS
 10
16.301327
 20
11.113000
  0
VERTEX
  8
LAYER_1
 62
    39
  6
CONTINUOUS
 10
16.264433
 20
11.109350
  0
VERTEX
  8
LAYER_1
 62
    39
  6
CONTINUOUS
 10
16.276232
 20
10.993378
  0
VERTEX
  8
LAYER_1
 62
    39
  6
CONTINUOUS
 10
16.215421
 20
10.987197
  0
VERTEX
  8
LAYER_1
 62
    39
  6
CONTINUOUS
 10
16.203606
 20
11.103331
  0
VERTEX
  8
LAYER_1
 62
    39
  6
CONTINUOUS
 10
16.170839
 20
11.100091
  0
VERTEX
  8
LAYER_1
 62
    39
  6
CONTINUOUS
 10
16.012126
 20
11.076390
  0
VERTEX
  8
LAYER_1
 62
    39
  6
CONTINUOUS
 10
15.895583
 20
11.057417
  0
VERTEX
  8
LAYER_1
 62
    39
  6
CONTINUOUS
 10
15.753382
 20
11.019102
  0
VERTEX
  8
LAYER_1
 62
    39
  6
CONTINUOUS
 10
15.622390
 20
10.983445
  0
VERTEX
  8
LAYER_1
 62
    39
  6
CONTINUOUS
 10
15.510988
 20
10.941555
  0
VERTEX
  8
LAYER_1
 62
    39
  6
CONTINUOUS
 10
15.416516
 20
10.904815
  0
VERTEX
  8
LAYER_1
 62
    39
  6
CONTINUOUS
 10
15.383898
 20
10.886276
  0
VERTEX
  8
LAYER_1
 62
    39
  6
CONTINUOUS
 10
15.503327
 20
10.766846
  0
SEQEND
  8
0
  0
TEXT
  8
LAYER_1
 62
    39
 10
16.468402
 20
10.648370
 40
0.306980
  1
W4
 41
1.000000
  7
SN0
 71
     0
 72
     5
 11
16.972441
 21
10.648370
  0
POLYLINE
  8
LAYER_1
 62
    39
  6
CONTINUOUS
 66
     1
 40
0.006945
 41
0.006945
 70
     1
  0
VERTEX
  8
LAYER_1
 62
    39
  6
CONTINUOUS
 10
15.383898
 20
9.653740
  0
VERTEX
  8
LAYER_1
 62
    39
  6
CONTINUOUS
 10
15.395465
 20
9.647165
  0
VERTEX
  8
LAYER_1
 62
    39
  6
CONTINUOUS
 10
15.479071
 20
9.614646
  0
VERTEX
  8
LAYER_1
 62
    39
  6
CONTINUOUS
 10
15.577661
 20
9.577575
  0
VERTEX
  8
LAYER_1
 62
    39
  6
CONTINUOUS
 10
15.693591
 20
9.546020
  0
VERTEX
  8
LAYER_1
 62
    39
  6
CONTINUOUS
 10
15.819437
 20
9.512110
  0
VERTEX
  8
LAYER_1
 62
    39
  6
CONTINUOUS
 10
15.922575
 20
9.495319
  0
VERTEX
  8
LAYER_1
 62
    39
  6
CONTINUOUS
 10
16.063039
 20
9.474343
  0
VERTEX
  8
LAYER_1
 62
    39
  6
CONTINUOUS
 10
16.081512
 20
9.472516
  0
VERTEX
  8
LAYER_1
 62
    39
  6
CONTINUOUS
 10
16.093409
 20
9.589480
  0
VERTEX
  8
LAYER_1
 62
    39
  6
CONTINUOUS
 10
16.154224
 20
9.583295
  0
VERTEX
  8
LAYER_1
 62
    39
  6
CONTINUOUS
 10
16.142346
 20
9.466496
  0
VERTEX
  8
LAYER_1
 62
    39
  6
CONTINUOUS
 10
16.178520
 20
9.462917
  0
VERTEX
  8
LAYER_1
 62
    39
  6
CONTINUOUS
 10
16.316260
 20
9.449512
  0
VERTEX
  8
LAYER_1
 62
    39
  6
CONTINUOUS
 10
16.431594
 20
9.442933
  0
VERTEX
  8
LAYER_1
 62
    39
  6
CONTINUOUS
 10
16.561693
 20
9.439291
  0
VERTEX
  8
LAYER_1
 62
    39
  6
CONTINUOUS
 10
16.724185
 20
9.439118
  0
VERTEX
  8
LAYER_1
 62
    39
  6
CONTINUOUS
 10
16.739177
 20
9.439031
  0
VERTEX
  8
LAYER_1
 62
    39
  6
CONTINUOUS
 10
16.739177
 20
9.564591
  0
VERTEX
  8
LAYER_1
 62
    39
  6
CONTINUOUS
 10
16.986047
 20
9.564591
  0
VERTEX
  8
LAYER_1
 62
    39
  6
CONTINUOUS
 10
16.986047
 20
9.439346
  0
VERTEX
  8
LAYER_1
 62
    39
  6
CONTINUOUS
 10
17.116535
 20
9.443110
  0
VERTEX
  8
LAYER_1
 62
    39
  6
CONTINUOUS
 10
17.333827
 20
9.449713
  0
VERTEX
  8
LAYER_1
 62
    39
  6
CONTINUOUS
 10
17.591079
 20
9.457346
  0
VERTEX
  8
LAYER_1
 62
    39
  6
CONTINUOUS
 10
17.870740
 20
9.473146
  0
VERTEX
  8
LAYER_1
 62
    39
  6
CONTINUOUS
 10
18.112717
 20
9.490028
  0
VERTEX
  8
LAYER_1
 62
    39
  6
CONTINUOUS
 10
18.354614
 20
9.505004
  0
VERTEX
  8
LAYER_1
 62
    39
  6
CONTINUOUS
 10
18.638898
 20
9.528142
  0
VERTEX
  8
LAYER_1
 62
    39
  6
CONTINUOUS
 10
18.925524
 20
9.551949
  0
VERTEX
  8
LAYER_1
 62
    39
  6
CONTINUOUS
 10
19.194819
 20
9.579937
  0
VERTEX
  8
LAYER_1
 62
    39
  6
CONTINUOUS
 10
19.598248
 20
9.620165
  0
VERTEX
  8
LAYER_1
 62
    39
  6
CONTINUOUS
 10
19.600429
 20
9.914280
  0
VERTEX
  8
LAYER_1
 62
    39
  6
CONTINUOUS
 10
19.194835
 20
9.956685
  0
VERTEX
  8
LAYER_1
 62
    39
  6
CONTINUOUS
 10
18.925539
 20
9.984673
  0
VERTEX
  8
LAYER_1
 62
    39
  6
CONTINUOUS
 10
18.638913
 20
10.008480
  0
VERTEX
  8
LAYER_1
 62
    39
  6
CONTINUOUS
 10
18.354630
 20
10.031618
  0
VERTEX
  8
LAYER_1
 62
    39
  6
CONTINUOUS
 10
18.112732
 20
10.046598
  0
VERTEX
  8
LAYER_1
 62
    39
  6
CONTINUOUS
 10
17.870756
 20
10.063480
  0
VERTEX
  8
LAYER_1
 62
    39
  6
CONTINUOUS
 10
17.591094
 20
10.079280
  0
VERTEX
  8
LAYER_1
 62
    39
  6
CONTINUOUS
 10
17.333843
 20
10.086913
  0
VERTEX
  8
LAYER_1
 62
    39
  6
CONTINUOUS
 10
17.116551
 20
10.093512
  0
VERTEX
  8
LAYER_1
 62
    39
  6
CONTINUOUS
 10
16.986047
 20
10.097276
  0
VERTEX
  8
LAYER_1
 62
    39
  6
CONTINUOUS
 10
16.986047
 20
9.971811
  0
VERTEX
  8
LAYER_1
 62
    39
  6
CONTINUOUS
 10
16.739177
 20
9.971811
  0
VERTEX
  8
LAYER_1
 62
    39
  6
CONTINUOUS
 10
16.739177
 20
9.973673
  0
VERTEX
  8
LAYER_1
 62
    39
  6
CONTINUOUS
 10
16.738354
 20
9.973673
  0
VERTEX
  8
LAYER_1
 62
    39
  6
CONTINUOUS
 10
16.738354
 20
10.097587
  0
VERTEX
  8
LAYER_1
 62
    39
  6
CONTINUOUS
 10
16.724201
 20
10.097508
  0
VERTEX
  8
LAYER_1
 62
    39
  6
CONTINUOUS
 10
16.561709
 20
10.097331
  0
VERTEX
  8
LAYER_1
 62
    39
  6
CONTINUOUS
 10
16.431610
 20
10.093693
  0
VERTEX
  8
LAYER_1
 62
    39
  6
CONTINUOUS
 10
16.316276
 20
10.087114
  0
VERTEX
  8
LAYER_1
 62
    39
  6
CONTINUOUS
 10
16.178535
 20
10.073705
  0
VERTEX
  8
LAYER_1
 62
    39
  6
CONTINUOUS
 10
16.142555
 20
10.070146
  0
VERTEX
  8
LAYER_1
 62
    39
  6
CONTINUOUS
 10
16.154224
 20
9.955429
  0
VERTEX
  8
LAYER_1
 62
    39
  6
CONTINUOUS
 10
16.093413
 20
9.949248
  0
VERTEX
  8
LAYER_1
 62
    39
  6
CONTINUOUS
 10
16.081724
 20
10.064126
  0
VERTEX
  8
LAYER_1
 62
    39
  6
CONTINUOUS
 10
16.063055
 20
10.062280
  0
VERTEX
  8
LAYER_1
 62
    39
  6
CONTINUOUS
 10
15.922591
 20
10.041303
  0
VERTEX
  8
LAYER_1
 62
    39
  6
CONTINUOUS
 10
15.819453
 20
10.024516
  0
VERTEX
  8
LAYER_1
 62
    39
  6
CONTINUOUS
 10
15.693606
 20
9.990606
  0
VERTEX
  8
LAYER_1
 62
    39
  6
CONTINUOUS
 10
15.577677
 20
9.959047
  0
VERTEX
  8
LAYER_1
 62
    39
  6
CONTINUOUS
 10
15.479087
 20
9.921976
  0
VERTEX
  8
LAYER_1
 62
    39
  6
CONTINUOUS
 10
15.395480
 20
9.889461
  0
VERTEX
  8
LAYER_1
 62
    39
  6
CONTINUOUS
 10
15.384909
 20
9.883453
  0
VERTEX
  8
LAYER_1
 62
    39
  6
CONTINUOUS
 10
15.499260
 20
9.769102
  0
SEQEND
  8
0
  0
TEXT
  8
LAYER_1
 62
    39
 10
16.293717
 20
9.649382
 40
0.306980
  1
W5
 41
1.000000
  7
SN0
 71
     0
 72
     5
 11
16.797756
 21
9.649382
  0
POLYLINE
  8
LAYER_1
 62
    39
  6
CONTINUOUS
 66
     1
 40
0.006945
 41
0.006945
 70
     1
  0
VERTEX
  8
LAYER_1
 62
    39
  6
CONTINUOUS
 10
15.383898
 20
8.742713
  0
VERTEX
  8
LAYER_1
 62
    39
  6
CONTINUOUS
 10
15.442445
 20
8.719945
  0
VERTEX
  8
LAYER_1
 62
    39
  6
CONTINUOUS
 10
15.528453
 20
8.687606
  0
VERTEX
  8
LAYER_1
 62
    39
  6
CONTINUOUS
 10
15.629583
 20
8.660075
  0
VERTEX
  8
LAYER_1
 62
    39
  6
CONTINUOUS
 10
15.739366
 20
8.630496
  0
VERTEX
  8
LAYER_1
 62
    39
  6
CONTINUOUS
 10
15.829343
 20
8.615846
  0
VERTEX
  8
LAYER_1
 62
    39
  6
CONTINUOUS
 10
15.951874
 20
8.597547
  0
VERTEX
  8
LAYER_1
 62
    39
  6
CONTINUOUS
 10
15.968354
 20
8.595917
  0
VERTEX
  8
LAYER_1
 62
    39
  6
CONTINUOUS
 10
15.980232
 20
8.712713
  0
VERTEX
  8
LAYER_1
 62
    39
  6
CONTINUOUS
 10
16.041047
 20
8.706528
  0
VERTEX
  8
LAYER_1
 62
    39
  6
CONTINUOUS
 10
16.029185
 20
8.589902
  0
VERTEX
  8
LAYER_1
 62
    39
  6
CONTINUOUS
 10
16.052614
 20
8.587583
  0
VERTEX
  8
LAYER_1
 62
    39
  6
CONTINUOUS
 10
16.172776
 20
8.575886
  0
VERTEX
  8
LAYER_1
 62
    39
  6
CONTINUOUS
 10
16.273386
 20
8.570146
  0
VERTEX
  8
LAYER_1
 62
    39
  6
CONTINUOUS
 10
16.386878
 20
8.566972
  0
VERTEX
  8
LAYER_1
 62
    39
  6
CONTINUOUS
 10
16.528630
 20
8.566819
  0
VERTEX
  8
LAYER_1
 62
    39
  6
CONTINUOUS
 10
16.536106
 20
8.566776
  0
VERTEX
  8
LAYER_1
 62
    39
  6
CONTINUOUS
 10
16.536106
 20
8.692358
  0
VERTEX
  8
LAYER_1
 62
    39
  6
CONTINUOUS
 10
16.728630
 20
8.692358
  0
VERTEX
  8
LAYER_1
 62
    39
  6
CONTINUOUS
 10
16.728630
 20
8.692118
  0
VERTEX
  8
LAYER_1
 62
    39
  6
CONTINUOUS
 10
16.783567
 20
8.692118
  0
VERTEX
  8
LAYER_1
 62
    39
  6
CONTINUOUS
 10
16.783567
 20
8.567787
  0
VERTEX
  8
LAYER_1
 62
    39
  6
CONTINUOUS
 10
16.870902
 20
8.570303
  0
VERTEX
  8
LAYER_1
 62
    39
  6
CONTINUOUS
 10
17.060457
 20
8.576063
  0
VERTEX
  8
LAYER_1
 62
    39
  6
CONTINUOUS
 10
17.284870
 20
8.582720
  0
VERTEX
  8
LAYER_1
 62
    39
  6
CONTINUOUS
 10
17.528839
 20
8.596504
  0
VERTEX
  8
LAYER_1
 62
    39
  6
CONTINUOUS
 10
17.739925
 20
8.611232
  0
VERTEX
  8
LAYER_1
 62
    39
  6
CONTINUOUS
 10
17.950945
 20
8.624299
  0
VERTEX
  8
LAYER_1
 62
    39
  6
CONTINUOUS
 10
18.198945
 20
8.644480
  0
VERTEX
  8
LAYER_1
 62
    39
  6
CONTINUOUS
 10
18.448984
 20
8.665248
  0
VERTEX
  8
LAYER_1
 62
    39
  6
CONTINUOUS
 10
18.683909
 20
8.689665
  0
VERTEX
  8
LAYER_1
 62
    39
  6
CONTINUOUS
 10
20.025260
 20
8.829791
  0
VERTEX
  8
LAYER_1
 62
    39
  6
CONTINUOUS
 10
20.025445
 20
8.855937
  0
VERTEX
  8
LAYER_1
 62
    39
  6
CONTINUOUS
 10
20.025276
 20
8.878201
  0
VERTEX
  8
LAYER_1
 62
    39
  6
CONTINUOUS
 10
18.683921
 20
9.018327
  0
VERTEX
  8
LAYER_1
 62
    39
  6
CONTINUOUS
 10
18.449000
 20
9.042740
  0
VERTEX
  8
LAYER_1
 62
    39
  6
CONTINUOUS
 10
18.198957
 20
9.063508
  0
VERTEX
  8
LAYER_1
 62
    39
  6
CONTINUOUS
 10
17.950961
 20
9.083693
  0
VERTEX
  8
LAYER_1
 62
    39
  6
CONTINUOUS
 10
17.739941
 20
9.096760
  0
VERTEX
  8
LAYER_1
 62
    39
  6
CONTINUOUS
 10
17.528850
 20
9.111488
  0
VERTEX
  8
LAYER_1
 62
    39
  6
CONTINUOUS
 10
17.284886
 20
9.125272
  0
VERTEX
  8
LAYER_1
 62
    39
  6
CONTINUOUS
 10
17.060469
 20
9.131929
  0
VERTEX
  8
LAYER_1
 62
    39
  6
CONTINUOUS
 10
16.870913
 20
9.137685
  0
VERTEX
  8
LAYER_1
 62
    39
  6
CONTINUOUS
 10
16.783567
 20
9.140205
  0
VERTEX
  8
LAYER_1
 62
    39
  6
CONTINUOUS
 10
16.783567
 20
9.016307
  0
VERTEX
  8
LAYER_1
 62
    39
  6
CONTINUOUS
 10
16.536697
 20
9.016307
  0
VERTEX
  8
LAYER_1
 62
    39
  6
CONTINUOUS
 10
16.536697
 20
9.141213
  0
VERTEX
  8
LAYER_1
 62
    39
  6
CONTINUOUS
 10
16.528646
 20
9.141169
  0
VERTEX
  8
LAYER_1
 62
    39
  6
CONTINUOUS
 10
16.386894
 20
9.141016
  0
VERTEX
  8
LAYER_1
 62
    39
  6
CONTINUOUS
 10
16.273402
 20
9.137843
  0
VERTEX
  8
LAYER_1
 62
    39
  6
CONTINUOUS
 10
16.172787
 20
9.132102
  0
VERTEX
  8
LAYER_1
 62
    39
  6
CONTINUOUS
 10
16.052630
 20
9.120406
  0
VERTEX
  8
LAYER_1
 62
    39
  6
CONTINUOUS
 10
16.028122
 20
9.117980
  0
VERTEX
  8
LAYER_1
 62
    39
  6
CONTINUOUS
 10
16.039976
 20
9.001449
  0
VERTEX
  8
LAYER_1
 62
    39
  6
CONTINUOUS
 10
15.979165
 20
8.995268
  0
VERTEX
  8
LAYER_1
 62
    39
  6
CONTINUOUS
 10
15.967291
 20
9.111965
  0
VERTEX
  8
LAYER_1
 62
    39
  6
CONTINUOUS
 10
15.951890
 20
9.110441
  0
VERTEX
  8
LAYER_1
 62
    39
  6
CONTINUOUS
 10
15.829354
 20
9.092142
  0
VERTEX
  8
LAYER_1
 62
    39
  6
CONTINUOUS
 10
15.739382
 20
9.077496
  0
VERTEX
  8
LAYER_1
 62
    39
  6
CONTINUOUS
 10
15.629594
 20
9.047913
  0
VERTEX
  8
LAYER_1
 62
    39
  6
CONTINUOUS
 10
15.528465
 20
9.020386
  0
VERTEX
  8
LAYER_1
 62
    39
  6
CONTINUOUS
 10
15.442457
 20
8.988047
  0
VERTEX
  8
LAYER_1
 62
    39
  6
CONTINUOUS
 10
15.385587
 20
8.965929
  0
VERTEX
  8
LAYER_1
 62
    39
  6
CONTINUOUS
 10
15.496350
 20
8.855165
  0
SEQEND
  8
0
  0
TEXT
  8
LAYER_1
 62
    39
 10
16.062181
 20
8.715551
 40
0.306980
  1
W6
 41
1.000000
  7
SN0
 71
     0
 72
     5
 11
16.566220
 21
8.715551
  0
POLYLINE
  8
LAYER_1
 62
    39
  6
CONTINUOUS
 66
     1
 40
0.006945
 41
0.006945
 70
     1
  0
VERTEX
  8
LAYER_1
 62
    39
  6
CONTINUOUS
 10
22.835154
 20
13.976937
  0
VERTEX
  8
LAYER_1
 62
    39
  6
CONTINUOUS
 10
22.937665
 20
13.918665
  0
VERTEX
  8
LAYER_1
 62
    39
  6
CONTINUOUS
 10
23.064339
 20
13.869394
  0
VERTEX
  8
LAYER_1
 62
    39
  6
CONTINUOUS
 10
23.213720
 20
13.813228
  0
VERTEX
  8
LAYER_1
 62
    39
  6
CONTINUOUS
 10
23.389366
 20
13.765413
  0
VERTEX
  8
LAYER_1
 62
    39
  6
CONTINUOUS
 10
23.580043
 20
13.714039
  0
VERTEX
  8
LAYER_1
 62
    39
  6
CONTINUOUS
 10
23.736311
 20
13.688598
  0
VERTEX
  8
LAYER_1
 62
    39
  6
CONTINUOUS
 10
23.949134
 20
13.656815
  0
VERTEX
  8
LAYER_1
 62
    39
  6
CONTINUOUS
 10
23.999587
 20
13.651823
  0
VERTEX
  8
LAYER_1
 62
    39
  6
CONTINUOUS
 10
24.011547
 20
13.769406
  0
VERTEX
  8
LAYER_1
 62
    39
  6
CONTINUOUS
 10
24.072362
 20
13.763220
  0
VERTEX
  8
LAYER_1
 62
    39
  6
CONTINUOUS
 10
24.060421
 20
13.645807
  0
VERTEX
  8
LAYER_1
 62
    39
  6
CONTINUOUS
 10
24.124102
 20
13.639508
  0
VERTEX
  8
LAYER_1
 62
    39
  6
CONTINUOUS
 10
24.332795
 20
13.619193
  0
VERTEX
  8
LAYER_1
 62
    39
  6
CONTINUOUS
 10
24.507543
 20
13.609224
  0
VERTEX
  8
LAYER_1
 62
    39
  6
CONTINUOUS
 10
24.704661
 20
13.603713
  0
VERTEX
  8
LAYER_1
 62
    39
  6
CONTINUOUS
 10
24.950858
 20
13.603445
  0
VERTEX
  8
LAYER_1
 62
    39
  6
CONTINUOUS
 10
24.973748
 20
13.603315
  0
VERTEX
  8
LAYER_1
 62
    39
  6
CONTINUOUS
 10
24.973748
 20
13.728433
  0
VERTEX
  8
LAYER_1
 62
    39
  6
CONTINUOUS
 10
25.166272
 20
13.728433
  0
VERTEX
  8
LAYER_1
 62
    39
  6
CONTINUOUS
 10
25.166272
 20
13.728295
  0
VERTEX
  8
LAYER_1
 62
    39
  6
CONTINUOUS
 10
25.222740
 20
13.728295
  0
VERTEX
  8
LAYER_1
 62
    39
  6
CONTINUOUS
 10
25.222740
 20
13.601913
  0
VERTEX
  8
LAYER_1
 62
    39
  6
CONTINUOUS
 10
25.272630
 20
13.601634
  0
VERTEX
  8
LAYER_1
 62
    39
  6
CONTINUOUS
 10
25.545323
 20
13.609496
  0
VERTEX
  8
LAYER_1
 62
    39
  6
CONTINUOUS
 10
25.874547
 20
13.619496
  0
VERTEX
  8
LAYER_1
 62
    39
  6
CONTINUOUS
 10
26.264319
 20
13.631063
  0
VERTEX
  8
LAYER_1
 62
    39
  6
CONTINUOUS
 10
26.688047
 20
13.655000
  0
VERTEX
  8
LAYER_1
 62
    39
  6
CONTINUOUS
 10
27.054673
 20
13.680579
  0
VERTEX
  8
LAYER_1
 62
    39
  6
CONTINUOUS
 10
27.421177
 20
13.703276
  0
VERTEX
  8
LAYER_1
 62
    39
  6
CONTINUOUS
 10
27.851906
 20
13.738331
  0
VERTEX
  8
LAYER_1
 62
    39
  6
CONTINUOUS
 10
28.286185
 20
13.774402
  0
VERTEX
  8
LAYER_1
 62
    39
  6
CONTINUOUS
 10
28.694205
 20
13.816807
  0
VERTEX
  8
LAYER_1
 62
    39
  6
CONTINUOUS
 10
29.904874
 20
13.942406
  0
VERTEX
  8
LAYER_1
 62
    39
  6
CONTINUOUS
 10
29.904874
 20
14.264220
  0
VERTEX
  8
LAYER_1
 62
    39
  6
CONTINUOUS
 10
28.694228
 20
14.387634
  0
VERTEX
  8
LAYER_1
 62
    39
  6
CONTINUOUS
 10
28.286209
 20
14.430039
  0
VERTEX
  8
LAYER_1
 62
    39
  6
CONTINUOUS
 10
27.851933
 20
14.466110
  0
VERTEX
  8
LAYER_1
 62
    39
  6
CONTINUOUS
 10
27.421201
 20
14.501165
  0
VERTEX
  8
LAYER_1
 62
    39
  6
CONTINUOUS
 10
27.054697
 20
14.523858
  0
VERTEX
  8
LAYER_1
 62
    39
  6
CONTINUOUS
 10
26.688071
 20
14.549437
  0
VERTEX
  8
LAYER_1
 62
    39
  6
CONTINUOUS
 10
26.264343
 20
14.573378
  0
VERTEX
  8
LAYER_1
 62
    39
  6
CONTINUOUS
 10
25.874571
 20
14.584941
  0
VERTEX
  8
LAYER_1
 62
    39
  6
CONTINUOUS
 10
25.545346
 20
14.594941
  0
VERTEX
  8
LAYER_1
 62
    39
  6
CONTINUOUS
 10
25.272657
 20
14.602803
  0
VERTEX
  8
LAYER_1
 62
    39
  6
CONTINUOUS
 10
25.222740
 20
14.602524
  0
VERTEX
  8
LAYER_1
 62
    39
  6
CONTINUOUS
 10
25.222740
 20
14.472012
  0
VERTEX
  8
LAYER_1
 62
    39
  6
CONTINUOUS
 10
24.975870
 20
14.472012
  0
VERTEX
  8
LAYER_1
 62
    39
  6
CONTINUOUS
 10
24.975870
 20
14.473992
  0
VERTEX
  8
LAYER_1
 62
    39
  6
CONTINUOUS
 10
24.974874
 20
14.473992
  0
VERTEX
  8
LAYER_1
 62
    39
  6
CONTINUOUS
 10
24.974874
 20
14.601126
  0
VERTEX
  8
LAYER_1
 62
    39
  6
CONTINUOUS
 10
24.950882
 20
14.600992
  0
VERTEX
  8
LAYER_1
 62
    39
  6
CONTINUOUS
 10
24.704685
 20
14.600728
  0
VERTEX
  8
LAYER_1
 62
    39
  6
CONTINUOUS
 10
24.507567
 20
14.595213
  0
VERTEX
  8
LAYER_1
 62
    39
  6
CONTINUOUS
 10
24.332819
 20
14.585244
  0
VERTEX
  8
LAYER_1
 62
    39
  6
CONTINUOUS
 10
24.124126
 20
14.564929
  0
VERTEX
  8
LAYER_1
 62
    39
  6
CONTINUOUS
 10
24.057126
 20
14.558303
  0
VERTEX
  8
LAYER_1
 62
    39
  6
CONTINUOUS
 10
24.069091
 20
14.440709
  0
VERTEX
  8
LAYER_1
 62
    39
  6
CONTINUOUS
 10
24.008280
 20
14.434528
  0
VERTEX
  8
LAYER_1
 62
    39
  6
CONTINUOUS
 10
23.996299
 20
14.552283
  0
VERTEX
  8
LAYER_1
 62
    39
  6
CONTINUOUS
 10
23.949157
 20
14.547622
  0
VERTEX
  8
LAYER_1
 62
    39
  6
CONTINUOUS
 10
23.736335
 20
14.515839
  0
VERTEX
  8
LAYER_1
 62
    39
  6
CONTINUOUS
 10
23.580067
 20
14.490402
  0
VERTEX
  8
LAYER_1
 62
    39
  6
CONTINUOUS
 10
23.389390
 20
14.439024
  0
VERTEX
  8
LAYER_1
 62
    39
  6
CONTINUOUS
 10
23.213744
 20
14.391209
  0
VERTEX
  8
LAYER_1
 62
    39
  6
CONTINUOUS
 10
23.064362
 20
14.335043
  0
VERTEX
  8
LAYER_1
 62
    39
  6
CONTINUOUS
 10
22.937689
 20
14.285776
  0
VERTEX
  8
LAYER_1
 62
    39
  6
CONTINUOUS
 10
22.835906
 20
14.227917
  0
VERTEX
  8
LAYER_1
 62
    39
  6
CONTINUOUS
 10
22.961020
 20
14.102803
  0
SEQEND
  8
0
  0
TEXT
  8
LAYER_1
 62
    39
 10
24.525382
 20
13.971626
 40
0.306980
  1
W1
 41
1.000000
  7
SN0
 71
     0
 72
     5
 11
25.029421
 21
13.971626
  0
POLYLINE
  8
LAYER_1
 62
    39
  6
CONTINUOUS
 66
     1
 40
0.006945
 41
0.006945
 70
     1
  0
VERTEX
  8
LAYER_1
 62
    39
  6
CONTINUOUS
 10
22.835154
 20
12.723902
  0
VERTEX
  8
LAYER_1
 62
    39
  6
CONTINUOUS
 10
22.915091
 20
12.678457
  0
VERTEX
  8
LAYER_1
 62
    39
  6
CONTINUOUS
 10
23.030882
 20
12.633421
  0
VERTEX
  8
LAYER_1
 62
    39
  6
CONTINUOUS
 10
23.167425
 20
12.582083
  0
VERTEX
  8
LAYER_1
 62
    39
  6
CONTINUOUS
 10
23.327980
 20
12.538378
  0
VERTEX
  8
LAYER_1
 62
    39
  6
CONTINUOUS
 10
23.502276
 20
12.491413
  0
VERTEX
  8
LAYER_1
 62
    39
  6
CONTINUOUS
 10
23.645118
 20
12.468161
  0
VERTEX
  8
LAYER_1
 62
    39
  6
CONTINUOUS
 10
23.839654
 20
12.439110
  0
VERTEX
  8
LAYER_1
 62
    39
  6
CONTINUOUS
 10
23.884150
 20
12.434709
  0
VERTEX
  8
LAYER_1
 62
    39
  6
CONTINUOUS
 10
23.896028
 20
12.551488
  0
VERTEX
  8
LAYER_1
 62
    39
  6
CONTINUOUS
 10
23.956843
 20
12.545303
  0
VERTEX
  8
LAYER_1
 62
    39
  6
CONTINUOUS
 10
23.944980
 20
12.428689
  0
VERTEX
  8
LAYER_1
 62
    39
  6
CONTINUOUS
 10
23.999587
 20
12.423287
  0
VERTEX
  8
LAYER_1
 62
    39
  6
CONTINUOUS
 10
24.190350
 20
12.404717
  0
VERTEX
  8
LAYER_1
 62
    39
  6
CONTINUOUS
 10
24.350083
 20
12.395606
  0
VERTEX
  8
LAYER_1
 62
    39
  6
CONTINUOUS
 10
24.530264
 20
12.390567
  0
VERTEX
  8
LAYER_1
 62
    39
  6
CONTINUOUS
 10
24.755307
 20
12.390323
  0
VERTEX
  8
LAYER_1
 62
    39
  6
CONTINUOUS
 10
24.766547
 20
12.390260
  0
VERTEX
  8
LAYER_1
 62
    39
  6
CONTINUOUS
 10
24.766547
 20
12.517323
  0
VERTEX
  8
LAYER_1
 62
    39
  6
CONTINUOUS
 10
24.959071
 20
12.517323
  0
VERTEX
  8
LAYER_1
 62
    39
  6
CONTINUOUS
 10
24.959071
 20
12.516925
  0
VERTEX
  8
LAYER_1
 62
    39
  6
CONTINUOUS
 10
25.015024
 20
12.516925
  0
VERTEX
  8
LAYER_1
 62
    39
  6
CONTINUOUS
 10
25.015024
 20
12.388862
  0
VERTEX
  8
LAYER_1
 62
    39
  6
CONTINUOUS
 10
25.049433
 20
12.388669
  0
VERTEX
  8
LAYER_1
 62
    39
  6
CONTINUOUS
 10
25.298693
 20
12.395854
  0
VERTEX
  8
LAYER_1
 62
    39
  6
CONTINUOUS
 10
25.599630
 20
12.404996
  0
VERTEX
  8
LAYER_1
 62
    39
  6
CONTINUOUS
 10
25.955913
 20
12.415567
  0
VERTEX
  8
LAYER_1
 62
    39
  6
CONTINUOUS
 10
26.343232
 20
12.437449
  0
VERTEX
  8
LAYER_1
 62
    39
  6
CONTINUOUS
 10
26.678358
 20
12.460831
  0
VERTEX
  8
LAYER_1
 62
    39
  6
CONTINUOUS
 10
27.013370
 20
12.481575
  0
VERTEX
  8
LAYER_1
 62
    39
  6
CONTINUOUS
 10
27.407094
 20
12.513618
  0
VERTEX
  8
LAYER_1
 62
    39
  6
CONTINUOUS
 10
27.804059
 20
12.546591
  0
VERTEX
  8
LAYER_1
 62
    39
  6
CONTINUOUS
 10
28.177020
 20
12.585350
  0
VERTEX
  8
LAYER_1
 62
    39
  6
CONTINUOUS
 10
29.185563
 20
12.690063
  0
VERTEX
  8
LAYER_1
 62
    39
  6
CONTINUOUS
 10
29.183382
 20
13.000240
  0
VERTEX
  8
LAYER_1
 62
    39
  6
CONTINUOUS
 10
28.177039
 20
13.107130
  0
VERTEX
  8
LAYER_1
 62
    39
  6
CONTINUOUS
 10
27.804079
 20
13.145894
  0
VERTEX
  8
LAYER_1
 62
    39
  6
CONTINUOUS
 10
27.407114
 20
13.178866
  0
VERTEX
  8
LAYER_1
 62
    39
  6
CONTINUOUS
 10
27.013394
 20
13.210909
  0
VERTEX
  8
LAYER_1
 62
    39
  6
CONTINUOUS
 10
26.678378
 20
13.231654
  0
VERTEX
  8
LAYER_1
 62
    39
  6
CONTINUOUS
 10
26.343256
 20
13.255035
  0
VERTEX
  8
LAYER_1
 62
    39
  6
CONTINUOUS
 10
25.955937
 20
13.276917
  0
VERTEX
  8
LAYER_1
 62
    39
  6
CONTINUOUS
 10
25.599654
 20
13.287488
  0
VERTEX
  8
LAYER_1
 62
    39
  6
CONTINUOUS
 10
25.298717
 20
13.296630
  0
VERTEX
  8
LAYER_1
 62
    39
  6
CONTINUOUS
 10
25.049457
 20
13.303815
  0
VERTEX
  8
LAYER_1
 62
    39
  6
CONTINUOUS
 10
25.010654
 20
13.303598
  0
VERTEX
  8
LAYER_1
 62
    39
  6
CONTINUOUS
 10
25.010654
 20
13.177610
  0
VERTEX
  8
LAYER_1
 62
    39
  6
CONTINUOUS
 10
24.763783
 20
13.177610
  0
VERTEX
  8
LAYER_1
 62
    39
  6
CONTINUOUS
 10
24.763783
 20
13.177622
  0
VERTEX
  8
LAYER_1
 62
    39
  6
CONTINUOUS
 10
24.763213
 20
13.177622
  0
VERTEX
  8
LAYER_1
 62
    39
  6
CONTINUOUS
 10
24.763213
 20
13.302205
  0
VERTEX
  8
LAYER_1
 62
    39
  6
CONTINUOUS
 10
24.755331
 20
13.302161
  0
VERTEX
  8
LAYER_1
 62
    39
  6
CONTINUOUS
 10
24.530283
 20
13.301917
  0
VERTEX
  8
LAYER_1
 62
    39
  6
CONTINUOUS
 10
24.350106
 20
13.296878
  0
VERTEX
  8
LAYER_1
 62
    39
  6
CONTINUOUS
 10
24.190370
 20
13.287768
  0
VERTEX
  8
LAYER_1
 62
    39
  6
CONTINUOUS
 10
23.999606
 20
13.269197
  0
VERTEX
  8
LAYER_1
 62
    39
  6
CONTINUOUS
 10
23.943827
 20
13.263677
  0
VERTEX
  8
LAYER_1
 62
    39
  6
CONTINUOUS
 10
23.955752
 20
13.146453
  0
VERTEX
  8
LAYER_1
 62
    39
  6
CONTINUOUS
 10
23.894941
 20
13.140272
  0
VERTEX
  8
LAYER_1
 62
    39
  6
CONTINUOUS
 10
23.883000
 20
13.257661
  0
VERTEX
  8
LAYER_1
 62
    39
  6
CONTINUOUS
 10
23.839673
 20
13.253374
  0
VERTEX
  8
LAYER_1
 62
    39
  6
CONTINUOUS
 10
23.645138
 20
13.224323
  0
VERTEX
  8
LAYER_1
 62
    39
  6
CONTINUOUS
 10
23.502295
 20
13.201071
  0
VERTEX
  8
LAYER_1
 62
    39
  6
CONTINUOUS
 10
23.328000
 20
13.154106
  0
VERTEX
  8
LAYER_1
 62
    39
  6
CONTINUOUS
 10
23.167449
 20
13.110402
  0
VERTEX
  8
LAYER_1
 62
    39
  6
CONTINUOUS
 10
23.030902
 20
13.059063
  0
VERTEX
  8
LAYER_1
 62
    39
  6
CONTINUOUS
 10
22.915110
 20
13.014028
  0
VERTEX
  8
LAYER_1
 62
    39
  6
CONTINUOUS
 10
22.835583
 20
12.968819
  0
VERTEX
  8
LAYER_1
 62
    39
  6
CONTINUOUS
 10
22.957827
 20
12.846575
  0
SEQEND
  8
0
  0
TEXT
  8
LAYER_1
 62
    39
 10
24.188126
 20
12.759870
 40
0.306980
  1
W2
 41
1.000000
  7
SN0
 71
     0
 72
     5
 11
24.692165
 21
12.759870
  0
POLYLINE
  8
LAYER_1
 62
    39
  6
CONTINUOUS
 66
     1
 40
0.006945
 41
0.006945
 70
     1
  0
VERTEX
  8
LAYER_1
 62
    39
  6
CONTINUOUS
 10
22.836461
 20
11.553504
  0
VERTEX
  8
LAYER_1
 62
    39
  6
CONTINUOUS
 10
22.891193
 20
11.522394
  0
VERTEX
  8
LAYER_1
 62
    39
  6
CONTINUOUS
 10
22.996449
 20
11.481457
  0
VERTEX
  8
LAYER_1
 62
    39
  6
CONTINUOUS
 10
23.120571
 20
11.434783
  0
VERTEX
  8
LAYER_1
 62
    39
  6
CONTINUOUS
 10
23.266516
 20
11.395055
  0
VERTEX
  8
LAYER_1
 62
    39
  6
CONTINUOUS
 10
23.424953
 20
11.352366
  0
VERTEX
  8
LAYER_1
 62
    39
  6
CONTINUOUS
 10
23.554799
 20
11.331228
  0
VERTEX
  8
LAYER_1
 62
    39
  6
CONTINUOUS
 10
23.731634
 20
11.304819
  0
VERTEX
  8
LAYER_1
 62
    39
  6
CONTINUOUS
 10
23.778083
 20
11.300224
  0
VERTEX
  8
LAYER_1
 62
    39
  6
CONTINUOUS
 10
23.790118
 20
11.418559
  0
VERTEX
  8
LAYER_1
 62
    39
  6
CONTINUOUS
 10
23.850933
 20
11.412374
  0
VERTEX
  8
LAYER_1
 62
    39
  6
CONTINUOUS
 10
23.838913
 20
11.294209
  0
VERTEX
  8
LAYER_1
 62
    39
  6
CONTINUOUS
 10
23.877016
 20
11.290441
  0
VERTEX
  8
LAYER_1
 62
    39
  6
CONTINUOUS
 10
24.050421
 20
11.273559
  0
VERTEX
  8
LAYER_1
 62
    39
  6
CONTINUOUS
 10
24.195622
 20
11.265276
  0
VERTEX
  8
LAYER_1
 62
    39
  6
CONTINUOUS
 10
24.359406
 20
11.260697
  0
VERTEX
  8
LAYER_1
 62
    39
  6
CONTINUOUS
 10
24.563976
 20
11.260472
  0
VERTEX
  8
LAYER_1
 62
    39
  6
CONTINUOUS
 10
24.581134
 20
11.260374
  0
VERTEX
  8
LAYER_1
 62
    39
  6
CONTINUOUS
 10
24.581134
 20
11.387740
  0
VERTEX
  8
LAYER_1
 62
    39
  6
CONTINUOUS
 10
24.773657
 20
11.387740
  0
VERTEX
  8
LAYER_1
 62
    39
  6
CONTINUOUS
 10
24.773657
 20
11.387091
  0
VERTEX
  8
LAYER_1
 62
    39
  6
CONTINUOUS
 10
24.828433
 20
11.387091
  0
VERTEX
  8
LAYER_1
 62
    39
  6
CONTINUOUS
 10
24.828433
 20
11.258984
  0
VERTEX
  8
LAYER_1
 62
    39
  6
CONTINUOUS
 10
24.831343
 20
11.258969
  0
VERTEX
  8
LAYER_1
 62
    39
  6
CONTINUOUS
 10
25.057921
 20
11.265504
  0
VERTEX
  8
LAYER_1
 62
    39
  6
CONTINUOUS
 10
25.331476
 20
11.273811
  0
VERTEX
  8
LAYER_1
 62
    39
  6
CONTINUOUS
 10
25.655343
 20
11.283421
  0
VERTEX
  8
LAYER_1
 62
    39
  6
CONTINUOUS
 10
26.007421
 20
11.303311
  0
VERTEX
  8
LAYER_1
 62
    39
  6
CONTINUOUS
 10
26.312055
 20
11.324567
  0
VERTEX
  8
LAYER_1
 62
    39
  6
CONTINUOUS
 10
26.616587
 20
11.343421
  0
VERTEX
  8
LAYER_1
 62
    39
  6
CONTINUOUS
 10
26.974484
 20
11.372551
  0
VERTEX
  8
LAYER_1
 62
    39
  6
CONTINUOUS
 10
27.335331
 20
11.402524
  0
VERTEX
  8
LAYER_1
 62
    39
  6
CONTINUOUS
 10
27.674358
 20
11.437760
  0
VERTEX
  8
LAYER_1
 62
    39
  6
CONTINUOUS
 10
28.464071
 20
11.524071
  0
VERTEX
  8
LAYER_1
 62
    39
  6
CONTINUOUS
 10
28.464071
 20
11.827937
  0
VERTEX
  8
LAYER_1
 62
    39
  6
CONTINUOUS
 10
27.674378
 20
11.912063
  0
VERTEX
  8
LAYER_1
 62
    39
  6
CONTINUOUS
 10
27.335350
 20
11.947299
  0
VERTEX
  8
LAYER_1
 62
    39
  6
CONTINUOUS
 10
26.974504
 20
11.977268
  0
VERTEX
  8
LAYER_1
 62
    39
  6
CONTINUOUS
 10
26.616606
 20
12.006398
  0
VERTEX
  8
LAYER_1
 62
    39
  6
CONTINUOUS
 10
26.312075
 20
12.025256
  0
VERTEX
  8
LAYER_1
 62
    39
  6
CONTINUOUS
 10
26.007441
 20
12.046508
  0
VERTEX
  8
LAYER_1
 62
    39
  6
CONTINUOUS
 10
25.655362
 20
12.066398
  0
VERTEX
  8
LAYER_1
 62
    39
  6
CONTINUOUS
 10
25.331496
 20
12.076008
  0
VERTEX
  8
LAYER_1
 62
    39
  6
CONTINUOUS
 10
25.057941
 20
12.084319
  0
VERTEX
  8
LAYER_1
 62
    39
  6
CONTINUOUS
 10
24.831362
 20
12.090850
  0
VERTEX
  8
LAYER_1
 62
    39
  6
CONTINUOUS
 10
24.824063
 20
12.090811
  0
VERTEX
  8
LAYER_1
 62
    39
  6
CONTINUOUS
 10
24.824063
 20
11.964744
  0
VERTEX
  8
LAYER_1
 62
    39
  6
CONTINUOUS
 10
24.577193
 20
11.964744
  0
VERTEX
  8
LAYER_1
 62
    39
  6
CONTINUOUS
 10
24.577193
 20
12.089421
  0
VERTEX
  8
LAYER_1
 62
    39
  6
CONTINUOUS
 10
24.563996
 20
12.089346
  0
VERTEX
  8
LAYER_1
 62
    39
  6
CONTINUOUS
 10
24.359429
 20
12.089126
  0
VERTEX
  8
LAYER_1
 62
    39
  6
CONTINUOUS
 10
24.195642
 20
12.084543
  0
VERTEX
  8
LAYER_1
 62
    39
  6
CONTINUOUS
 10
24.050441
 20
12.076264
  0
VERTEX
  8
LAYER_1
 62
    39
  6
CONTINUOUS
 10
23.877035
 20
12.059382
  0
VERTEX
  8
LAYER_1
 62
    39
  6
CONTINUOUS
 10
23.838024
 20
12.055524
  0
VERTEX
  8
LAYER_1
 62
    39
  6
CONTINUOUS
 10
23.849843
 20
11.939366
  0
VERTEX
  8
LAYER_1
 62
    39
  6
CONTINUOUS
 10
23.789031
 20
11.933185
  0
VERTEX
  8
LAYER_1
 62
    39
  6
CONTINUOUS
 10
23.777197
 20
12.049504
  0
VERTEX
  8
LAYER_1
 62
    39
  6
CONTINUOUS
 10
23.731654
 20
12.045000
  0
VERTEX
  8
LAYER_1
 62
    39
  6
CONTINUOUS
 10
23.554819
 20
12.018591
  0
VERTEX
  8
LAYER_1
 62
    39
  6
CONTINUOUS
 10
23.424972
 20
11.997453
  0
VERTEX
  8
LAYER_1
 62
    39
  6
CONTINUOUS
 10
23.266535
 20
11.954764
  0
VERTEX
  8
LAYER_1
 62
    39
  6
CONTINUOUS
 10
23.120591
 20
11.915035
  0
VERTEX
  8
LAYER_1
 62
    39
  6
CONTINUOUS
 10
22.996469
 20
11.868366
  0
VERTEX
  8
LAYER_1
 62
    39
  6
CONTINUOUS
 10
22.891213
 20
11.827429
  0
VERTEX
  8
LAYER_1
 62
    39
  6
CONTINUOUS
 10
22.835154
 20
11.795559
  0
VERTEX
  8
LAYER_1
 62
    39
  6
CONTINUOUS
 10
22.956835
 20
11.673878
  0
SEQEND
  8
0
  0
TEXT
  8
LAYER_1
 62
    39
 10
24.120362
 20
11.565843
 40
0.306980
  1
W3
 41
1.000000
  7
SN0
 71
     0
 72
     5
 11
24.624401
 21
11.565843
  0
POLYLINE
  8
LAYER_1
 62
    39
  6
CONTINUOUS
 66
     1
 40
0.006945
 41
0.006945
 70
     1
  0
VERTEX
  8
LAYER_1
 62
    39
  6
CONTINUOUS
 10
22.836524
 20
10.469488
  0
VERTEX
  8
LAYER_1
 62
    39
  6
CONTINUOUS
 10
22.867756
 20
10.451736
  0
VERTEX
  8
LAYER_1
 62
    39
  6
CONTINUOUS
 10
22.962224
 20
10.414992
  0
VERTEX
  8
LAYER_1
 62
    39
  6
CONTINUOUS
 10
23.073630
 20
10.373106
  0
VERTEX
  8
LAYER_1
 62
    39
  6
CONTINUOUS
 10
23.204622
 20
10.337449
  0
VERTEX
  8
LAYER_1
 62
    39
  6
CONTINUOUS
 10
23.346823
 20
10.299130
  0
VERTEX
  8
LAYER_1
 62
    39
  6
CONTINUOUS
 10
23.463362
 20
10.280161
  0
VERTEX
  8
LAYER_1
 62
    39
  6
CONTINUOUS
 10
23.622079
 20
10.256457
  0
VERTEX
  8
LAYER_1
 62
    39
  6
CONTINUOUS
 10
23.658976
 20
10.252807
  0
VERTEX
  8
LAYER_1
 62
    39
  6
CONTINUOUS
 10
23.671051
 20
10.371524
  0
VERTEX
  8
LAYER_1
 62
    39
  6
CONTINUOUS
 10
23.731866
 20
10.365339
  0
VERTEX
  8
LAYER_1
 62
    39
  6
CONTINUOUS
 10
23.719811
 20
10.246791
  0
VERTEX
  8
LAYER_1
 62
    39
  6
CONTINUOUS
 10
23.752563
 20
10.243551
  0
VERTEX
  8
LAYER_1
 62
    39
  6
CONTINUOUS
 10
23.908201
 20
10.228398
  0
VERTEX
  8
LAYER_1
 62
    39
  6
CONTINUOUS
 10
24.038524
 20
10.220965
  0
VERTEX
  8
LAYER_1
 62
    39
  6
CONTINUOUS
 10
24.185524
 20
10.216854
  0
VERTEX
  8
LAYER_1
 62
    39
  6
CONTINUOUS
 10
24.369134
 20
10.216654
  0
VERTEX
  8
LAYER_1
 62
    39
  6
CONTINUOUS
 10
24.389937
 20
10.216535
  0
VERTEX
  8
LAYER_1
 62
    39
  6
CONTINUOUS
 10
24.389937
 20
10.341528
  0
VERTEX
  8
LAYER_1
 62
    39
  6
CONTINUOUS
 10
24.390102
 20
10.341528
  0
VERTEX
  8
LAYER_1
 62
    39
  6
CONTINUOUS
 10
24.390102
 20
10.342197
  0
VERTEX
  8
LAYER_1
 62
    39
  6
CONTINUOUS
 10
24.582626
 20
10.342197
  0
VERTEX
  8
LAYER_1
 62
    39
  6
CONTINUOUS
 10
24.582626
 20
10.341528
  0
VERTEX
  8
LAYER_1
 62
    39
  6
CONTINUOUS
 10
24.636807
 20
10.341528
  0
VERTEX
  8
LAYER_1
 62
    39
  6
CONTINUOUS
 10
24.636807
 20
10.216106
  0
VERTEX
  8
LAYER_1
 62
    39
  6
CONTINUOUS
 10
24.812465
 20
10.221169
  0
VERTEX
  8
LAYER_1
 62
    39
  6
CONTINUOUS
 10
25.057992
 20
10.228626
  0
VERTEX
  8
LAYER_1
 62
    39
  6
CONTINUOUS
 10
25.348669
 20
10.237252
  0
VERTEX
  8
LAYER_1
 62
    39
  6
CONTINUOUS
 10
25.664673
 20
10.255102
  0
VERTEX
  8
LAYER_1
 62
    39
  6
CONTINUOUS
 10
25.938091
 20
10.274181
  0
VERTEX
  8
LAYER_1
 62
    39
  6
CONTINUOUS
 10
26.211417
 20
10.291106
  0
VERTEX
  8
LAYER_1
 62
    39
  6
CONTINUOUS
 10
26.532642
 20
10.317248
  0
VERTEX
  8
LAYER_1
 62
    39
  6
CONTINUOUS
 10
26.856516
 20
10.344150
  0
VERTEX
  8
LAYER_1
 62
    39
  6
CONTINUOUS
 10
27.160803
 20
10.375772
  0
VERTEX
  8
LAYER_1
 62
    39
  6
CONTINUOUS
 10
27.765327
 20
10.436780
  0
VERTEX
  8
LAYER_1
 62
    39
  6
CONTINUOUS
 10
27.765327
 20
10.736110
  0
VERTEX
  8
LAYER_1
 62
    39
  6
CONTINUOUS
 10
27.160819
 20
10.801476
  0
VERTEX
  8
LAYER_1
 62
    39
  6
CONTINUOUS
 10
26.856531
 20
10.833102
  0
VERTEX
  8
LAYER_1
 62
    39
  6
CONTINUOUS
 10
26.532661
 20
10.860004
  0
VERTEX
  8
LAYER_1
 62
    39
  6
CONTINUOUS
 10
26.211437
 20
10.886146
  0
VERTEX
  8
LAYER_1
 62
    39
  6
CONTINUOUS
 10
25.938106
 20
10.903071
  0
VERTEX
  8
LAYER_1
 62
    39
  6
CONTINUOUS
 10
25.664689
 20
10.922146
  0
VERTEX
  8
LAYER_1
 62
    39
  6
CONTINUOUS
 10
25.348689
 20
10.940000
  0
VERTEX
  8
LAYER_1
 62
    39
  6
CONTINUOUS
 10
25.058008
 20
10.948626
  0
VERTEX
  8
LAYER_1
 62
    39
  6
CONTINUOUS
 10
24.812480
 20
10.956083
  0
VERTEX
  8
LAYER_1
 62
    39
  6
CONTINUOUS
 10
24.636807
 20
10.961146
  0
VERTEX
  8
LAYER_1
 62
    39
  6
CONTINUOUS
 10
24.636807
 20
10.836150
  0
VERTEX
  8
LAYER_1
 62
    39
  6
CONTINUOUS
 10
24.389937
 20
10.836150
  0
VERTEX
  8
LAYER_1
 62
    39
  6
CONTINUOUS
 10
24.389937
 20
10.836551
  0
VERTEX
  8
LAYER_1
 62
    39
  6
CONTINUOUS
 10
24.389000
 20
10.836551
  0
VERTEX
  8
LAYER_1
 62
    39
  6
CONTINUOUS
 10
24.389000
 20
10.960705
  0
VERTEX
  8
LAYER_1
 62
    39
  6
CONTINUOUS
 10
24.369150
 20
10.960594
  0
VERTEX
  8
LAYER_1
 62
    39
  6
CONTINUOUS
 10
24.185543
 20
10.960398
  0
VERTEX
  8
LAYER_1
 62
    39
  6
CONTINUOUS
 10
24.038539
 20
10.956283
  0
VERTEX
  8
LAYER_1
 62
    39
  6
CONTINUOUS
 10
23.908220
 20
10.948850
  0
VERTEX
  8
LAYER_1
 62
    39
  6
CONTINUOUS
 10
23.752583
 20
10.933701
  0
VERTEX
  8
LAYER_1
 62
    39
  6
CONTINUOUS
 10
23.715689
 20
10.930051
  0
VERTEX
  8
LAYER_1
 62
    39
  6
CONTINUOUS
 10
23.727488
 20
10.814079
  0
VERTEX
  8
LAYER_1
 62
    39
  6
CONTINUOUS
 10
23.666677
 20
10.807898
  0
VERTEX
  8
LAYER_1
 62
    39
  6
CONTINUOUS
 10
23.654862
 20
10.924031
  0
VERTEX
  8
LAYER_1
 62
    39
  6
CONTINUOUS
 10
23.622094
 20
10.920791
  0
VERTEX
  8
LAYER_1
 62
    39
  6
CONTINUOUS
 10
23.463382
 20
10.897091
  0
VERTEX
  8
LAYER_1
 62
    39
  6
CONTINUOUS
 10
23.346839
 20
10.878118
  0
VERTEX
  8
LAYER_1
 62
    39
  6
CONTINUOUS
 10
23.204638
 20
10.839803
  0
VERTEX
  8
LAYER_1
 62
    39
  6
CONTINUOUS
 10
23.073646
 20
10.804146
  0
VERTEX
  8
LAYER_1
 62
    39
  6
CONTINUOUS
 10
22.962244
 20
10.762256
  0
VERTEX
  8
LAYER_1
 62
    39
  6
CONTINUOUS
 10
22.867772
 20
10.725516
  0
VERTEX
  8
LAYER_1
 62
    39
  6
CONTINUOUS
 10
22.835154
 20
10.706976
  0
VERTEX
  8
LAYER_1
 62
    39
  6
CONTINUOUS
 10
22.954583
 20
10.587547
  0
SEQEND
  8
0
  0
TEXT
  8
LAYER_1
 62
    39
 10
23.919657
 20
10.469071
 40
0.306980
  1
W4
 41
1.000000
  7
SN0
 71
     0
 72
     5
 11
24.423697
 21
10.469071
  0
POLYLINE
  8
LAYER_1
 62
    39
  6
CONTINUOUS
 66
     1
 40
0.006945
 41
0.006945
 70
     1
  0
VERTEX
  8
LAYER_1
 62
    39
  6
CONTINUOUS
 10
22.835154
 20
9.474441
  0
VERTEX
  8
LAYER_1
 62
    39
  6
CONTINUOUS
 10
22.846720
 20
9.467866
  0
VERTEX
  8
LAYER_1
 62
    39
  6
CONTINUOUS
 10
22.930327
 20
9.435346
  0
VERTEX
  8
LAYER_1
 62
    39
  6
CONTINUOUS
 10
23.028917
 20
9.398276
  0
VERTEX
  8
LAYER_1
 62
    39
  6
CONTINUOUS
 10
23.144846
 20
9.366720
  0
VERTEX
  8
LAYER_1
 62
    39
  6
CONTINUOUS
 10
23.270693
 20
9.332811
  0
VERTEX
  8
LAYER_1
 62
    39
  6
CONTINUOUS
 10
23.373831
 20
9.316020
  0
VERTEX
  8
LAYER_1
 62
    39
  6
CONTINUOUS
 10
23.514295
 20
9.295043
  0
VERTEX
  8
LAYER_1
 62
    39
  6
CONTINUOUS
 10
23.532768
 20
9.293217
  0
VERTEX
  8
LAYER_1
 62
    39
  6
CONTINUOUS
 10
23.544665
 20
9.410181
  0
VERTEX
  8
LAYER_1
 62
    39
  6
CONTINUOUS
 10
23.605480
 20
9.403996
  0
VERTEX
  8
LAYER_1
 62
    39
  6
CONTINUOUS
 10
23.593602
 20
9.287197
  0
VERTEX
  8
LAYER_1
 62
    39
  6
CONTINUOUS
 10
23.629776
 20
9.283618
  0
VERTEX
  8
LAYER_1
 62
    39
  6
CONTINUOUS
 10
23.767516
 20
9.270213
  0
VERTEX
  8
LAYER_1
 62
    39
  6
CONTINUOUS
 10
23.882850
 20
9.263634
  0
VERTEX
  8
LAYER_1
 62
    39
  6
CONTINUOUS
 10
24.012949
 20
9.259992
  0
VERTEX
  8
LAYER_1
 62
    39
  6
CONTINUOUS
 10
24.175441
 20
9.259819
  0
VERTEX
  8
LAYER_1
 62
    39
  6
CONTINUOUS
 10
24.190433
 20
9.259732
  0
VERTEX
  8
LAYER_1
 62
    39
  6
CONTINUOUS
 10
24.190433
 20
9.385291
  0
VERTEX
  8
LAYER_1
 62
    39
  6
CONTINUOUS
 10
24.437303
 20
9.385291
  0
VERTEX
  8
LAYER_1
 62
    39
  6
CONTINUOUS
 10
24.437303
 20
9.260047
  0
VERTEX
  8
LAYER_1
 62
    39
  6
CONTINUOUS
 10
24.567791
 20
9.263811
  0
VERTEX
  8
LAYER_1
 62
    39
  6
CONTINUOUS
 10
24.785083
 20
9.270413
  0
VERTEX
  8
LAYER_1
 62
    39
  6
CONTINUOUS
 10
25.042335
 20
9.278047
  0
VERTEX
  8
LAYER_1
 62
    39
  6
CONTINUOUS
 10
25.321996
 20
9.293846
  0
VERTEX
  8
LAYER_1
 62
    39
  6
CONTINUOUS
 10
25.563972
 20
9.310728
  0
VERTEX
  8
LAYER_1
 62
    39
  6
CONTINUOUS
 10
25.805870
 20
9.325705
  0
VERTEX
  8
LAYER_1
 62
    39
  6
CONTINUOUS
 10
26.090154
 20
9.348843
  0
VERTEX
  8
LAYER_1
 62
    39
  6
CONTINUOUS
 10
26.376780
 20
9.372650
  0
VERTEX
  8
LAYER_1
 62
    39
  6
CONTINUOUS
 10
26.646075
 20
9.400638
  0
VERTEX
  8
LAYER_1
 62
    39
  6
CONTINUOUS
 10
27.049504
 20
9.440866
  0
VERTEX
  8
LAYER_1
 62
    39
  6
CONTINUOUS
 10
27.051685
 20
9.734980
  0
VERTEX
  8
LAYER_1
 62
    39
  6
CONTINUOUS
 10
26.646091
 20
9.777386
  0
VERTEX
  8
LAYER_1
 62
    39
  6
CONTINUOUS
 10
26.376795
 20
9.805374
  0
VERTEX
  8
LAYER_1
 62
    39
  6
CONTINUOUS
 10
26.090169
 20
9.829181
  0
VERTEX
  8
LAYER_1
 62
    39
  6
CONTINUOUS
 10
25.805886
 20
9.852319
  0
VERTEX
  8
LAYER_1
 62
    39
  6
CONTINUOUS
 10
25.563988
 20
9.867299
  0
VERTEX
  8
LAYER_1
 62
    39
  6
CONTINUOUS
 10
25.322012
 20
9.884181
  0
VERTEX
  8
LAYER_1
 62
    39
  6
CONTINUOUS
 10
25.042350
 20
9.899980
  0
VERTEX
  8
LAYER_1
 62
    39
  6
CONTINUOUS
 10
24.785098
 20
9.907614
  0
VERTEX
  8
LAYER_1
 62
    39
  6
CONTINUOUS
 10
24.567807
 20
9.914213
  0
VERTEX
  8
LAYER_1
 62
    39
  6
CONTINUOUS
 10
24.437303
 20
9.917976
  0
VERTEX
  8
LAYER_1
 62
    39
  6
CONTINUOUS
 10
24.437303
 20
9.792512
  0
VERTEX
  8
LAYER_1
 62
    39
  6
CONTINUOUS
 10
24.190433
 20
9.792512
  0
VERTEX
  8
LAYER_1
 62
    39
  6
CONTINUOUS
 10
24.190433
 20
9.794374
  0
VERTEX
  8
LAYER_1
 62
    39
  6
CONTINUOUS
 10
24.189610
 20
9.794374
  0
VERTEX
  8
LAYER_1
 62
    39
  6
CONTINUOUS
 10
24.189610
 20
9.918287
  0
VERTEX
  8
LAYER_1
 62
    39
  6
CONTINUOUS
 10
24.175457
 20
9.918209
  0
VERTEX
  8
LAYER_1
 62
    39
  6
CONTINUOUS
 10
24.012965
 20
9.918031
  0
VERTEX
  8
LAYER_1
 62
    39
  6
CONTINUOUS
 10
23.882866
 20
9.914394
  0
VERTEX
  8
LAYER_1
 62
    39
  6
CONTINUOUS
 10
23.767531
 20
9.907815
  0
VERTEX
  8
LAYER_1
 62
    39
  6
CONTINUOUS
 10
23.629791
 20
9.894406
  0
VERTEX
  8
LAYER_1
 62
    39
  6
CONTINUOUS
 10
23.593811
 20
9.890846
  0
VERTEX
  8
LAYER_1
 62
    39
  6
CONTINUOUS
 10
23.605480
 20
9.776130
  0
VERTEX
  8
LAYER_1
 62
    39
  6
CONTINUOUS
 10
23.544669
 20
9.769949
  0
VERTEX
  8
LAYER_1
 62
    39
  6
CONTINUOUS
 10
23.532980
 20
9.884827
  0
VERTEX
  8
LAYER_1
 62
    39
  6
CONTINUOUS
 10
23.514311
 20
9.882980
  0
VERTEX
  8
LAYER_1
 62
    39
  6
CONTINUOUS
 10
23.373846
 20
9.862004
  0
VERTEX
  8
LAYER_1
 62
    39
  6
CONTINUOUS
 10
23.270709
 20
9.845217
  0
VERTEX
  8
LAYER_1
 62
    39
  6
CONTINUOUS
 10
23.144862
 20
9.811307
  0
VERTEX
  8
LAYER_1
 62
    39
  6
CONTINUOUS
 10
23.028933
 20
9.779748
  0
VERTEX
  8
LAYER_1
 62
    39
  6
CONTINUOUS
 10
22.930343
 20
9.742677
  0
VERTEX
  8
LAYER_1
 62
    39
  6
CONTINUOUS
 10
22.846736
 20
9.710161
  0
VERTEX
  8
LAYER_1
 62
    39
  6
CONTINUOUS
 10
22.836165
 20
9.704154
  0
VERTEX
  8
LAYER_1
 62
    39
  6
CONTINUOUS
 10
22.950516
 20
9.589803
  0
SEQEND
  8
0
  0
TEXT
  8
LAYER_1
 62
    39
 10
23.744972
 20
9.470083
 40
0.306980
  1
W5
 41
1.000000
  7
SN0
 71
     0
 72
     5
 11
24.249012
 21
9.470083
  0
POLYLINE
  8
LAYER_1
 62
    39
  6
CONTINUOUS
 66
     1
 40
0.006945
 41
0.006945
 70
     1
  0
VERTEX
  8
LAYER_1
 62
    39
  6
CONTINUOUS
 10
22.835154
 20
8.563413
  0
VERTEX
  8
LAYER_1
 62
    39
  6
CONTINUOUS
 10
22.893701
 20
8.540646
  0
VERTEX
  8
LAYER_1
 62
    39
  6
CONTINUOUS
 10
22.979709
 20
8.508307
  0
VERTEX
  8
LAYER_1
 62
    39
  6
CONTINUOUS
 10
23.080839
 20
8.480776
  0
VERTEX
  8
LAYER_1
 62
    39
  6
CONTINUOUS
 10
23.190622
 20
8.451197
  0
VERTEX
  8
LAYER_1
 62
    39
  6
CONTINUOUS
 10
23.280598
 20
8.436547
  0
VERTEX
  8
LAYER_1
 62
    39
  6
CONTINUOUS
 10
23.403130
 20
8.418248
  0
VERTEX
  8
LAYER_1
 62
    39
  6
CONTINUOUS
 10
23.419610
 20
8.416618
  0
VERTEX
  8
LAYER_1
 62
    39
  6
CONTINUOUS
 10
23.431488
 20
8.533413
  0
VERTEX
  8
LAYER_1
 62
    39
  6
CONTINUOUS
 10
23.492303
 20
8.527228
  0
VERTEX
  8
LAYER_1
 62
    39
  6
CONTINUOUS
 10
23.480441
 20
8.410602
  0
VERTEX
  8
LAYER_1
 62
    39
  6
CONTINUOUS
 10
23.503870
 20
8.408283
  0
VERTEX
  8
LAYER_1
 62
    39
  6
CONTINUOUS
 10
23.624031
 20
8.396587
  0
VERTEX
  8
LAYER_1
 62
    39
  6
CONTINUOUS
 10
23.724642
 20
8.390846
  0
VERTEX
  8
LAYER_1
 62
    39
  6
CONTINUOUS
 10
23.838134
 20
8.387673
  0
VERTEX
  8
LAYER_1
 62
    39
  6
CONTINUOUS
 10
23.979886
 20
8.387520
  0
VERTEX
  8
LAYER_1
 62
    39
  6
CONTINUOUS
 10
23.987362
 20
8.387476
  0
VERTEX
  8
LAYER_1
 62
    39
  6
CONTINUOUS
 10
23.987362
 20
8.513059
  0
VERTEX
  8
LAYER_1
 62
    39
  6
CONTINUOUS
 10
24.179886
 20
8.513059
  0
VERTEX
  8
LAYER_1
 62
    39
  6
CONTINUOUS
 10
24.179886
 20
8.512819
  0
VERTEX
  8
LAYER_1
 62
    39
  6
CONTINUOUS
 10
24.234823
 20
8.512819
  0
VERTEX
  8
LAYER_1
 62
    39
  6
CONTINUOUS
 10
24.234823
 20
8.388488
  0
VERTEX
  8
LAYER_1
 62
    39
  6
CONTINUOUS
 10
24.322157
 20
8.391004
  0
VERTEX
  8
LAYER_1
 62
    39
  6
CONTINUOUS
 10
24.511713
 20
8.396764
  0
VERTEX
  8
LAYER_1
 62
    39
  6
CONTINUOUS
 10
24.736126
 20
8.403421
  0
VERTEX
  8
LAYER_1
 62
    39
  6
CONTINUOUS
 10
24.980094
 20
8.417205
  0
VERTEX
  8
LAYER_1
 62
    39
  6
CONTINUOUS
 10
25.191181
 20
8.431933
  0
VERTEX
  8
LAYER_1
 62
    39
  6
CONTINUOUS
 10
25.402201
 20
8.445000
  0
VERTEX
  8
LAYER_1
 62
    39
  6
CONTINUOUS
 10
25.650201
 20
8.465181
  0
VERTEX
  8
LAYER_1
 62
    39
  6
CONTINUOUS
 10
25.900240
 20
8.485949
  0
VERTEX
  8
LAYER_1
 62
    39
  6
CONTINUOUS
 10
26.135165
 20
8.510366
  0
VERTEX
  8
LAYER_1
 62
    39
  6
CONTINUOUS
 10
27.476516
 20
8.650492
  0
VERTEX
  8
LAYER_1
 62
    39
  6
CONTINUOUS
 10
27.476701
 20
8.676638
  0
VERTEX
  8
LAYER_1
 62
    39
  6
CONTINUOUS
 10
27.476531
 20
8.698902
  0
VERTEX
  8
LAYER_1
 62
    39
  6
CONTINUOUS
 10
26.135177
 20
8.839028
  0
VERTEX
  8
LAYER_1
 62
    39
  6
CONTINUOUS
 10
25.900256
 20
8.863441
  0
VERTEX
  8
LAYER_1
 62
    39
  6
CONTINUOUS
 10
25.650213
 20
8.884209
  0
VERTEX
  8
LAYER_1
 62
    39
  6
CONTINUOUS
 10
25.402217
 20
8.904394
  0
VERTEX
  8
LAYER_1
 62
    39
  6
CONTINUOUS
 10
25.191197
 20
8.917461
  0
VERTEX
  8
LAYER_1
 62
    39
  6
CONTINUOUS
 10
24.980106
 20
8.932189
  0
VERTEX
  8
LAYER_1
 62
    39
  6
CONTINUOUS
 10
24.736142
 20
8.945972
  0
VERTEX
  8
LAYER_1
 62
    39
  6
CONTINUOUS
 10
24.511724
 20
8.952630
  0
VERTEX
  8
LAYER_1
 62
    39
  6
CONTINUOUS
 10
24.322169
 20
8.958386
  0
VERTEX
  8
LAYER_1
 62
    39
  6
CONTINUOUS
 10
24.234823
 20
8.960906
  0
VERTEX
  8
LAYER_1
 62
    39
  6
CONTINUOUS
 10
24.234823
 20
8.837008
  0
VERTEX
  8
LAYER_1
 62
    39
  6
CONTINUOUS
 10
23.987953
 20
8.837008
  0
VERTEX
  8
LAYER_1
 62
    39
  6
CONTINUOUS
 10
23.987953
 20
8.961913
  0
VERTEX
  8
LAYER_1
 62
    39
  6
CONTINUOUS
 10
23.979902
 20
8.961870
  0
VERTEX
  8
LAYER_1
 62
    39
  6
CONTINUOUS
 10
23.838150
 20
8.961717
  0
VERTEX
  8
LAYER_1
 62
    39
  6
CONTINUOUS
 10
23.724657
 20
8.958543
  0
VERTEX
  8
LAYER_1
 62
    39
  6
CONTINUOUS
 10
23.624043
 20
8.952803
  0
VERTEX
  8
LAYER_1
 62
    39
  6
CONTINUOUS
 10
23.503886
 20
8.941106
  0
VERTEX
  8
LAYER_1
 62
    39
  6
CONTINUOUS
 10
23.479378
 20
8.938681
  0
VERTEX
  8
LAYER_1
 62
    39
  6
CONTINUOUS
 10
23.491232
 20
8.822150
  0
VERTEX
  8
LAYER_1
 62
    39
  6
CONTINUOUS
 10
23.430421
 20
8.815969
  0
VERTEX
  8
LAYER_1
 62
    39
  6
CONTINUOUS
 10
23.418547
 20
8.932665
  0
VERTEX
  8
LAYER_1
 62
    39
  6
CONTINUOUS
 10
23.403146
 20
8.931142
  0
VERTEX
  8
LAYER_1
 62
    39
  6
CONTINUOUS
 10
23.280610
 20
8.912843
  0
VERTEX
  8
LAYER_1
 62
    39
  6
CONTINUOUS
 10
23.190638
 20
8.898197
  0
VERTEX
  8
LAYER_1
 62
    39
  6
CONTINUOUS
 10
23.080850
 20
8.868614
  0
VERTEX
  8
LAYER_1
 62
    39
  6
CONTINUOUS
 10
22.979720
 20
8.841087
  0
VERTEX
  8
LAYER_1
 62
    39
  6
CONTINUOUS
 10
22.893713
 20
8.808748
  0
VERTEX
  8
LAYER_1
 62
    39
  6
CONTINUOUS
 10
22.836843
 20
8.786630
  0
VERTEX
  8
LAYER_1
 62
    39
  6
CONTINUOUS
 10
22.947606
 20
8.675866
  0
SEQEND
  8
0
  0
TEXT
  8
LAYER_1
 62
    39
 10
23.513437
 20
8.536252
 40
0.306980
  1
W6
 41
1.000000
  7
SN0
 71
     0
 72
     5
 11
24.017476
 21
8.536252
  0
POLYLINE
  8
LAYER_1
 62
    39
  6
CONTINUOUS
 66
     1
 40
0.006945
 41
0.006945
 70
     1
  0
VERTEX
  8
LAYER_1
 62
    39
  6
CONTINUOUS
 10
20.459980
 20
5.333240
  0
VERTEX
  8
LAYER_1
 62
    39
  6
CONTINUOUS
 10
24.468098
 20
5.394366
  0
VERTEX
  8
LAYER_1
 62
    39
  6
CONTINUOUS
 10
24.624172
 20
5.336611
  0
VERTEX
  8
LAYER_1
 62
    39
  6
CONTINUOUS
 10
24.732909
 20
5.193656
  0
VERTEX
  8
LAYER_1
 62
    39
  6
CONTINUOUS
 10
24.773728
 20
5.018878
  0
VERTEX
  8
LAYER_1
 62
    39
  6
CONTINUOUS
 10
24.773728
 20
4.058327
  0
VERTEX
  8
LAYER_1
 62
    39
  6
CONTINUOUS
 10
24.730650
 20
3.899980
  0
VERTEX
  8
LAYER_1
 62
    39
  6
CONTINUOUS
 10
24.617713
 20
3.787043
  0
VERTEX
  8
LAYER_1
 62
    39
  6
CONTINUOUS
 10
24.459366
 20
3.743965
  0
VERTEX
  8
LAYER_1
 62
    39
  6
CONTINUOUS
 10
20.459980
 20
3.743965
  0
VERTEX
  8
LAYER_1
 62
    39
  6
CONTINUOUS
 10
20.301634
 20
3.787043
  0
VERTEX
  8
LAYER_1
 62
    39
  6
CONTINUOUS
 10
20.188697
 20
3.899980
  0
VERTEX
  8
LAYER_1
 62
    39
  6
CONTINUOUS
 10
20.145618
 20
4.058327
  0
VERTEX
  8
LAYER_1
 62
    39
  6
CONTINUOUS
 10
20.145618
 20
5.018878
  0
VERTEX
  8
LAYER_1
 62
    39
  6
CONTINUOUS
 10
20.188701
 20
5.176638
  0
VERTEX
  8
LAYER_1
 62
    39
  6
CONTINUOUS
 10
20.301643
 20
5.288989
  0
SEQEND
  8
0
  0
POLYLINE
  8
LAYER_1
 62
    39
  6
CONTINUOUS
 66
     1
 40
0.006945
 41
0.006945
 70
     1
  0
VERTEX
  8
LAYER_1
 62
    39
  6
CONTINUOUS
 10
25.559634
 20
4.704516
  0
VERTEX
  8
LAYER_1
 62
    39
  6
CONTINUOUS
 10
28.004673
 20
4.704516
  0
VERTEX
  8
LAYER_1
 62
    39
  6
CONTINUOUS
 10
28.145425
 20
4.666223
  0
VERTEX
  8
LAYER_1
 62
    39
  6
CONTINUOUS
 10
28.245814
 20
4.565834
  0
VERTEX
  8
LAYER_1
 62
    39
  6
CONTINUOUS
 10
28.284106
 20
4.425083
  0
VERTEX
  8
LAYER_1
 62
    39
  6
CONTINUOUS
 10
28.284106
 20
4.023398
  0
VERTEX
  8
LAYER_1
 62
    39
  6
CONTINUOUS
 10
28.245814
 20
3.882646
  0
VERTEX
  8
LAYER_1
 62
    39
  6
CONTINUOUS
 10
28.145425
 20
3.782257
  0
VERTEX
  8
LAYER_1
 62
    39
  6
CONTINUOUS
 10
28.004673
 20
3.743965
  0
VERTEX
  8
LAYER_1
 62
    39
  6
CONTINUOUS
 10
25.559634
 20
3.743965
  0
VERTEX
  8
LAYER_1
 62
    39
  6
CONTINUOUS
 10
25.418882
 20
3.782257
  0
VERTEX
  8
LAYER_1
 62
    39
  6
CONTINUOUS
 10
25.318493
 20
3.882646
  0
VERTEX
  8
LAYER_1
 62
    39
  6
CONTINUOUS
 10
25.280201
 20
4.023398
  0
VERTEX
  8
LAYER_1
 62
    39
  6
CONTINUOUS
 10
25.280201
 20
4.425083
  0
VERTEX
  8
LAYER_1
 62
    39
  6
CONTINUOUS
 10
25.318493
 20
4.565834
  0
VERTEX
  8
LAYER_1
 62
    39
  6
CONTINUOUS
 10
25.418882
 20
4.666223
  0
SEQEND
  8
0
  0
POLYLINE
  8
LAYER_1
 62
    39
  6
CONTINUOUS
 66
     1
 40
0.006945
 41
0.006945
 70
     1
  0
VERTEX
  8
LAYER_1
 62
    39
  6
CONTINUOUS
 10
15.247382
 20
5.280846
  0
VERTEX
  8
LAYER_1
 62
    39
  6
CONTINUOUS
 10
19.359138
 20
5.333240
  0
VERTEX
  8
LAYER_1
 62
    39
  6
CONTINUOUS
 10
19.493642
 20
5.277394
  0
VERTEX
  8
LAYER_1
 62
    39
  6
CONTINUOUS
 10
19.592169
 20
5.138821
  0
VERTEX
  8
LAYER_1
 62
    39
  6
CONTINUOUS
 10
19.630413
 20
4.966484
  0
VERTEX
  8
LAYER_1
 62
    39
  6
CONTINUOUS
 10
19.630413
 20
4.058327
  0
VERTEX
  8
LAYER_1
 62
    39
  6
CONTINUOUS
 10
19.594436
 20
3.899980
  0
VERTEX
  8
LAYER_1
 62
    39
  6
CONTINUOUS
 10
19.500115
 20
3.787043
  0
VERTEX
  8
LAYER_1
 62
    39
  6
CONTINUOUS
 10
19.367870
 20
3.743965
  0
VERTEX
  8
LAYER_1
 62
    39
  6
CONTINUOUS
 10
15.247382
 20
3.743965
  0
VERTEX
  8
LAYER_1
 62
    39
  6
CONTINUOUS
 10
15.115137
 20
3.787043
  0
VERTEX
  8
LAYER_1
 62
    39
  6
CONTINUOUS
 10
15.020816
 20
3.899980
  0
VERTEX
  8
LAYER_1
 62
    39
  6
CONTINUOUS
 10
14.984839
 20
4.058327
  0
VERTEX
  8
LAYER_1
 62
    39
  6
CONTINUOUS
 10
14.984839
 20
4.966484
  0
VERTEX
  8
LAYER_1
 62
    39
  6
CONTINUOUS
 10
15.020819
 20
5.124422
  0
VERTEX
  8
LAYER_1
 62
    39
  6
CONTINUOUS
 10
15.115142
 20
5.236951
  0
SEQEND
  8
0
  0
POLYLINE
  8
LAYER_1
 62
    39
  6
CONTINUOUS
 66
     1
 40
0.006945
 41
0.006945
 70
     1
  0
VERTEX
  8
LAYER_1
 62
    39
  6
CONTINUOUS
 10
6.510783
 20
4.081594
  0
VERTEX
  8
LAYER_1
 62
    39
  6
CONTINUOUS
 10
6.516555
 20
4.049969
  0
VERTEX
  8
LAYER_1
 62
    39
  6
CONTINUOUS
 10
6.544028
 20
4.009504
  0
VERTEX
  8
LAYER_1
 62
    39
  6
CONTINUOUS
 10
6.612961
 20
3.962768
  0
VERTEX
  8
LAYER_1
 62
    39
  6
CONTINUOUS
 10
6.719614
 20
3.902142
  0
VERTEX
  8
LAYER_1
 62
    39
  6
CONTINUOUS
 10
6.845122
 20
3.853327
  0
VERTEX
  8
LAYER_1
 62
    39
  6
CONTINUOUS
 10
6.993126
 20
3.797677
  0
VERTEX
  8
LAYER_1
 62
    39
  6
CONTINUOUS
 10
7.167150
 20
3.750307
  0
VERTEX
  8
LAYER_1
 62
    39
  6
CONTINUOUS
 10
7.356071
 20
3.699402
  0
VERTEX
  8
LAYER_1
 62
    39
  6
CONTINUOUS
 10
7.510898
 20
3.674197
  0
VERTEX
  8
LAYER_1
 62
    39
  6
CONTINUOUS
 10
7.721756
 20
3.642709
  0
VERTEX
  8
LAYER_1
 62
    39
  6
CONTINUOUS
 10
7.895110
 20
3.625559
  0
VERTEX
  8
LAYER_1
 62
    39
  6
CONTINUOUS
 10
8.101882
 20
3.605433
  0
VERTEX
  8
LAYER_1
 62
    39
  6
CONTINUOUS
 10
8.275020
 20
3.595555
  0
VERTEX
  8
LAYER_1
 62
    39
  6
CONTINUOUS
 10
8.470315
 20
3.590094
  0
VERTEX
  8
LAYER_1
 62
    39
  6
CONTINUOUS
 10
8.714244
 20
3.589831
  0
VERTEX
  8
LAYER_1
 62
    39
  6
CONTINUOUS
 10
9.033051
 20
3.588035
  0
VERTEX
  8
LAYER_1
 62
    39
  6
CONTINUOUS
 10
9.303224
 20
3.595827
  0
VERTEX
  8
LAYER_1
 62
    39
  6
CONTINUOUS
 10
9.629413
 20
3.605732
  0
VERTEX
  8
LAYER_1
 62
    39
  6
CONTINUOUS
 10
10.015594
 20
3.617193
  0
VERTEX
  8
LAYER_1
 62
    39
  6
CONTINUOUS
 10
10.435413
 20
3.640909
  0
VERTEX
  8
LAYER_1
 62
    39
  6
CONTINUOUS
 10
10.798657
 20
3.666252
  0
VERTEX
  8
LAYER_1
 62
    39
  6
CONTINUOUS
 10
11.161783
 20
3.688736
  0
VERTEX
  8
LAYER_1
 62
    39
  6
CONTINUOUS
 10
11.588543
 20
3.723472
  0
VERTEX
  8
LAYER_1
 62
    39
  6
CONTINUOUS
 10
12.018815
 20
3.759209
  0
VERTEX
  8
LAYER_1
 62
    39
  6
CONTINUOUS
 10
12.423071
 20
3.801224
  0
VERTEX
  8
LAYER_1
 62
    39
  6
CONTINUOUS
 10
14.731291
 20
4.042350
  0
VERTEX
  8
LAYER_1
 62
    39
  6
CONTINUOUS
 10
14.731602
 20
4.087346
  0
VERTEX
  8
LAYER_1
 62
    39
  6
CONTINUOUS
 10
14.731315
 20
4.125657
  0
VERTEX
  8
LAYER_1
 62
    39
  6
CONTINUOUS
 10
12.423094
 20
4.366787
  0
VERTEX
  8
LAYER_1
 62
    39
  6
CONTINUOUS
 10
12.018839
 20
4.408799
  0
VERTEX
  8
LAYER_1
 62
    39
  6
CONTINUOUS
 10
11.588567
 20
4.444539
  0
VERTEX
  8
LAYER_1
 62
    39
  6
CONTINUOUS
 10
11.161807
 20
4.479272
  0
VERTEX
  8
LAYER_1
 62
    39
  6
CONTINUOUS
 10
10.798681
 20
4.501756
  0
VERTEX
  8
LAYER_1
 62
    39
  6
CONTINUOUS
 10
10.435437
 20
4.527098
  0
VERTEX
  8
LAYER_1
 62
    39
  6
CONTINUOUS
 10
10.015618
 20
4.550819
  0
VERTEX
  8
LAYER_1
 62
    39
  6
CONTINUOUS
 10
9.629441
 20
4.562276
  0
VERTEX
  8
LAYER_1
 62
    39
  6
CONTINUOUS
 10
9.303248
 20
4.572181
  0
VERTEX
  8
LAYER_1
 62
    39
  6
CONTINUOUS
 10
9.033075
 20
4.579972
  0
VERTEX
  8
LAYER_1
 62
    39
  6
CONTINUOUS
 10
8.714268
 20
4.578181
  0
VERTEX
  8
LAYER_1
 62
    39
  6
CONTINUOUS
 10
8.470339
 20
4.577917
  0
VERTEX
  8
LAYER_1
 62
    39
  6
CONTINUOUS
 10
8.275043
 20
4.572453
  0
VERTEX
  8
LAYER_1
 62
    39
  6
CONTINUOUS
 10
8.101906
 20
4.562579
  0
VERTEX
  8
LAYER_1
 62
    39
  6
CONTINUOUS
 10
7.895134
 20
4.542449
  0
VERTEX
  8
LAYER_1
 62
    39
  6
CONTINUOUS
 10
7.721780
 20
4.525299
  0
VERTEX
  8
LAYER_1
 62
    39
  6
CONTINUOUS
 10
7.510921
 20
4.493811
  0
VERTEX
  8
LAYER_1
 62
    39
  6
CONTINUOUS
 10
7.356094
 20
4.468606
  0
VERTEX
  8
LAYER_1
 62
    39
  6
CONTINUOUS
 10
7.167173
 20
4.417705
  0
VERTEX
  8
LAYER_1
 62
    39
  6
CONTINUOUS
 10
6.993150
 20
4.370331
  0
VERTEX
  8
LAYER_1
 62
    39
  6
CONTINUOUS
 10
6.845146
 20
4.314681
  0
VERTEX
  8
LAYER_1
 62
    39
  6
CONTINUOUS
 10
6.719638
 20
4.265866
  0
VERTEX
  8
LAYER_1
 62
    39
  6
CONTINUOUS
 10
6.612984
 20
4.205240
  0
VERTEX
  8
LAYER_1
 62
    39
  6
CONTINUOUS
 10
6.544051
 20
4.158504
  0
VERTEX
  8
LAYER_1
 62
    39
  6
CONTINUOUS
 10
6.516583
 20
4.118039
  0
SEQEND
  8
0
  0
POLYLINE
  8
LAYER_1
 62
    39
  6
CONTINUOUS
 66
     1
 40
0.006945
 41
0.006945
 70
     1
  0
VERTEX
  8
LAYER_1
 62
    39
  6
CONTINUOUS
 10
29.572630
 20
3.178575
  0
VERTEX
  8
LAYER_1
 62
    39
  6
CONTINUOUS
 10
29.568264
 20
5.112776
  0
VERTEX
  8
LAYER_1
 62
    39
  6
CONTINUOUS
 10
25.673665
 20
5.112776
  0
VERTEX
  8
LAYER_1
 62
    39
  6
CONTINUOUS
 10
25.673665
 20
5.239394
  0
VERTEX
  8
LAYER_1
 62
    39
  6
CONTINUOUS
 10
29.568264
 20
5.235028
  0
VERTEX
  8
LAYER_1
 62
    39
  6
CONTINUOUS
 10
29.572630
 20
6.007835
  0
VERTEX
  8
LAYER_1
 62
    39
  6
CONTINUOUS
 10
2.864941
 20
5.693472
  0
VERTEX
  8
LAYER_1
 62
    39
  6
CONTINUOUS
 10
2.864941
 20
3.182941
  0
SEQEND
  8
0
  0
POLYLINE
  8
LAYER_1
 62
    39
  6
CONTINUOUS
 66
     1
 40
0.006945
 41
0.006945
 70
     1
  0
VERTEX
  8
LAYER_1
 62
    39
  6
CONTINUOUS
 10
20.459980
 20
0.494492
  0
VERTEX
  8
LAYER_1
 62
    39
  6
CONTINUOUS
 10
24.468098
 20
0.433366
  0
VERTEX
  8
LAYER_1
 62
    39
  6
CONTINUOUS
 10
24.624172
 20
0.491121
  0
VERTEX
  8
LAYER_1
 62
    39
  6
CONTINUOUS
 10
24.732909
 20
0.634076
  0
VERTEX
  8
LAYER_1
 62
    39
  6
CONTINUOUS
 10
24.773728
 20
0.808854
  0
VERTEX
  8
LAYER_1
 62
    39
  6
CONTINUOUS
 10
24.773728
 20
1.769406
  0
VERTEX
  8
LAYER_1
 62
    39
  6
CONTINUOUS
 10
24.730650
 20
1.927752
  0
VERTEX
  8
LAYER_1
 62
    39
  6
CONTINUOUS
 10
24.617713
 20
2.040689
  0
VERTEX
  8
LAYER_1
 62
    39
  6
CONTINUOUS
 10
24.459366
 20
2.083768
  0
VERTEX
  8
LAYER_1
 62
    39
  6
CONTINUOUS
 10
20.459980
 20
2.083768
  0
VERTEX
  8
LAYER_1
 62
    39
  6
CONTINUOUS
 10
20.301634
 20
2.040689
  0
VERTEX
  8
LAYER_1
 62
    39
  6
CONTINUOUS
 10
20.188697
 20
1.927752
  0
VERTEX
  8
LAYER_1
 62
    39
  6
CONTINUOUS
 10
20.145618
 20
1.769406
  0
VERTEX
  8
LAYER_1
 62
    39
  6
CONTINUOUS
 10
20.145618
 20
0.808854
  0
VERTEX
  8
LAYER_1
 62
    39
  6
CONTINUOUS
 10
20.188701
 20
0.651094
  0
VERTEX
  8
LAYER_1
 62
    39
  6
CONTINUOUS
 10
20.301643
 20
0.538743
  0
SEQEND
  8
0
  0
POLYLINE
  8
LAYER_1
 62
    39
  6
CONTINUOUS
 66
     1
 40
0.006945
 41
0.006945
 70
     1
  0
VERTEX
  8
LAYER_1
 62
    39
  6
CONTINUOUS
 10
25.559634
 20
1.123217
  0
VERTEX
  8
LAYER_1
 62
    39
  6
CONTINUOUS
 10
28.004673
 20
1.123217
  0
VERTEX
  8
LAYER_1
 62
    39
  6
CONTINUOUS
 10
28.145425
 20
1.161509
  0
VERTEX
  8
LAYER_1
 62
    39
  6
CONTINUOUS
 10
28.245814
 20
1.261898
  0
VERTEX
  8
LAYER_1
 62
    39
  6
CONTINUOUS
 10
28.284106
 20
1.402650
  0
VERTEX
  8
LAYER_1
 62
    39
  6
CONTINUOUS
 10
28.284106
 20
1.804335
  0
VERTEX
  8
LAYER_1
 62
    39
  6
CONTINUOUS
 10
28.245814
 20
1.945086
  0
VERTEX
  8
LAYER_1
 62
    39
  6
CONTINUOUS
 10
28.145425
 20
2.045475
  0
VERTEX
  8
LAYER_1
 62
    39
  6
CONTINUOUS
 10
28.004673
 20
2.083768
  0
VERTEX
  8
LAYER_1
 62
    39
  6
CONTINUOUS
 10
25.559634
 20
2.083768
  0
VERTEX
  8
LAYER_1
 62
    39
  6
CONTINUOUS
 10
25.418882
 20
2.045475
  0
VERTEX
  8
LAYER_1
 62
    39
  6
CONTINUOUS
 10
25.318493
 20
1.945086
  0
VERTEX
  8
LAYER_1
 62
    39
  6
CONTINUOUS
 10
25.280201
 20
1.804335
  0
VERTEX
  8
LAYER_1
 62
    39
  6
CONTINUOUS
 10
25.280201
 20
1.402650
  0
VERTEX
  8
LAYER_1
 62
    39
  6
CONTINUOUS
 10
25.318493
 20
1.261898
  0
VERTEX
  8
LAYER_1
 62
    39
  6
CONTINUOUS
 10
25.418882
 20
1.161509
  0
SEQEND
  8
0
  0
POLYLINE
  8
LAYER_1
 62
    39
  6
CONTINUOUS
 66
     1
 40
0.006945
 41
0.006945
 70
     1
  0
VERTEX
  8
LAYER_1
 62
    39
  6
CONTINUOUS
 10
15.247382
 20
0.546886
  0
VERTEX
  8
LAYER_1
 62
    39
  6
CONTINUOUS
 10
19.359138
 20
0.494492
  0
VERTEX
  8
LAYER_1
 62
    39
  6
CONTINUOUS
 10
19.493642
 20
0.550338
  0
VERTEX
  8
LAYER_1
 62
    39
  6
CONTINUOUS
 10
19.592169
 20
0.688911
  0
VERTEX
  8
LAYER_1
 62
    39
  6
CONTINUOUS
 10
19.630413
 20
0.861248
  0
VERTEX
  8
LAYER_1
 62
    39
  6
CONTINUOUS
 10
19.630413
 20
1.769406
  0
VERTEX
  8
LAYER_1
 62
    39
  6
CONTINUOUS
 10
19.594436
 20
1.927752
  0
VERTEX
  8
LAYER_1
 62
    39
  6
CONTINUOUS
 10
19.500115
 20
2.040689
  0
VERTEX
  8
LAYER_1
 62
    39
  6
CONTINUOUS
 10
19.367870
 20
2.083768
  0
VERTEX
  8
LAYER_1
 62
    39
  6
CONTINUOUS
 10
15.247382
 20
2.083768
  0
VERTEX
  8
LAYER_1
 62
    39
  6
CONTINUOUS
 10
15.115137
 20
2.040689
  0
VERTEX
  8
LAYER_1
 62
    39
  6
CONTINUOUS
 10
15.020816
 20
1.927752
  0
VERTEX
  8
LAYER_1
 62
    39
  6
CONTINUOUS
 10
14.984839
 20
1.769406
  0
VERTEX
  8
LAYER_1
 62
    39
  6
CONTINUOUS
 10
14.984839
 20
0.861248
  0
VERTEX
  8
LAYER_1
 62
    39
  6
CONTINUOUS
 10
15.020819
 20
0.703310
  0
VERTEX
  8
LAYER_1
 62
    39
  6
CONTINUOUS
 10
15.115142
 20
0.590782
  0
SEQEND
  8
0
  0
POLYLINE
  8
LAYER_1
 62
    39
  6
CONTINUOUS
 66
     1
 40
0.006945
 41
0.006945
 70
     1
  0
VERTEX
  8
LAYER_1
 62
    39
  6
CONTINUOUS
 10
6.510783
 20
1.746138
  0
VERTEX
  8
LAYER_1
 62
    39
  6
CONTINUOUS
 10
6.516555
 20
1.777764
  0
VERTEX
  8
LAYER_1
 62
    39
  6
CONTINUOUS
 10
6.544028
 20
1.818228
  0
VERTEX
  8
LAYER_1
 62
    39
  6
CONTINUOUS
 10
6.612961
 20
1.864965
  0
VERTEX
  8
LAYER_1
 62
    39
  6
CONTINUOUS
 10
6.719614
 20
1.925591
  0
VERTEX
  8
LAYER_1
 62
    39
  6
CONTINUOUS
 10
6.845122
 20
1.974406
  0
VERTEX
  8
LAYER_1
 62
    39
  6
CONTINUOUS
 10
6.993126
 20
2.030055
  0
VERTEX
  8
LAYER_1
 62
    39
  6
CONTINUOUS
 10
7.167150
 20
2.077425
  0
VERTEX
  8
LAYER_1
 62
    39
  6
CONTINUOUS
 10
7.356071
 20
2.128331
  0
VERTEX
  8
LAYER_1
 62
    39
  6
CONTINUOUS
 10
7.510898
 20
2.153535
  0
VERTEX
  8
LAYER_1
 62
    39
  6
CONTINUOUS
 10
7.721756
 20
2.185024
  0
VERTEX
  8
LAYER_1
 62
    39
  6
CONTINUOUS
 10
7.895110
 20
2.202173
  0
VERTEX
  8
LAYER_1
 62
    39
  6
CONTINUOUS
 10
8.101882
 20
2.222299
  0
VERTEX
  8
LAYER_1
 62
    39
  6
CONTINUOUS
 10
8.275020
 20
2.232177
  0
VERTEX
  8
LAYER_1
 62
    39
  6
CONTINUOUS
 10
8.470315
 20
2.237638
  0
VERTEX
  8
LAYER_1
 62
    39
  6
CONTINUOUS
 10
8.714244
 20
2.237902
  0
VERTEX
  8
LAYER_1
 62
    39
  6
CONTINUOUS
 10
9.033051
 20
2.239697
  0
VERTEX
  8
LAYER_1
 62
    39
  6
CONTINUOUS
 10
9.303224
 20
2.231906
  0
VERTEX
  8
LAYER_1
 62
    39
  6
CONTINUOUS
 10
9.629413
 20
2.222000
  0
VERTEX
  8
LAYER_1
 62
    39
  6
CONTINUOUS
 10
10.015594
 20
2.210539
  0
VERTEX
  8
LAYER_1
 62
    39
  6
CONTINUOUS
 10
10.435413
 20
2.186823
  0
VERTEX
  8
LAYER_1
 62
    39
  6
CONTINUOUS
 10
10.798657
 20
2.161480
  0
VERTEX
  8
LAYER_1
 62
    39
  6
CONTINUOUS
 10
11.161783
 20
2.138996
  0
VERTEX
  8
LAYER_1
 62
    39
  6
CONTINUOUS
 10
11.588543
 20
2.104260
  0
VERTEX
  8
LAYER_1
 62
    39
  6
CONTINUOUS
 10
12.018815
 20
2.068524
  0
VERTEX
  8
LAYER_1
 62
    39
  6
CONTINUOUS
 10
12.423071
 20
2.026508
  0
VERTEX
  8
LAYER_1
 62
    39
  6
CONTINUOUS
 10
14.731291
 20
1.785382
  0
VERTEX
  8
LAYER_1
 62
    39
  6
CONTINUOUS
 10
14.731602
 20
1.740386
  0
VERTEX
  8
LAYER_1
 62
    39
  6
CONTINUOUS
 10
14.731315
 20
1.702075
  0
VERTEX
  8
LAYER_1
 62
    39
  6
CONTINUOUS
 10
12.423094
 20
1.460945
  0
VERTEX
  8
LAYER_1
 62
    39
  6
CONTINUOUS
 10
12.018839
 20
1.418933
  0
VERTEX
  8
LAYER_1
 62
    39
  6
CONTINUOUS
 10
11.588567
 20
1.383193
  0
VERTEX
  8
LAYER_1
 62
    39
  6
CONTINUOUS
 10
11.161807
 20
1.348461
  0
VERTEX
  8
LAYER_1
 62
    39
  6
CONTINUOUS
 10
10.798681
 20
1.325976
  0
VERTEX
  8
LAYER_1
 62
    39
  6
CONTINUOUS
 10
10.435437
 20
1.300634
  0
VERTEX
  8
LAYER_1
 62
    39
  6
CONTINUOUS
 10
10.015618
 20
1.276913
  0
VERTEX
  8
LAYER_1
 62
    39
  6
CONTINUOUS
 10
9.629441
 20
1.265457
  0
VERTEX
  8
LAYER_1
 62
    39
  6
CONTINUOUS
 10
9.303248
 20
1.255551
  0
VERTEX
  8
LAYER_1
 62
    39
  6
CONTINUOUS
 10
9.033075
 20
1.247760
  0
VERTEX
  8
LAYER_1
 62
    39
  6
CONTINUOUS
 10
8.714268
 20
1.249551
  0
VERTEX
  8
LAYER_1
 62
    39
  6
CONTINUOUS
 10
8.470339
 20
1.249815
  0
VERTEX
  8
LAYER_1
 62
    39
  6
CONTINUOUS
 10
8.275043
 20
1.255280
  0
VERTEX
  8
LAYER_1
 62
    39
  6
CONTINUOUS
 10
8.101906
 20
1.265154
  0
VERTEX
  8
LAYER_1
 62
    39
  6
CONTINUOUS
 10
7.895134
 20
1.285283
  0
VERTEX
  8
LAYER_1
 62
    39
  6
CONTINUOUS
 10
7.721780
 20
1.302433
  0
VERTEX
  8
LAYER_1
 62
    39
  6
CONTINUOUS
 10
7.510921
 20
1.333921
  0
VERTEX
  8
LAYER_1
 62
    39
  6
CONTINUOUS
 10
7.356094
 20
1.359126
  0
VERTEX
  8
LAYER_1
 62
    39
  6
CONTINUOUS
 10
7.167173
 20
1.410028
  0
VERTEX
  8
LAYER_1
 62
    39
  6
CONTINUOUS
 10
6.993150
 20
1.457402
  0
VERTEX
  8
LAYER_1
 62
    39
  6
CONTINUOUS
 10
6.845146
 20
1.513051
  0
VERTEX
  8
LAYER_1
 62
    39
  6
CONTINUOUS
 10
6.719638
 20
1.561866
  0
VERTEX
  8
LAYER_1
 62
    39
  6
CONTINUOUS
 10
6.612984
 20
1.622492
  0
VERTEX
  8
LAYER_1
 62
    39
  6
CONTINUOUS
 10
6.544051
 20
1.669228
  0
VERTEX
  8
LAYER_1
 62
    39
  6
CONTINUOUS
 10
6.516583
 20
1.709693
  0
SEQEND
  8
0
  0
POLYLINE
  8
LAYER_1
 62
    39
  6
CONTINUOUS
 66
     1
 40
0.006945
 41
0.006945
 70
     1
  0
VERTEX
  8
LAYER_1
 62
    39
  6
CONTINUOUS
 10
29.572630
 20
2.649157
  0
VERTEX
  8
LAYER_1
 62
    39
  6
CONTINUOUS
 10
29.568264
 20
0.714957
  0
VERTEX
  8
LAYER_1
 62
    39
  6
CONTINUOUS
 10
25.673665
 20
0.714957
  0
VERTEX
  8
LAYER_1
 62
    39
  6
CONTINUOUS
 10
25.673665
 20
0.588339
  0
VERTEX
  8
LAYER_1
 62
    39
  6
CONTINUOUS
 10
29.568264
 20
0.592705
  0
VERTEX
  8
LAYER_1
 62
    39
  6
CONTINUOUS
 10
29.572630
 20
-0.180102
  0
VERTEX
  8
LAYER_1
 62
    39
  6
CONTINUOUS
 10
2.864941
 20
0.134260
  0
VERTEX
  8
LAYER_1
 62
    39
  6
CONTINUOUS
 10
2.864941
 20
2.644791
  0
SEQEND
  8
0
  0
POLYLINE
  8
LAYER_1
 62
    39
  6
CONTINUOUS
 66
     1
 40
0.006945
 41
0.006945
  0
VERTEX
  8
LAYER_1
 62
    39
  6
CONTINUOUS
 10
29.580496
 20
7.448114
  0
VERTEX
  8
LAYER_1
 62
    39
  6
CONTINUOUS
 10
6.479240
 20
8.452327
  0
SEQEND
  8
0
  0
POLYLINE
  8
LAYER_1
 62
    39
  6
CONTINUOUS
 66
     1
 40
0.006945
 41
0.006945
  0
VERTEX
  8
LAYER_1
 62
    39
  6
CONTINUOUS
 10
6.483327
 20
8.452327
  0
VERTEX
  8
LAYER_1
 62
    39
  6
CONTINUOUS
 10
5.989133
 20
8.448163
  0
VERTEX
  8
LAYER_1
 62
    39
  6
CONTINUOUS
 10
5.504276
 20
8.438461
  0
VERTEX
  8
LAYER_1
 62
    39
  6
CONTINUOUS
 10
5.029949
 20
8.423515
  0
VERTEX
  8
LAYER_1
 62
    39
  6
CONTINUOUS
 10
4.567345
 20
8.403615
  0
VERTEX
  8
LAYER_1
 62
    39
  6
CONTINUOUS
 10
4.117656
 20
8.379055
  0
VERTEX
  8
LAYER_1
 62
    39
  6
CONTINUOUS
 10
3.682076
 20
8.350127
  0
VERTEX
  8
LAYER_1
 62
    39
  6
CONTINUOUS
 10
3.261797
 20
8.317122
  0
VERTEX
  8
LAYER_1
 62
    39
  6
CONTINUOUS
 10
2.858012
 20
8.280335
  0
SEQEND
  8
0
  0
POLYLINE
  8
LAYER_1
 62
    39
  6
CONTINUOUS
 66
     1
 40
0.006945
 41
0.006945
  0
VERTEX
  8
LAYER_1
 62
    39
  6
CONTINUOUS
 10
2.858012
 20
8.280335
  0
VERTEX
  8
LAYER_1
 62
    39
  6
CONTINUOUS
 10
2.858012
 20
6.617457
  0
SEQEND
  8
0
  0
POLYLINE
  8
LAYER_1
 62
    39
  6
CONTINUOUS
 66
     1
 40
0.006945
 41
0.006945
  0
VERTEX
  8
LAYER_1
 62
    39
  6
CONTINUOUS
 10
2.858012
 20
6.617457
  0
VERTEX
  8
LAYER_1
 62
    39
  6
CONTINUOUS
 10
3.261856
 20
6.581159
  0
VERTEX
  8
LAYER_1
 62
    39
  6
CONTINUOUS
 10
3.682186
 20
6.548646
  0
VERTEX
  8
LAYER_1
 62
    39
  6
CONTINUOUS
 10
4.117805
 20
6.520189
  0
VERTEX
  8
LAYER_1
 62
    39
  6
CONTINUOUS
 10
4.567515
 20
6.496061
  0
VERTEX
  8
LAYER_1
 62
    39
  6
CONTINUOUS
 10
5.030119
 20
6.476532
  0
VERTEX
  8
LAYER_1
 62
    39
  6
CONTINUOUS
 10
5.504420
 20
6.461876
  0
VERTEX
  8
LAYER_1
 62
    39
  6
CONTINUOUS
 10
5.989222
 20
6.452364
  0
VERTEX
  8
LAYER_1
 62
    39
  6
CONTINUOUS
 10
6.483327
 20
6.448268
  0
SEQEND
  8
0
  0
POLYLINE
  8
LAYER_1
 62
    39
  6
CONTINUOUS
 66
     1
 40
0.006945
 41
0.006945
  0
VERTEX
  8
LAYER_1
 62
    39
  6
CONTINUOUS
 10
6.481421
 20
6.449362
  0
VERTEX
  8
LAYER_1
 62
    39
  6
CONTINUOUS
 10
29.576130
 20
7.452480
  0
SEQEND
  8
0
  0
POLYLINE
  8
LAYER_1
 62
    39
  6
CONTINUOUS
 66
     1
 40
0.006945
 41
0.006945
 70
     1
  0
VERTEX
  8
LAYER_1
 62
    39
  6
CONTINUOUS
 10
14.380787
 20
9.388602
  0
VERTEX
  8
LAYER_1
 62
    39
  6
CONTINUOUS
 10
14.380787
 20
11.848626
  0
VERTEX
  8
LAYER_1
 62
    39
  6
CONTINUOUS
 10
14.492736
 20
11.848626
  0
VERTEX
  8
LAYER_1
 62
    39
  6
CONTINUOUS
 10
14.492736
 20
11.976374
  0
VERTEX
  8
LAYER_1
 62
    39
  6
CONTINUOUS
 10
14.669094
 20
11.975559
  0
VERTEX
  8
LAYER_1
 62
    39
  6
CONTINUOUS
 10
14.669094
 20
11.847811
  0
VERTEX
  8
LAYER_1
 62
    39
  6
CONTINUOUS
 10
14.779587
 20
11.847811
  0
VERTEX
  8
LAYER_1
 62
    39
  6
CONTINUOUS
 10
14.779587
 20
9.390020
  0
VERTEX
  8
LAYER_1
 62
    39
  6
CONTINUOUS
 10
14.668689
 20
9.390020
  0
VERTEX
  8
LAYER_1
 62
    39
  6
CONTINUOUS
 10
14.668689
 20
9.261315
  0
VERTEX
  8
LAYER_1
 62
    39
  6
CONTINUOUS
 10
14.491980
 20
9.261315
  0
VERTEX
  8
LAYER_1
 62
    39
  6
CONTINUOUS
 10
14.491980
 20
9.388602
  0
SEQEND
  8
0
  0
POLYLINE
  8
LAYER_1
 62
    39
  6
CONTINUOUS
 66
     1
 40
0.006945
 41
0.006945
 70
     1
  0
VERTEX
  8
LAYER_1
 62
    39
  6
CONTINUOUS
 10
11.740512
 20
9.383500
  0
VERTEX
  8
LAYER_1
 62
    39
  6
CONTINUOUS
 10
11.740512
 20
11.746894
  0
VERTEX
  8
LAYER_1
 62
    39
  6
CONTINUOUS
 10
11.862083
 20
11.746894
  0
VERTEX
  8
LAYER_1
 62
    39
  6
CONTINUOUS
 10
11.862083
 20
11.866606
  0
VERTEX
  8
LAYER_1
 62
    39
  6
CONTINUOUS
 10
12.917736
 20
11.866606
  0
VERTEX
  8
LAYER_1
 62
    39
  6
CONTINUOUS
 10
12.917736
 20
11.747976
  0
VERTEX
  8
LAYER_1
 62
    39
  6
CONTINUOUS
 10
13.038268
 20
11.747976
  0
VERTEX
  8
LAYER_1
 62
    39
  6
CONTINUOUS
 10
13.038268
 20
9.384634
  0
VERTEX
  8
LAYER_1
 62
    39
  6
CONTINUOUS
 10
12.914343
 20
9.384634
  0
VERTEX
  8
LAYER_1
 62
    39
  6
CONTINUOUS
 10
12.914343
 20
9.261315
  0
VERTEX
  8
LAYER_1
 62
    39
  6
CONTINUOUS
 10
11.863091
 20
9.261315
  0
VERTEX
  8
LAYER_1
 62
    39
  6
CONTINUOUS
 10
11.863091
 20
9.383500
  0
SEQEND
  8
0
  0
POLYLINE
  8
LAYER_1
 62
    39
  6
CONTINUOUS
 66
     1
 40
0.006945
 41
0.006945
 70
     1
  0
VERTEX
  8
LAYER_1
 62
    39
  6
CONTINUOUS
 10
12.150406
 20
11.571862
  0
VERTEX
  8
LAYER_1
 62
    39
  6
CONTINUOUS
 10
12.624201
 20
11.571862
  0
VERTEX
  8
LAYER_1
 62
    39
  6
CONTINUOUS
 10
12.700607
 20
11.551519
  0
VERTEX
  8
LAYER_1
 62
    39
  6
CONTINUOUS
 10
12.755103
 20
11.498187
  0
VERTEX
  8
LAYER_1
 62
    39
  6
CONTINUOUS
 10
12.775890
 20
11.423413
  0
VERTEX
  8
LAYER_1
 62
    39
  6
CONTINUOUS
 10
12.775890
 20
9.720618
  0
VERTEX
  8
LAYER_1
 62
    39
  6
CONTINUOUS
 10
12.755103
 20
9.645844
  0
VERTEX
  8
LAYER_1
 62
    39
  6
CONTINUOUS
 10
12.700607
 20
9.592513
  0
VERTEX
  8
LAYER_1
 62
    39
  6
CONTINUOUS
 10
12.624201
 20
9.572169
  0
VERTEX
  8
LAYER_1
 62
    39
  6
CONTINUOUS
 10
12.150406
 20
9.572169
  0
VERTEX
  8
LAYER_1
 62
    39
  6
CONTINUOUS
 10
12.073999
 20
9.592513
  0
VERTEX
  8
LAYER_1
 62
    39
  6
CONTINUOUS
 10
12.019503
 20
9.645844
  0
VERTEX
  8
LAYER_1
 62
    39
  6
CONTINUOUS
 10
11.998717
 20
9.720618
  0
VERTEX
  8
LAYER_1
 62
    39
  6
CONTINUOUS
 10
11.998717
 20
11.423413
  0
VERTEX
  8
LAYER_1
 62
    39
  6
CONTINUOUS
 10
12.019503
 20
11.498187
  0
VERTEX
  8
LAYER_1
 62
    39
  6
CONTINUOUS
 10
12.073999
 20
11.551519
  0
SEQEND
  8
0
  0
POLYLINE
  8
LAYER_1
 62
    39
  6
CONTINUOUS
 66
     1
 40
0.006945
 41
0.006945
 70
     1
  0
VERTEX
  8
LAYER_1
 62
    39
  6
CONTINUOUS
 10
13.306614
 20
9.386543
  0
VERTEX
  8
LAYER_1
 62
    39
  6
CONTINUOUS
 10
13.306614
 20
11.795638
  0
VERTEX
  8
LAYER_1
 62
    39
  6
CONTINUOUS
 10
13.420276
 20
11.795638
  0
VERTEX
  8
LAYER_1
 62
    39
  6
CONTINUOUS
 10
13.420276
 20
11.920319
  0
VERTEX
  8
LAYER_1
 62
    39
  6
CONTINUOUS
 10
14.016051
 20
11.920819
  0
VERTEX
  8
LAYER_1
 62
    39
  6
CONTINUOUS
 10
14.016051
 20
11.796795
  0
VERTEX
  8
LAYER_1
 62
    39
  6
CONTINUOUS
 10
14.128465
 20
11.796795
  0
VERTEX
  8
LAYER_1
 62
    39
  6
CONTINUOUS
 10
14.128465
 20
9.385465
  0
VERTEX
  8
LAYER_1
 62
    39
  6
CONTINUOUS
 10
14.016106
 20
9.385465
  0
VERTEX
  8
LAYER_1
 62
    39
  6
CONTINUOUS
 10
14.016106
 20
9.261315
  0
VERTEX
  8
LAYER_1
 62
    39
  6
CONTINUOUS
 10
13.420358
 20
9.261315
  0
VERTEX
  8
LAYER_1
 62
    39
  6
CONTINUOUS
 10
13.420358
 20
9.386543
  0
SEQEND
  8
0
  0
POLYLINE
  8
LAYER_1
 62
    39
  6
CONTINUOUS
 66
     1
 40
0.006945
 41
0.006945
 70
     1
  0
VERTEX
  8
LAYER_1
 62
    39
  6
CONTINUOUS
 10
13.641370
 20
11.638394
  0
VERTEX
  8
LAYER_1
 62
    39
  6
CONTINUOUS
 10
13.787969
 20
11.638394
  0
VERTEX
  8
LAYER_1
 62
    39
  6
CONTINUOUS
 10
13.845404
 20
11.621292
  0
VERTEX
  8
LAYER_1
 62
    39
  6
CONTINUOUS
 10
13.886367
 20
11.576458
  0
VERTEX
  8
LAYER_1
 62
    39
  6
CONTINUOUS
 10
13.901992
 20
11.513598
  0
VERTEX
  8
LAYER_1
 62
    39
  6
CONTINUOUS
 10
13.901992
 20
9.695142
  0
VERTEX
  8
LAYER_1
 62
    39
  6
CONTINUOUS
 10
13.886367
 20
9.632282
  0
VERTEX
  8
LAYER_1
 62
    39
  6
CONTINUOUS
 10
13.845404
 20
9.587448
  0
VERTEX
  8
LAYER_1
 62
    39
  6
CONTINUOUS
 10
13.787969
 20
9.570346
  0
VERTEX
  8
LAYER_1
 62
    39
  6
CONTINUOUS
 10
13.641370
 20
9.570346
  0
VERTEX
  8
LAYER_1
 62
    39
  6
CONTINUOUS
 10
13.583934
 20
9.587448
  0
VERTEX
  8
LAYER_1
 62
    39
  6
CONTINUOUS
 10
13.542971
 20
9.632282
  0
VERTEX
  8
LAYER_1
 62
    39
  6
CONTINUOUS
 10
13.527346
 20
9.695142
  0
VERTEX
  8
LAYER_1
 62
    39
  6
CONTINUOUS
 10
13.527346
 20
11.513598
  0
VERTEX
  8
LAYER_1
 62
    39
  6
CONTINUOUS
 10
13.542971
 20
11.576458
  0
VERTEX
  8
LAYER_1
 62
    39
  6
CONTINUOUS
 10
13.583934
 20
11.621292
  0
SEQEND
  8
0
  0
POLYLINE
  8
LAYER_1
 62
    39
  6
CONTINUOUS
 66
     1
 40
0.006945
 41
0.006945
 70
     1
  0
VERTEX
  8
LAYER_1
 62
    39
  6
CONTINUOUS
 10
9.098043
 20
9.261315
  0
VERTEX
  8
LAYER_1
 62
    39
  6
CONTINUOUS
 10
7.644602
 20
9.261315
  0
VERTEX
  8
LAYER_1
 62
    39
  6
CONTINUOUS
 10
7.644602
 20
9.386047
  0
VERTEX
  8
LAYER_1
 62
    39
  6
CONTINUOUS
 10
7.520461
 20
9.386047
  0
VERTEX
  8
LAYER_1
 62
    39
  6
CONTINUOUS
 10
7.520461
 20
11.549173
  0
VERTEX
  8
LAYER_1
 62
    39
  6
CONTINUOUS
 10
7.641894
 20
11.549173
  0
VERTEX
  8
LAYER_1
 62
    39
  6
CONTINUOUS
 10
7.641894
 20
11.671425
  0
VERTEX
  8
LAYER_1
 62
    39
  6
CONTINUOUS
 10
9.099398
 20
11.671425
  0
VERTEX
  8
LAYER_1
 62
    39
  6
CONTINUOUS
 10
9.099398
 20
11.549701
  0
VERTEX
  8
LAYER_1
 62
    39
  6
CONTINUOUS
 10
9.220579
 20
11.549701
  0
VERTEX
  8
LAYER_1
 62
    39
  6
CONTINUOUS
 10
9.220579
 20
9.384693
  0
VERTEX
  8
LAYER_1
 62
    39
  6
CONTINUOUS
 10
9.098043
 20
9.384693
  0
SEQEND
  8
0
  0
POLYLINE
  8
LAYER_1
 62
    39
  6
CONTINUOUS
 66
     1
 40
0.006945
 41
0.006945
 70
     1
  0
VERTEX
  8
LAYER_1
 62
    39
  6
CONTINUOUS
 10
8.008520
 20
10.702984
  0
VERTEX
  8
LAYER_1
 62
    39
  6
CONTINUOUS
 10
8.732520
 20
10.702984
  0
VERTEX
  8
LAYER_1
 62
    39
  6
CONTINUOUS
 10
8.820687
 20
10.676658
  0
VERTEX
  8
LAYER_1
 62
    39
  6
CONTINUOUS
 10
8.883569
 20
10.607641
  0
VERTEX
  8
LAYER_1
 62
    39
  6
CONTINUOUS
 10
8.907555
 20
10.510874
  0
VERTEX
  8
LAYER_1
 62
    39
  6
CONTINUOUS
 10
8.907555
 20
9.786094
  0
VERTEX
  8
LAYER_1
 62
    39
  6
CONTINUOUS
 10
8.883569
 20
9.689328
  0
VERTEX
  8
LAYER_1
 62
    39
  6
CONTINUOUS
 10
8.820687
 20
9.620310
  0
VERTEX
  8
LAYER_1
 62
    39
  6
CONTINUOUS
 10
8.732520
 20
9.593984
  0
VERTEX
  8
LAYER_1
 62
    39
  6
CONTINUOUS
 10
8.008520
 20
9.593984
  0
VERTEX
  8
LAYER_1
 62
    39
  6
CONTINUOUS
 10
7.920353
 20
9.620310
  0
VERTEX
  8
LAYER_1
 62
    39
  6
CONTINUOUS
 10
7.857470
 20
9.689328
  0
VERTEX
  8
LAYER_1
 62
    39
  6
CONTINUOUS
 10
7.833484
 20
9.786094
  0
VERTEX
  8
LAYER_1
 62
    39
  6
CONTINUOUS
 10
7.833484
 20
10.510874
  0
VERTEX
  8
LAYER_1
 62
    39
  6
CONTINUOUS
 10
7.857470
 20
10.607641
  0
VERTEX
  8
LAYER_1
 62
    39
  6
CONTINUOUS
 10
7.920353
 20
10.676658
  0
SEQEND
  8
0
  0
POLYLINE
  8
LAYER_1
 62
    39
  6
CONTINUOUS
 66
     1
 40
0.006945
 41
0.006945
 70
     1
  0
VERTEX
  8
LAYER_1
 62
    39
  6
CONTINUOUS
 10
11.061315
 20
9.606433
  0
VERTEX
  8
LAYER_1
 62
    39
  6
CONTINUOUS
 10
9.963035
 20
9.606433
  0
VERTEX
  8
LAYER_1
 62
    39
  6
CONTINUOUS
 10
9.868457
 20
9.632848
  0
VERTEX
  8
LAYER_1
 62
    39
  6
CONTINUOUS
 10
9.801002
 20
9.702098
  0
VERTEX
  8
LAYER_1
 62
    39
  6
CONTINUOUS
 10
9.775272
 20
9.799193
  0
VERTEX
  8
LAYER_1
 62
    39
  6
CONTINUOUS
 10
9.775272
 20
10.457287
  0
VERTEX
  8
LAYER_1
 62
    39
  6
CONTINUOUS
 10
9.801002
 20
10.554384
  0
VERTEX
  8
LAYER_1
 62
    39
  6
CONTINUOUS
 10
9.868457
 20
10.623633
  0
VERTEX
  8
LAYER_1
 62
    39
  6
CONTINUOUS
 10
9.963035
 20
10.650047
  0
VERTEX
  8
LAYER_1
 62
    39
  6
CONTINUOUS
 10
11.061315
 20
10.650047
  0
VERTEX
  8
LAYER_1
 62
    39
  6
CONTINUOUS
 10
11.155893
 20
10.623633
  0
VERTEX
  8
LAYER_1
 62
    39
  6
CONTINUOUS
 10
11.223348
 20
10.554384
  0
VERTEX
  8
LAYER_1
 62
    39
  6
CONTINUOUS
 10
11.249079
 20
10.457287
  0
VERTEX
  8
LAYER_1
 62
    39
  6
CONTINUOUS
 10
11.249079
 20
9.799193
  0
VERTEX
  8
LAYER_1
 62
    39
  6
CONTINUOUS
 10
11.223348
 20
9.702098
  0
VERTEX
  8
LAYER_1
 62
    39
  6
CONTINUOUS
 10
11.155893
 20
9.632848
  0
SEQEND
  8
0
  0
POLYLINE
  8
LAYER_1
 62
    39
  6
CONTINUOUS
 66
     1
 40
0.006945
 41
0.006945
 70
     1
  0
VERTEX
  8
LAYER_1
 62
    39
  6
CONTINUOUS
 10
9.623185
 20
11.706354
  0
VERTEX
  8
LAYER_1
 62
    39
  6
CONTINUOUS
 10
11.399437
 20
11.706354
  0
VERTEX
  8
LAYER_1
 62
    39
  6
CONTINUOUS
 10
11.399437
 20
11.586496
  0
VERTEX
  8
LAYER_1
 62
    39
  6
CONTINUOUS
 10
11.517925
 20
11.586496
  0
VERTEX
  8
LAYER_1
 62
    39
  6
CONTINUOUS
 10
11.517925
 20
9.381531
  0
VERTEX
  8
LAYER_1
 62
    39
  6
CONTINUOUS
 10
11.396472
 20
9.381531
  0
VERTEX
  8
LAYER_1
 62
    39
  6
CONTINUOUS
 10
11.396472
 20
9.261315
  0
VERTEX
  8
LAYER_1
 62
    39
  6
CONTINUOUS
 10
9.625461
 20
9.261315
  0
VERTEX
  8
LAYER_1
 62
    39
  6
CONTINUOUS
 10
9.625461
 20
9.381531
  0
VERTEX
  8
LAYER_1
 62
    39
  6
CONTINUOUS
 10
9.506429
 20
9.381531
  0
VERTEX
  8
LAYER_1
 62
    39
  6
CONTINUOUS
 10
9.506429
 20
11.585413
  0
VERTEX
  8
LAYER_1
 62
    39
  6
CONTINUOUS
 10
9.623185
 20
11.585413
  0
SEQEND
  8
0
  0
TEXT
  8
LAYER_1
 62
    39
 10
8.200764
 20
11.199917
 40
0.306980
  1
F1
 41
1.000000
  7
SN0
 71
     0
 72
     5
 11
8.704803
 21
11.199917
  0
TEXT
  8
LAYER_1
 62
    39
 10
10.331921
 20
11.269791
 40
0.306980
  1
F2
 41
1.000000
  7
SN0
 71
     0
 72
     5
 11
10.835960
 21
11.269791
  0
TEXT
  8
LAYER_1
 62
    39
 10
12.166114
 20
11.584224
 40
0.306980
  1
F3
 41
1.000000
  7
SN0
 71
     0
 72
     5
 11
12.670153
 21
11.584224
  0
TEXT
  8
LAYER_1
 62
    39
 10
13.563594
 20
11.636630
 40
0.306980
  1
F4
 41
1.000000
  7
SN0
 71
     0
 72
     5
 11
14.067634
 21
11.636630
  0
TEXT
  8
LAYER_1
 62
    39
 10
14.437020
 20
11.461945
 40
0.306980
  1
F5
 41
1.000000
  7
SN0
 71
     0
 72
     5
 11
14.941059
 21
11.461945
  0
TEXT
  8
LAYER_1
 62
    39
 10
7.292402
 20
7.758622
 40
0.306980
  1
FUSELAGE BOTTOM
 41
1.000000
  7
SN0
 71
     0
 72
     5
 11
9.829859
 21
7.758622
  0
TEXT
  8
LAYER_1
 62
    39
 10
3.484268
 20
10.448772
 40
0.306980
  1
FUSELAGE TOP
 41
1.000000
  7
SN0
 71
     0
 72
     5
 11
5.514234
 21
10.448772
  0
POLYLINE
  8
LAYER_1
 62
    39
  6
CONTINUOUS
 66
     1
 40
0.006945
 41
0.006945
 70
     1
  0
VERTEX
  8
LAYER_1
 62
    39
  6
CONTINUOUS
 10
1.685055
 20
16.653028
  0
VERTEX
  8
LAYER_1
 62
    39
  6
CONTINUOUS
 10
31.193346
 20
16.653028
  0
VERTEX
  8
LAYER_1
 62
    39
  6
CONTINUOUS
 10
31.193346
 20
-2.773043
  0
VERTEX
  8
LAYER_1
 62
    39
  6
CONTINUOUS
 10
1.685055
 20
-2.773043
  0
SEQEND
  8
0
  0
TEXT
  8
LAYER_1
 62
    39
 10
4.759681
 20
14.108606
 40
1.756433
  1
1/16 BALSA
 41
1.000000
  7
SN0
 71
     0
 72
     5
 11
17.226019
 21
14.108606
  0
POLYLINE
  8
LAYER_1
 62
    39
  6
CONTINUOUS
 66
     1
 40
0.006945
 41
0.006945
  0
VERTEX
  8
LAYER_1
 62
    39
  6
CONTINUOUS
 10
14.204031
 20
12.720961
  0
VERTEX
  8
LAYER_1
 62
    39
  6
CONTINUOUS
 10
9.664087
 20
12.918311
  0
SEQEND
  8
0
  0
POLYLINE
  8
LAYER_1
 62
    39
  6
CONTINUOUS
 66
     1
 40
0.006945
 41
0.006945
  0
VERTEX
  8
LAYER_1
 62
    39
  6
CONTINUOUS
 10
9.664087
 20
12.528323
  0
VERTEX
  8
LAYER_1
 62
    39
  6
CONTINUOUS
 10
14.199665
 20
12.725327
  0
SEQEND
  8
0
  0
POLYLINE
  8
LAYER_1
 62
    39
  6
CONTINUOUS
 66
     1
 40
0.006945
 41
0.006945
  0
VERTEX
  8
LAYER_1
 62
    39
  6
CONTINUOUS
 10
9.664933
 20
12.529894
  0
VERTEX
  8
LAYER_1
 62
    39
  6
CONTINUOUS
 10
9.664933
 20
12.918831
  0
SEQEND
  8
0
  0
TEXT
  8
LAYER_1
 62
    39
 10
9.706988
 20
12.993768
 40
0.306980
  1
FUSE REAR TOP
 41
1.000000
  7
SN0
 71
     0
 72
     5
 11
11.906118
 21
12.993768
  0
POLYLINE
  8
LAYER_1
 62
    39
  6
CONTINUOUS
 66
     1
 40
0.006945
 41
0.006945
 70
     1
  0
VERTEX
  8
LAYER_1
 62
    39
  6
CONTINUOUS
 10
-4.383559
 20
7.801307
  0
VERTEX
  8
LAYER_1
 62
    39
  6
CONTINUOUS
 10
-3.457728
 20
7.801307
  0
VERTEX
  8
LAYER_1
 62
    39
  6
CONTINUOUS
 10
-3.457728
 20
2.995437
  0
VERTEX
  8
LAYER_1
 62
    39
  6
CONTINUOUS
 10
-4.383559
 20
2.068563
  0
SEQEND
  8
0
  0
POLYLINE
  8
LAYER_1
 62
    39
  6
CONTINUOUS
 66
     1
 40
0.006945
 41
0.006945
 70
     1
  0
VERTEX
  8
LAYER_1
 62
    39
  6
CONTINUOUS
 10
-3.462543
 20
8.323524
  0
VERTEX
  8
LAYER_1
 62
    39
  6
CONTINUOUS
 10
-5.998898
 20
8.148921
  0
VERTEX
  8
LAYER_1
 62
    39
  6
CONTINUOUS
 10
-6.088362
 20
8.134185
  0
VERTEX
  8
LAYER_1
 62
    39
  6
CONTINUOUS
 10
-6.155961
 20
8.105618
  0
VERTEX
  8
LAYER_1
 62
    39
  6
CONTINUOUS
 10
-6.211717
 20
8.065980
  0
VERTEX
  8
LAYER_1
 62
    39
  6
CONTINUOUS
 10
-6.255559
 20
8.027528
  0
VERTEX
  8
LAYER_1
 62
    39
  6
CONTINUOUS
 10
-6.308713
 20
7.945606
  0
VERTEX
  8
LAYER_1
 62
    39
  6
CONTINUOUS
 10
-6.340480
 20
7.860622
  0
VERTEX
  8
LAYER_1
 62
    39
  6
CONTINUOUS
 10
-3.458177
 20
7.860622
  0
SEQEND
  8
0
  0
POLYLINE
  8
LAYER_1
 62
    39
  6
CONTINUOUS
 66
     1
 40
0.006945
 41
0.006945
 70
     1
  0
VERTEX
  8
LAYER_1
 62
    39
  6
CONTINUOUS
 10
-4.383051
 20
1.893917
  0
VERTEX
  8
LAYER_1
 62
    39
  6
CONTINUOUS
 10
-8.382437
 20
1.893917
  0
VERTEX
  8
LAYER_1
 62
    39
  6
CONTINUOUS
 10
-6.339083
 20
7.858067
  0
VERTEX
  8
LAYER_1
 62
    39
  6
CONTINUOUS
 10
-4.383051
 20
7.858067
  0
SEQEND
  8
0
  0
POLYLINE
  8
LAYER_1
 62
    39
  6
CONTINUOUS
 66
     1
 40
0.006945
 41
0.006945
 70
     1
  0
VERTEX
  8
LAYER_1
 62
    39
  6
CONTINUOUS
 10
-4.383394
 20
-4.012181
  0
VERTEX
  8
LAYER_1
 62
    39
  6
CONTINUOUS
 10
-3.457563
 20
-4.012181
  0
VERTEX
  8
LAYER_1
 62
    39
  6
CONTINUOUS
 10
-3.457563
 20
0.793689
  0
VERTEX
  8
LAYER_1
 62
    39
  6
CONTINUOUS
 10
-4.383394
 20
1.720563
  0
SEQEND
  8
0
  0
POLYLINE
  8
LAYER_1
 62
    39
  6
CONTINUOUS
 66
     1
 40
0.006945
 41
0.006945
 70
     1
  0
VERTEX
  8
LAYER_1
 62
    39
  6
CONTINUOUS
 10
-3.462378
 20
-4.534398
  0
VERTEX
  8
LAYER_1
 62
    39
  6
CONTINUOUS
 10
-6.012157
 20
-4.358874
  0
VERTEX
  8
LAYER_1
 62
    39
  6
CONTINUOUS
 10
-6.103819
 20
-4.340004
  0
VERTEX
  8
LAYER_1
 62
    39
  6
CONTINUOUS
 10
-6.182189
 20
-4.305122
  0
VERTEX
  8
LAYER_1
 62
    39
  6
CONTINUOUS
 10
-6.231181
 20
-4.268130
  0
VERTEX
  8
LAYER_1
 62
    39
  6
CONTINUOUS
 10
-6.264354
 20
-4.226976
  0
VERTEX
  8
LAYER_1
 62
    39
  6
CONTINUOUS
 10
-6.297000
 20
-4.178969
  0
VERTEX
  8
LAYER_1
 62
    39
  6
CONTINUOUS
 10
-6.323232
 20
-4.124461
  0
VERTEX
  8
LAYER_1
 62
    39
  6
CONTINUOUS
 10
-6.340315
 20
-4.071496
  0
VERTEX
  8
LAYER_1
 62
    39
  6
CONTINUOUS
 10
-3.458012
 20
-4.071496
  0
SEQEND
  8
0
  0
POLYLINE
  8
LAYER_1
 62
    39
  6
CONTINUOUS
 66
     1
 40
0.006945
 41
0.006945
 70
     1
  0
VERTEX
  8
LAYER_1
 62
    39
  6
CONTINUOUS
 10
-4.382886
 20
1.895209
  0
VERTEX
  8
LAYER_1
 62
    39
  6
CONTINUOUS
 10
-8.382272
 20
1.895209
  0
VERTEX
  8
LAYER_1
 62
    39
  6
CONTINUOUS
 10
-6.338917
 20
-4.068941
  0
VERTEX
  8
LAYER_1
 62
    39
  6
CONTINUOUS
 10
-4.382886
 20
-4.068941
  0
SEQEND
  8
0
  0
POLYLINE
  8
LAYER_1
 62
    20
  6
CONTINUOUS
 66
     1
 40
0.006945
 41
0.006945
  0
VERTEX
  8
LAYER_1
 62
    20
  6
CONTINUOUS
 10
-36.196709
 20
1.894563
  0
VERTEX
  8
LAYER_1
 62
    20
  6
CONTINUOUS
 10
0.838606
 20
1.894563
  0
SEQEND
  8
0
  0
POLYLINE
  8
LAYER_1
 62
    39
  6
CONTINUOUS
 66
     1
 40
0.006945
 41
0.006945
  0
VERTEX
  8
LAYER_1
 62
    39
  6
CONTINUOUS
 10
-27.479508
 20
2.957898
  0
VERTEX
  8
LAYER_1
 62
    39
  6
CONTINUOUS
 10
-4.386146
 20
1.979661
  0
VERTEX
  8
LAYER_1
 62
    39
  6
CONTINUOUS
 10
-4.381776
 20
1.800610
  0
VERTEX
  8
LAYER_1
 62
    39
  6
CONTINUOUS
 10
-27.479508
 20
0.826740
  0
SEQEND
  8
0
  0
POLYLINE
  8
LAYER_1
 62
    39
  6
CONTINUOUS
 66
     1
 40
0.006945
 41
0.006945
 70
     1
  0
VERTEX
  8
LAYER_1
 62
    39
  6
CONTINUOUS
 10
-8.709535
 20
1.955272
  0
VERTEX
  8
LAYER_1
 62
    39
  6
CONTINUOUS
 10
-2.016465
 20
1.955272
  0
VERTEX
  8
LAYER_1
 62
    39
  6
CONTINUOUS
 10
-1.897704
 20
1.952373
  0
VERTEX
  8
LAYER_1
 62
    39
  6
CONTINUOUS
 10
-1.813002
 20
1.944773
  0
VERTEX
  8
LAYER_1
 62
    39
  6
CONTINUOUS
 10
-1.780693
 20
1.934118
  0
VERTEX
  8
LAYER_1
 62
    39
  6
CONTINUOUS
 10
-1.780693
 20
1.855008
  0
VERTEX
  8
LAYER_1
 62
    39
  6
CONTINUOUS
 10
-1.813002
 20
1.844353
  0
VERTEX
  8
LAYER_1
 62
    39
  6
CONTINUOUS
 10
-1.897704
 20
1.836753
  0
VERTEX
  8
LAYER_1
 62
    39
  6
CONTINUOUS
 10
-2.016465
 20
1.833854
  0
VERTEX
  8
LAYER_1
 62
    39
  6
CONTINUOUS
 10
-8.709535
 20
1.833854
  0
VERTEX
  8
LAYER_1
 62
    39
  6
CONTINUOUS
 10
-8.828296
 20
1.836753
  0
VERTEX
  8
LAYER_1
 62
    39
  6
CONTINUOUS
 10
-8.912998
 20
1.844353
  0
VERTEX
  8
LAYER_1
 62
    39
  6
CONTINUOUS
 10
-8.945307
 20
1.855008
  0
VERTEX
  8
LAYER_1
 62
    39
  6
CONTINUOUS
 10
-8.945307
 20
1.934118
  0
VERTEX
  8
LAYER_1
 62
    39
  6
CONTINUOUS
 10
-8.912998
 20
1.944773
  0
VERTEX
  8
LAYER_1
 62
    39
  6
CONTINUOUS
 10
-8.828296
 20
1.952373
  0
SEQEND
  8
0
  0
POLYLINE
  8
LAYER_1
 62
    39
  6
CONTINUOUS
 66
     1
 40
0.006945
 41
0.006945
 70
     1
  0
VERTEX
  8
LAYER_1
 62
    39
  6
CONTINUOUS
 10
-34.605035
 20
1.894795
  0
VERTEX
  8
LAYER_1
 62
    39
  6
CONTINUOUS
 10
-34.596303
 20
1.942823
  0
VERTEX
  8
LAYER_1
 62
    39
  6
CONTINUOUS
 10
-34.535177
 20
1.995217
  0
VERTEX
  8
LAYER_1
 62
    39
  6
CONTINUOUS
 10
-34.456587
 20
2.047610
  0
VERTEX
  8
LAYER_1
 62
    39
  6
CONTINUOUS
 10
-34.343067
 20
2.113102
  0
VERTEX
  8
LAYER_1
 62
    39
  6
CONTINUOUS
 10
-34.185886
 20
2.187327
  0
VERTEX
  8
LAYER_1
 62
    39
  6
CONTINUOUS
 10
-33.976311
 20
2.274650
  0
VERTEX
  8
LAYER_1
 62
    39
  6
CONTINUOUS
 10
-33.792933
 20
2.340142
  0
VERTEX
  8
LAYER_1
 62
    39
  6
CONTINUOUS
 10
-33.552795
 20
2.410000
  0
VERTEX
  8
LAYER_1
 62
    39
  6
CONTINUOUS
 10
-33.351953
 20
2.462394
  0
VERTEX
  8
LAYER_1
 62
    39
  6
CONTINUOUS
 10
-33.194772
 20
2.492957
  0
VERTEX
  8
LAYER_1
 62
    39
  6
CONTINUOUS
 10
-33.111815
 20
2.506055
  0
VERTEX
  8
LAYER_1
 62
    39
  6
CONTINUOUS
 10
-33.107449
 20
1.899161
  0
SEQEND
  8
0
  0
POLYLINE
  8
LAYER_1
 62
    39
  6
CONTINUOUS
 66
     1
 40
0.006945
 41
0.006945
 70
     1
  0
VERTEX
  8
LAYER_1
 62
    39
  6
CONTINUOUS
 10
-34.600669
 20
1.890425
  0
VERTEX
  8
LAYER_1
 62
    39
  6
CONTINUOUS
 10
-34.591937
 20
1.842398
  0
VERTEX
  8
LAYER_1
 62
    39
  6
CONTINUOUS
 10
-34.530811
 20
1.790004
  0
VERTEX
  8
LAYER_1
 62
    39
  6
CONTINUOUS
 10
-34.452220
 20
1.737610
  0
VERTEX
  8
LAYER_1
 62
    39
  6
CONTINUOUS
 10
-34.338701
 20
1.672118
  0
VERTEX
  8
LAYER_1
 62
    39
  6
CONTINUOUS
 10
-34.181520
 20
1.597894
  0
VERTEX
  8
LAYER_1
 62
    39
  6
CONTINUOUS
 10
-33.971945
 20
1.510571
  0
VERTEX
  8
LAYER_1
 62
    39
  6
CONTINUOUS
 10
-33.788567
 20
1.445079
  0
VERTEX
  8
LAYER_1
 62
    39
  6
CONTINUOUS
 10
-33.548429
 20
1.375220
  0
VERTEX
  8
LAYER_1
 62
    39
  6
CONTINUOUS
 10
-33.347587
 20
1.322827
  0
VERTEX
  8
LAYER_1
 62
    39
  6
CONTINUOUS
 10
-33.190406
 20
1.292264
  0
VERTEX
  8
LAYER_1
 62
    39
  6
CONTINUOUS
 10
-33.107449
 20
1.279165
  0
VERTEX
  8
LAYER_1
 62
    39
  6
CONTINUOUS
 10
-33.107449
 20
1.894791
  0
SEQEND
  8
0
  0
POLYLINE
  8
LAYER_1
 62
    39
  6
CONTINUOUS
 66
     1
 40
0.006945
 41
0.006945
 70
     1
  0
VERTEX
  8
LAYER_1
 62
    39
  6
CONTINUOUS
 10
-27.487067
 20
2.960386
  0
VERTEX
  8
LAYER_1
 62
    39
  6
CONTINUOUS
 10
-28.004622
 20
2.956064
  0
VERTEX
  8
LAYER_1
 62
    39
  6
CONTINUOUS
 10
-28.511738
 20
2.946128
  0
VERTEX
  8
LAYER_1
 62
    39
  6
CONTINUOUS
 10
-29.007065
 20
2.930784
  0
VERTEX
  8
LAYER_1
 62
    39
  6
CONTINUOUS
 10
-29.489251
 20
2.910237
  0
VERTEX
  8
LAYER_1
 62
    39
  6
CONTINUOUS
 10
-29.956945
 20
2.884692
  0
VERTEX
  8
LAYER_1
 62
    39
  6
CONTINUOUS
 10
-30.408795
 20
2.854355
  0
VERTEX
  8
LAYER_1
 62
    39
  6
CONTINUOUS
 10
-30.843450
 20
2.819431
  0
VERTEX
  8
LAYER_1
 62
    39
  6
CONTINUOUS
 10
-31.259558
 20
2.780125
  0
VERTEX
  8
LAYER_1
 62
    39
  6
CONTINUOUS
 10
-31.655768
 20
2.736643
  0
VERTEX
  8
LAYER_1
 62
    39
  6
CONTINUOUS
 10
-32.030729
 20
2.689191
  0
VERTEX
  8
LAYER_1
 62
    39
  6
CONTINUOUS
 10
-32.383090
 20
2.637973
  0
VERTEX
  8
LAYER_1
 62
    39
  6
CONTINUOUS
 10
-32.711498
 20
2.583195
  0
VERTEX
  8
LAYER_1
 62
    39
  6
CONTINUOUS
 10
-33.014602
 20
2.525063
  0
VERTEX
  8
LAYER_1
 62
    39
  6
CONTINUOUS
 10
-33.014602
 20
1.264043
  0
VERTEX
  8
LAYER_1
 62
    39
  6
CONTINUOUS
 10
-32.711498
 20
1.205912
  0
VERTEX
  8
LAYER_1
 62
    39
  6
CONTINUOUS
 10
-32.383090
 20
1.151136
  0
VERTEX
  8
LAYER_1
 62
    39
  6
CONTINUOUS
 10
-32.030729
 20
1.099920
  0
VERTEX
  8
LAYER_1
 62
    39
  6
CONTINUOUS
 10
-31.655768
 20
1.052469
  0
VERTEX
  8
LAYER_1
 62
    39
  6
CONTINUOUS
 10
-31.259558
 20
1.008990
  0
VERTEX
  8
LAYER_1
 62
    39
  6
CONTINUOUS
 10
-30.843450
 20
0.969686
  0
VERTEX
  8
LAYER_1
 62
    39
  6
CONTINUOUS
 10
-30.408795
 20
0.934764
  0
VERTEX
  8
LAYER_1
 62
    39
  6
CONTINUOUS
 10
-29.956945
 20
0.904429
  0
VERTEX
  8
LAYER_1
 62
    39
  6
CONTINUOUS
 10
-29.489251
 20
0.878885
  0
VERTEX
  8
LAYER_1
 62
    39
  6
CONTINUOUS
 10
-29.007065
 20
0.858340
  0
VERTEX
  8
LAYER_1
 62
    39
  6
CONTINUOUS
 10
-28.511738
 20
0.842997
  0
VERTEX
  8
LAYER_1
 62
    39
  6
CONTINUOUS
 10
-28.004622
 20
0.833062
  0
VERTEX
  8
LAYER_1
 62
    39
  6
CONTINUOUS
 10
-27.487067
 20
0.828740
  0
SEQEND
  8
0
  0
POLYLINE
  8
LAYER_1
 62
    39
  6
CONTINUOUS
 66
     1
 40
0.006945
 41
0.006945
 70
     1
  0
VERTEX
  8
LAYER_1
 62
    39
  6
CONTINUOUS
 10
-31.047213
 20
0.992650
  0
VERTEX
  8
LAYER_1
 62
    39
  6
CONTINUOUS
 10
-31.099606
 20
0.992650
  0
VERTEX
  8
LAYER_1
 62
    39
  6
CONTINUOUS
 10
-31.099606
 20
2.791500
  0
VERTEX
  8
LAYER_1
 62
    39
  6
CONTINUOUS
 10
-31.047213
 20
2.791500
  0
SEQEND
  8
0
  0
POLYLINE
  8
LAYER_1
 62
    39
  6
CONTINUOUS
 66
     1
 40
0.006945
 41
0.006945
 70
     1
  0
VERTEX
  8
LAYER_1
 62
    39
  6
CONTINUOUS
 10
-19.234268
 20
1.180394
  0
VERTEX
  8
LAYER_1
 62
    39
  6
CONTINUOUS
 10
-19.181874
 20
1.180394
  0
VERTEX
  8
LAYER_1
 62
    39
  6
CONTINUOUS
 10
-19.181874
 20
2.603756
  0
VERTEX
  8
LAYER_1
 62
    39
  6
CONTINUOUS
 10
-19.234268
 20
2.603756
  0
SEQEND
  8
0
  0
POLYLINE
  8
LAYER_1
 62
    39
  6
CONTINUOUS
 66
     1
 40
0.006945
 41
0.006945
 70
     1
  0
VERTEX
  8
LAYER_1
 62
    39
  6
CONTINUOUS
 10
-14.114091
 20
1.393768
  0
VERTEX
  8
LAYER_1
 62
    39
  6
CONTINUOUS
 10
-14.061697
 20
1.393768
  0
VERTEX
  8
LAYER_1
 62
    39
  6
CONTINUOUS
 10
-14.061697
 20
2.390531
  0
VERTEX
  8
LAYER_1
 62
    39
  6
CONTINUOUS
 10
-14.114091
 20
2.390531
  0
SEQEND
  8
0
  0
POLYLINE
  8
LAYER_1
 62
    39
  6
CONTINUOUS
 66
     1
 40
0.006945
 41
0.006945
 70
     1
  0
VERTEX
  8
LAYER_1
 62
    39
  6
CONTINUOUS
 10
-8.974012
 20
1.603909
  0
VERTEX
  8
LAYER_1
 62
    39
  6
CONTINUOUS
 10
-8.921618
 20
1.603909
  0
VERTEX
  8
LAYER_1
 62
    39
  6
CONTINUOUS
 10
-8.921618
 20
2.171508
  0
VERTEX
  8
LAYER_1
 62
    39
  6
CONTINUOUS
 10
-8.974012
 20
2.171508
  0
SEQEND
  8
0
  0
POLYLINE
  8
LAYER_1
 62
    39
  6
CONTINUOUS
 66
     1
 40
0.006945
 41
0.006945
 70
     1
  0
VERTEX
  8
LAYER_1
 62
    39
  6
CONTINUOUS
 10
-27.546370
 20
0.883496
  0
VERTEX
  8
LAYER_1
 62
    39
  6
CONTINUOUS
 10
-27.493976
 20
0.883496
  0
VERTEX
  8
LAYER_1
 62
    39
  6
CONTINUOUS
 10
-27.493976
 20
2.891921
  0
VERTEX
  8
LAYER_1
 62
    39
  6
CONTINUOUS
 10
-27.546370
 20
2.891921
  0
SEQEND
  8
0
  0
POLYLINE
  8
LAYER_1
 62
    39
  6
CONTINUOUS
 66
     1
 40
0.006945
 41
0.006945
 70
     1
  0
VERTEX
  8
LAYER_1
 62
    39
  6
CONTINUOUS
 10
-23.952358
 20
17.006252
  0
VERTEX
  8
LAYER_1
 62
    39
  6
CONTINUOUS
 10
-27.725555
 20
1.895996
  0
VERTEX
  8
LAYER_1
 62
    39
  6
CONTINUOUS
 10
-19.239118
 20
1.895996
  0
VERTEX
  8
LAYER_1
 62
    39
  6
CONTINUOUS
 10
-19.239118
 20
17.635118
  0
SEQEND
  8
0
  0
POLYLINE
  8
LAYER_1
 62
    39
  6
CONTINUOUS
 66
     1
 40
0.006945
 41
0.006945
 70
     1
  0
VERTEX
  8
LAYER_1
 62
    39
  6
CONTINUOUS
 10
-27.560831
 20
2.527705
  0
VERTEX
  8
LAYER_1
 62
    39
  6
CONTINUOUS
 10
-19.249248
 20
2.527705
  0
VERTEX
  8
LAYER_1
 62
    39
  6
CONTINUOUS
 10
-19.249248
 20
2.593197
  0
VERTEX
  8
LAYER_1
 62
    39
  6
CONTINUOUS
 10
-27.560831
 20
2.593197
  0
SEQEND
  8
0
  0
POLYLINE
  8
LAYER_1
 62
    39
  6
CONTINUOUS
 66
     1
 40
0.006945
 41
0.006945
 70
     1
  0
VERTEX
  8
LAYER_1
 62
    39
  6
CONTINUOUS
 10
-26.862091
 20
5.360240
  0
VERTEX
  8
LAYER_1
 62
    39
  6
CONTINUOUS
 10
-19.245823
 20
5.360240
  0
VERTEX
  8
LAYER_1
 62
    39
  6
CONTINUOUS
 10
-19.245823
 20
5.425732
  0
VERTEX
  8
LAYER_1
 62
    39
  6
CONTINUOUS
 10
-26.862091
 20
5.425732
  0
SEQEND
  8
0
  0
POLYLINE
  8
LAYER_1
 62
    39
  6
CONTINUOUS
 66
     1
 40
0.006945
 41
0.006945
 70
     1
  0
VERTEX
  8
LAYER_1
 62
    39
  6
CONTINUOUS
 10
-26.128413
 20
8.192772
  0
VERTEX
  8
LAYER_1
 62
    39
  6
CONTINUOUS
 10
-19.245823
 20
8.192772
  0
VERTEX
  8
LAYER_1
 62
    39
  6
CONTINUOUS
 10
-19.245823
 20
8.258264
  0
VERTEX
  8
LAYER_1
 62
    39
  6
CONTINUOUS
 10
-26.128413
 20
8.258264
  0
SEQEND
  8
0
  0
POLYLINE
  8
LAYER_1
 62
    39
  6
CONTINUOUS
 66
     1
 40
0.006945
 41
0.006945
 70
     1
  0
VERTEX
  8
LAYER_1
 62
    39
  6
CONTINUOUS
 10
-25.447142
 20
11.025307
  0
VERTEX
  8
LAYER_1
 62
    39
  6
CONTINUOUS
 10
-19.245823
 20
11.025307
  0
VERTEX
  8
LAYER_1
 62
    39
  6
CONTINUOUS
 10
-19.245823
 20
11.090799
  0
VERTEX
  8
LAYER_1
 62
    39
  6
CONTINUOUS
 10
-25.447142
 20
11.090799
  0
SEQEND
  8
0
  0
POLYLINE
  8
LAYER_1
 62
    39
  6
CONTINUOUS
 66
     1
 40
0.006945
 41
0.006945
 70
     1
  0
VERTEX
  8
LAYER_1
 62
    39
  6
CONTINUOUS
 10
-24.730933
 20
13.857839
  0
VERTEX
  8
LAYER_1
 62
    39
  6
CONTINUOUS
 10
-19.245823
 20
13.857839
  0
VERTEX
  8
LAYER_1
 62
    39
  6
CONTINUOUS
 10
-19.245823
 20
13.923331
  0
VERTEX
  8
LAYER_1
 62
    39
  6
CONTINUOUS
 10
-24.730933
 20
13.923331
  0
SEQEND
  8
0
  0
POLYLINE
  8
LAYER_1
 62
    39
  6
CONTINUOUS
 66
     1
 40
0.006945
 41
0.006945
 70
     1
  0
VERTEX
  8
LAYER_1
 62
    39
  6
CONTINUOUS
 10
-24.032193
 20
16.690370
  0
VERTEX
  8
LAYER_1
 62
    39
  6
CONTINUOUS
 10
-19.245823
 20
16.690370
  0
VERTEX
  8
LAYER_1
 62
    39
  6
CONTINUOUS
 10
-19.245823
 20
16.755862
  0
VERTEX
  8
LAYER_1
 62
    39
  6
CONTINUOUS
 10
-24.032193
 20
16.755862
  0
SEQEND
  8
0
  0
POLYLINE
  8
LAYER_1
 62
    39
  6
CONTINUOUS
 66
     1
 40
0.006945
 41
0.006945
 70
     1
  0
VERTEX
  8
LAYER_1
 62
    39
  6
CONTINUOUS
 10
-25.434012
 20
1.896780
  0
VERTEX
  8
LAYER_1
 62
    39
  6
CONTINUOUS
 10
-22.717689
 20
16.753583
  0
VERTEX
  8
LAYER_1
 62
    39
  6
CONTINUOUS
 10
-22.473161
 20
16.753587
  0
VERTEX
  8
LAYER_1
 62
    39
  6
CONTINUOUS
 10
-25.180732
 20
1.896780
  0
SEQEND
  8
0
  0
POLYLINE
  8
LAYER_1
 62
    39
  6
CONTINUOUS
 66
     1
 40
0.006945
 41
0.006945
 70
     1
  0
VERTEX
  8
LAYER_1
 62
    39
  6
CONTINUOUS
 10
-20.380535
 20
1.900177
  0
VERTEX
  8
LAYER_1
 62
    39
  6
CONTINUOUS
 10
-20.262063
 20
1.900177
  0
VERTEX
  8
LAYER_1
 62
    39
  6
CONTINUOUS
 10
-20.262063
 20
16.688299
  0
VERTEX
  8
LAYER_1
 62
    39
  6
CONTINUOUS
 10
-20.380535
 20
16.688299
  0
SEQEND
  8
0
  0
POLYLINE
  8
LAYER_1
 62
    39
  6
CONTINUOUS
 66
     1
 40
0.006945
 41
0.006945
 70
     1
  0
VERTEX
  8
LAYER_1
 62
    39
  6
CONTINUOUS
 10
-20.239689
 20
2.664252
  0
VERTEX
  8
LAYER_1
 62
    39
  6
CONTINUOUS
 10
-20.121217
 20
2.664252
  0
VERTEX
  8
LAYER_1
 62
    39
  6
CONTINUOUS
 10
-20.121217
 20
16.625961
  0
VERTEX
  8
LAYER_1
 62
    39
  6
CONTINUOUS
 10
-20.239689
 20
16.625961
  0
SEQEND
  8
0
  0
POLYLINE
  8
LAYER_1
 62
    39
  6
CONTINUOUS
 66
     1
 40
0.006945
 41
0.006945
 70
     1
  0
VERTEX
  8
LAYER_1
 62
    39
  6
CONTINUOUS
 10
-23.305394
 20
16.694016
  0
VERTEX
  8
LAYER_1
 62
    39
  6
CONTINUOUS
 10
-23.244268
 20
16.694016
  0
VERTEX
  8
LAYER_1
 62
    39
  6
CONTINUOUS
 10
-26.213244
 20
2.530252
  0
VERTEX
  8
LAYER_1
 62
    39
  6
CONTINUOUS
 10
-26.270004
 20
2.530252
  0
SEQEND
  8
0
  0
POLYLINE
  8
LAYER_1
 62
    39
  6
CONTINUOUS
 66
     1
 40
0.006945
 41
0.006945
 70
     1
  0
VERTEX
  8
LAYER_1
 62
    39
  6
CONTINUOUS
 10
-20.237697
 20
2.664252
  0
VERTEX
  8
LAYER_1
 62
    39
  6
CONTINUOUS
 10
-19.238752
 20
2.664252
  0
VERTEX
  8
LAYER_1
 62
    39
  6
CONTINUOUS
 10
-19.238752
 20
16.627173
  0
VERTEX
  8
LAYER_1
 62
    39
  6
CONTINUOUS
 10
-20.237697
 20
16.627173
  0
SEQEND
  8
0
  0
POLYLINE
  8
LAYER_1
 62
    39
  6
CONTINUOUS
 66
     1
 40
0.006945
 41
0.006945
  0
VERTEX
  8
LAYER_1
 62
    39
  6
CONTINUOUS
 10
-23.919165
 20
16.757059
  0
VERTEX
  8
LAYER_1
 62
    39
  6
CONTINUOUS
 10
-27.630358
 20
1.893634
  0
SEQEND
  8
0
  0
POLYLINE
  8
LAYER_1
 62
    39
  6
CONTINUOUS
 66
     1
 40
0.006945
 41
0.006945
  0
VERTEX
  8
LAYER_1
 62
    39
  6
CONTINUOUS
 10
-23.794744
 20
16.751984
  0
VERTEX
  8
LAYER_1
 62
    39
  6
CONTINUOUS
 10
-27.504799
 20
1.896496
  0
SEQEND
  8
0
  0
POLYLINE
  8
LAYER_1
 62
    39
  6
CONTINUOUS
 66
     1
 40
0.006945
 41
0.006945
 70
     1
  0
VERTEX
  8
LAYER_1
 62
    39
  6
CONTINUOUS
 10
-23.952358
 20
-13.218528
  0
VERTEX
  8
LAYER_1
 62
    39
  6
CONTINUOUS
 10
-27.725555
 20
1.891728
  0
VERTEX
  8
LAYER_1
 62
    39
  6
CONTINUOUS
 10
-19.239118
 20
1.891728
  0
VERTEX
  8
LAYER_1
 62
    39
  6
CONTINUOUS
 10
-19.239118
 20
-13.847394
  0
SEQEND
  8
0
  0
POLYLINE
  8
LAYER_1
 62
    39
  6
CONTINUOUS
 66
     1
 40
0.006945
 41
0.006945
 70
     1
  0
VERTEX
  8
LAYER_1
 62
    39
  6
CONTINUOUS
 10
-27.560831
 20
1.260020
  0
VERTEX
  8
LAYER_1
 62
    39
  6
CONTINUOUS
 10
-19.249248
 20
1.260020
  0
VERTEX
  8
LAYER_1
 62
    39
  6
CONTINUOUS
 10
-19.249248
 20
1.194528
  0
VERTEX
  8
LAYER_1
 62
    39
  6
CONTINUOUS
 10
-27.560831
 20
1.194528
  0
SEQEND
  8
0
  0
POLYLINE
  8
LAYER_1
 62
    39
  6
CONTINUOUS
 66
     1
 40
0.006945
 41
0.006945
 70
     1
  0
VERTEX
  8
LAYER_1
 62
    39
  6
CONTINUOUS
 10
-26.862091
 20
-1.572516
  0
VERTEX
  8
LAYER_1
 62
    39
  6
CONTINUOUS
 10
-19.245823
 20
-1.572516
  0
VERTEX
  8
LAYER_1
 62
    39
  6
CONTINUOUS
 10
-19.245823
 20
-1.638008
  0
VERTEX
  8
LAYER_1
 62
    39
  6
CONTINUOUS
 10
-26.862091
 20
-1.638008
  0
SEQEND
  8
0
  0
POLYLINE
  8
LAYER_1
 62
    39
  6
CONTINUOUS
 66
     1
 40
0.006945
 41
0.006945
 70
     1
  0
VERTEX
  8
LAYER_1
 62
    39
  6
CONTINUOUS
 10
-26.128413
 20
-4.405047
  0
VERTEX
  8
LAYER_1
 62
    39
  6
CONTINUOUS
 10
-19.245823
 20
-4.405047
  0
VERTEX
  8
LAYER_1
 62
    39
  6
CONTINUOUS
 10
-19.245823
 20
-4.470539
  0
VERTEX
  8
LAYER_1
 62
    39
  6
CONTINUOUS
 10
-26.128413
 20
-4.470539
  0
SEQEND
  8
0
  0
POLYLINE
  8
LAYER_1
 62
    39
  6
CONTINUOUS
 66
     1
 40
0.006945
 41
0.006945
 70
     1
  0
VERTEX
  8
LAYER_1
 62
    39
  6
CONTINUOUS
 10
-25.447142
 20
-7.237583
  0
VERTEX
  8
LAYER_1
 62
    39
  6
CONTINUOUS
 10
-19.245823
 20
-7.237583
  0
VERTEX
  8
LAYER_1
 62
    39
  6
CONTINUOUS
 10
-19.245823
 20
-7.303075
  0
VERTEX
  8
LAYER_1
 62
    39
  6
CONTINUOUS
 10
-25.447142
 20
-7.303075
  0
SEQEND
  8
0
  0
POLYLINE
  8
LAYER_1
 62
    39
  6
CONTINUOUS
 66
     1
 40
0.006945
 41
0.006945
 70
     1
  0
VERTEX
  8
LAYER_1
 62
    39
  6
CONTINUOUS
 10
-24.730933
 20
-10.070114
  0
VERTEX
  8
LAYER_1
 62
    39
  6
CONTINUOUS
 10
-19.245823
 20
-10.070114
  0
VERTEX
  8
LAYER_1
 62
    39
  6
CONTINUOUS
 10
-19.245823
 20
-10.135606
  0
VERTEX
  8
LAYER_1
 62
    39
  6
CONTINUOUS
 10
-24.730933
 20
-10.135606
  0
SEQEND
  8
0
  0
POLYLINE
  8
LAYER_1
 62
    39
  6
CONTINUOUS
 66
     1
 40
0.006945
 41
0.006945
 70
     1
  0
VERTEX
  8
LAYER_1
 62
    39
  6
CONTINUOUS
 10
-24.032193
 20
-12.902646
  0
VERTEX
  8
LAYER_1
 62
    39
  6
CONTINUOUS
 10
-19.245823
 20
-12.902646
  0
VERTEX
  8
LAYER_1
 62
    39
  6
CONTINUOUS
 10
-19.245823
 20
-12.968138
  0
VERTEX
  8
LAYER_1
 62
    39
  6
CONTINUOUS
 10
-24.032193
 20
-12.968138
  0
SEQEND
  8
0
  0
POLYLINE
  8
LAYER_1
 62
    39
  6
CONTINUOUS
 66
     1
 40
0.006945
 41
0.006945
 70
     1
  0
VERTEX
  8
LAYER_1
 62
    39
  6
CONTINUOUS
 10
-25.434012
 20
1.890945
  0
VERTEX
  8
LAYER_1
 62
    39
  6
CONTINUOUS
 10
-22.717689
 20
-12.965858
  0
VERTEX
  8
LAYER_1
 62
    39
  6
CONTINUOUS
 10
-22.473161
 20
-12.965862
  0
VERTEX
  8
LAYER_1
 62
    39
  6
CONTINUOUS
 10
-25.180732
 20
1.890945
  0
SEQEND
  8
0
  0
POLYLINE
  8
LAYER_1
 62
    39
  6
CONTINUOUS
 66
     1
 40
0.006945
 41
0.006945
 70
     1
  0
VERTEX
  8
LAYER_1
 62
    39
  6
CONTINUOUS
 10
-20.380535
 20
1.887547
  0
VERTEX
  8
LAYER_1
 62
    39
  6
CONTINUOUS
 10
-20.262063
 20
1.887547
  0
VERTEX
  8
LAYER_1
 62
    39
  6
CONTINUOUS
 10
-20.262063
 20
-12.900575
  0
VERTEX
  8
LAYER_1
 62
    39
  6
CONTINUOUS
 10
-20.380535
 20
-12.900575
  0
SEQEND
  8
0
  0
POLYLINE
  8
LAYER_1
 62
    39
  6
CONTINUOUS
 66
     1
 40
0.006945
 41
0.006945
 70
     1
  0
VERTEX
  8
LAYER_1
 62
    39
  6
CONTINUOUS
 10
-20.239689
 20
1.123472
  0
VERTEX
  8
LAYER_1
 62
    39
  6
CONTINUOUS
 10
-20.121217
 20
1.123472
  0
VERTEX
  8
LAYER_1
 62
    39
  6
CONTINUOUS
 10
-20.121217
 20
-12.838236
  0
VERTEX
  8
LAYER_1
 62
    39
  6
CONTINUOUS
 10
-20.239689
 20
-12.838236
  0
SEQEND
  8
0
  0
POLYLINE
  8
LAYER_1
 62
    39
  6
CONTINUOUS
 66
     1
 40
0.006945
 41
0.006945
 70
     1
  0
VERTEX
  8
LAYER_1
 62
    39
  6
CONTINUOUS
 10
-23.305394
 20
-12.906291
  0
VERTEX
  8
LAYER_1
 62
    39
  6
CONTINUOUS
 10
-23.244268
 20
-12.906291
  0
VERTEX
  8
LAYER_1
 62
    39
  6
CONTINUOUS
 10
-26.213244
 20
1.257472
  0
VERTEX
  8
LAYER_1
 62
    39
  6
CONTINUOUS
 10
-26.270004
 20
1.257472
  0
SEQEND
  8
0
  0
POLYLINE
  8
LAYER_1
 62
    39
  6
CONTINUOUS
 66
     1
 40
0.006945
 41
0.006945
 70
     1
  0
VERTEX
  8
LAYER_1
 62
    39
  6
CONTINUOUS
 10
-20.237697
 20
1.123472
  0
VERTEX
  8
LAYER_1
 62
    39
  6
CONTINUOUS
 10
-19.238752
 20
1.123472
  0
VERTEX
  8
LAYER_1
 62
    39
  6
CONTINUOUS
 10
-19.238752
 20
-12.839449
  0
VERTEX
  8
LAYER_1
 62
    39
  6
CONTINUOUS
 10
-20.237697
 20
-12.839449
  0
SEQEND
  8
0
  0
POLYLINE
  8
LAYER_1
 62
    39
  6
CONTINUOUS
 66
     1
 40
0.006945
 41
0.006945
  0
VERTEX
  8
LAYER_1
 62
    39
  6
CONTINUOUS
 10
-23.919165
 20
-12.969335
  0
VERTEX
  8
LAYER_1
 62
    39
  6
CONTINUOUS
 10
-27.630358
 20
1.894091
  0
SEQEND
  8
0
  0
POLYLINE
  8
LAYER_1
 62
    39
  6
CONTINUOUS
 66
     1
 40
0.006945
 41
0.006945
  0
VERTEX
  8
LAYER_1
 62
    39
  6
CONTINUOUS
 10
-23.794744
 20
-12.964260
  0
VERTEX
  8
LAYER_1
 62
    39
  6
CONTINUOUS
 10
-27.504799
 20
1.891228
  0
SEQEND
  8
0
  0
POLYLINE
  8
LAYER_1
 62
    20
  6
CONTINUOUS
 66
     1
 40
0.006945
 41
0.006945
  0
VERTEX
  8
LAYER_1
 62
    20
  6
CONTINUOUS
 10
-25.980390
 20
-5.116406
  0
VERTEX
  8
LAYER_1
 62
    20
  6
CONTINUOUS
 10
-19.220079
 20
-5.116406
  0
SEQEND
  8
0
  0
POLYLINE
  8
LAYER_1
 62
    20
  6
CONTINUOUS
 66
     1
 40
0.006945
 41
0.006945
 70
     1
  0
VERTEX
  8
LAYER_1
 62
    20
  6
CONTINUOUS
 10
-24.288902
 20
-5.460335
  0
VERTEX
  8
LAYER_1
 62
    20
  6
CONTINUOUS
 10
-24.288902
 20
2.307709
  0
VERTEX
  8
LAYER_1
 62
    20
  6
CONTINUOUS
 10
-24.290024
 20
2.307709
  0
VERTEX
  8
LAYER_1
 62
    20
  6
CONTINUOUS
 10
-24.290024
 20
-5.460335
  0
SEQEND
  8
0
  0
POLYLINE
  8
LAYER_1
 62
    39
  6
CONTINUOUS
 66
     1
 40
0.006945
 41
0.006945
 70
     1
  0
VERTEX
  8
LAYER_1
 62
    39
  6
CONTINUOUS
 10
-24.537827
 20
1.882543
  0
VERTEX
  8
LAYER_1
 62
    39
  6
CONTINUOUS
 10
-24.504355
 20
2.005813
  0
VERTEX
  8
LAYER_1
 62
    39
  6
CONTINUOUS
 10
-24.416537
 20
2.093631
  0
VERTEX
  8
LAYER_1
 62
    39
  6
CONTINUOUS
 10
-24.293268
 20
2.127102
  0
VERTEX
  8
LAYER_1
 62
    39
  6
CONTINUOUS
 10
-24.169998
 20
2.093631
  0
VERTEX
  8
LAYER_1
 62
    39
  6
CONTINUOUS
 10
-24.082180
 20
2.005813
  0
VERTEX
  8
LAYER_1
 62
    39
  6
CONTINUOUS
 10
-24.048709
 20
1.882543
  0
VERTEX
  8
LAYER_1
 62
    39
  6
CONTINUOUS
 10
-24.082180
 20
1.759274
  0
VERTEX
  8
LAYER_1
 62
    39
  6
CONTINUOUS
 10
-24.169998
 20
1.671456
  0
VERTEX
  8
LAYER_1
 62
    39
  6
CONTINUOUS
 10
-24.293268
 20
1.637984
  0
VERTEX
  8
LAYER_1
 62
    39
  6
CONTINUOUS
 10
-24.416537
 20
1.671456
  0
VERTEX
  8
LAYER_1
 62
    39
  6
CONTINUOUS
 10
-24.504355
 20
1.759274
  0
SEQEND
  8
0
  0
POLYLINE
  8
LAYER_1
 62
    39
  6
CONTINUOUS
 66
     1
 40
0.006945
 41
0.006945
 70
     1
  0
VERTEX
  8
LAYER_1
 62
    39
  6
CONTINUOUS
 10
-24.295051
 20
2.130827
  0
VERTEX
  8
LAYER_1
 62
    39
  6
CONTINUOUS
 10
-24.294622
 20
2.130833
  0
VERTEX
  8
LAYER_1
 62
    39
  6
CONTINUOUS
 10
-24.294193
 20
2.130839
  0
VERTEX
  8
LAYER_1
 62
    39
  6
CONTINUOUS
 10
-24.293764
 20
2.130843
  0
VERTEX
  8
LAYER_1
 62
    39
  6
CONTINUOUS
 10
-24.171953
 20
2.098218
  0
VERTEX
  8
LAYER_1
 62
    39
  6
CONTINUOUS
 10
-24.084409
 20
2.012442
  0
VERTEX
  8
LAYER_1
 62
    39
  6
CONTINUOUS
 10
-24.049276
 20
1.891665
  0
VERTEX
  8
LAYER_1
 62
    39
  6
CONTINUOUS
 10
-24.295051
 20
1.891665
  0
SEQEND
  8
0
  0
POLYLINE
  8
LAYER_1
 62
    39
  6
CONTINUOUS
 66
     1
 40
0.006945
 41
0.006945
 70
     1
  0
VERTEX
  8
LAYER_1
 62
    39
  6
CONTINUOUS
 10
-24.289634
 20
1.642591
  0
VERTEX
  8
LAYER_1
 62
    39
  6
CONTINUOUS
 10
-24.290063
 20
1.642585
  0
VERTEX
  8
LAYER_1
 62
    39
  6
CONTINUOUS
 10
-24.290492
 20
1.642578
  0
VERTEX
  8
LAYER_1
 62
    39
  6
CONTINUOUS
 10
-24.290921
 20
1.642575
  0
VERTEX
  8
LAYER_1
 62
    39
  6
CONTINUOUS
 10
-24.412732
 20
1.675200
  0
VERTEX
  8
LAYER_1
 62
    39
  6
CONTINUOUS
 10
-24.500276
 20
1.760975
  0
VERTEX
  8
LAYER_1
 62
    39
  6
CONTINUOUS
 10
-24.535409
 20
1.881752
  0
VERTEX
  8
LAYER_1
 62
    39
  6
CONTINUOUS
 10
-24.289634
 20
1.881752
  0
SEQEND
  8
0
  0
POLYLINE
  8
LAYER_1
 62
    39
  6
CONTINUOUS
 66
     1
 40
0.006945
 41
0.006945
  0
VERTEX
  8
LAYER_1
 62
    39
  6
CONTINUOUS
 10
-6.163272
 20
-4.187232
  0
VERTEX
  8
LAYER_1
 62
    39
  6
CONTINUOUS
 10
-5.482154
 20
-4.187232
  0
SEQEND
  8
0
  0
POLYLINE
  8
LAYER_1
 62
    39
  6
CONTINUOUS
 66
     1
 40
0.006945
 41
0.006945
  0
VERTEX
  8
LAYER_1
 62
    39
  6
CONTINUOUS
 10
-5.543280
 20
-4.309484
  0
VERTEX
  8
LAYER_1
 62
    39
  6
CONTINUOUS
 10
-5.159059
 20
-4.318217
  0
SEQEND
  8
0
  0
POLYLINE
  8
LAYER_1
 62
    39
  6
CONTINUOUS
 66
     1
 40
0.006945
 41
0.006945
  0
VERTEX
  8
LAYER_1
 62
    39
  6
CONTINUOUS
 10
-5.246382
 20
-4.222161
  0
VERTEX
  8
LAYER_1
 62
    39
  6
CONTINUOUS
 10
-4.958217
 20
-4.230894
  0
SEQEND
  8
0
  0
POLYLINE
  8
LAYER_1
 62
    39
  6
CONTINUOUS
 66
     1
 40
0.006945
 41
0.006945
  0
VERTEX
  8
LAYER_1
 62
    39
  6
CONTINUOUS
 10
-4.748642
 20
-4.187232
  0
VERTEX
  8
LAYER_1
 62
    39
  6
CONTINUOUS
 10
-4.285831
 20
-4.195965
  0
SEQEND
  8
0
  0
POLYLINE
  8
LAYER_1
 62
    39
  6
CONTINUOUS
 66
     1
 40
0.006945
 41
0.006945
  0
VERTEX
  8
LAYER_1
 62
    39
  6
CONTINUOUS
 10
-4.504138
 20
-3.899067
  0
VERTEX
  8
LAYER_1
 62
    39
  6
CONTINUOUS
 10
-4.495406
 20
-3.183020
  0
SEQEND
  8
0
  0
POLYLINE
  8
LAYER_1
 62
    39
  6
CONTINUOUS
 66
     1
 40
0.006945
 41
0.006945
  0
VERTEX
  8
LAYER_1
 62
    39
  6
CONTINUOUS
 10
-4.643854
 20
-3.907799
  0
VERTEX
  8
LAYER_1
 62
    39
  6
CONTINUOUS
 10
-4.643854
 20
-3.628366
  0
SEQEND
  8
0
  0
POLYLINE
  8
LAYER_1
 62
    39
  6
CONTINUOUS
 66
     1
 40
0.006945
 41
0.006945
  0
VERTEX
  8
LAYER_1
 62
    39
  6
CONTINUOUS
 10
-3.578516
 20
-2.964713
  0
VERTEX
  8
LAYER_1
 62
    39
  6
CONTINUOUS
 10
-3.569783
 20
-3.881602
  0
SEQEND
  8
0
  0
POLYLINE
  8
LAYER_1
 62
    39
  6
CONTINUOUS
 66
     1
 40
0.006945
 41
0.006945
  0
VERTEX
  8
LAYER_1
 62
    39
  6
CONTINUOUS
 10
-3.718232
 20
-2.755138
  0
VERTEX
  8
LAYER_1
 62
    39
  6
CONTINUOUS
 10
-3.718232
 20
-3.209217
  0
SEQEND
  8
0
  0
POLYLINE
  8
LAYER_1
 62
    39
  6
CONTINUOUS
 66
     1
 40
0.006945
 41
0.006945
  0
VERTEX
  8
LAYER_1
 62
    39
  6
CONTINUOUS
 10
-3.831752
 20
-3.444988
  0
VERTEX
  8
LAYER_1
 62
    39
  6
CONTINUOUS
 10
-3.831752
 20
-3.654563
  0
SEQEND
  8
0
  0
TEXT
  8
LAYER_1
 62
    39
 10
-25.049563
 20
1.324390
 40
0.306980
  1
START WITH CG AT 25% MAC
 41
1.000000
  7
SN0
 71
     0
 72
     5
 11
-20.658208
 21
1.324390
  0
TEXT
  8
LAYER_1
 62
    39
 10
-24.001453
 20
0.328685
 40
0.306980
  1
1/8X3/16 BASS OR SPRUCE
 41
1.000000
  7
SN0
 71
     0
 72
     5
 11
-19.282127
 21
0.328685
  0
TEXT
  8
LAYER_1
 62
    39
 10
-24.001453
 20
-0.070870
 40
0.306980
  1
WING SPARS TOP AND BOTTOM
 41
1.000000
  7
SN0
 71
     0
 72
     5
 11
-19.772357
 21
-0.070870
  0
TEXT
  8
LAYER_1
 62
    39
 10
-25.922988
 20
-2.431339
 40
0.306980
  1
1/16X1/8
 41
1.000000
  7
SN0
 71
     0
 72
     5
 11
-23.741120
 21
-2.431339
  0
TEXT
  8
LAYER_1
 62
    39
 10
-25.922988
 20
-2.830894
 40
0.306980
  1
STRINGER
 41
1.000000
  7
SN0
 71
     0
 72
     5
 11
-24.569678
 21
-2.830894
  0
TEXT
  8
LAYER_1
 62
    39
 10
-30.185303
 20
-2.186780
 40
0.306980
  1
LEADING EDGE 3/16 
 41
1.000000
  7
SN0
 71
     0
 72
     5
 11
-26.643220
 21
-2.186780
  0
TEXT
  8
LAYER_1
 62
    39
 10
-30.185303
 20
-2.586335
 40
0.306980
  1
BALSA SQUARE
 41
1.000000
  7
SN0
 71
     0
 72
     5
 11
-28.155337
 21
-2.586335
  0
TEXT
  8
LAYER_1
 62
    39
 10
-22.708783
 20
-5.802760
 40
0.306980
  1
1/8 BALSA
 41
1.000000
  7
SN0
 71
     0
 72
     5
 11
-20.854886
 21
-5.802760
  0
TEXT
  8
LAYER_1
 62
    39
 10
-22.708783
 20
-6.202315
 40
0.306980
  1
TRAILING EDGE
 41
1.000000
  7
SN0
 71
     0
 72
     5
 11
-20.509654
 21
-6.202315
  0
TEXT
  8
LAYER_1
 62
    39
 10
-18.795839
 20
-5.348579
 40
0.306980
  1
AILERONS ON PROTOTYPE
 41
1.000000
  7
SN0
 71
     0
 72
     5
 11
-15.243398
 21
-5.348579
  0
TEXT
  8
LAYER_1
 62
    39
 10
-18.795839
 20
-5.748134
 40
0.306980
  1
BUILT UP FROM 1/16 SHEET
 41
1.000000
  7
SN0
 71
     0
 72
     5
 11
-14.238772
 21
-5.748134
  0
TEXT
  8
LAYER_1
 62
    39
 10
-31.669315
 20
5.383906
 40
0.306980
  1
WING JOINER IS 1/32 PLY
 41
1.000000
  7
SN0
 71
     0
 72
     5
 11
-27.281413
 21
5.383906
  0
TEXT
  8
LAYER_1
 62
    39
 10
-31.669315
 20
4.984350
 40
0.306980
  1
GLUED TO FRONT OF SPARS
 41
1.000000
  7
SN0
 71
     0
 72
     5
 11
-27.778547
 21
4.984350
  0
TEXT
  8
LAYER_1
 62
    39
 10
-31.669315
 20
4.584795
 40
0.306980
  1
BETWEEN W2 RIBS.
 41
1.000000
  7
SN0
 71
     0
 72
     5
 11
-28.796982
 21
4.584795
  0
TEXT
  8
LAYER_1
 62
    39
 10
-31.669315
 20
4.185240
 40
0.306980
  1
ROUND FRONT OF SPARS SO 
 41
1.000000
  7
SN0
 71
     0
 72
     5
 11
-27.609383
 21
4.185240
  0
TEXT
  8
LAYER_1
 62
    39
 10
-31.669315
 20
3.785685
 40
0.306980
  1
JOINER BENDS AROUND THEM
 41
1.000000
  7
SN0
 71
     0
 72
     5
 11
-27.609383
 21
3.785685
  0
TEXT
  8
LAYER_1
 62
    39
 10
-31.669315
 20
3.386130
 40
0.306980
  1
EASIER.
 41
1.000000
  7
SN0
 71
     0
 72
     5
 11
-30.485168
 21
3.386130
  0
POLYLINE
  8
LAYER_1
 62
    39
  6
CONTINUOUS
 66
     1
 40
0.006945
 41
0.006945
 70
     1
  0
VERTEX
  8
LAYER_1
 62
    39
  6
CONTINUOUS
 10
0.561512
 20
-10.151055
  0
VERTEX
  8
LAYER_1
 62
    39
  6
CONTINUOUS
 10
0.561512
 20
-10.069669
  0
VERTEX
  8
LAYER_1
 62
    39
  6
CONTINUOUS
 10
0.699240
 20
-10.069669
  0
VERTEX
  8
LAYER_1
 62
    39
  6
CONTINUOUS
 10
0.993480
 20
-9.982024
  0
VERTEX
  8
LAYER_1
 62
    39
  6
CONTINUOUS
 10
1.187220
 20
-9.983780
  0
VERTEX
  8
LAYER_1
 62
    39
  6
CONTINUOUS
 10
1.194087
 20
-9.907425
  0
VERTEX
  8
LAYER_1
 62
    39
  6
CONTINUOUS
 10
1.331520
 20
-9.909512
  0
VERTEX
  8
LAYER_1
 62
    39
  6
CONTINUOUS
 10
1.331516
 20
-9.985091
  0
VERTEX
  8
LAYER_1
 62
    39
  6
CONTINUOUS
 10
1.380961
 20
-9.985539
  0
VERTEX
  8
LAYER_1
 62
    39
  6
CONTINUOUS
 10
1.488055
 20
-10.075929
  0
VERTEX
  8
LAYER_1
 62
    39
  6
CONTINUOUS
 10
1.644567
 20
-10.075929
  0
VERTEX
  8
LAYER_1
 62
    39
  6
CONTINUOUS
 10
1.644567
 20
-10.157315
  0
VERTEX
  8
LAYER_1
 62
    39
  6
CONTINUOUS
 10
1.525618
 20
-10.157315
  0
VERTEX
  8
LAYER_1
 62
    39
  6
CONTINUOUS
 10
1.525618
 20
-10.745795
  0
VERTEX
  8
LAYER_1
 62
    39
  6
CONTINUOUS
 10
0.649157
 20
-10.745795
  0
VERTEX
  8
LAYER_1
 62
    39
  6
CONTINUOUS
 10
0.649157
 20
-10.151055
  0
SEQEND
  8
0
  0
SOLID
  8
LAYER_1
 10
1.149421
 20
-9.958870
 11
1.367728
 21
-9.958870
 12
1.149421
 22
-9.836618
 13
1.367728
 23
-9.836618
  0
POLYLINE
  8
LAYER_1
 62
    39
  6
CONTINUOUS
 66
     1
 40
0.006945
 41
0.006945
 70
     1
  0
VERTEX
  8
LAYER_1
 62
    39
  6
CONTINUOUS
 10
1.149421
 20
-9.958870
  0
VERTEX
  8
LAYER_1
 62
    39
  6
CONTINUOUS
 10
1.367728
 20
-9.958870
  0
VERTEX
  8
LAYER_1
 62
    39
  6
CONTINUOUS
 10
1.367728
 20
-9.836618
  0
VERTEX
  8
LAYER_1
 62
    39
  6
CONTINUOUS
 10
1.149421
 20
-9.836618
  0
SEQEND
  8
0
  0
POLYLINE
  8
LAYER_1
 62
    39
  6
CONTINUOUS
 66
     1
 40
0.006945
 41
0.006945
 70
     1
  0
VERTEX
  8
LAYER_1
 62
    39
  6
CONTINUOUS
 10
1.149421
 20
-9.839854
  0
VERTEX
  8
LAYER_1
 62
    39
  6
CONTINUOUS
 10
1.367728
 20
-9.839854
  0
VERTEX
  8
LAYER_1
 62
    39
  6
CONTINUOUS
 10
1.367728
 20
-9.775492
  0
VERTEX
  8
LAYER_1
 62
    39
  6
CONTINUOUS
 10
1.149421
 20
-9.775492
  0
SEQEND
  8
0
  0
SOLID
  8
LAYER_1
 62
   254
  6
CONTINUOUS
 10
1.910665
 20
-11.539874
 11
11.303217
 21
-11.257059
 12
1.912154
 22
-11.596614
 13
11.304705
 23
-11.313799
  0
POLYLINE
  8
LAYER_1
 62
    39
  6
CONTINUOUS
 66
     1
 40
0.006945
 41
0.006945
 70
     1
  0
VERTEX
  8
LAYER_1
 62
    39
  6
CONTINUOUS
 10
1.910665
 20
-11.539874
  0
VERTEX
  8
LAYER_1
 62
    39
  6
CONTINUOUS
 10
11.303217
 20
-11.257059
  0
VERTEX
  8
LAYER_1
 62
    39
  6
CONTINUOUS
 10
11.304705
 20
-11.313799
  0
VERTEX
  8
LAYER_1
 62
    39
  6
CONTINUOUS
 10
1.912154
 20
-11.596614
  0
SEQEND
  8
0
  0
POLYLINE
  8
LAYER_1
 62
    39
  6
CONTINUOUS
 66
     1
 40
0.006945
 41
0.006945
 70
     1
  0
VERTEX
  8
LAYER_1
 62
    39
  6
CONTINUOUS
 10
12.307957
 20
-11.254216
  0
VERTEX
  8
LAYER_1
 62
    39
  6
CONTINUOUS
 10
12.307953
 20
-11.253761
  0
VERTEX
  8
LAYER_1
 62
    39
  6
CONTINUOUS
 10
12.307942
 20
-11.253307
  0
VERTEX
  8
LAYER_1
 62
    39
  6
CONTINUOUS
 10
12.307923
 20
-11.252853
  0
VERTEX
  8
LAYER_1
 62
    39
  6
CONTINUOUS
 10
12.307896
 20
-11.252399
  0
VERTEX
  8
LAYER_1
 62
    39
  6
CONTINUOUS
 10
12.307861
 20
-11.251945
  0
VERTEX
  8
LAYER_1
 62
    39
  6
CONTINUOUS
 10
12.307818
 20
-11.251493
  0
VERTEX
  8
LAYER_1
 62
    39
  6
CONTINUOUS
 10
12.307767
 20
-11.251041
  0
VERTEX
  8
LAYER_1
 62
    39
  6
CONTINUOUS
 10
12.307709
 20
-11.250590
  0
VERTEX
  8
LAYER_1
 62
    39
  6
CONTINUOUS
 10
12.307643
 20
-11.250140
  0
VERTEX
  8
LAYER_1
 62
    39
  6
CONTINUOUS
 10
12.307568
 20
-11.249692
  0
VERTEX
  8
LAYER_1
 62
    39
  6
CONTINUOUS
 10
12.307487
 20
-11.249244
  0
VERTEX
  8
LAYER_1
 62
    39
  6
CONTINUOUS
 10
12.307397
 20
-11.248799
  0
VERTEX
  8
LAYER_1
 62
    39
  6
CONTINUOUS
 10
12.307300
 20
-11.248354
  0
VERTEX
  8
LAYER_1
 62
    39
  6
CONTINUOUS
 10
12.307195
 20
-11.247912
  0
VERTEX
  8
LAYER_1
 62
    39
  6
CONTINUOUS
 10
12.307082
 20
-11.247472
  0
VERTEX
  8
LAYER_1
 62
    39
  6
CONTINUOUS
 10
12.306962
 20
-11.247033
  0
VERTEX
  8
LAYER_1
 62
    39
  6
CONTINUOUS
 10
12.306834
 20
-11.246597
  0
VERTEX
  8
LAYER_1
 62
    39
  6
CONTINUOUS
 10
12.306698
 20
-11.246163
  0
VERTEX
  8
LAYER_1
 62
    39
  6
CONTINUOUS
 10
12.306555
 20
-11.245731
  0
VERTEX
  8
LAYER_1
 62
    39
  6
CONTINUOUS
 10
12.306405
 20
-11.245302
  0
VERTEX
  8
LAYER_1
 62
    39
  6
CONTINUOUS
 10
12.306247
 20
-11.244876
  0
VERTEX
  8
LAYER_1
 62
    39
  6
CONTINUOUS
 10
12.306082
 20
-11.244452
  0
VERTEX
  8
LAYER_1
 62
    39
  6
CONTINUOUS
 10
12.305909
 20
-11.244032
  0
VERTEX
  8
LAYER_1
 62
    39
  6
CONTINUOUS
 10
12.305729
 20
-11.243614
  0
VERTEX
  8
LAYER_1
 62
    39
  6
CONTINUOUS
 10
12.305542
 20
-11.243200
  0
VERTEX
  8
LAYER_1
 62
    39
  6
CONTINUOUS
 10
12.305348
 20
-11.242788
  0
VERTEX
  8
LAYER_1
 62
    39
  6
CONTINUOUS
 10
12.305146
 20
-11.242381
  0
VERTEX
  8
LAYER_1
 62
    39
  6
CONTINUOUS
 10
12.304938
 20
-11.241977
  0
VERTEX
  8
LAYER_1
 62
    39
  6
CONTINUOUS
 10
12.304723
 20
-11.241576
  0
VERTEX
  8
LAYER_1
 62
    39
  6
CONTINUOUS
 10
12.304500
 20
-11.241180
  0
VERTEX
  8
LAYER_1
 62
    39
  6
CONTINUOUS
 10
12.304271
 20
-11.240787
  0
VERTEX
  8
LAYER_1
 62
    39
  6
CONTINUOUS
 10
12.304035
 20
-11.240398
  0
VERTEX
  8
LAYER_1
 62
    39
  6
CONTINUOUS
 10
12.303793
 20
-11.240014
  0
VERTEX
  8
LAYER_1
 62
    39
  6
CONTINUOUS
 10
12.303543
 20
-11.239633
  0
VERTEX
  8
LAYER_1
 62
    39
  6
CONTINUOUS
 10
12.303288
 20
-11.239258
  0
VERTEX
  8
LAYER_1
 62
    39
  6
CONTINUOUS
 10
12.303025
 20
-11.238886
  0
VERTEX
  8
LAYER_1
 62
    39
  6
CONTINUOUS
 10
12.302757
 20
-11.238519
  0
VERTEX
  8
LAYER_1
 62
    39
  6
CONTINUOUS
 10
12.302482
 20
-11.238157
  0
VERTEX
  8
LAYER_1
 62
    39
  6
CONTINUOUS
 10
12.302200
 20
-11.237800
  0
VERTEX
  8
LAYER_1
 62
    39
  6
CONTINUOUS
 10
12.301913
 20
-11.237448
  0
VERTEX
  8
LAYER_1
 62
    39
  6
CONTINUOUS
 10
12.301619
 20
-11.237101
  0
VERTEX
  8
LAYER_1
 62
    39
  6
CONTINUOUS
 10
12.301320
 20
-11.236759
  0
VERTEX
  8
LAYER_1
 62
    39
  6
CONTINUOUS
 10
12.301014
 20
-11.236422
  0
VERTEX
  8
LAYER_1
 62
    39
  6
CONTINUOUS
 10
12.300703
 20
-11.236090
  0
VERTEX
  8
LAYER_1
 62
    39
  6
CONTINUOUS
 10
12.300386
 20
-11.235764
  0
VERTEX
  8
LAYER_1
 62
    39
  6
CONTINUOUS
 10
12.300064
 20
-11.235444
  0
VERTEX
  8
LAYER_1
 62
    39
  6
CONTINUOUS
 10
12.299736
 20
-11.235129
  0
VERTEX
  8
LAYER_1
 62
    39
  6
CONTINUOUS
 10
12.299402
 20
-11.234820
  0
VERTEX
  8
LAYER_1
 62
    39
  6
CONTINUOUS
 10
12.299064
 20
-11.234516
  0
VERTEX
  8
LAYER_1
 62
    39
  6
CONTINUOUS
 10
12.298720
 20
-11.234219
  0
VERTEX
  8
LAYER_1
 62
    39
  6
CONTINUOUS
 10
12.298371
 20
-11.233928
  0
VERTEX
  8
LAYER_1
 62
    39
  6
CONTINUOUS
 10
12.298016
 20
-11.233642
  0
VERTEX
  8
LAYER_1
 62
    39
  6
CONTINUOUS
 10
12.297657
 20
-11.233363
  0
VERTEX
  8
LAYER_1
 62
    39
  6
CONTINUOUS
 10
12.297294
 20
-11.233091
  0
VERTEX
  8
LAYER_1
 62
    39
  6
CONTINUOUS
 10
12.296925
 20
-11.232824
  0
VERTEX
  8
LAYER_1
 62
    39
  6
CONTINUOUS
 10
12.296552
 20
-11.232564
  0
VERTEX
  8
LAYER_1
 62
    39
  6
CONTINUOUS
 10
12.296175
 20
-11.232311
  0
VERTEX
  8
LAYER_1
 62
    39
  6
CONTINUOUS
 10
12.295793
 20
-11.232064
  0
VERTEX
  8
LAYER_1
 62
    39
  6
CONTINUOUS
 10
12.295407
 20
-11.231824
  0
VERTEX
  8
LAYER_1
 62
    39
  6
CONTINUOUS
 10
12.295017
 20
-11.231590
  0
VERTEX
  8
LAYER_1
 62
    39
  6
CONTINUOUS
 10
12.294623
 20
-11.231363
  0
VERTEX
  8
LAYER_1
 62
    39
  6
CONTINUOUS
 10
12.294225
 20
-11.231144
  0
VERTEX
  8
LAYER_1
 62
    39
  6
CONTINUOUS
 10
12.293823
 20
-11.230931
  0
VERTEX
  8
LAYER_1
 62
    39
  6
CONTINUOUS
 10
12.293417
 20
-11.230725
  0
VERTEX
  8
LAYER_1
 62
    39
  6
CONTINUOUS
 10
12.293009
 20
-11.230526
  0
VERTEX
  8
LAYER_1
 62
    39
  6
CONTINUOUS
 10
12.292596
 20
-11.230335
  0
VERTEX
  8
LAYER_1
 62
    39
  6
CONTINUOUS
 10
12.292181
 20
-11.230150
  0
VERTEX
  8
LAYER_1
 62
    39
  6
CONTINUOUS
 10
12.291762
 20
-11.229973
  0
VERTEX
  8
LAYER_1
 62
    39
  6
CONTINUOUS
 10
12.291340
 20
-11.229803
  0
VERTEX
  8
LAYER_1
 62
    39
  6
CONTINUOUS
 10
12.290916
 20
-11.229640
  0
VERTEX
  8
LAYER_1
 62
    39
  6
CONTINUOUS
 10
12.290488
 20
-11.229485
  0
VERTEX
  8
LAYER_1
 62
    39
  6
CONTINUOUS
 10
12.290058
 20
-11.229337
  0
VERTEX
  8
LAYER_1
 62
    39
  6
CONTINUOUS
 10
12.289626
 20
-11.229197
  0
VERTEX
  8
LAYER_1
 62
    39
  6
CONTINUOUS
 10
12.289191
 20
-11.229064
  0
VERTEX
  8
LAYER_1
 62
    39
  6
CONTINUOUS
 10
12.288754
 20
-11.228939
  0
VERTEX
  8
LAYER_1
 62
    39
  6
CONTINUOUS
 10
12.288315
 20
-11.228821
  0
VERTEX
  8
LAYER_1
 62
    39
  6
CONTINUOUS
 10
12.287873
 20
-11.228712
  0
VERTEX
  8
LAYER_1
 62
    39
  6
CONTINUOUS
 10
12.287430
 20
-11.228609
  0
VERTEX
  8
LAYER_1
 62
    39
  6
CONTINUOUS
 10
12.286986
 20
-11.228515
  0
VERTEX
  8
LAYER_1
 62
    39
  6
CONTINUOUS
 10
12.286539
 20
-11.228428
  0
VERTEX
  8
LAYER_1
 62
    39
  6
CONTINUOUS
 10
12.286092
 20
-11.228349
  0
VERTEX
  8
LAYER_1
 62
    39
  6
CONTINUOUS
 10
12.285643
 20
-11.228278
  0
VERTEX
  8
LAYER_1
 62
    39
  6
CONTINUOUS
 10
12.285192
 20
-11.228214
  0
VERTEX
  8
LAYER_1
 62
    39
  6
CONTINUOUS
 10
12.284741
 20
-11.228158
  0
VERTEX
  8
LAYER_1
 62
    39
  6
CONTINUOUS
 10
12.284289
 20
-11.228111
  0
VERTEX
  8
LAYER_1
 62
    39
  6
CONTINUOUS
 10
12.283836
 20
-11.228071
  0
VERTEX
  8
LAYER_1
 62
    39
  6
CONTINUOUS
 10
12.283382
 20
-11.228038
  0
VERTEX
  8
LAYER_1
 62
    39
  6
CONTINUOUS
 10
12.282928
 20
-11.228014
  0
VERTEX
  8
LAYER_1
 62
    39
  6
CONTINUOUS
 10
12.282474
 20
-11.227998
  0
VERTEX
  8
LAYER_1
 62
    39
  6
CONTINUOUS
 10
12.282019
 20
-11.227989
  0
VERTEX
  8
LAYER_1
 62
    39
  6
CONTINUOUS
 10
12.281565
 20
-11.227989
  0
VERTEX
  8
LAYER_1
 62
    39
  6
CONTINUOUS
 10
12.281110
 20
-11.227996
  0
VERTEX
  8
LAYER_1
 62
    39
  6
CONTINUOUS
 10
12.280656
 20
-11.228011
  0
VERTEX
  8
LAYER_1
 62
    39
  6
CONTINUOUS
 10
12.280202
 20
-11.228035
  0
VERTEX
  8
LAYER_1
 62
    39
  6
CONTINUOUS
 10
12.279748
 20
-11.228066
  0
VERTEX
  8
LAYER_1
 62
    39
  6
CONTINUOUS
 10
12.279295
 20
-11.228104
  0
VERTEX
  8
LAYER_1
 62
    39
  6
CONTINUOUS
 10
12.278843
 20
-11.228151
  0
VERTEX
  8
LAYER_1
 62
    39
  6
CONTINUOUS
 10
12.278391
 20
-11.228206
  0
VERTEX
  8
LAYER_1
 62
    39
  6
CONTINUOUS
 10
12.277941
 20
-11.228268
  0
VERTEX
  8
LAYER_1
 62
    39
  6
CONTINUOUS
 10
12.277492
 20
-11.228338
  0
VERTEX
  8
LAYER_1
 62
    39
  6
CONTINUOUS
 10
12.277044
 20
-11.228416
  0
VERTEX
  8
LAYER_1
 62
    39
  6
CONTINUOUS
 10
12.276597
 20
-11.228502
  0
VERTEX
  8
LAYER_1
 62
    39
  6
CONTINUOUS
 10
12.276152
 20
-11.228595
  0
VERTEX
  8
LAYER_1
 62
    39
  6
CONTINUOUS
 10
12.275709
 20
-11.228697
  0
VERTEX
  8
LAYER_1
 62
    39
  6
CONTINUOUS
 10
12.275268
 20
-11.228805
  0
VERTEX
  8
LAYER_1
 62
    39
  6
CONTINUOUS
 10
12.274828
 20
-11.228922
  0
VERTEX
  8
LAYER_1
 62
    39
  6
CONTINUOUS
 10
12.274391
 20
-11.229046
  0
VERTEX
  8
LAYER_1
 62
    39
  6
CONTINUOUS
 10
12.273955
 20
-11.229178
  0
VERTEX
  8
LAYER_1
 62
    39
  6
CONTINUOUS
 10
12.273523
 20
-11.229317
  0
VERTEX
  8
LAYER_1
 62
    39
  6
CONTINUOUS
 10
12.273092
 20
-11.229464
  0
VERTEX
  8
LAYER_1
 62
    39
  6
CONTINUOUS
 10
12.272665
 20
-11.229618
  0
VERTEX
  8
LAYER_1
 62
    39
  6
CONTINUOUS
 10
12.272240
 20
-11.229779
  0
VERTEX
  8
LAYER_1
 62
    39
  6
CONTINUOUS
 10
12.271817
 20
-11.229948
  0
VERTEX
  8
LAYER_1
 62
    39
  6
CONTINUOUS
 10
12.271398
 20
-11.230124
  0
VERTEX
  8
LAYER_1
 62
    39
  6
CONTINUOUS
 10
12.270982
 20
-11.230308
  0
VERTEX
  8
LAYER_1
 62
    39
  6
CONTINUOUS
 10
12.270569
 20
-11.230499
  0
VERTEX
  8
LAYER_1
 62
    39
  6
CONTINUOUS
 10
12.270160
 20
-11.230696
  0
VERTEX
  8
LAYER_1
 62
    39
  6
CONTINUOUS
 10
12.269754
 20
-11.230901
  0
VERTEX
  8
LAYER_1
 62
    39
  6
CONTINUOUS
 10
12.269352
 20
-11.231113
  0
VERTEX
  8
LAYER_1
 62
    39
  6
CONTINUOUS
 10
12.268953
 20
-11.231332
  0
VERTEX
  8
LAYER_1
 62
    39
  6
CONTINUOUS
 10
12.268559
 20
-11.231558
  0
VERTEX
  8
LAYER_1
 62
    39
  6
CONTINUOUS
 10
12.268168
 20
-11.231790
  0
VERTEX
  8
LAYER_1
 62
    39
  6
CONTINUOUS
 10
12.267781
 20
-11.232029
  0
VERTEX
  8
LAYER_1
 62
    39
  6
CONTINUOUS
 10
12.267399
 20
-11.232275
  0
VERTEX
  8
LAYER_1
 62
    39
  6
CONTINUOUS
 10
12.267021
 20
-11.232528
  0
VERTEX
  8
LAYER_1
 62
    39
  6
CONTINUOUS
 10
12.266647
 20
-11.232787
  0
VERTEX
  8
LAYER_1
 62
    39
  6
CONTINUOUS
 10
12.266278
 20
-11.233052
  0
VERTEX
  8
LAYER_1
 62
    39
  6
CONTINUOUS
 10
12.265914
 20
-11.233324
  0
VERTEX
  8
LAYER_1
 62
    39
  6
CONTINUOUS
 10
12.265554
 20
-11.233602
  0
VERTEX
  8
LAYER_1
 62
    39
  6
CONTINUOUS
 10
12.265199
 20
-11.233887
  0
VERTEX
  8
LAYER_1
 62
    39
  6
CONTINUOUS
 10
12.264849
 20
-11.234177
  0
VERTEX
  8
LAYER_1
 62
    39
  6
CONTINUOUS
 10
12.264505
 20
-11.234474
  0
VERTEX
  8
LAYER_1
 62
    39
  6
CONTINUOUS
 10
12.264165
 20
-11.234776
  0
VERTEX
  8
LAYER_1
 62
    39
  6
CONTINUOUS
 10
12.263831
 20
-11.235085
  0
VERTEX
  8
LAYER_1
 62
    39
  6
CONTINUOUS
 10
12.263502
 20
-11.235399
  0
VERTEX
  8
LAYER_1
 62
    39
  6
CONTINUOUS
 10
12.263179
 20
-11.235718
  0
VERTEX
  8
LAYER_1
 62
    39
  6
CONTINUOUS
 10
12.262861
 20
-11.236044
  0
VERTEX
  8
LAYER_1
 62
    39
  6
CONTINUOUS
 10
12.262549
 20
-11.236374
  0
VERTEX
  8
LAYER_1
 62
    39
  6
CONTINUOUS
 10
12.262243
 20
-11.236710
  0
VERTEX
  8
LAYER_1
 62
    39
  6
CONTINUOUS
 10
12.261943
 20
-11.237052
  0
VERTEX
  8
LAYER_1
 62
    39
  6
CONTINUOUS
 10
12.261648
 20
-11.237398
  0
VERTEX
  8
LAYER_1
 62
    39
  6
CONTINUOUS
 10
12.261360
 20
-11.237750
  0
VERTEX
  8
LAYER_1
 62
    39
  6
CONTINUOUS
 10
12.261078
 20
-11.238106
  0
VERTEX
  8
LAYER_1
 62
    39
  6
CONTINUOUS
 10
12.260802
 20
-11.238468
  0
VERTEX
  8
LAYER_1
 62
    39
  6
CONTINUOUS
 10
12.260532
 20
-11.238834
  0
VERTEX
  8
LAYER_1
 62
    39
  6
CONTINUOUS
 10
12.260269
 20
-11.239205
  0
VERTEX
  8
LAYER_1
 62
    39
  6
CONTINUOUS
 10
12.260012
 20
-11.239580
  0
VERTEX
  8
LAYER_1
 62
    39
  6
CONTINUOUS
 10
12.259762
 20
-11.239959
  0
VERTEX
  8
LAYER_1
 62
    39
  6
CONTINUOUS
 10
12.259518
 20
-11.240343
  0
VERTEX
  8
LAYER_1
 62
    39
  6
CONTINUOUS
 10
12.259281
 20
-11.240731
  0
VERTEX
  8
LAYER_1
 62
    39
  6
CONTINUOUS
 10
12.259051
 20
-11.241124
  0
VERTEX
  8
LAYER_1
 62
    39
  6
CONTINUOUS
 10
12.258828
 20
-11.241520
  0
VERTEX
  8
LAYER_1
 62
    39
  6
CONTINUOUS
 10
12.258612
 20
-11.241920
  0
VERTEX
  8
LAYER_1
 62
    39
  6
CONTINUOUS
 10
12.258402
 20
-11.242323
  0
VERTEX
  8
LAYER_1
 62
    39
  6
CONTINUOUS
 10
12.258200
 20
-11.242730
  0
VERTEX
  8
LAYER_1
 62
    39
  6
CONTINUOUS
 10
12.258005
 20
-11.243141
  0
VERTEX
  8
LAYER_1
 62
    39
  6
CONTINUOUS
 10
12.257817
 20
-11.243555
  0
VERTEX
  8
LAYER_1
 62
    39
  6
CONTINUOUS
 10
12.257636
 20
-11.243972
  0
VERTEX
  8
LAYER_1
 62
    39
  6
CONTINUOUS
 10
12.257462
 20
-11.244392
  0
VERTEX
  8
LAYER_1
 62
    39
  6
CONTINUOUS
 10
12.257296
 20
-11.244815
  0
VERTEX
  8
LAYER_1
 62
    39
  6
CONTINUOUS
 10
12.257137
 20
-11.245241
  0
VERTEX
  8
LAYER_1
 62
    39
  6
CONTINUOUS
 10
12.256985
 20
-11.245670
  0
VERTEX
  8
LAYER_1
 62
    39
  6
CONTINUOUS
 10
12.256841
 20
-11.246101
  0
VERTEX
  8
LAYER_1
 62
    39
  6
CONTINUOUS
 10
12.256705
 20
-11.246535
  0
VERTEX
  8
LAYER_1
 62
    39
  6
CONTINUOUS
 10
12.256576
 20
-11.246971
  0
VERTEX
  8
LAYER_1
 62
    39
  6
CONTINUOUS
 10
12.256454
 20
-11.247409
  0
VERTEX
  8
LAYER_1
 62
    39
  6
CONTINUOUS
 10
12.256341
 20
-11.247849
  0
VERTEX
  8
LAYER_1
 62
    39
  6
CONTINUOUS
 10
12.256235
 20
-11.248292
  0
VERTEX
  8
LAYER_1
 62
    39
  6
CONTINUOUS
 10
12.256136
 20
-11.248735
  0
VERTEX
  8
LAYER_1
 62
    39
  6
CONTINUOUS
 10
12.256045
 20
-11.249181
  0
VERTEX
  8
LAYER_1
 62
    39
  6
CONTINUOUS
 10
12.255962
 20
-11.249628
  0
VERTEX
  8
LAYER_1
 62
    39
  6
CONTINUOUS
 10
12.255887
 20
-11.250076
  0
VERTEX
  8
LAYER_1
 62
    39
  6
CONTINUOUS
 10
12.255820
 20
-11.250526
  0
VERTEX
  8
LAYER_1
 62
    39
  6
CONTINUOUS
 10
12.255760
 20
-11.250977
  0
VERTEX
  8
LAYER_1
 62
    39
  6
CONTINUOUS
 10
12.255708
 20
-11.251429
  0
VERTEX
  8
LAYER_1
 62
    39
  6
CONTINUOUS
 10
12.255664
 20
-11.251881
  0
VERTEX
  8
LAYER_1
 62
    39
  6
CONTINUOUS
 10
12.255628
 20
-11.252334
  0
VERTEX
  8
LAYER_1
 62
    39
  6
CONTINUOUS
 10
12.255600
 20
-11.252788
  0
VERTEX
  8
LAYER_1
 62
    39
  6
CONTINUOUS
 10
12.255580
 20
-11.253242
  0
VERTEX
  8
LAYER_1
 62
    39
  6
CONTINUOUS
 10
12.255568
 20
-11.253697
  0
VERTEX
  8
LAYER_1
 62
    39
  6
CONTINUOUS
 10
12.255563
 20
-11.254152
  0
VERTEX
  8
LAYER_1
 62
    39
  6
CONTINUOUS
 10
12.255566
 20
-11.254606
  0
VERTEX
  8
LAYER_1
 62
    39
  6
CONTINUOUS
 10
12.255578
 20
-11.255061
  0
VERTEX
  8
LAYER_1
 62
    39
  6
CONTINUOUS
 10
12.255597
 20
-11.255515
  0
VERTEX
  8
LAYER_1
 62
    39
  6
CONTINUOUS
 10
12.255624
 20
-11.255969
  0
VERTEX
  8
LAYER_1
 62
    39
  6
CONTINUOUS
 10
12.255659
 20
-11.256422
  0
VERTEX
  8
LAYER_1
 62
    39
  6
CONTINUOUS
 10
12.255701
 20
-11.256875
  0
VERTEX
  8
LAYER_1
 62
    39
  6
CONTINUOUS
 10
12.255752
 20
-11.257327
  0
VERTEX
  8
LAYER_1
 62
    39
  6
CONTINUOUS
 10
12.255811
 20
-11.257778
  0
VERTEX
  8
LAYER_1
 62
    39
  6
CONTINUOUS
 10
12.255877
 20
-11.258227
  0
VERTEX
  8
LAYER_1
 62
    39
  6
CONTINUOUS
 10
12.255951
 20
-11.258676
  0
VERTEX
  8
LAYER_1
 62
    39
  6
CONTINUOUS
 10
12.256033
 20
-11.259123
  0
VERTEX
  8
LAYER_1
 62
    39
  6
CONTINUOUS
 10
12.256122
 20
-11.259569
  0
VERTEX
  8
LAYER_1
 62
    39
  6
CONTINUOUS
 10
12.256220
 20
-11.260013
  0
VERTEX
  8
LAYER_1
 62
    39
  6
CONTINUOUS
 10
12.256325
 20
-11.260456
  0
VERTEX
  8
LAYER_1
 62
    39
  6
CONTINUOUS
 10
12.256437
 20
-11.260896
  0
VERTEX
  8
LAYER_1
 62
    39
  6
CONTINUOUS
 10
12.256557
 20
-11.261335
  0
VERTEX
  8
LAYER_1
 62
    39
  6
CONTINUOUS
 10
12.256685
 20
-11.261771
  0
VERTEX
  8
LAYER_1
 62
    39
  6
CONTINUOUS
 10
12.256821
 20
-11.262205
  0
VERTEX
  8
LAYER_1
 62
    39
  6
CONTINUOUS
 10
12.256964
 20
-11.262637
  0
VERTEX
  8
LAYER_1
 62
    39
  6
CONTINUOUS
 10
12.257114
 20
-11.263066
  0
VERTEX
  8
LAYER_1
 62
    39
  6
CONTINUOUS
 10
12.257272
 20
-11.263492
  0
VERTEX
  8
LAYER_1
 62
    39
  6
CONTINUOUS
 10
12.257437
 20
-11.263916
  0
VERTEX
  8
LAYER_1
 62
    39
  6
CONTINUOUS
 10
12.257610
 20
-11.264336
  0
VERTEX
  8
LAYER_1
 62
    39
  6
CONTINUOUS
 10
12.257790
 20
-11.264754
  0
VERTEX
  8
LAYER_1
 62
    39
  6
CONTINUOUS
 10
12.257977
 20
-11.265168
  0
VERTEX
  8
LAYER_1
 62
    39
  6
CONTINUOUS
 10
12.258171
 20
-11.265579
  0
VERTEX
  8
LAYER_1
 62
    39
  6
CONTINUOUS
 10
12.258372
 20
-11.265987
  0
VERTEX
  8
LAYER_1
 62
    39
  6
CONTINUOUS
 10
12.258580
 20
-11.266391
  0
VERTEX
  8
LAYER_1
 62
    39
  6
CONTINUOUS
 10
12.258796
 20
-11.266792
  0
VERTEX
  8
LAYER_1
 62
    39
  6
CONTINUOUS
 10
12.259018
 20
-11.267188
  0
VERTEX
  8
LAYER_1
 62
    39
  6
CONTINUOUS
 10
12.259247
 20
-11.267581
  0
VERTEX
  8
LAYER_1
 62
    39
  6
CONTINUOUS
 10
12.259483
 20
-11.267970
  0
VERTEX
  8
LAYER_1
 62
    39
  6
CONTINUOUS
 10
12.259726
 20
-11.268354
  0
VERTEX
  8
LAYER_1
 62
    39
  6
CONTINUOUS
 10
12.259975
 20
-11.268735
  0
VERTEX
  8
LAYER_1
 62
    39
  6
CONTINUOUS
 10
12.260231
 20
-11.269111
  0
VERTEX
  8
LAYER_1
 62
    39
  6
CONTINUOUS
 10
12.260493
 20
-11.269482
  0
VERTEX
  8
LAYER_1
 62
    39
  6
CONTINUOUS
 10
12.260762
 20
-11.269849
  0
VERTEX
  8
LAYER_1
 62
    39
  6
CONTINUOUS
 10
12.261037
 20
-11.270211
  0
VERTEX
  8
LAYER_1
 62
    39
  6
CONTINUOUS
 10
12.261318
 20
-11.270568
  0
VERTEX
  8
LAYER_1
 62
    39
  6
CONTINUOUS
 10
12.261605
 20
-11.270920
  0
VERTEX
  8
LAYER_1
 62
    39
  6
CONTINUOUS
 10
12.261899
 20
-11.271268
  0
VERTEX
  8
LAYER_1
 62
    39
  6
CONTINUOUS
 10
12.262198
 20
-11.271610
  0
VERTEX
  8
LAYER_1
 62
    39
  6
CONTINUOUS
 10
12.262504
 20
-11.271947
  0
VERTEX
  8
LAYER_1
 62
    39
  6
CONTINUOUS
 10
12.262815
 20
-11.272278
  0
VERTEX
  8
LAYER_1
 62
    39
  6
CONTINUOUS
 10
12.263132
 20
-11.272604
  0
VERTEX
  8
LAYER_1
 62
    39
  6
CONTINUOUS
 10
12.263454
 20
-11.272925
  0
VERTEX
  8
LAYER_1
 62
    39
  6
CONTINUOUS
 10
12.263782
 20
-11.273240
  0
VERTEX
  8
LAYER_1
 62
    39
  6
CONTINUOUS
 10
12.264116
 20
-11.273549
  0
VERTEX
  8
LAYER_1
 62
    39
  6
CONTINUOUS
 10
12.264454
 20
-11.273852
  0
VERTEX
  8
LAYER_1
 62
    39
  6
CONTINUOUS
 10
12.264798
 20
-11.274149
  0
VERTEX
  8
LAYER_1
 62
    39
  6
CONTINUOUS
 10
12.265147
 20
-11.274441
  0
VERTEX
  8
LAYER_1
 62
    39
  6
CONTINUOUS
 10
12.265501
 20
-11.274726
  0
VERTEX
  8
LAYER_1
 62
    39
  6
CONTINUOUS
 10
12.265860
 20
-11.275005
  0
VERTEX
  8
LAYER_1
 62
    39
  6
CONTINUOUS
 10
12.266224
 20
-11.275278
  0
VERTEX
  8
LAYER_1
 62
    39
  6
CONTINUOUS
 10
12.266592
 20
-11.275544
  0
VERTEX
  8
LAYER_1
 62
    39
  6
CONTINUOUS
 10
12.266965
 20
-11.275804
  0
VERTEX
  8
LAYER_1
 62
    39
  6
CONTINUOUS
 10
12.267343
 20
-11.276058
  0
VERTEX
  8
LAYER_1
 62
    39
  6
CONTINUOUS
 10
12.267725
 20
-11.276305
  0
VERTEX
  8
LAYER_1
 62
    39
  6
CONTINUOUS
 10
12.268111
 20
-11.276545
  0
VERTEX
  8
LAYER_1
 62
    39
  6
CONTINUOUS
 10
12.268501
 20
-11.276779
  0
VERTEX
  8
LAYER_1
 62
    39
  6
CONTINUOUS
 10
12.268895
 20
-11.277005
  0
VERTEX
  8
LAYER_1
 62
    39
  6
CONTINUOUS
 10
12.269293
 20
-11.277225
  0
VERTEX
  8
LAYER_1
 62
    39
  6
CONTINUOUS
 10
12.269695
 20
-11.277438
  0
VERTEX
  8
LAYER_1
 62
    39
  6
CONTINUOUS
 10
12.270100
 20
-11.277644
  0
VERTEX
  8
LAYER_1
 62
    39
  6
CONTINUOUS
 10
12.270509
 20
-11.277843
  0
VERTEX
  8
LAYER_1
 62
    39
  6
CONTINUOUS
 10
12.270921
 20
-11.278035
  0
VERTEX
  8
LAYER_1
 62
    39
  6
CONTINUOUS
 10
12.271337
 20
-11.278219
  0
VERTEX
  8
LAYER_1
 62
    39
  6
CONTINUOUS
 10
12.271755
 20
-11.278396
  0
VERTEX
  8
LAYER_1
 62
    39
  6
CONTINUOUS
 10
12.272177
 20
-11.278566
  0
VERTEX
  8
LAYER_1
 62
    39
  6
CONTINUOUS
 10
12.272602
 20
-11.278729
  0
VERTEX
  8
LAYER_1
 62
    39
  6
CONTINUOUS
 10
12.273029
 20
-11.278884
  0
VERTEX
  8
LAYER_1
 62
    39
  6
CONTINUOUS
 10
12.273459
 20
-11.279032
  0
VERTEX
  8
LAYER_1
 62
    39
  6
CONTINUOUS
 10
12.273892
 20
-11.279172
  0
VERTEX
  8
LAYER_1
 62
    39
  6
CONTINUOUS
 10
12.274326
 20
-11.279305
  0
VERTEX
  8
LAYER_1
 62
    39
  6
CONTINUOUS
 10
12.274764
 20
-11.279430
  0
VERTEX
  8
LAYER_1
 62
    39
  6
CONTINUOUS
 10
12.275203
 20
-11.279548
  0
VERTEX
  8
LAYER_1
 62
    39
  6
CONTINUOUS
 10
12.275644
 20
-11.279658
  0
VERTEX
  8
LAYER_1
 62
    39
  6
CONTINUOUS
 10
12.276087
 20
-11.279760
  0
VERTEX
  8
LAYER_1
 62
    39
  6
CONTINUOUS
 10
12.276532
 20
-11.279855
  0
VERTEX
  8
LAYER_1
 62
    39
  6
CONTINUOUS
 10
12.276978
 20
-11.279942
  0
VERTEX
  8
LAYER_1
 62
    39
  6
CONTINUOUS
 10
12.277426
 20
-11.280021
  0
VERTEX
  8
LAYER_1
 62
    39
  6
CONTINUOUS
 10
12.277875
 20
-11.280092
  0
VERTEX
  8
LAYER_1
 62
    39
  6
CONTINUOUS
 10
12.278325
 20
-11.280156
  0
VERTEX
  8
LAYER_1
 62
    39
  6
CONTINUOUS
 10
12.278776
 20
-11.280211
  0
VERTEX
  8
LAYER_1
 62
    39
  6
CONTINUOUS
 10
12.279228
 20
-11.280259
  0
VERTEX
  8
LAYER_1
 62
    39
  6
CONTINUOUS
 10
12.279681
 20
-11.280299
  0
VERTEX
  8
LAYER_1
 62
    39
  6
CONTINUOUS
 10
12.280135
 20
-11.280331
  0
VERTEX
  8
LAYER_1
 62
    39
  6
CONTINUOUS
 10
12.280589
 20
-11.280356
  0
VERTEX
  8
LAYER_1
 62
    39
  6
CONTINUOUS
 10
12.281043
 20
-11.280372
  0
VERTEX
  8
LAYER_1
 62
    39
  6
CONTINUOUS
 10
12.281498
 20
-11.280381
  0
VERTEX
  8
LAYER_1
 62
    39
  6
CONTINUOUS
 10
12.281952
 20
-11.280381
  0
VERTEX
  8
LAYER_1
 62
    39
  6
CONTINUOUS
 10
12.282407
 20
-11.280374
  0
VERTEX
  8
LAYER_1
 62
    39
  6
CONTINUOUS
 10
12.282862
 20
-11.280359
  0
VERTEX
  8
LAYER_1
 62
    39
  6
CONTINUOUS
 10
12.283316
 20
-11.280336
  0
VERTEX
  8
LAYER_1
 62
    39
  6
CONTINUOUS
 10
12.283769
 20
-11.280305
  0
VERTEX
  8
LAYER_1
 62
    39
  6
CONTINUOUS
 10
12.284222
 20
-11.280266
  0
VERTEX
  8
LAYER_1
 62
    39
  6
CONTINUOUS
 10
12.284675
 20
-11.280219
  0
VERTEX
  8
LAYER_1
 62
    39
  6
CONTINUOUS
 10
12.285126
 20
-11.280165
  0
VERTEX
  8
LAYER_1
 62
    39
  6
CONTINUOUS
 10
12.285576
 20
-11.280102
  0
VERTEX
  8
LAYER_1
 62
    39
  6
CONTINUOUS
 10
12.286026
 20
-11.280032
  0
VERTEX
  8
LAYER_1
 62
    39
  6
CONTINUOUS
 10
12.286473
 20
-11.279954
  0
VERTEX
  8
LAYER_1
 62
    39
  6
CONTINUOUS
 10
12.286920
 20
-11.279869
  0
VERTEX
  8
LAYER_1
 62
    39
  6
CONTINUOUS
 10
12.287365
 20
-11.279775
  0
VERTEX
  8
LAYER_1
 62
    39
  6
CONTINUOUS
 10
12.287808
 20
-11.279674
  0
VERTEX
  8
LAYER_1
 62
    39
  6
CONTINUOUS
 10
12.288250
 20
-11.279565
  0
VERTEX
  8
LAYER_1
 62
    39
  6
CONTINUOUS
 10
12.288689
 20
-11.279449
  0
VERTEX
  8
LAYER_1
 62
    39
  6
CONTINUOUS
 10
12.289127
 20
-11.279325
  0
VERTEX
  8
LAYER_1
 62
    39
  6
CONTINUOUS
 10
12.289562
 20
-11.279193
  0
VERTEX
  8
LAYER_1
 62
    39
  6
CONTINUOUS
 10
12.289995
 20
-11.279054
  0
VERTEX
  8
LAYER_1
 62
    39
  6
CONTINUOUS
 10
12.290425
 20
-11.278907
  0
VERTEX
  8
LAYER_1
 62
    39
  6
CONTINUOUS
 10
12.290853
 20
-11.278753
  0
VERTEX
  8
LAYER_1
 62
    39
  6
CONTINUOUS
 10
12.291278
 20
-11.278592
  0
VERTEX
  8
LAYER_1
 62
    39
  6
CONTINUOUS
 10
12.291700
 20
-11.278423
  0
VERTEX
  8
LAYER_1
 62
    39
  6
CONTINUOUS
 10
12.292119
 20
-11.278247
  0
VERTEX
  8
LAYER_1
 62
    39
  6
CONTINUOUS
 10
12.292535
 20
-11.278063
  0
VERTEX
  8
LAYER_1
 62
    39
  6
CONTINUOUS
 10
12.292948
 20
-11.277873
  0
VERTEX
  8
LAYER_1
 62
    39
  6
CONTINUOUS
 10
12.293357
 20
-11.277675
  0
VERTEX
  8
LAYER_1
 62
    39
  6
CONTINUOUS
 10
12.293763
 20
-11.277470
  0
VERTEX
  8
LAYER_1
 62
    39
  6
CONTINUOUS
 10
12.294166
 20
-11.277258
  0
VERTEX
  8
LAYER_1
 62
    39
  6
CONTINUOUS
 10
12.294564
 20
-11.277039
  0
VERTEX
  8
LAYER_1
 62
    39
  6
CONTINUOUS
 10
12.294959
 20
-11.276814
  0
VERTEX
  8
LAYER_1
 62
    39
  6
CONTINUOUS
 10
12.295350
 20
-11.276581
  0
VERTEX
  8
LAYER_1
 62
    39
  6
CONTINUOUS
 10
12.295736
 20
-11.276342
  0
VERTEX
  8
LAYER_1
 62
    39
  6
CONTINUOUS
 10
12.296119
 20
-11.276096
  0
VERTEX
  8
LAYER_1
 62
    39
  6
CONTINUOUS
 10
12.296497
 20
-11.275844
  0
VERTEX
  8
LAYER_1
 62
    39
  6
CONTINUOUS
 10
12.296871
 20
-11.275585
  0
VERTEX
  8
LAYER_1
 62
    39
  6
CONTINUOUS
 10
12.297240
 20
-11.275319
  0
VERTEX
  8
LAYER_1
 62
    39
  6
CONTINUOUS
 10
12.297604
 20
-11.275047
  0
VERTEX
  8
LAYER_1
 62
    39
  6
CONTINUOUS
 10
12.297964
 20
-11.274769
  0
VERTEX
  8
LAYER_1
 62
    39
  6
CONTINUOUS
 10
12.298319
 20
-11.274485
  0
VERTEX
  8
LAYER_1
 62
    39
  6
CONTINUOUS
 10
12.298669
 20
-11.274194
  0
VERTEX
  8
LAYER_1
 62
    39
  6
CONTINUOUS
 10
12.299013
 20
-11.273898
  0
VERTEX
  8
LAYER_1
 62
    39
  6
CONTINUOUS
 10
12.299353
 20
-11.273595
  0
VERTEX
  8
LAYER_1
 62
    39
  6
CONTINUOUS
 10
12.299687
 20
-11.273287
  0
VERTEX
  8
LAYER_1
 62
    39
  6
CONTINUOUS
 10
12.300016
 20
-11.272973
  0
VERTEX
  8
LAYER_1
 62
    39
  6
CONTINUOUS
 10
12.300339
 20
-11.272654
  0
VERTEX
  8
LAYER_1
 62
    39
  6
CONTINUOUS
 10
12.300657
 20
-11.272328
  0
VERTEX
  8
LAYER_1
 62
    39
  6
CONTINUOUS
 10
12.300969
 20
-11.271998
  0
VERTEX
  8
LAYER_1
 62
    39
  6
CONTINUOUS
 10
12.301275
 20
-11.271662
  0
VERTEX
  8
LAYER_1
 62
    39
  6
CONTINUOUS
 10
12.301576
 20
-11.271320
  0
VERTEX
  8
LAYER_1
 62
    39
  6
CONTINUOUS
 10
12.301870
 20
-11.270974
  0
VERTEX
  8
LAYER_1
 62
    39
  6
CONTINUOUS
 10
12.302158
 20
-11.270622
  0
VERTEX
  8
LAYER_1
 62
    39
  6
CONTINUOUS
 10
12.302440
 20
-11.270266
  0
VERTEX
  8
LAYER_1
 62
    39
  6
CONTINUOUS
 10
12.302716
 20
-11.269904
  0
VERTEX
  8
LAYER_1
 62
    39
  6
CONTINUOUS
 10
12.302986
 20
-11.269538
  0
VERTEX
  8
LAYER_1
 62
    39
  6
CONTINUOUS
 10
12.303249
 20
-11.269168
  0
VERTEX
  8
LAYER_1
 62
    39
  6
CONTINUOUS
 10
12.303506
 20
-11.268792
  0
VERTEX
  8
LAYER_1
 62
    39
  6
CONTINUOUS
 10
12.303756
 20
-11.268413
  0
VERTEX
  8
LAYER_1
 62
    39
  6
CONTINUOUS
 10
12.304000
 20
-11.268029
  0
VERTEX
  8
LAYER_1
 62
    39
  6
CONTINUOUS
 10
12.304237
 20
-11.267641
  0
VERTEX
  8
LAYER_1
 62
    39
  6
CONTINUOUS
 10
12.304467
 20
-11.267249
  0
VERTEX
  8
LAYER_1
 62
    39
  6
CONTINUOUS
 10
12.304690
 20
-11.266853
  0
VERTEX
  8
LAYER_1
 62
    39
  6
CONTINUOUS
 10
12.304907
 20
-11.266453
  0
VERTEX
  8
LAYER_1
 62
    39
  6
CONTINUOUS
 10
12.305116
 20
-11.266049
  0
VERTEX
  8
LAYER_1
 62
    39
  6
CONTINUOUS
 10
12.305319
 20
-11.265642
  0
VERTEX
  8
LAYER_1
 62
    39
  6
CONTINUOUS
 10
12.305514
 20
-11.265231
  0
VERTEX
  8
LAYER_1
 62
    39
  6
CONTINUOUS
 10
12.305702
 20
-11.264817
  0
VERTEX
  8
LAYER_1
 62
    39
  6
CONTINUOUS
 10
12.305883
 20
-11.264400
  0
VERTEX
  8
LAYER_1
 62
    39
  6
CONTINUOUS
 10
12.306057
 20
-11.263980
  0
VERTEX
  8
LAYER_1
 62
    39
  6
CONTINUOUS
 10
12.306223
 20
-11.263557
  0
VERTEX
  8
LAYER_1
 62
    39
  6
CONTINUOUS
 10
12.306382
 20
-11.263131
  0
VERTEX
  8
LAYER_1
 62
    39
  6
CONTINUOUS
 10
12.306533
 20
-11.262702
  0
VERTEX
  8
LAYER_1
 62
    39
  6
CONTINUOUS
 10
12.306678
 20
-11.262271
  0
VERTEX
  8
LAYER_1
 62
    39
  6
CONTINUOUS
 10
12.306814
 20
-11.261837
  0
VERTEX
  8
LAYER_1
 62
    39
  6
CONTINUOUS
 10
12.306943
 20
-11.261401
  0
VERTEX
  8
LAYER_1
 62
    39
  6
CONTINUOUS
 10
12.307065
 20
-11.260963
  0
VERTEX
  8
LAYER_1
 62
    39
  6
CONTINUOUS
 10
12.307178
 20
-11.260523
  0
VERTEX
  8
LAYER_1
 62
    39
  6
CONTINUOUS
 10
12.307285
 20
-11.260081
  0
VERTEX
  8
LAYER_1
 62
    39
  6
CONTINUOUS
 10
12.307383
 20
-11.259637
  0
VERTEX
  8
LAYER_1
 62
    39
  6
CONTINUOUS
 10
12.307474
 20
-11.259191
  0
VERTEX
  8
LAYER_1
 62
    39
  6
CONTINUOUS
 10
12.307557
 20
-11.258744
  0
VERTEX
  8
LAYER_1
 62
    39
  6
CONTINUOUS
 10
12.307632
 20
-11.258296
  0
VERTEX
  8
LAYER_1
 62
    39
  6
CONTINUOUS
 10
12.307700
 20
-11.257846
  0
VERTEX
  8
LAYER_1
 62
    39
  6
CONTINUOUS
 10
12.307759
 20
-11.257396
  0
VERTEX
  8
LAYER_1
 62
    39
  6
CONTINUOUS
 10
12.307811
 20
-11.256944
  0
VERTEX
  8
LAYER_1
 62
    39
  6
CONTINUOUS
 10
12.307855
 20
-11.256491
  0
VERTEX
  8
LAYER_1
 62
    39
  6
CONTINUOUS
 10
12.307891
 20
-11.256038
  0
VERTEX
  8
LAYER_1
 62
    39
  6
CONTINUOUS
 10
12.307919
 20
-11.255584
  0
VERTEX
  8
LAYER_1
 62
    39
  6
CONTINUOUS
 10
12.307940
 20
-11.255130
  0
VERTEX
  8
LAYER_1
 62
    39
  6
CONTINUOUS
 10
12.307952
 20
-11.254676
  0
VERTEX
  8
LAYER_1
 62
    39
  6
CONTINUOUS
 10
12.307957
 20
-11.254221
  0
SEQEND
  8
0
  0
LINE
  8
LAYER_1
 62
    39
  6
CONTINUOUS
 10
12.307957
 20
-11.254185
 11
12.307957
 21
-11.254185
  0
POLYLINE
  8
LAYER_1
 62
    39
  6
CONTINUOUS
 66
     1
 40
0.006945
 41
0.006945
 70
     1
  0
VERTEX
  8
LAYER_1
 62
    39
  6
CONTINUOUS
 10
0.826717
 20
-11.972866
  0
VERTEX
  8
LAYER_1
 62
    39
  6
CONTINUOUS
 10
0.826717
 20
-11.891480
  0
VERTEX
  8
LAYER_1
 62
    39
  6
CONTINUOUS
 10
0.964445
 20
-11.891480
  0
VERTEX
  8
LAYER_1
 62
    39
  6
CONTINUOUS
 10
1.258685
 20
-11.803835
  0
VERTEX
  8
LAYER_1
 62
    39
  6
CONTINUOUS
 10
1.452425
 20
-11.805591
  0
VERTEX
  8
LAYER_1
 62
    39
  6
CONTINUOUS
 10
1.459291
 20
-11.729236
  0
VERTEX
  8
LAYER_1
 62
    39
  6
CONTINUOUS
 10
1.596724
 20
-11.731323
  0
VERTEX
  8
LAYER_1
 62
    39
  6
CONTINUOUS
 10
1.596720
 20
-11.806902
  0
VERTEX
  8
LAYER_1
 62
    39
  6
CONTINUOUS
 10
1.646165
 20
-11.807350
  0
VERTEX
  8
LAYER_1
 62
    39
  6
CONTINUOUS
 10
1.753260
 20
-11.897740
  0
VERTEX
  8
LAYER_1
 62
    39
  6
CONTINUOUS
 10
1.909772
 20
-11.897740
  0
VERTEX
  8
LAYER_1
 62
    39
  6
CONTINUOUS
 10
1.909772
 20
-11.979126
  0
VERTEX
  8
LAYER_1
 62
    39
  6
CONTINUOUS
 10
1.790823
 20
-11.979126
  0
VERTEX
  8
LAYER_1
 62
    39
  6
CONTINUOUS
 10
1.790823
 20
-12.567606
  0
VERTEX
  8
LAYER_1
 62
    39
  6
CONTINUOUS
 10
0.914362
 20
-12.567606
  0
VERTEX
  8
LAYER_1
 62
    39
  6
CONTINUOUS
 10
0.914362
 20
-11.972866
  0
SEQEND
  8
0
  0
SOLID
  8
LAYER_1
 10
1.414626
 20
-11.780681
 11
1.632933
 21
-11.780681
 12
1.414626
 22
-11.658429
 13
1.632933
 23
-11.658429
  0
POLYLINE
  8
LAYER_1
 62
    39
  6
CONTINUOUS
 66
     1
 40
0.006945
 41
0.006945
 70
     1
  0
VERTEX
  8
LAYER_1
 62
    39
  6
CONTINUOUS
 10
1.414626
 20
-11.780681
  0
VERTEX
  8
LAYER_1
 62
    39
  6
CONTINUOUS
 10
1.632933
 20
-11.780681
  0
VERTEX
  8
LAYER_1
 62
    39
  6
CONTINUOUS
 10
1.632933
 20
-11.658429
  0
VERTEX
  8
LAYER_1
 62
    39
  6
CONTINUOUS
 10
1.414626
 20
-11.658429
  0
SEQEND
  8
0
  0
POLYLINE
  8
LAYER_1
 62
    39
  6
CONTINUOUS
 66
     1
 40
0.006945
 41
0.006945
 70
     1
  0
VERTEX
  8
LAYER_1
 62
    39
  6
CONTINUOUS
 10
1.414626
 20
-11.661665
  0
VERTEX
  8
LAYER_1
 62
    39
  6
CONTINUOUS
 10
1.632933
 20
-11.661665
  0
VERTEX
  8
LAYER_1
 62
    39
  6
CONTINUOUS
 10
1.632933
 20
-11.597303
  0
VERTEX
  8
LAYER_1
 62
    39
  6
CONTINUOUS
 10
1.414626
 20
-11.597303
  0
SEQEND
  8
0
  0
POLYLINE
  8
LAYER_1
 62
    39
  6
CONTINUOUS
 66
     1
 40
0.006945
 41
0.006945
 70
     1
  0
VERTEX
  8
LAYER_1
 62
    39
  6
CONTINUOUS
 10
-2.559150
 20
-11.664976
  0
VERTEX
  8
LAYER_1
 62
    39
  6
CONTINUOUS
 10
-2.559150
 20
-11.583591
  0
VERTEX
  8
LAYER_1
 62
    39
  6
CONTINUOUS
 10
-2.421421
 20
-11.583591
  0
VERTEX
  8
LAYER_1
 62
    39
  6
CONTINUOUS
 10
-2.127181
 20
-11.495945
  0
VERTEX
  8
LAYER_1
 62
    39
  6
CONTINUOUS
 10
-1.933441
 20
-11.497701
  0
VERTEX
  8
LAYER_1
 62
    39
  6
CONTINUOUS
 10
-1.926575
 20
-11.421346
  0
VERTEX
  8
LAYER_1
 62
    39
  6
CONTINUOUS
 10
-1.789142
 20
-11.423433
  0
VERTEX
  8
LAYER_1
 62
    39
  6
CONTINUOUS
 10
-1.789146
 20
-11.499012
  0
VERTEX
  8
LAYER_1
 62
    39
  6
CONTINUOUS
 10
-1.739701
 20
-11.499461
  0
VERTEX
  8
LAYER_1
 62
    39
  6
CONTINUOUS
 10
-1.632606
 20
-11.589850
  0
VERTEX
  8
LAYER_1
 62
    39
  6
CONTINUOUS
 10
-1.476094
 20
-11.589850
  0
VERTEX
  8
LAYER_1
 62
    39
  6
CONTINUOUS
 10
-1.476094
 20
-11.671236
  0
VERTEX
  8
LAYER_1
 62
    39
  6
CONTINUOUS
 10
-1.595043
 20
-11.671236
  0
VERTEX
  8
LAYER_1
 62
    39
  6
CONTINUOUS
 10
-1.595043
 20
-12.259717
  0
VERTEX
  8
LAYER_1
 62
    39
  6
CONTINUOUS
 10
-2.471504
 20
-12.259717
  0
VERTEX
  8
LAYER_1
 62
    39
  6
CONTINUOUS
 10
-2.471504
 20
-11.664976
  0
SEQEND
  8
0
  0
SOLID
  8
LAYER_1
 10
-1.971240
 20
-11.472791
 11
-1.752933
 21
-11.472791
 12
-1.971240
 22
-11.350539
 13
-1.752933
 23
-11.350539
  0
POLYLINE
  8
LAYER_1
 62
    39
  6
CONTINUOUS
 66
     1
 40
0.006945
 41
0.006945
 70
     1
  0
VERTEX
  8
LAYER_1
 62
    39
  6
CONTINUOUS
 10
-1.971240
 20
-11.472791
  0
VERTEX
  8
LAYER_1
 62
    39
  6
CONTINUOUS
 10
-1.752933
 20
-11.472791
  0
VERTEX
  8
LAYER_1
 62
    39
  6
CONTINUOUS
 10
-1.752933
 20
-11.350539
  0
VERTEX
  8
LAYER_1
 62
    39
  6
CONTINUOUS
 10
-1.971240
 20
-11.350539
  0
SEQEND
  8
0
  0
POLYLINE
  8
LAYER_1
 62
    39
  6
CONTINUOUS
 66
     1
 40
0.006945
 41
0.006945
 70
     1
  0
VERTEX
  8
LAYER_1
 62
    39
  6
CONTINUOUS
 10
-1.971240
 20
-11.353776
  0
VERTEX
  8
LAYER_1
 62
    39
  6
CONTINUOUS
 10
-1.752933
 20
-11.353776
  0
VERTEX
  8
LAYER_1
 62
    39
  6
CONTINUOUS
 10
-1.752933
 20
-11.289413
  0
VERTEX
  8
LAYER_1
 62
    39
  6
CONTINUOUS
 10
-1.971240
 20
-11.289413
  0
SEQEND
  8
0
  0
SOLID
  8
LAYER_1
 62
   253
 10
-8.261402
 20
-12.545252
 11
-6.182654
 21
-12.545252
 12
-8.261402
 22
-10.571315
 13
-6.182654
 23
-10.571315
  0
POLYLINE
  8
LAYER_1
 62
    39
  6
CONTINUOUS
 66
     1
 40
0.006945
 41
0.006945
 70
     1
  0
VERTEX
  8
LAYER_1
 62
    39
  6
CONTINUOUS
 10
-8.261402
 20
-12.545252
  0
VERTEX
  8
LAYER_1
 62
    39
  6
CONTINUOUS
 10
-6.182654
 20
-12.545252
  0
VERTEX
  8
LAYER_1
 62
    39
  6
CONTINUOUS
 10
-6.182654
 20
-10.571315
  0
VERTEX
  8
LAYER_1
 62
    39
  6
CONTINUOUS
 10
-8.261402
 20
-10.571315
  0
SEQEND
  8
0
  0
SOLID
  8
LAYER_1
 62
    31
 10
-16.122146
 20
-10.525067
 11
-11.677413
 21
-10.525067
 12
-16.122146
 22
-10.201972
 13
-11.677413
 23
-10.201972
  0
POLYLINE
  8
LAYER_1
 62
    39
  6
CONTINUOUS
 66
     1
 40
0.006945
 41
0.006945
 70
     1
  0
VERTEX
  8
LAYER_1
 62
    39
  6
CONTINUOUS
 10
-16.122146
 20
-10.525067
  0
VERTEX
  8
LAYER_1
 62
    39
  6
CONTINUOUS
 10
-11.677413
 20
-10.525067
  0
VERTEX
  8
LAYER_1
 62
    39
  6
CONTINUOUS
 10
-11.677413
 20
-10.201972
  0
VERTEX
  8
LAYER_1
 62
    39
  6
CONTINUOUS
 10
-16.122146
 20
-10.201972
  0
SEQEND
  8
0
  0
SOLID
  8
LAYER_1
 62
    23
 10
-12.105295
 20
-10.926752
 11
-11.677413
 21
-10.926752
 12
-12.105295
 22
-10.525067
 13
-11.677413
 23
-10.525067
  0
POLYLINE
  8
LAYER_1
 62
    39
  6
CONTINUOUS
 66
     1
 40
0.006945
 41
0.006945
 70
     1
  0
VERTEX
  8
LAYER_1
 62
    39
  6
CONTINUOUS
 10
-12.105295
 20
-10.926752
  0
VERTEX
  8
LAYER_1
 62
    39
  6
CONTINUOUS
 10
-11.677413
 20
-10.926752
  0
VERTEX
  8
LAYER_1
 62
    39
  6
CONTINUOUS
 10
-11.677413
 20
-10.525067
  0
VERTEX
  8
LAYER_1
 62
    39
  6
CONTINUOUS
 10
-12.105295
 20
-10.525067
  0
SEQEND
  8
0
  0
SOLID
  8
LAYER_1
 62
    23
 10
-14.483713
 20
-10.929988
 11
-14.055831
 21
-10.929988
 12
-14.483713
 22
-10.528303
 13
-14.055831
 23
-10.528303
  0
POLYLINE
  8
LAYER_1
 62
    39
  6
CONTINUOUS
 66
     1
 40
0.006945
 41
0.006945
 70
     1
  0
VERTEX
  8
LAYER_1
 62
    39
  6
CONTINUOUS
 10
-14.483713
 20
-10.929988
  0
VERTEX
  8
LAYER_1
 62
    39
  6
CONTINUOUS
 10
-14.055831
 20
-10.929988
  0
VERTEX
  8
LAYER_1
 62
    39
  6
CONTINUOUS
 10
-14.055831
 20
-10.528303
  0
VERTEX
  8
LAYER_1
 62
    39
  6
CONTINUOUS
 10
-14.483713
 20
-10.528303
  0
SEQEND
  8
0
  0
POLYLINE
  8
LAYER_1
 62
    39
  6
CONTINUOUS
 66
     1
 40
0.006945
 41
0.006945
  0
VERTEX
  8
LAYER_1
 62
    39
  6
CONTINUOUS
 10
11.035256
 20
-7.634681
  0
VERTEX
  8
LAYER_1
 62
    39
  6
CONTINUOUS
 10
14.790138
 20
-7.634681
  0
SEQEND
  8
0
  0
POLYLINE
  8
LAYER_1
 62
    39
  6
CONTINUOUS
 66
     1
 40
0.006945
 41
0.006945
  0
VERTEX
  8
LAYER_1
 62
    39
  6
CONTINUOUS
 10
12.170453
 20
-12.489831
  0
VERTEX
  8
LAYER_1
 62
    39
  6
CONTINUOUS
 10
14.790138
 20
-12.498563
  0
SEQEND
  8
0
  0
POLYLINE
  8
LAYER_1
 62
    39
  6
CONTINUOUS
 66
     1
 40
0.006945
 41
0.006945
  0
VERTEX
  8
LAYER_1
 62
    39
  6
CONTINUOUS
 10
12.240311
 20
-12.629547
  0
VERTEX
  8
LAYER_1
 62
    39
  6
CONTINUOUS
 10
12.659461
 20
-12.629547
  0
SEQEND
  8
0
  0
POLYLINE
  8
LAYER_1
 62
    39
  6
CONTINUOUS
 66
     1
 40
0.006945
 41
0.006945
  0
VERTEX
  8
LAYER_1
 62
    39
  6
CONTINUOUS
 10
12.572138
 20
-12.550957
  0
VERTEX
  8
LAYER_1
 62
    39
  6
CONTINUOUS
 10
13.523957
 20
-12.550957
  0
SEQEND
  8
0
  0
POLYLINE
  8
LAYER_1
 62
    39
  6
CONTINUOUS
 66
     1
 40
0.006945
 41
0.006945
  0
VERTEX
  8
LAYER_1
 62
    39
  6
CONTINUOUS
 10
13.148469
 20
-12.673209
  0
VERTEX
  8
LAYER_1
 62
    39
  6
CONTINUOUS
 10
13.480295
 20
-12.673209
  0
SEQEND
  8
0
  0
POLYLINE
  8
LAYER_1
 62
    39
  6
CONTINUOUS
 66
     1
 40
0.006945
 41
0.006945
  0
VERTEX
  8
LAYER_1
 62
    39
  6
CONTINUOUS
 10
13.602547
 20
-12.612083
  0
VERTEX
  8
LAYER_1
 62
    39
  6
CONTINUOUS
 10
13.934374
 20
-12.612083
  0
SEQEND
  8
0
  0
POLYLINE
  8
LAYER_1
 62
    39
  6
CONTINUOUS
 66
     1
 40
0.006945
 41
0.006945
  0
VERTEX
  8
LAYER_1
 62
    39
  6
CONTINUOUS
 10
13.864516
 20
-12.699406
  0
VERTEX
  8
LAYER_1
 62
    39
  6
CONTINUOUS
 10
14.309862
 20
-12.708138
  0
SEQEND
  8
0
  0
POLYLINE
  8
LAYER_1
 62
    39
  6
CONTINUOUS
 66
     1
 40
0.006945
 41
0.006945
  0
VERTEX
  8
LAYER_1
 62
    39
  6
CONTINUOUS
 10
14.109020
 20
-12.594618
  0
VERTEX
  8
LAYER_1
 62
    39
  6
CONTINUOUS
 10
14.519437
 20
-12.594618
  0
SEQEND
  8
0
  0
POLYLINE
  8
LAYER_1
 62
    39
  6
CONTINUOUS
 66
     1
 40
0.006945
 41
0.006945
  0
VERTEX
  8
LAYER_1
 62
    39
  6
CONTINUOUS
 10
13.943106
 20
-12.550957
  0
VERTEX
  8
LAYER_1
 62
    39
  6
CONTINUOUS
 10
14.248736
 20
-12.550957
  0
SEQEND
  8
0
  0
POLYLINE
  8
LAYER_1
 62
    39
  6
CONTINUOUS
 66
     1
 40
0.006945
 41
0.006945
  0
VERTEX
  8
LAYER_1
 62
    39
  6
CONTINUOUS
 10
11.323421
 20
-7.582287
  0
VERTEX
  8
LAYER_1
 62
    39
  6
CONTINUOUS
 10
11.576657
 20
-7.582287
  0
SEQEND
  8
0
  0
POLYLINE
  8
LAYER_1
 62
    39
  6
CONTINUOUS
 66
     1
 40
0.006945
 41
0.006945
  0
VERTEX
  8
LAYER_1
 62
    39
  6
CONTINUOUS
 10
11.541728
 20
-7.477500
  0
VERTEX
  8
LAYER_1
 62
    39
  6
CONTINUOUS
 10
11.803697
 20
-7.477500
  0
SEQEND
  8
0
  0
POLYLINE
  8
LAYER_1
 62
    39
  6
CONTINUOUS
 66
     1
 40
0.006945
 41
0.006945
  0
VERTEX
  8
LAYER_1
 62
    39
  6
CONTINUOUS
 10
11.768768
 20
-7.529894
  0
VERTEX
  8
LAYER_1
 62
    39
  6
CONTINUOUS
 10
12.048201
 20
-7.538626
  0
SEQEND
  8
0
  0
POLYLINE
  8
LAYER_1
 62
    39
  6
CONTINUOUS
 66
     1
 40
0.006945
 41
0.006945
  0
VERTEX
  8
LAYER_1
 62
    39
  6
CONTINUOUS
 10
12.301437
 20
-7.442571
  0
VERTEX
  8
LAYER_1
 62
    39
  6
CONTINUOUS
 10
12.764248
 20
-7.442571
  0
SEQEND
  8
0
  0
POLYLINE
  8
LAYER_1
 62
    39
  6
CONTINUOUS
 66
     1
 40
0.006945
 41
0.006945
  0
VERTEX
  8
LAYER_1
 62
    39
  6
CONTINUOUS
 10
12.327634
 20
-7.547358
  0
VERTEX
  8
LAYER_1
 62
    39
  6
CONTINUOUS
 10
12.598335
 20
-7.547358
  0
SEQEND
  8
0
  0
POLYLINE
  8
LAYER_1
 62
    39
  6
CONTINUOUS
 66
     1
 40
0.006945
 41
0.006945
  0
VERTEX
  8
LAYER_1
 62
    39
  6
CONTINUOUS
 10
12.842839
 20
-7.538626
  0
VERTEX
  8
LAYER_1
 62
    39
  6
CONTINUOUS
 10
13.165933
 20
-7.538626
  0
SEQEND
  8
0
  0
POLYLINE
  8
LAYER_1
 62
    39
  6
CONTINUOUS
 66
     1
 40
0.006945
 41
0.006945
  0
VERTEX
  8
LAYER_1
 62
    39
  6
CONTINUOUS
 10
13.078610
 20
-7.582287
  0
VERTEX
  8
LAYER_1
 62
    39
  6
CONTINUOUS
 10
13.742264
 20
-7.582287
  0
SEQEND
  8
0
  0
POLYLINE
  8
LAYER_1
 62
    39
  6
CONTINUOUS
 66
     1
 40
0.006945
 41
0.006945
  0
VERTEX
  8
LAYER_1
 62
    39
  6
CONTINUOUS
 10
13.192130
 20
-7.442571
  0
VERTEX
  8
LAYER_1
 62
    39
  6
CONTINUOUS
 10
13.637476
 20
-7.442571
  0
SEQEND
  8
0
  0
POLYLINE
  8
LAYER_1
 62
    39
  6
CONTINUOUS
 66
     1
 40
0.006945
 41
0.006945
  0
VERTEX
  8
LAYER_1
 62
    39
  6
CONTINUOUS
 10
13.550154
 20
-7.521161
  0
VERTEX
  8
LAYER_1
 62
    39
  6
CONTINUOUS
 10
14.082823
 20
-7.529894
  0
SEQEND
  8
0
  0
POLYLINE
  8
LAYER_1
 62
    39
  6
CONTINUOUS
 66
     1
 40
0.006945
 41
0.006945
  0
VERTEX
  8
LAYER_1
 62
    39
  6
CONTINUOUS
 10
14.030429
 20
-7.468768
  0
VERTEX
  8
LAYER_1
 62
    39
  6
CONTINUOUS
 10
14.563098
 20
-7.503697
  0
SEQEND
  8
0
  0
POLYLINE
  8
LAYER_1
 62
    39
  6
CONTINUOUS
 66
     1
 40
0.006945
 41
0.006945
  0
VERTEX
  8
LAYER_1
 62
    39
  6
CONTINUOUS
 10
14.170146
 20
-7.573555
  0
VERTEX
  8
LAYER_1
 62
    39
  6
CONTINUOUS
 10
14.414650
 20
-7.564823
  0
SEQEND
  8
0
  0
POLYLINE
  8
LAYER_1
 62
    39
  6
CONTINUOUS
 66
     1
 40
0.006945
 41
0.006945
  0
VERTEX
  8
LAYER_1
 62
    39
  6
CONTINUOUS
 10
12.432421
 20
-7.774398
  0
VERTEX
  8
LAYER_1
 62
    39
  6
CONTINUOUS
 10
12.432421
 20
-8.787343
  0
SEQEND
  8
0
  0
POLYLINE
  8
LAYER_1
 62
    39
  6
CONTINUOUS
 66
     1
 40
0.006945
 41
0.006945
  0
VERTEX
  8
LAYER_1
 62
    39
  6
CONTINUOUS
 10
12.912697
 20
-7.748201
  0
VERTEX
  8
LAYER_1
 62
    39
  6
CONTINUOUS
 10
12.912697
 20
-9.459728
  0
SEQEND
  8
0
  0
POLYLINE
  8
LAYER_1
 62
    39
  6
CONTINUOUS
 66
     1
 40
0.006945
 41
0.006945
  0
VERTEX
  8
LAYER_1
 62
    39
  6
CONTINUOUS
 10
12.607067
 20
-8.307067
  0
VERTEX
  8
LAYER_1
 62
    39
  6
CONTINUOUS
 10
12.607067
 20
-9.049311
  0
SEQEND
  8
0
  0
POLYLINE
  8
LAYER_1
 62
    39
  6
CONTINUOUS
 66
     1
 40
0.006945
 41
0.006945
  0
VERTEX
  8
LAYER_1
 62
    39
  6
CONTINUOUS
 10
12.764248
 20
-8.804807
  0
VERTEX
  8
LAYER_1
 62
    39
  6
CONTINUOUS
 10
12.755516
 20
-9.206492
  0
SEQEND
  8
0
  0
POLYLINE
  8
LAYER_1
 62
    39
  6
CONTINUOUS
 66
     1
 40
0.006945
 41
0.006945
  0
VERTEX
  8
LAYER_1
 62
    39
  6
CONTINUOUS
 10
12.283972
 20
-8.141154
  0
VERTEX
  8
LAYER_1
 62
    39
  6
CONTINUOUS
 10
12.283972
 20
-9.320012
  0
SEQEND
  8
0
  0
POLYLINE
  8
LAYER_1
 62
    39
  6
CONTINUOUS
 66
     1
 40
0.006945
 41
0.006945
  0
VERTEX
  8
LAYER_1
 62
    39
  6
CONTINUOUS
 10
14.589295
 20
-9.599445
  0
VERTEX
  8
LAYER_1
 62
    39
  6
CONTINUOUS
 10
14.589295
 20
-11.092665
  0
SEQEND
  8
0
  0
POLYLINE
  8
LAYER_1
 62
    39
  6
CONTINUOUS
 66
     1
 40
0.006945
 41
0.006945
  0
VERTEX
  8
LAYER_1
 62
    39
  6
CONTINUOUS
 10
14.231272
 20
-9.101705
  0
VERTEX
  8
LAYER_1
 62
    39
  6
CONTINUOUS
 10
14.231272
 20
-10.097185
  0
SEQEND
  8
0
  0
POLYLINE
  8
LAYER_1
 62
    39
  6
CONTINUOUS
 66
     1
 40
0.006945
 41
0.006945
  0
VERTEX
  8
LAYER_1
 62
    39
  6
CONTINUOUS
 10
14.405917
 20
-10.079720
  0
VERTEX
  8
LAYER_1
 62
    39
  6
CONTINUOUS
 10
14.405917
 20
-10.394083
  0
SEQEND
  8
0
  0
POLYLINE
  8
LAYER_1
 62
    39
  6
CONTINUOUS
 66
     1
 40
0.006945
 41
0.006945
  0
VERTEX
  8
LAYER_1
 62
    39
  6
CONTINUOUS
 10
13.916909
 20
-10.306760
  0
VERTEX
  8
LAYER_1
 62
    39
  6
CONTINUOUS
 10
13.916909
 20
-11.066469
  0
SEQEND
  8
0
  0
POLYLINE
  8
LAYER_1
 62
    39
  6
CONTINUOUS
 66
     1
 40
0.006945
 41
0.006945
  0
VERTEX
  8
LAYER_1
 62
    39
  6
CONTINUOUS
 10
12.310169
 20
-11.546744
  0
VERTEX
  8
LAYER_1
 62
    39
  6
CONTINUOUS
 10
12.310169
 20
-12.341382
  0
SEQEND
  8
0
  0
POLYLINE
  8
LAYER_1
 62
    39
  6
CONTINUOUS
 66
     1
 40
0.006945
 41
0.006945
  0
VERTEX
  8
LAYER_1
 62
    39
  6
CONTINUOUS
 10
12.406224
 20
-11.345902
  0
VERTEX
  8
LAYER_1
 62
    39
  6
CONTINUOUS
 10
12.406224
 20
-11.747587
  0
SEQEND
  8
0
  0
POLYLINE
  8
LAYER_1
 62
    39
  6
CONTINUOUS
 66
     1
 40
0.006945
 41
0.006945
  0
VERTEX
  8
LAYER_1
 62
    39
  6
CONTINUOUS
 10
12.589602
 20
-11.712657
  0
VERTEX
  8
LAYER_1
 62
    39
  6
CONTINUOUS
 10
12.589602
 20
-12.105610
  0
SEQEND
  8
0
  0
POLYLINE
  8
LAYER_1
 62
    39
  6
CONTINUOUS
 66
     1
 40
0.006945
 41
0.006945
  0
VERTEX
  8
LAYER_1
 62
    39
  6
CONTINUOUS
 10
12.685657
 20
-11.555476
  0
VERTEX
  8
LAYER_1
 62
    39
  6
CONTINUOUS
 10
12.685657
 20
-11.852374
  0
SEQEND
  8
0
  0
POLYLINE
  8
LAYER_1
 62
    39
  6
CONTINUOUS
 66
     1
 40
0.006945
 41
0.006945
  0
VERTEX
  8
LAYER_1
 62
    39
  6
CONTINUOUS
 10
9.952453
 20
-8.455516
  0
VERTEX
  8
LAYER_1
 62
    39
  6
CONTINUOUS
 10
10.677232
 20
-8.010169
  0
SEQEND
  8
0
  0
POLYLINE
  8
LAYER_1
 62
    39
  6
CONTINUOUS
 66
     1
 40
0.006945
 41
0.006945
  0
VERTEX
  8
LAYER_1
 62
    39
  6
CONTINUOUS
 10
10.502587
 20
-8.359461
  0
VERTEX
  8
LAYER_1
 62
    39
  6
CONTINUOUS
 10
10.851878
 20
-8.141154
  0
SEQEND
  8
0
  0
POLYLINE
  8
LAYER_1
 62
    39
  6
CONTINUOUS
 66
     1
 40
0.006945
 41
0.006945
  0
VERTEX
  8
LAYER_1
 62
    39
  6
CONTINUOUS
 10
9.996114
 20
-8.761146
  0
VERTEX
  8
LAYER_1
 62
    39
  6
CONTINUOUS
 10
10.319209
 20
-8.577768
  0
SEQEND
  8
0
  0
POLYLINE
  8
LAYER_1
 62
    39
  6
CONTINUOUS
 66
     1
 40
0.006945
 41
0.006945
  0
VERTEX
  8
LAYER_1
 62
    39
  6
CONTINUOUS
 10
10.616106
 20
-8.953256
  0
VERTEX
  8
LAYER_1
 62
    39
  6
CONTINUOUS
 10
11.891020
 20
-8.062563
  0
SEQEND
  8
0
  0
POLYLINE
  8
LAYER_1
 62
    39
  6
CONTINUOUS
 66
     1
 40
0.006945
 41
0.006945
  0
VERTEX
  8
LAYER_1
 62
    39
  6
CONTINUOUS
 10
11.131311
 20
-8.219744
  0
VERTEX
  8
LAYER_1
 62
    39
  6
CONTINUOUS
 10
11.244831
 20
-8.167350
  0
SEQEND
  8
0
  0
POLYLINE
  8
LAYER_1
 62
    39
  6
CONTINUOUS
 66
     1
 40
0.006945
 41
0.006945
  0
VERTEX
  8
LAYER_1
 62
    39
  6
CONTINUOUS
 10
10.878075
 20
-8.979453
  0
VERTEX
  8
LAYER_1
 62
    39
  6
CONTINUOUS
 10
11.201169
 20
-8.769878
  0
SEQEND
  8
0
  0
POLYLINE
  8
LAYER_1
 62
    39
  6
CONTINUOUS
 66
     1
 40
0.006945
 41
0.006945
  0
VERTEX
  8
LAYER_1
 62
    39
  6
CONTINUOUS
 10
7.786846
 20
-9.791555
  0
VERTEX
  8
LAYER_1
 62
    39
  6
CONTINUOUS
 10
8.162335
 20
-9.564516
  0
SEQEND
  8
0
  0
POLYLINE
  8
LAYER_1
 62
    39
  6
CONTINUOUS
 66
     1
 40
0.006945
 41
0.006945
  0
VERTEX
  8
LAYER_1
 62
    39
  6
CONTINUOUS
 10
11.786232
 20
-9.852681
  0
VERTEX
  8
LAYER_1
 62
    39
  6
CONTINUOUS
 10
12.056933
 20
-9.651839
  0
SEQEND
  8
0
  0
POLYLINE
  8
LAYER_1
 62
    39
  6
CONTINUOUS
 66
     1
 40
0.006945
 41
0.006945
  0
VERTEX
  8
LAYER_1
 62
    39
  6
CONTINUOUS
 10
11.690177
 20
-9.686768
  0
VERTEX
  8
LAYER_1
 62
    39
  6
CONTINUOUS
 10
11.987075
 20
-9.450996
  0
SEQEND
  8
0
  0
POLYLINE
  8
LAYER_1
 62
    39
  6
CONTINUOUS
 66
     1
 40
0.006945
 41
0.006945
  0
VERTEX
  8
LAYER_1
 62
    39
  6
CONTINUOUS
 10
11.332154
 20
-9.765358
  0
VERTEX
  8
LAYER_1
 62
    39
  6
CONTINUOUS
 10
11.532996
 20
-9.634374
  0
SEQEND
  8
0
  0
POLYLINE
  8
LAYER_1
 62
    39
  6
CONTINUOUS
 66
     1
 40
0.006945
 41
0.006945
  0
VERTEX
  8
LAYER_1
 62
    39
  6
CONTINUOUS
 10
11.402012
 20
-9.416067
  0
VERTEX
  8
LAYER_1
 62
    39
  6
CONTINUOUS
 10
11.864823
 20
-9.101705
  0
SEQEND
  8
0
  0
POLYLINE
  8
LAYER_1
 62
    39
  6
CONTINUOUS
 66
     1
 40
0.006945
 41
0.006945
  0
VERTEX
  8
LAYER_1
 62
    39
  6
CONTINUOUS
 10
9.061760
 20
-9.730429
  0
VERTEX
  8
LAYER_1
 62
    39
  6
CONTINUOUS
 10
10.170760
 20
-9.023114
  0
SEQEND
  8
0
  0
POLYLINE
  8
LAYER_1
 62
    39
  6
CONTINUOUS
 66
     1
 40
0.006945
 41
0.006945
  0
VERTEX
  8
LAYER_1
 62
    39
  6
CONTINUOUS
 10
9.812736
 20
-9.119169
  0
VERTEX
  8
LAYER_1
 62
    39
  6
CONTINUOUS
 10
10.118366
 20
-8.927059
  0
SEQEND
  8
0
  0
POLYLINE
  8
LAYER_1
 62
    39
  6
CONTINUOUS
 66
     1
 40
0.006945
 41
0.006945
  0
VERTEX
  8
LAYER_1
 62
    39
  6
CONTINUOUS
 10
8.773594
 20
-9.678035
  0
VERTEX
  8
LAYER_1
 62
    39
  6
CONTINUOUS
 10
9.402319
 20
-9.285083
  0
SEQEND
  8
0
  0
TEXT
  8
LAYER_1
 62
    39
 10
11.355728
 20
-6.640902
 40
0.306980
  1
ALL TAIL SURFACES 3/32 BALSA
 41
1.000000
  7
SN0
 71
     0
 72
     5
 11
16.589450
 21
-6.640902
  0
TEXT
  8
LAYER_1
 62
    39
 10
11.355728
 20
-7.040457
 40
0.306980
  1
ADD LIGHTENING HOLES IF DESIRED
 41
1.000000
  7
SN0
 71
     0
 72
     5
 11
16.599807
 21
-7.040457
  0
SOLID
  8
LAYER_1
 62
    39
 10
12.170453
 20
-9.870146
 11
12.807909
 21
-9.870146
 12
12.170453
 22
-9.843949
 13
12.807909
 23
-9.843949
  0
POLYLINE
  8
LAYER_1
 62
    39
  6
CONTINUOUS
 66
     1
 40
0.006945
 41
0.006945
 70
     1
  0
VERTEX
  8
LAYER_1
 62
    39
  6
CONTINUOUS
 10
12.170453
 20
-9.870146
  0
VERTEX
  8
LAYER_1
 62
    39
  6
CONTINUOUS
 10
12.807909
 20
-9.870146
  0
VERTEX
  8
LAYER_1
 62
    39
  6
CONTINUOUS
 10
12.807909
 20
-9.843949
  0
VERTEX
  8
LAYER_1
 62
    39
  6
CONTINUOUS
 10
12.170453
 20
-9.843949
  0
SEQEND
  8
0
  0
SOLID
  8
LAYER_1
 62
    39
 10
7.096996
 20
-9.966201
 11
8.136138
 21
-9.966201
 12
7.096996
 22
-9.878878
 13
8.136138
 23
-9.878878
  0
POLYLINE
  8
LAYER_1
 62
    39
  6
CONTINUOUS
 66
     1
 40
0.006945
 41
0.006945
 70
     1
  0
VERTEX
  8
LAYER_1
 62
    39
  6
CONTINUOUS
 10
7.096996
 20
-9.966201
  0
VERTEX
  8
LAYER_1
 62
    39
  6
CONTINUOUS
 10
8.136138
 20
-9.966201
  0
VERTEX
  8
LAYER_1
 62
    39
  6
CONTINUOUS
 10
8.136138
 20
-9.878878
  0
VERTEX
  8
LAYER_1
 62
    39
  6
CONTINUOUS
 10
7.096996
 20
-9.878878
  0
SEQEND
  8
0
  0
TEXT
  8
LAYER_1
 62
    39
 10
12.301437
 20
-9.634374
 40
0.306980
  1
1/32 PLY CONTROL HORN
 41
1.000000
  7
SN0
 71
     0
 72
     5
 11
16.351012
 21
-9.634374
  0
TEXT
  8
LAYER_1
 62
    39
 10
12.301437
 20
-10.033929
 40
0.306980
  1
      FOR PULL PULL CABLE
 41
1.000000
  7
SN0
 71
     0
 72
     5
 11
16.530532
 21
-10.033929
  0
TEXT
  8
LAYER_1
 62
    39
 10
5.752224
 20
-9.223957
 40
0.306980
  1
GLUE SHORT PIECE OF TUBE
 41
1.000000
  7
SN0
 71
     0
 72
     5
 11
9.812156
 21
-9.223957
  0
TEXT
  8
LAYER_1
 62
    39
 10
5.752224
 20
-9.623512
 40
0.306980
  1
EACH SIDE FOR CABLE GUIDE
 41
1.000000
  7
SN0
 71
     0
 72
     5
 11
9.981320
 21
-9.623512
  0
TEXT
  8
LAYER_1
 62
    39
 10
2.949161
 20
-10.472673
 40
0.306980
  1
1/8 SQUARE STRINGERS TOP
 41
1.000000
  7
SN0
 71
     0
 72
     5
 11
7.340516
 21
-10.472673
  0
TEXT
  8
LAYER_1
 62
    39
 10
2.984091
 20
-10.821965
 40
0.306980
  1
AND BOTTOM
 41
1.000000
  7
SN0
 71
     0
 72
     5
 11
4.675729
 21
-10.821965
  0
TEXT
  8
LAYER_1
 62
    39
 10
-14.428083
 20
-11.284776
 40
0.306980
  1
TYPICAL MOTOR MOUNT
 41
1.000000
  7
SN0
 71
     0
 72
     5
 11
-11.213970
 21
-11.284776
  0
TEXT
  8
LAYER_1
 62
    39
 10
-8.051780
 20
-10.990559
 40
0.306980
  1
BAT APROX
 41
1.000000
  7
SN0
 71
     0
 72
     5
 11
-6.529305
 21
-10.990559
  0
TEXT
  8
LAYER_1
 62
    39
 10
-8.051780
 20
-11.390114
 40
0.306980
  1
LOCATION
 41
1.000000
  7
SN0
 71
     0
 72
     5
 11
-6.698469
 21
-11.390114
  0
POLYLINE
  8
LAYER_1
 62
    39
  6
CONTINUOUS
 66
     1
 40
0.006945
 41
0.006945
 70
     1
  0
VERTEX
  8
LAYER_1
 62
    39
  6
CONTINUOUS
 10
1.905744
 20
-11.559406
  0
VERTEX
  8
LAYER_1
 62
    39
  6
CONTINUOUS
 10
1.576409
 20
-11.562378
  0
VERTEX
  8
LAYER_1
 62
    39
  6
CONTINUOUS
 10
1.576358
 20
-11.595744
  0
VERTEX
  8
LAYER_1
 62
    39
  6
CONTINUOUS
 10
1.603984
 20
-11.595496
  0
VERTEX
  8
LAYER_1
 62
    39
  6
CONTINUOUS
 10
1.603909
 20
-11.587213
  0
VERTEX
  8
LAYER_1
 62
    39
  6
CONTINUOUS
 10
1.905972
 20
-11.584488
  0
SEQEND
  8
0
  0
POLYLINE
  8
LAYER_1
 62
    39
  6
CONTINUOUS
 66
     1
 40
0.006945
 41
0.006945
 70
     1
  0
VERTEX
  8
LAYER_1
 62
    39
  6
CONTINUOUS
 10
1.564630
 20
-11.666091
  0
VERTEX
  8
LAYER_1
 62
    39
  6
CONTINUOUS
 10
1.445382
 20
-11.667165
  0
VERTEX
  8
LAYER_1
 62
    39
  6
CONTINUOUS
 10
1.445634
 20
-11.694425
  0
VERTEX
  8
LAYER_1
 62
    39
  6
CONTINUOUS
 10
1.604850
 20
-11.692992
  0
VERTEX
  8
LAYER_1
 62
    39
  6
CONTINUOUS
 10
1.604614
 20
-11.666378
  0
VERTEX
  8
LAYER_1
 62
    39
  6
CONTINUOUS
 10
1.564634
 20
-11.666740
  0
SEQEND
  8
0
  0
POLYLINE
  8
LAYER_1
 62
    39
  6
CONTINUOUS
 66
     1
 40
0.006945
 41
0.006945
 70
     1
  0
VERTEX
  8
LAYER_1
 62
    39
  6
CONTINUOUS
 10
-2.185909
 20
-11.252752
  0
VERTEX
  8
LAYER_1
 62
    39
  6
CONTINUOUS
 10
-1.856575
 20
-11.255724
  0
VERTEX
  8
LAYER_1
 62
    39
  6
CONTINUOUS
 10
-1.856524
 20
-11.289091
  0
VERTEX
  8
LAYER_1
 62
    39
  6
CONTINUOUS
 10
-1.884150
 20
-11.288843
  0
VERTEX
  8
LAYER_1
 62
    39
  6
CONTINUOUS
 10
-1.884075
 20
-11.280559
  0
VERTEX
  8
LAYER_1
 62
    39
  6
CONTINUOUS
 10
-2.186138
 20
-11.277835
  0
SEQEND
  8
0
  0
POLYLINE
  8
LAYER_1
 62
    39
  6
CONTINUOUS
 66
     1
 40
0.006945
 41
0.006945
 70
     1
  0
VERTEX
  8
LAYER_1
 62
    39
  6
CONTINUOUS
 10
-1.844795
 20
-11.359437
  0
VERTEX
  8
LAYER_1
 62
    39
  6
CONTINUOUS
 10
-1.725547
 20
-11.360512
  0
VERTEX
  8
LAYER_1
 62
    39
  6
CONTINUOUS
 10
-1.725799
 20
-11.387772
  0
VERTEX
  8
LAYER_1
 62
    39
  6
CONTINUOUS
 10
-1.885016
 20
-11.386339
  0
VERTEX
  8
LAYER_1
 62
    39
  6
CONTINUOUS
 10
-1.884780
 20
-11.359724
  0
VERTEX
  8
LAYER_1
 62
    39
  6
CONTINUOUS
 10
-1.844799
 20
-11.360087
  0
SEQEND
  8
0
  0
POLYLINE
  8
LAYER_1
 62
    39
  6
CONTINUOUS
 66
     1
 40
0.006945
 41
0.006945
 70
     1
  0
VERTEX
  8
LAYER_1
 62
    39
  6
CONTINUOUS
 10
1.525799
 20
-10.324224
  0
VERTEX
  8
LAYER_1
 62
    39
  6
CONTINUOUS
 10
1.674248
 20
-10.324224
  0
VERTEX
  8
LAYER_1
 62
    39
  6
CONTINUOUS
 10
1.674248
 20
-10.167043
  0
VERTEX
  8
LAYER_1
 62
    39
  6
CONTINUOUS
 10
1.525799
 20
-10.167043
  0
SEQEND
  8
0
  0
POLYLINE
  8
LAYER_1
 62
    39
  6
CONTINUOUS
 66
     1
 40
0.006945
 41
0.006945
 70
     1
  0
VERTEX
  8
LAYER_1
 62
    39
  6
CONTINUOUS
 10
0.492154
 20
-10.309996
  0
VERTEX
  8
LAYER_1
 62
    39
  6
CONTINUOUS
 10
0.640602
 20
-10.309996
  0
VERTEX
  8
LAYER_1
 62
    39
  6
CONTINUOUS
 10
0.640602
 20
-10.152815
  0
VERTEX
  8
LAYER_1
 62
    39
  6
CONTINUOUS
 10
0.492154
 20
-10.152815
  0
SEQEND
  8
0
  0
POLYLINE
  8
LAYER_1
 62
    39
  6
CONTINUOUS
 66
     1
 40
0.006945
 41
0.006945
 70
     1
  0
VERTEX
  8
LAYER_1
 62
    39
  6
CONTINUOUS
 10
-2.622035
 20
-11.817445
  0
VERTEX
  8
LAYER_1
 62
    39
  6
CONTINUOUS
 10
-2.473587
 20
-11.817445
  0
VERTEX
  8
LAYER_1
 62
    39
  6
CONTINUOUS
 10
-2.473587
 20
-11.677728
  0
VERTEX
  8
LAYER_1
 62
    39
  6
CONTINUOUS
 10
-2.622035
 20
-11.677728
  0
SEQEND
  8
0
  0
POLYLINE
  8
LAYER_1
 62
    39
  6
CONTINUOUS
 66
     1
 40
0.006945
 41
0.006945
 70
     1
  0
VERTEX
  8
LAYER_1
 62
    39
  6
CONTINUOUS
 10
-1.582894
 20
-12.681941
  0
VERTEX
  8
LAYER_1
 62
    39
  6
CONTINUOUS
 10
-1.399516
 20
-12.681941
  0
VERTEX
  8
LAYER_1
 62
    39
  6
CONTINUOUS
 10
-1.399516
 20
-11.677728
  0
VERTEX
  8
LAYER_1
 62
    39
  6
CONTINUOUS
 10
-1.582894
 20
-11.677728
  0
SEQEND
  8
0
  0
TEXT
  8
LAYER_1
 62
    39
 10
0.757358
 20
-10.429012
 40
0.306980
  1
RUD
 41
1.000000
  7
SN0
 71
     0
 72
     5
 11
1.264850
 21
-10.429012
  0
TEXT
  8
LAYER_1
 62
    39
 10
1.036791
 20
-12.332650
 40
0.306980
  1
ELEV
 41
1.000000
  7
SN0
 71
     0
 72
     5
 11
1.713447
 21
-12.332650
  0
TEXT
  8
LAYER_1
 62
    39
 10
-2.176689
 20
-12.158004
 40
0.306980
  1
AIL
 41
1.000000
  7
SN0
 71
     0
 72
     5
 11
-1.669198
 21
-12.158004
  0
TEXT
  8
LAYER_1
 62
    39
 10
-1.547965
 20
-11.249846
 40
0.306980
  1
APROX SERVO LOC
 41
1.000000
  7
SN0
 71
     0
 72
     5
 11
0.989493
 21
-11.249846
  0
POLYLINE
  8
LAYER_1
 62
    39
  6
CONTINUOUS
 66
     1
 40
0.006945
 41
0.006945
 70
     1
  0
VERTEX
  8
LAYER_1
 62
    39
  6
CONTINUOUS
 10
1.281457
 20
-9.852760
  0
VERTEX
  8
LAYER_1
 62
    39
  6
CONTINUOUS
 10
7.092453
 20
-9.917776
  0
VERTEX
  8
LAYER_1
 62
    39
  6
CONTINUOUS
 10
7.092291
 20
-9.939606
  0
VERTEX
  8
LAYER_1
 62
    39
  6
CONTINUOUS
 10
1.281295
 20
-9.874591
  0
SEQEND
  8
0
  0
POLYLINE
  8
LAYER_1
 62
    39
  6
CONTINUOUS
 66
     1
 40
0.006945
 41
0.006945
 70
     1
  0
VERTEX
  8
LAYER_1
 62
    39
  6
CONTINUOUS
 10
8.140417
 20
-9.905075
  0
VERTEX
  8
LAYER_1
 62
    39
  6
CONTINUOUS
 10
12.318598
 20
-9.862752
  0
VERTEX
  8
LAYER_1
 62
    39
  6
CONTINUOUS
 10
12.318866
 20
-9.888949
  0
VERTEX
  8
LAYER_1
 62
    39
  6
CONTINUOUS
 10
8.140681
 20
-9.931272
  0
SEQEND
  8
0
  0
SOLID
  8
LAYER_1
 62
   254
  6
CONTINUOUS
 10
11.301421
 20
-11.267909
 11
12.283295
 21
-11.240524
 12
11.302098
 22
-11.294098
 13
12.283972
 23
-11.266713
  0
POLYLINE
  8
LAYER_1
 62
    39
  6
CONTINUOUS
 66
     1
 40
0.006945
 41
0.006945
 70
     1
  0
VERTEX
  8
LAYER_1
 62
    39
  6
CONTINUOUS
 10
11.301421
 20
-11.267909
  0
VERTEX
  8
LAYER_1
 62
    39
  6
CONTINUOUS
 10
12.283295
 20
-11.240524
  0
VERTEX
  8
LAYER_1
 62
    39
  6
CONTINUOUS
 10
12.283972
 20
-11.266713
  0
VERTEX
  8
LAYER_1
 62
    39
  6
CONTINUOUS
 10
11.302098
 20
-11.294098
  0
SEQEND
  8
0
  0
POLYLINE
  8
LAYER_1
 62
    39
  6
CONTINUOUS
 66
     1
 40
0.006945
 41
0.006945
 70
     1
  0
VERTEX
  8
LAYER_1
 62
    39
  6
CONTINUOUS
 10
12.183551
 20
-10.686614
  0
VERTEX
  8
LAYER_1
 62
    39
  6
CONTINUOUS
 10
12.183551
 20
-11.341535
  0
VERTEX
  8
LAYER_1
 62
    39
  6
CONTINUOUS
 10
12.214114
 20
-11.372098
  0
VERTEX
  8
LAYER_1
 62
    39
  6
CONTINUOUS
 10
12.275240
 20
-11.380831
  0
VERTEX
  8
LAYER_1
 62
    39
  6
CONTINUOUS
 10
12.318902
 20
-11.367732
  0
VERTEX
  8
LAYER_1
 62
    39
  6
CONTINUOUS
 10
12.366929
 20
-11.328437
  0
VERTEX
  8
LAYER_1
 62
    39
  6
CONTINUOUS
 10
12.406224
 20
-11.245480
  0
VERTEX
  8
LAYER_1
 62
    39
  6
CONTINUOUS
 10
12.611433
 20
-10.813232
  0
VERTEX
  8
LAYER_1
 62
    39
  6
CONTINUOUS
 10
12.607067
 20
-10.695346
  0
SEQEND
  8
0
  0
TEXT
  8
LAYER_1
 62
    39
 10
8.398106
 20
-11.651531
 40
0.306980
  1
1/16 ALUM TUBE
 41
1.000000
  7
SN0
 71
     0
 72
     5
 11
11.263534
 21
-11.651531
  0
TEXT
  8
LAYER_1
 62
    39
 10
8.398106
 20
-12.051087
 40
0.306980
  1
PUSHRODS
 41
1.000000
  7
SN0
 71
     0
 72
     5
 11
9.751417
 21
-12.051087
  0
SOLID
  8
LAYER_1
 62
    21
 10
-2.578374
 20
-10.044791
 11
0.250886
 21
-10.044791
 12
-2.578374
 22
-9.529587
 13
0.250886
 23
-9.529587
  0
POLYLINE
  8
LAYER_1
 62
    39
  6
CONTINUOUS
 66
     1
 40
0.006945
 41
0.006945
 70
     1
  0
VERTEX
  8
LAYER_1
 62
    39
  6
CONTINUOUS
 10
-2.578374
 20
-10.044791
  0
VERTEX
  8
LAYER_1
 62
    39
  6
CONTINUOUS
 10
0.250886
 20
-10.044791
  0
VERTEX
  8
LAYER_1
 62
    39
  6
CONTINUOUS
 10
0.250886
 20
-9.529587
  0
VERTEX
  8
LAYER_1
 62
    39
  6
CONTINUOUS
 10
-2.578374
 20
-9.529587
  0
SEQEND
  8
0
  0
TEXT
  8
LAYER_1
 62
    39
 10
-1.940917
 20
-9.870146
 40
0.306980
  1
REC AREA
 41
1.000000
  7
SN0
 71
     0
 72
     5
 11
-0.587607
 21
-9.870146
  0
POLYLINE
  8
LAYER_1
 62
    39
  6
CONTINUOUS
 66
     1
 40
0.006945
 41
0.006945
 70
     1
  0
VERTEX
  8
LAYER_1
 62
    39
  6
CONTINUOUS
 10
-3.495264
 20
-11.865469
  0
VERTEX
  8
LAYER_1
 62
    39
  6
CONTINUOUS
 10
-3.451602
 20
-11.865469
  0
VERTEX
  8
LAYER_1
 62
    39
  6
CONTINUOUS
 10
-3.451602
 20
-11.398295
  0
VERTEX
  8
LAYER_1
 62
    39
  6
CONTINUOUS
 10
-3.495264
 20
-11.398295
  0
SEQEND
  8
0
  0
POLYLINE
  8
LAYER_1
 62
    39
  6
CONTINUOUS
 66
     1
 40
0.006945
 41
0.006945
 70
     1
  0
VERTEX
  8
LAYER_1
 62
    39
  6
CONTINUOUS
 10
-3.495264
 20
-11.865472
  0
VERTEX
  8
LAYER_1
 62
    39
  6
CONTINUOUS
 10
-2.910201
 20
-11.865472
  0
VERTEX
  8
LAYER_1
 62
    39
  6
CONTINUOUS
 10
-2.910201
 20
-11.821811
  0
VERTEX
  8
LAYER_1
 62
    39
  6
CONTINUOUS
 10
-3.495264
 20
-11.821811
  0
SEQEND
  8
0
  0
POLYLINE
  8
LAYER_1
 62
    39
  6
CONTINUOUS
 66
     1
 40
0.006945
 41
0.006945
 70
     1
  0
VERTEX
  8
LAYER_1
 62
    39
  6
CONTINUOUS
 10
-3.512728
 20
-11.795610
  0
VERTEX
  8
LAYER_1
 62
    39
  6
CONTINUOUS
 10
-3.434138
 20
-11.795610
  0
VERTEX
  8
LAYER_1
 62
    39
  6
CONTINUOUS
 10
-3.434138
 20
-11.206185
  0
VERTEX
  8
LAYER_1
 62
    39
  6
CONTINUOUS
 10
-3.512728
 20
-11.206185
  0
SEQEND
  8
0
  0
POLYLINE
  8
LAYER_1
 62
    39
  6
CONTINUOUS
 66
     1
 40
0.006945
 41
0.006945
 70
     1
  0
VERTEX
  8
LAYER_1
 62
    39
  6
CONTINUOUS
 10
-3.451606
 20
-11.265149
  0
VERTEX
  8
LAYER_1
 62
    39
  6
CONTINUOUS
 10
-3.451610
 20
-11.264756
  0
VERTEX
  8
LAYER_1
 62
    39
  6
CONTINUOUS
 10
-3.451621
 20
-11.264363
  0
VERTEX
  8
LAYER_1
 62
    39
  6
CONTINUOUS
 10
-3.451640
 20
-11.263971
  0
VERTEX
  8
LAYER_1
 62
    39
  6
CONTINUOUS
 10
-3.451667
 20
-11.263578
  0
VERTEX
  8
LAYER_1
 62
    39
  6
CONTINUOUS
 10
-3.451702
 20
-11.263187
  0
VERTEX
  8
LAYER_1
 62
    39
  6
CONTINUOUS
 10
-3.451745
 20
-11.262796
  0
VERTEX
  8
LAYER_1
 62
    39
  6
CONTINUOUS
 10
-3.451795
 20
-11.262406
  0
VERTEX
  8
LAYER_1
 62
    39
  6
CONTINUOUS
 10
-3.451854
 20
-11.262018
  0
VERTEX
  8
LAYER_1
 62
    39
  6
CONTINUOUS
 10
-3.451920
 20
-11.261630
  0
VERTEX
  8
LAYER_1
 62
    39
  6
CONTINUOUS
 10
-3.451994
 20
-11.261244
  0
VERTEX
  8
LAYER_1
 62
    39
  6
CONTINUOUS
 10
-3.452075
 20
-11.260859
  0
VERTEX
  8
LAYER_1
 62
    39
  6
CONTINUOUS
 10
-3.452164
 20
-11.260477
  0
VERTEX
  8
LAYER_1
 62
    39
  6
CONTINUOUS
 10
-3.452261
 20
-11.260096
  0
VERTEX
  8
LAYER_1
 62
    39
  6
CONTINUOUS
 10
-3.452366
 20
-11.259717
  0
VERTEX
  8
LAYER_1
 62
    39
  6
CONTINUOUS
 10
-3.452478
 20
-11.259340
  0
VERTEX
  8
LAYER_1
 62
    39
  6
CONTINUOUS
 10
-3.452597
 20
-11.258965
  0
VERTEX
  8
LAYER_1
 62
    39
  6
CONTINUOUS
 10
-3.452724
 20
-11.258593
  0
VERTEX
  8
LAYER_1
 62
    39
  6
CONTINUOUS
 10
-3.452859
 20
-11.258224
  0
VERTEX
  8
LAYER_1
 62
    39
  6
CONTINUOUS
 10
-3.453000
 20
-11.257857
  0
VERTEX
  8
LAYER_1
 62
    39
  6
CONTINUOUS
 10
-3.453150
 20
-11.257494
  0
VERTEX
  8
LAYER_1
 62
    39
  6
CONTINUOUS
 10
-3.453306
 20
-11.257133
  0
VERTEX
  8
LAYER_1
 62
    39
  6
CONTINUOUS
 10
-3.453469
 20
-11.256775
  0
VERTEX
  8
LAYER_1
 62
    39
  6
CONTINUOUS
 10
-3.453640
 20
-11.256421
  0
VERTEX
  8
LAYER_1
 62
    39
  6
CONTINUOUS
 10
-3.453818
 20
-11.256071
  0
VERTEX
  8
LAYER_1
 62
    39
  6
CONTINUOUS
 10
-3.454002
 20
-11.255724
  0
VERTEX
  8
LAYER_1
 62
    39
  6
CONTINUOUS
 10
-3.454194
 20
-11.255380
  0
VERTEX
  8
LAYER_1
 62
    39
  6
CONTINUOUS
 10
-3.454392
 20
-11.255041
  0
VERTEX
  8
LAYER_1
 62
    39
  6
CONTINUOUS
 10
-3.454598
 20
-11.254706
  0
VERTEX
  8
LAYER_1
 62
    39
  6
CONTINUOUS
 10
-3.454809
 20
-11.254375
  0
VERTEX
  8
LAYER_1
 62
    39
  6
CONTINUOUS
 10
-3.455028
 20
-11.254048
  0
VERTEX
  8
LAYER_1
 62
    39
  6
CONTINUOUS
 10
-3.455253
 20
-11.253725
  0
VERTEX
  8
LAYER_1
 62
    39
  6
CONTINUOUS
 10
-3.455484
 20
-11.253408
  0
VERTEX
  8
LAYER_1
 62
    39
  6
CONTINUOUS
 10
-3.455722
 20
-11.253094
  0
VERTEX
  8
LAYER_1
 62
    39
  6
CONTINUOUS
 10
-3.455965
 20
-11.252786
  0
VERTEX
  8
LAYER_1
 62
    39
  6
CONTINUOUS
 10
-3.456215
 20
-11.252483
  0
VERTEX
  8
LAYER_1
 62
    39
  6
CONTINUOUS
 10
-3.456471
 20
-11.252184
  0
VERTEX
  8
LAYER_1
 62
    39
  6
CONTINUOUS
 10
-3.456733
 20
-11.251891
  0
VERTEX
  8
LAYER_1
 62
    39
  6
CONTINUOUS
 10
-3.457001
 20
-11.251603
  0
VERTEX
  8
LAYER_1
 62
    39
  6
CONTINUOUS
 10
-3.457274
 20
-11.251321
  0
VERTEX
  8
LAYER_1
 62
    39
  6
CONTINUOUS
 10
-3.457553
 20
-11.251044
  0
VERTEX
  8
LAYER_1
 62
    39
  6
CONTINUOUS
 10
-3.457838
 20
-11.250773
  0
VERTEX
  8
LAYER_1
 62
    39
  6
CONTINUOUS
 10
-3.458128
 20
-11.250507
  0
VERTEX
  8
LAYER_1
 62
    39
  6
CONTINUOUS
 10
-3.458423
 20
-11.250248
  0
VERTEX
  8
LAYER_1
 62
    39
  6
CONTINUOUS
 10
-3.458723
 20
-11.249994
  0
VERTEX
  8
LAYER_1
 62
    39
  6
CONTINUOUS
 10
-3.459028
 20
-11.249746
  0
VERTEX
  8
LAYER_1
 62
    39
  6
CONTINUOUS
 10
-3.459339
 20
-11.249505
  0
VERTEX
  8
LAYER_1
 62
    39
  6
CONTINUOUS
 10
-3.459654
 20
-11.249270
  0
VERTEX
  8
LAYER_1
 62
    39
  6
CONTINUOUS
 10
-3.459973
 20
-11.249041
  0
VERTEX
  8
LAYER_1
 62
    39
  6
CONTINUOUS
 10
-3.460297
 20
-11.248818
  0
VERTEX
  8
LAYER_1
 62
    39
  6
CONTINUOUS
 10
-3.460626
 20
-11.248602
  0
VERTEX
  8
LAYER_1
 62
    39
  6
CONTINUOUS
 10
-3.460958
 20
-11.248393
  0
VERTEX
  8
LAYER_1
 62
    39
  6
CONTINUOUS
 10
-3.461295
 20
-11.248190
  0
VERTEX
  8
LAYER_1
 62
    39
  6
CONTINUOUS
 10
-3.461636
 20
-11.247995
  0
VERTEX
  8
LAYER_1
 62
    39
  6
CONTINUOUS
 10
-3.461981
 20
-11.247806
  0
VERTEX
  8
LAYER_1
 62
    39
  6
CONTINUOUS
 10
-3.462329
 20
-11.247624
  0
VERTEX
  8
LAYER_1
 62
    39
  6
CONTINUOUS
 10
-3.462681
 20
-11.247448
  0
VERTEX
  8
LAYER_1
 62
    39
  6
CONTINUOUS
 10
-3.463037
 20
-11.247281
  0
VERTEX
  8
LAYER_1
 62
    39
  6
CONTINUOUS
 10
-3.463395
 20
-11.247120
  0
VERTEX
  8
LAYER_1
 62
    39
  6
CONTINUOUS
 10
-3.463757
 20
-11.246966
  0
VERTEX
  8
LAYER_1
 62
    39
  6
CONTINUOUS
 10
-3.464122
 20
-11.246820
  0
VERTEX
  8
LAYER_1
 62
    39
  6
CONTINUOUS
 10
-3.464490
 20
-11.246681
  0
VERTEX
  8
LAYER_1
 62
    39
  6
CONTINUOUS
 10
-3.464860
 20
-11.246549
  0
VERTEX
  8
LAYER_1
 62
    39
  6
CONTINUOUS
 10
-3.465233
 20
-11.246425
  0
VERTEX
  8
LAYER_1
 62
    39
  6
CONTINUOUS
 10
-3.465608
 20
-11.246308
  0
VERTEX
  8
LAYER_1
 62
    39
  6
CONTINUOUS
 10
-3.465986
 20
-11.246199
  0
VERTEX
  8
LAYER_1
 62
    39
  6
CONTINUOUS
 10
-3.466366
 20
-11.246098
  0
VERTEX
  8
LAYER_1
 62
    39
  6
CONTINUOUS
 10
-3.466748
 20
-11.246004
  0
VERTEX
  8
LAYER_1
 62
    39
  6
CONTINUOUS
 10
-3.467131
 20
-11.245917
  0
VERTEX
  8
LAYER_1
 62
    39
  6
CONTINUOUS
 10
-3.467516
 20
-11.245839
  0
VERTEX
  8
LAYER_1
 62
    39
  6
CONTINUOUS
 10
-3.467903
 20
-11.245768
  0
VERTEX
  8
LAYER_1
 62
    39
  6
CONTINUOUS
 10
-3.468291
 20
-11.245705
  0
VERTEX
  8
LAYER_1
 62
    39
  6
CONTINUOUS
 10
-3.468680
 20
-11.245649
  0
VERTEX
  8
LAYER_1
 62
    39
  6
CONTINUOUS
 10
-3.469070
 20
-11.245602
  0
VERTEX
  8
LAYER_1
 62
    39
  6
CONTINUOUS
 10
-3.469461
 20
-11.245562
  0
VERTEX
  8
LAYER_1
 62
    39
  6
CONTINUOUS
 10
-3.469853
 20
-11.245530
  0
VERTEX
  8
LAYER_1
 62
    39
  6
CONTINUOUS
 10
-3.470245
 20
-11.245506
  0
VERTEX
  8
LAYER_1
 62
    39
  6
CONTINUOUS
 10
-3.470638
 20
-11.245490
  0
VERTEX
  8
LAYER_1
 62
    39
  6
CONTINUOUS
 10
-3.471031
 20
-11.245482
  0
VERTEX
  8
LAYER_1
 62
    39
  6
CONTINUOUS
 10
-3.471424
 20
-11.245481
  0
VERTEX
  8
LAYER_1
 62
    39
  6
CONTINUOUS
 10
-3.471817
 20
-11.245488
  0
VERTEX
  8
LAYER_1
 62
    39
  6
CONTINUOUS
 10
-3.472210
 20
-11.245504
  0
VERTEX
  8
LAYER_1
 62
    39
  6
CONTINUOUS
 10
-3.472603
 20
-11.245527
  0
VERTEX
  8
LAYER_1
 62
    39
  6
CONTINUOUS
 10
-3.472994
 20
-11.245558
  0
VERTEX
  8
LAYER_1
 62
    39
  6
CONTINUOUS
 10
-3.473386
 20
-11.245597
  0
VERTEX
  8
LAYER_1
 62
    39
  6
CONTINUOUS
 10
-3.473776
 20
-11.245643
  0
VERTEX
  8
LAYER_1
 62
    39
  6
CONTINUOUS
 10
-3.474165
 20
-11.245698
  0
VERTEX
  8
LAYER_1
 62
    39
  6
CONTINUOUS
 10
-3.474553
 20
-11.245760
  0
VERTEX
  8
LAYER_1
 62
    39
  6
CONTINUOUS
 10
-3.474940
 20
-11.245830
  0
VERTEX
  8
LAYER_1
 62
    39
  6
CONTINUOUS
 10
-3.475326
 20
-11.245907
  0
VERTEX
  8
LAYER_1
 62
    39
  6
CONTINUOUS
 10
-3.475709
 20
-11.245993
  0
VERTEX
  8
LAYER_1
 62
    39
  6
CONTINUOUS
 10
-3.476091
 20
-11.246086
  0
VERTEX
  8
LAYER_1
 62
    39
  6
CONTINUOUS
 10
-3.476471
 20
-11.246186
  0
VERTEX
  8
LAYER_1
 62
    39
  6
CONTINUOUS
 10
-3.476849
 20
-11.246295
  0
VERTEX
  8
LAYER_1
 62
    39
  6
CONTINUOUS
 10
-3.477225
 20
-11.246410
  0
VERTEX
  8
LAYER_1
 62
    39
  6
CONTINUOUS
 10
-3.477598
 20
-11.246534
  0
VERTEX
  8
LAYER_1
 62
    39
  6
CONTINUOUS
 10
-3.477969
 20
-11.246664
  0
VERTEX
  8
LAYER_1
 62
    39
  6
CONTINUOUS
 10
-3.478337
 20
-11.246802
  0
VERTEX
  8
LAYER_1
 62
    39
  6
CONTINUOUS
 10
-3.478702
 20
-11.246948
  0
VERTEX
  8
LAYER_1
 62
    39
  6
CONTINUOUS
 10
-3.479064
 20
-11.247100
  0
VERTEX
  8
LAYER_1
 62
    39
  6
CONTINUOUS
 10
-3.479423
 20
-11.247260
  0
VERTEX
  8
LAYER_1
 62
    39
  6
CONTINUOUS
 10
-3.479779
 20
-11.247427
  0
VERTEX
  8
LAYER_1
 62
    39
  6
CONTINUOUS
 10
-3.480132
 20
-11.247602
  0
VERTEX
  8
LAYER_1
 62
    39
  6
CONTINUOUS
 10
-3.480480
 20
-11.247783
  0
VERTEX
  8
LAYER_1
 62
    39
  6
CONTINUOUS
 10
-3.480826
 20
-11.247971
  0
VERTEX
  8
LAYER_1
 62
    39
  6
CONTINUOUS
 10
-3.481167
 20
-11.248166
  0
VERTEX
  8
LAYER_1
 62
    39
  6
CONTINUOUS
 10
-3.481504
 20
-11.248368
  0
VERTEX
  8
LAYER_1
 62
    39
  6
CONTINUOUS
 10
-3.481838
 20
-11.248576
  0
VERTEX
  8
LAYER_1
 62
    39
  6
CONTINUOUS
 10
-3.482167
 20
-11.248791
  0
VERTEX
  8
LAYER_1
 62
    39
  6
CONTINUOUS
 10
-3.482491
 20
-11.249013
  0
VERTEX
  8
LAYER_1
 62
    39
  6
CONTINUOUS
 10
-3.482811
 20
-11.249241
  0
VERTEX
  8
LAYER_1
 62
    39
  6
CONTINUOUS
 10
-3.483127
 20
-11.249475
  0
VERTEX
  8
LAYER_1
 62
    39
  6
CONTINUOUS
 10
-3.483438
 20
-11.249716
  0
VERTEX
  8
LAYER_1
 62
    39
  6
CONTINUOUS
 10
-3.483743
 20
-11.249963
  0
VERTEX
  8
LAYER_1
 62
    39
  6
CONTINUOUS
 10
-3.484044
 20
-11.250216
  0
VERTEX
  8
LAYER_1
 62
    39
  6
CONTINUOUS
 10
-3.484340
 20
-11.250475
  0
VERTEX
  8
LAYER_1
 62
    39
  6
CONTINUOUS
 10
-3.484631
 20
-11.250740
  0
VERTEX
  8
LAYER_1
 62
    39
  6
CONTINUOUS
 10
-3.484916
 20
-11.251010
  0
VERTEX
  8
LAYER_1
 62
    39
  6
CONTINUOUS
 10
-3.485196
 20
-11.251287
  0
VERTEX
  8
LAYER_1
 62
    39
  6
CONTINUOUS
 10
-3.485470
 20
-11.251568
  0
VERTEX
  8
LAYER_1
 62
    39
  6
CONTINUOUS
 10
-3.485738
 20
-11.251855
  0
VERTEX
  8
LAYER_1
 62
    39
  6
CONTINUOUS
 10
-3.486001
 20
-11.252148
  0
VERTEX
  8
LAYER_1
 62
    39
  6
CONTINUOUS
 10
-3.486257
 20
-11.252446
  0
VERTEX
  8
LAYER_1
 62
    39
  6
CONTINUOUS
 10
-3.486508
 20
-11.252748
  0
VERTEX
  8
LAYER_1
 62
    39
  6
CONTINUOUS
 10
-3.486753
 20
-11.253056
  0
VERTEX
  8
LAYER_1
 62
    39
  6
CONTINUOUS
 10
-3.486991
 20
-11.253369
  0
VERTEX
  8
LAYER_1
 62
    39
  6
CONTINUOUS
 10
-3.487223
 20
-11.253686
  0
VERTEX
  8
LAYER_1
 62
    39
  6
CONTINUOUS
 10
-3.487449
 20
-11.254008
  0
VERTEX
  8
LAYER_1
 62
    39
  6
CONTINUOUS
 10
-3.487668
 20
-11.254334
  0
VERTEX
  8
LAYER_1
 62
    39
  6
CONTINUOUS
 10
-3.487881
 20
-11.254665
  0
VERTEX
  8
LAYER_1
 62
    39
  6
CONTINUOUS
 10
-3.488087
 20
-11.255000
  0
VERTEX
  8
LAYER_1
 62
    39
  6
CONTINUOUS
 10
-3.488286
 20
-11.255338
  0
VERTEX
  8
LAYER_1
 62
    39
  6
CONTINUOUS
 10
-3.488478
 20
-11.255681
  0
VERTEX
  8
LAYER_1
 62
    39
  6
CONTINUOUS
 10
-3.488664
 20
-11.256028
  0
VERTEX
  8
LAYER_1
 62
    39
  6
CONTINUOUS
 10
-3.488842
 20
-11.256378
  0
VERTEX
  8
LAYER_1
 62
    39
  6
CONTINUOUS
 10
-3.489014
 20
-11.256732
  0
VERTEX
  8
LAYER_1
 62
    39
  6
CONTINUOUS
 10
-3.489178
 20
-11.257089
  0
VERTEX
  8
LAYER_1
 62
    39
  6
CONTINUOUS
 10
-3.489336
 20
-11.257449
  0
VERTEX
  8
LAYER_1
 62
    39
  6
CONTINUOUS
 10
-3.489486
 20
-11.257812
  0
VERTEX
  8
LAYER_1
 62
    39
  6
CONTINUOUS
 10
-3.489628
 20
-11.258179
  0
VERTEX
  8
LAYER_1
 62
    39
  6
CONTINUOUS
 10
-3.489764
 20
-11.258548
  0
VERTEX
  8
LAYER_1
 62
    39
  6
CONTINUOUS
 10
-3.489891
 20
-11.258919
  0
VERTEX
  8
LAYER_1
 62
    39
  6
CONTINUOUS
 10
-3.490012
 20
-11.259294
  0
VERTEX
  8
LAYER_1
 62
    39
  6
CONTINUOUS
 10
-3.490125
 20
-11.259670
  0
VERTEX
  8
LAYER_1
 62
    39
  6
CONTINUOUS
 10
-3.490230
 20
-11.260049
  0
VERTEX
  8
LAYER_1
 62
    39
  6
CONTINUOUS
 10
-3.490328
 20
-11.260430
  0
VERTEX
  8
LAYER_1
 62
    39
  6
CONTINUOUS
 10
-3.490418
 20
-11.260812
  0
VERTEX
  8
LAYER_1
 62
    39
  6
CONTINUOUS
 10
-3.490501
 20
-11.261197
  0
VERTEX
  8
LAYER_1
 62
    39
  6
CONTINUOUS
 10
-3.490575
 20
-11.261582
  0
VERTEX
  8
LAYER_1
 62
    39
  6
CONTINUOUS
 10
-3.490642
 20
-11.261970
  0
VERTEX
  8
LAYER_1
 62
    39
  6
CONTINUOUS
 10
-3.490702
 20
-11.262358
  0
VERTEX
  8
LAYER_1
 62
    39
  6
CONTINUOUS
 10
-3.490753
 20
-11.262748
  0
VERTEX
  8
LAYER_1
 62
    39
  6
CONTINUOUS
 10
-3.490797
 20
-11.263139
  0
VERTEX
  8
LAYER_1
 62
    39
  6
CONTINUOUS
 10
-3.490833
 20
-11.263530
  0
VERTEX
  8
LAYER_1
 62
    39
  6
CONTINUOUS
 10
-3.490861
 20
-11.263922
  0
VERTEX
  8
LAYER_1
 62
    39
  6
CONTINUOUS
 10
-3.490881
 20
-11.264315
  0
VERTEX
  8
LAYER_1
 62
    39
  6
CONTINUOUS
 10
-3.490893
 20
-11.264708
  0
VERTEX
  8
LAYER_1
 62
    39
  6
CONTINUOUS
 10
-3.490898
 20
-11.265101
  0
VERTEX
  8
LAYER_1
 62
    39
  6
CONTINUOUS
 10
-3.490894
 20
-11.265494
  0
VERTEX
  8
LAYER_1
 62
    39
  6
CONTINUOUS
 10
-3.490883
 20
-11.265887
  0
VERTEX
  8
LAYER_1
 62
    39
  6
CONTINUOUS
 10
-3.490864
 20
-11.266280
  0
VERTEX
  8
LAYER_1
 62
    39
  6
CONTINUOUS
 10
-3.490837
 20
-11.266672
  0
VERTEX
  8
LAYER_1
 62
    39
  6
CONTINUOUS
 10
-3.490802
 20
-11.267063
  0
VERTEX
  8
LAYER_1
 62
    39
  6
CONTINUOUS
 10
-3.490759
 20
-11.267454
  0
VERTEX
  8
LAYER_1
 62
    39
  6
CONTINUOUS
 10
-3.490709
 20
-11.267844
  0
VERTEX
  8
LAYER_1
 62
    39
  6
CONTINUOUS
 10
-3.490650
 20
-11.268233
  0
VERTEX
  8
LAYER_1
 62
    39
  6
CONTINUOUS
 10
-3.490584
 20
-11.268620
  0
VERTEX
  8
LAYER_1
 62
    39
  6
CONTINUOUS
 10
-3.490511
 20
-11.269006
  0
VERTEX
  8
LAYER_1
 62
    39
  6
CONTINUOUS
 10
-3.490429
 20
-11.269391
  0
VERTEX
  8
LAYER_1
 62
    39
  6
CONTINUOUS
 10
-3.490340
 20
-11.269774
  0
VERTEX
  8
LAYER_1
 62
    39
  6
CONTINUOUS
 10
-3.490243
 20
-11.270155
  0
VERTEX
  8
LAYER_1
 62
    39
  6
CONTINUOUS
 10
-3.490139
 20
-11.270534
  0
VERTEX
  8
LAYER_1
 62
    39
  6
CONTINUOUS
 10
-3.490027
 20
-11.270910
  0
VERTEX
  8
LAYER_1
 62
    39
  6
CONTINUOUS
 10
-3.489907
 20
-11.271285
  0
VERTEX
  8
LAYER_1
 62
    39
  6
CONTINUOUS
 10
-3.489780
 20
-11.271657
  0
VERTEX
  8
LAYER_1
 62
    39
  6
CONTINUOUS
 10
-3.489646
 20
-11.272026
  0
VERTEX
  8
LAYER_1
 62
    39
  6
CONTINUOUS
 10
-3.489504
 20
-11.272393
  0
VERTEX
  8
LAYER_1
 62
    39
  6
CONTINUOUS
 10
-3.489355
 20
-11.272757
  0
VERTEX
  8
LAYER_1
 62
    39
  6
CONTINUOUS
 10
-3.489199
 20
-11.273117
  0
VERTEX
  8
LAYER_1
 62
    39
  6
CONTINUOUS
 10
-3.489035
 20
-11.273475
  0
VERTEX
  8
LAYER_1
 62
    39
  6
CONTINUOUS
 10
-3.488865
 20
-11.273829
  0
VERTEX
  8
LAYER_1
 62
    39
  6
CONTINUOUS
 10
-3.488687
 20
-11.274180
  0
VERTEX
  8
LAYER_1
 62
    39
  6
CONTINUOUS
 10
-3.488502
 20
-11.274527
  0
VERTEX
  8
LAYER_1
 62
    39
  6
CONTINUOUS
 10
-3.488311
 20
-11.274870
  0
VERTEX
  8
LAYER_1
 62
    39
  6
CONTINUOUS
 10
-3.488113
 20
-11.275209
  0
VERTEX
  8
LAYER_1
 62
    39
  6
CONTINUOUS
 10
-3.487907
 20
-11.275545
  0
VERTEX
  8
LAYER_1
 62
    39
  6
CONTINUOUS
 10
-3.487696
 20
-11.275876
  0
VERTEX
  8
LAYER_1
 62
    39
  6
CONTINUOUS
 10
-3.487477
 20
-11.276203
  0
VERTEX
  8
LAYER_1
 62
    39
  6
CONTINUOUS
 10
-3.487252
 20
-11.276525
  0
VERTEX
  8
LAYER_1
 62
    39
  6
CONTINUOUS
 10
-3.487021
 20
-11.276843
  0
VERTEX
  8
LAYER_1
 62
    39
  6
CONTINUOUS
 10
-3.486783
 20
-11.277156
  0
VERTEX
  8
LAYER_1
 62
    39
  6
CONTINUOUS
 10
-3.486540
 20
-11.277464
  0
VERTEX
  8
LAYER_1
 62
    39
  6
CONTINUOUS
 10
-3.486290
 20
-11.277768
  0
VERTEX
  8
LAYER_1
 62
    39
  6
CONTINUOUS
 10
-3.486034
 20
-11.278066
  0
VERTEX
  8
LAYER_1
 62
    39
  6
CONTINUOUS
 10
-3.485772
 20
-11.278359
  0
VERTEX
  8
LAYER_1
 62
    39
  6
CONTINUOUS
 10
-3.485504
 20
-11.278647
  0
VERTEX
  8
LAYER_1
 62
    39
  6
CONTINUOUS
 10
-3.485231
 20
-11.278930
  0
VERTEX
  8
LAYER_1
 62
    39
  6
CONTINUOUS
 10
-3.484952
 20
-11.279207
  0
VERTEX
  8
LAYER_1
 62
    39
  6
CONTINUOUS
 10
-3.484667
 20
-11.279478
  0
VERTEX
  8
LAYER_1
 62
    39
  6
CONTINUOUS
 10
-3.484378
 20
-11.279743
  0
VERTEX
  8
LAYER_1
 62
    39
  6
CONTINUOUS
 10
-3.484082
 20
-11.280003
  0
VERTEX
  8
LAYER_1
 62
    39
  6
CONTINUOUS
 10
-3.483782
 20
-11.280257
  0
VERTEX
  8
LAYER_1
 62
    39
  6
CONTINUOUS
 10
-3.483477
 20
-11.280505
  0
VERTEX
  8
LAYER_1
 62
    39
  6
CONTINUOUS
 10
-3.483167
 20
-11.280746
  0
VERTEX
  8
LAYER_1
 62
    39
  6
CONTINUOUS
 10
-3.482852
 20
-11.280981
  0
VERTEX
  8
LAYER_1
 62
    39
  6
CONTINUOUS
 10
-3.482532
 20
-11.281210
  0
VERTEX
  8
LAYER_1
 62
    39
  6
CONTINUOUS
 10
-3.482208
 20
-11.281433
  0
VERTEX
  8
LAYER_1
 62
    39
  6
CONTINUOUS
 10
-3.481880
 20
-11.281649
  0
VERTEX
  8
LAYER_1
 62
    39
  6
CONTINUOUS
 10
-3.481547
 20
-11.281858
  0
VERTEX
  8
LAYER_1
 62
    39
  6
CONTINUOUS
 10
-3.481210
 20
-11.282061
  0
VERTEX
  8
LAYER_1
 62
    39
  6
CONTINUOUS
 10
-3.480869
 20
-11.282257
  0
VERTEX
  8
LAYER_1
 62
    39
  6
CONTINUOUS
 10
-3.480525
 20
-11.282446
  0
VERTEX
  8
LAYER_1
 62
    39
  6
CONTINUOUS
 10
-3.480176
 20
-11.282628
  0
VERTEX
  8
LAYER_1
 62
    39
  6
CONTINUOUS
 10
-3.479824
 20
-11.282803
  0
VERTEX
  8
LAYER_1
 62
    39
  6
CONTINUOUS
 10
-3.479469
 20
-11.282971
  0
VERTEX
  8
LAYER_1
 62
    39
  6
CONTINUOUS
 10
-3.479110
 20
-11.283132
  0
VERTEX
  8
LAYER_1
 62
    39
  6
CONTINUOUS
 10
-3.478748
 20
-11.283285
  0
VERTEX
  8
LAYER_1
 62
    39
  6
CONTINUOUS
 10
-3.478384
 20
-11.283431
  0
VERTEX
  8
LAYER_1
 62
    39
  6
CONTINUOUS
 10
-3.478016
 20
-11.283571
  0
VERTEX
  8
LAYER_1
 62
    39
  6
CONTINUOUS
 10
-3.477646
 20
-11.283702
  0
VERTEX
  8
LAYER_1
 62
    39
  6
CONTINUOUS
 10
-3.477273
 20
-11.283826
  0
VERTEX
  8
LAYER_1
 62
    39
  6
CONTINUOUS
 10
-3.476897
 20
-11.283943
  0
VERTEX
  8
LAYER_1
 62
    39
  6
CONTINUOUS
 10
-3.476520
 20
-11.284052
  0
VERTEX
  8
LAYER_1
 62
    39
  6
CONTINUOUS
 10
-3.476140
 20
-11.284154
  0
VERTEX
  8
LAYER_1
 62
    39
  6
CONTINUOUS
 10
-3.475758
 20
-11.284248
  0
VERTEX
  8
LAYER_1
 62
    39
  6
CONTINUOUS
 10
-3.475375
 20
-11.284334
  0
VERTEX
  8
LAYER_1
 62
    39
  6
CONTINUOUS
 10
-3.474990
 20
-11.284413
  0
VERTEX
  8
LAYER_1
 62
    39
  6
CONTINUOUS
 10
-3.474603
 20
-11.284484
  0
VERTEX
  8
LAYER_1
 62
    39
  6
CONTINUOUS
 10
-3.474215
 20
-11.284547
  0
VERTEX
  8
LAYER_1
 62
    39
  6
CONTINUOUS
 10
-3.473826
 20
-11.284602
  0
VERTEX
  8
LAYER_1
 62
    39
  6
CONTINUOUS
 10
-3.473436
 20
-11.284650
  0
VERTEX
  8
LAYER_1
 62
    39
  6
CONTINUOUS
 10
-3.473044
 20
-11.284690
  0
VERTEX
  8
LAYER_1
 62
    39
  6
CONTINUOUS
 10
-3.472653
 20
-11.284722
  0
VERTEX
  8
LAYER_1
 62
    39
  6
CONTINUOUS
 10
-3.472260
 20
-11.284746
  0
VERTEX
  8
LAYER_1
 62
    39
  6
CONTINUOUS
 10
-3.471868
 20
-11.284762
  0
VERTEX
  8
LAYER_1
 62
    39
  6
CONTINUOUS
 10
-3.471475
 20
-11.284770
  0
VERTEX
  8
LAYER_1
 62
    39
  6
CONTINUOUS
 10
-3.471081
 20
-11.284771
  0
VERTEX
  8
LAYER_1
 62
    39
  6
CONTINUOUS
 10
-3.470688
 20
-11.284764
  0
VERTEX
  8
LAYER_1
 62
    39
  6
CONTINUOUS
 10
-3.470296
 20
-11.284748
  0
VERTEX
  8
LAYER_1
 62
    39
  6
CONTINUOUS
 10
-3.469903
 20
-11.284725
  0
VERTEX
  8
LAYER_1
 62
    39
  6
CONTINUOUS
 10
-3.469511
 20
-11.284694
  0
VERTEX
  8
LAYER_1
 62
    39
  6
CONTINUOUS
 10
-3.469120
 20
-11.284656
  0
VERTEX
  8
LAYER_1
 62
    39
  6
CONTINUOUS
 10
-3.468730
 20
-11.284609
  0
VERTEX
  8
LAYER_1
 62
    39
  6
CONTINUOUS
 10
-3.468340
 20
-11.284555
  0
VERTEX
  8
LAYER_1
 62
    39
  6
CONTINUOUS
 10
-3.467952
 20
-11.284493
  0
VERTEX
  8
LAYER_1
 62
    39
  6
CONTINUOUS
 10
-3.467566
 20
-11.284423
  0
VERTEX
  8
LAYER_1
 62
    39
  6
CONTINUOUS
 10
-3.467180
 20
-11.284345
  0
VERTEX
  8
LAYER_1
 62
    39
  6
CONTINUOUS
 10
-3.466796
 20
-11.284260
  0
VERTEX
  8
LAYER_1
 62
    39
  6
CONTINUOUS
 10
-3.466414
 20
-11.284167
  0
VERTEX
  8
LAYER_1
 62
    39
  6
CONTINUOUS
 10
-3.466034
 20
-11.284066
  0
VERTEX
  8
LAYER_1
 62
    39
  6
CONTINUOUS
 10
-3.465657
 20
-11.283958
  0
VERTEX
  8
LAYER_1
 62
    39
  6
CONTINUOUS
 10
-3.465281
 20
-11.283842
  0
VERTEX
  8
LAYER_1
 62
    39
  6
CONTINUOUS
 10
-3.464908
 20
-11.283719
  0
VERTEX
  8
LAYER_1
 62
    39
  6
CONTINUOUS
 10
-3.464537
 20
-11.283588
  0
VERTEX
  8
LAYER_1
 62
    39
  6
CONTINUOUS
 10
-3.464169
 20
-11.283450
  0
VERTEX
  8
LAYER_1
 62
    39
  6
CONTINUOUS
 10
-3.463804
 20
-11.283305
  0
VERTEX
  8
LAYER_1
 62
    39
  6
CONTINUOUS
 10
-3.463441
 20
-11.283152
  0
VERTEX
  8
LAYER_1
 62
    39
  6
CONTINUOUS
 10
-3.463082
 20
-11.282992
  0
VERTEX
  8
LAYER_1
 62
    39
  6
CONTINUOUS
 10
-3.462726
 20
-11.282825
  0
VERTEX
  8
LAYER_1
 62
    39
  6
CONTINUOUS
 10
-3.462374
 20
-11.282651
  0
VERTEX
  8
LAYER_1
 62
    39
  6
CONTINUOUS
 10
-3.462025
 20
-11.282470
  0
VERTEX
  8
LAYER_1
 62
    39
  6
CONTINUOUS
 10
-3.461680
 20
-11.282282
  0
VERTEX
  8
LAYER_1
 62
    39
  6
CONTINUOUS
 10
-3.461339
 20
-11.282087
  0
VERTEX
  8
LAYER_1
 62
    39
  6
CONTINUOUS
 10
-3.461001
 20
-11.281885
  0
VERTEX
  8
LAYER_1
 62
    39
  6
CONTINUOUS
 10
-3.460668
 20
-11.281677
  0
VERTEX
  8
LAYER_1
 62
    39
  6
CONTINUOUS
 10
-3.460339
 20
-11.281462
  0
VERTEX
  8
LAYER_1
 62
    39
  6
CONTINUOUS
 10
-3.460014
 20
-11.281240
  0
VERTEX
  8
LAYER_1
 62
    39
  6
CONTINUOUS
 10
-3.459694
 20
-11.281012
  0
VERTEX
  8
LAYER_1
 62
    39
  6
CONTINUOUS
 10
-3.459379
 20
-11.280778
  0
VERTEX
  8
LAYER_1
 62
    39
  6
CONTINUOUS
 10
-3.459068
 20
-11.280537
  0
VERTEX
  8
LAYER_1
 62
    39
  6
CONTINUOUS
 10
-3.458762
 20
-11.280290
  0
VERTEX
  8
LAYER_1
 62
    39
  6
CONTINUOUS
 10
-3.458461
 20
-11.280037
  0
VERTEX
  8
LAYER_1
 62
    39
  6
CONTINUOUS
 10
-3.458165
 20
-11.279778
  0
VERTEX
  8
LAYER_1
 62
    39
  6
CONTINUOUS
 10
-3.457875
 20
-11.279513
  0
VERTEX
  8
LAYER_1
 62
    39
  6
CONTINUOUS
 10
-3.457589
 20
-11.279243
  0
VERTEX
  8
LAYER_1
 62
    39
  6
CONTINUOUS
 10
-3.457310
 20
-11.278967
  0
VERTEX
  8
LAYER_1
 62
    39
  6
CONTINUOUS
 10
-3.457036
 20
-11.278685
  0
VERTEX
  8
LAYER_1
 62
    39
  6
CONTINUOUS
 10
-3.456767
 20
-11.278398
  0
VERTEX
  8
LAYER_1
 62
    39
  6
CONTINUOUS
 10
-3.456504
 20
-11.278105
  0
VERTEX
  8
LAYER_1
 62
    39
  6
CONTINUOUS
 10
-3.456248
 20
-11.277808
  0
VERTEX
  8
LAYER_1
 62
    39
  6
CONTINUOUS
 10
-3.455997
 20
-11.277505
  0
VERTEX
  8
LAYER_1
 62
    39
  6
CONTINUOUS
 10
-3.455752
 20
-11.277197
  0
VERTEX
  8
LAYER_1
 62
    39
  6
CONTINUOUS
 10
-3.455514
 20
-11.276885
  0
VERTEX
  8
LAYER_1
 62
    39
  6
CONTINUOUS
 10
-3.455282
 20
-11.276567
  0
VERTEX
  8
LAYER_1
 62
    39
  6
CONTINUOUS
 10
-3.455056
 20
-11.276246
  0
VERTEX
  8
LAYER_1
 62
    39
  6
CONTINUOUS
 10
-3.454837
 20
-11.275919
  0
VERTEX
  8
LAYER_1
 62
    39
  6
CONTINUOUS
 10
-3.454624
 20
-11.275589
  0
VERTEX
  8
LAYER_1
 62
    39
  6
CONTINUOUS
 10
-3.454418
 20
-11.275254
  0
VERTEX
  8
LAYER_1
 62
    39
  6
CONTINUOUS
 10
-3.454219
 20
-11.274915
  0
VERTEX
  8
LAYER_1
 62
    39
  6
CONTINUOUS
 10
-3.454026
 20
-11.274572
  0
VERTEX
  8
LAYER_1
 62
    39
  6
CONTINUOUS
 10
-3.453841
 20
-11.274226
  0
VERTEX
  8
LAYER_1
 62
    39
  6
CONTINUOUS
 10
-3.453662
 20
-11.273876
  0
VERTEX
  8
LAYER_1
 62
    39
  6
CONTINUOUS
 10
-3.453491
 20
-11.273522
  0
VERTEX
  8
LAYER_1
 62
    39
  6
CONTINUOUS
 10
-3.453326
 20
-11.273165
  0
VERTEX
  8
LAYER_1
 62
    39
  6
CONTINUOUS
 10
-3.453169
 20
-11.272805
  0
VERTEX
  8
LAYER_1
 62
    39
  6
CONTINUOUS
 10
-3.453019
 20
-11.272441
  0
VERTEX
  8
LAYER_1
 62
    39
  6
CONTINUOUS
 10
-3.452876
 20
-11.272075
  0
VERTEX
  8
LAYER_1
 62
    39
  6
CONTINUOUS
 10
-3.452741
 20
-11.271706
  0
VERTEX
  8
LAYER_1
 62
    39
  6
CONTINUOUS
 10
-3.452613
 20
-11.271334
  0
VERTEX
  8
LAYER_1
 62
    39
  6
CONTINUOUS
 10
-3.452493
 20
-11.270960
  0
VERTEX
  8
LAYER_1
 62
    39
  6
CONTINUOUS
 10
-3.452380
 20
-11.270584
  0
VERTEX
  8
LAYER_1
 62
    39
  6
CONTINUOUS
 10
-3.452274
 20
-11.270205
  0
VERTEX
  8
LAYER_1
 62
    39
  6
CONTINUOUS
 10
-3.452176
 20
-11.269824
  0
VERTEX
  8
LAYER_1
 62
    39
  6
CONTINUOUS
 10
-3.452086
 20
-11.269442
  0
VERTEX
  8
LAYER_1
 62
    39
  6
CONTINUOUS
 10
-3.452004
 20
-11.269057
  0
VERTEX
  8
LAYER_1
 62
    39
  6
CONTINUOUS
 10
-3.451929
 20
-11.268671
  0
VERTEX
  8
LAYER_1
 62
    39
  6
CONTINUOUS
 10
-3.451862
 20
-11.268284
  0
VERTEX
  8
LAYER_1
 62
    39
  6
CONTINUOUS
 10
-3.451802
 20
-11.267895
  0
VERTEX
  8
LAYER_1
 62
    39
  6
CONTINUOUS
 10
-3.451751
 20
-11.267506
  0
VERTEX
  8
LAYER_1
 62
    39
  6
CONTINUOUS
 10
-3.451707
 20
-11.267115
  0
VERTEX
  8
LAYER_1
 62
    39
  6
CONTINUOUS
 10
-3.451671
 20
-11.266724
  0
VERTEX
  8
LAYER_1
 62
    39
  6
CONTINUOUS
 10
-3.451643
 20
-11.266331
  0
VERTEX
  8
LAYER_1
 62
    39
  6
CONTINUOUS
 10
-3.451623
 20
-11.265939
  0
VERTEX
  8
LAYER_1
 62
    39
  6
CONTINUOUS
 10
-3.451611
 20
-11.265546
  0
VERTEX
  8
LAYER_1
 62
    39
  6
CONTINUOUS
 10
-3.451606
 20
-11.265153
  0
SEQEND
  8
0
  0
LINE
  8
LAYER_1
 62
    39
  6
CONTINUOUS
 10
-3.451606
 20
-11.265126
 11
-3.451606
 21
-11.265126
  0
SOLID
  8
LAYER_1
 62
   254
 10
-3.259488
 20
-11.297874
 11
-2.189787
 21
-11.297874
 12
-3.259488
 22
-11.228016
 13
-2.189787
 23
-11.228016
  0
POLYLINE
  8
LAYER_1
 62
    39
  6
CONTINUOUS
 66
     1
 40
0.006945
 41
0.006945
 70
     1
  0
VERTEX
  8
LAYER_1
 62
    39
  6
CONTINUOUS
 10
-3.259488
 20
-11.297874
  0
VERTEX
  8
LAYER_1
 62
    39
  6
CONTINUOUS
 10
-2.189787
 20
-11.297874
  0
VERTEX
  8
LAYER_1
 62
    39
  6
CONTINUOUS
 10
-2.189787
 20
-11.228016
  0
VERTEX
  8
LAYER_1
 62
    39
  6
CONTINUOUS
 10
-3.259488
 20
-11.228016
  0
SEQEND
  8
0
  0
SOLID
  8
LAYER_1
 62
   253
 10
-3.477799
 20
-11.280406
 11
-3.263862
 21
-11.280406
 12
-3.477799
 22
-11.249846
 13
-3.263862
 23
-11.249846
  0
POLYLINE
  8
LAYER_1
 62
    39
  6
CONTINUOUS
 66
     1
 40
0.006945
 41
0.006945
 70
     1
  0
VERTEX
  8
LAYER_1
 62
    39
  6
CONTINUOUS
 10
-3.477799
 20
-11.280406
  0
VERTEX
  8
LAYER_1
 62
    39
  6
CONTINUOUS
 10
-3.263862
 20
-11.280406
  0
VERTEX
  8
LAYER_1
 62
    39
  6
CONTINUOUS
 10
-3.263862
 20
-11.249846
  0
VERTEX
  8
LAYER_1
 62
    39
  6
CONTINUOUS
 10
-3.477799
 20
-11.249846
  0
SEQEND
  8
0
  0
POLYLINE
  8
LAYER_1
 62
    39
  6
CONTINUOUS
 66
     1
 40
0.006945
 41
0.006945
 70
     1
  0
VERTEX
  8
LAYER_1
 62
    39
  6
CONTINUOUS
 10
7.647917
 20
-10.151854
  0
VERTEX
  8
LAYER_1
 62
    39
  6
CONTINUOUS
 10
12.094984
 20
-10.100075
  0
VERTEX
  8
LAYER_1
 62
    39
  6
CONTINUOUS
 10
12.093634
 20
-9.977831
  0
VERTEX
  8
LAYER_1
 62
    39
  6
CONTINUOUS
 10
7.647890
 20
-10.029594
  0
VERTEX
  8
LAYER_1
 62
    39
  6
CONTINUOUS
 10
7.650083
 20
-9.971673
  0
VERTEX
  8
LAYER_1
 62
    39
  6
CONTINUOUS
 10
-10.924213
 20
-10.183232
  0
VERTEX
  8
LAYER_1
 62
    39
  6
CONTINUOUS
 10
-10.922020
 20
-10.240780
  0
VERTEX
  8
LAYER_1
 62
    39
  6
CONTINUOUS
 10
-14.542657
 20
-10.287953
  0
VERTEX
  8
LAYER_1
 62
    39
  6
CONTINUOUS
 10
-14.541307
 20
-10.410197
  0
VERTEX
  8
LAYER_1
 62
    39
  6
CONTINUOUS
 10
-10.919795
 20
-10.359425
  0
VERTEX
  8
LAYER_1
 62
    39
  6
CONTINUOUS
 10
-10.919803
 20
-10.308528
  0
VERTEX
  8
LAYER_1
 62
    39
  6
CONTINUOUS
 10
7.650063
 20
-10.098701
  0
SEQEND
  8
0
  0
POLYLINE
  8
LAYER_1
 62
    39
  6
CONTINUOUS
 66
     1
 40
0.006945
 41
0.006945
 70
     1
  0
VERTEX
  8
LAYER_1
 62
    39
  6
CONTINUOUS
 10
-16.451614
 20
-10.246555
  0
VERTEX
  8
LAYER_1
 62
    39
  6
CONTINUOUS
 10
12.169535
 20
-9.918240
  0
VERTEX
  8
LAYER_1
 62
    39
  6
CONTINUOUS
 10
12.169535
 20
-12.749705
  0
VERTEX
  8
LAYER_1
 62
    39
  6
CONTINUOUS
 10
-11.010449
 20
-12.749705
  0
VERTEX
  8
LAYER_1
 62
    39
  6
CONTINUOUS
 10
-14.939980
 20
-12.749705
  0
VERTEX
  8
LAYER_1
 62
    39
  6
CONTINUOUS
 10
-15.097161
 20
-12.732240
  0
VERTEX
  8
LAYER_1
 62
    39
  6
CONTINUOUS
 10
-15.271807
 20
-12.671114
  0
VERTEX
  8
LAYER_1
 62
    39
  6
CONTINUOUS
 10
-15.428988
 20
-12.575059
  0
VERTEX
  8
LAYER_1
 62
    39
  6
CONTINUOUS
 10
-15.577441
 20
-12.452803
  0
VERTEX
  8
LAYER_1
 62
    39
  6
CONTINUOUS
 10
-16.338094
 20
-11.552724
  0
VERTEX
  8
LAYER_1
 62
    39
  6
CONTINUOUS
 10
-16.451614
 20
-11.404276
  0
SEQEND
  8
0
  0
POLYLINE
  8
LAYER_1
 62
    39
  6
CONTINUOUS
 66
     1
 40
0.006945
 41
0.006945
 70
     1
  0
VERTEX
  8
LAYER_1
 62
    39
  6
CONTINUOUS
 10
12.169535
 20
-7.378677
  0
VERTEX
  8
LAYER_1
 62
    39
  6
CONTINUOUS
 10
14.540209
 20
-7.378677
  0
VERTEX
  8
LAYER_1
 62
    39
  6
CONTINUOUS
 10
14.610071
 20
-7.389591
  0
VERTEX
  8
LAYER_1
 62
    39
  6
CONTINUOUS
 10
14.671197
 20
-7.417972
  0
VERTEX
  8
LAYER_1
 62
    39
  6
CONTINUOUS
 10
14.712669
 20
-7.450717
  0
VERTEX
  8
LAYER_1
 62
    39
  6
CONTINUOUS
 10
14.747138
 20
-7.492189
  0
VERTEX
  8
LAYER_1
 62
    39
  6
CONTINUOUS
 10
14.773346
 20
-7.553335
  0
VERTEX
  8
LAYER_1
 62
    39
  6
CONTINUOUS
 10
14.782071
 20
-7.614465
  0
VERTEX
  8
LAYER_1
 62
    39
  6
CONTINUOUS
 10
14.782071
 20
-12.492764
  0
VERTEX
  8
LAYER_1
 62
    39
  6
CONTINUOUS
 10
14.773346
 20
-12.564740
  0
VERTEX
  8
LAYER_1
 62
    39
  6
CONTINUOUS
 10
14.753717
 20
-12.614909
  0
VERTEX
  8
LAYER_1
 62
    39
  6
CONTINUOUS
 10
14.729724
 20
-12.655917
  0
VERTEX
  8
LAYER_1
 62
    39
  6
CONTINUOUS
 10
14.686205
 20
-12.701720
  0
VERTEX
  8
LAYER_1
 62
    39
  6
CONTINUOUS
 10
14.618587
 20
-12.736618
  0
VERTEX
  8
LAYER_1
 62
    39
  6
CONTINUOUS
 10
14.542252
 20
-12.749705
  0
VERTEX
  8
LAYER_1
 62
    39
  6
CONTINUOUS
 10
12.169535
 20
-12.749705
  0
SEQEND
  8
0
  0
POLYLINE
  8
LAYER_1
 62
    39
  6
CONTINUOUS
 66
     1
 40
0.006945
 41
0.006945
 70
     1
  0
VERTEX
  8
LAYER_1
 62
    39
  6
CONTINUOUS
 10
12.171181
 20
-7.379327
  0
VERTEX
  8
LAYER_1
 62
    39
  6
CONTINUOUS
 10
11.536697
 20
-7.379327
  0
VERTEX
  8
LAYER_1
 62
    39
  6
CONTINUOUS
 10
11.495256
 20
-7.379327
  0
VERTEX
  8
LAYER_1
 62
    39
  6
CONTINUOUS
 10
11.443768
 20
-7.388047
  0
VERTEX
  8
LAYER_1
 62
    39
  6
CONTINUOUS
 10
11.402232
 20
-7.405508
  0
VERTEX
  8
LAYER_1
 62
    39
  6
CONTINUOUS
 10
11.361988
 20
-7.427878
  0
VERTEX
  8
LAYER_1
 62
    39
  6
CONTINUOUS
 10
7.625811
 20
-9.706732
  0
VERTEX
  8
LAYER_1
 62
    39
  6
CONTINUOUS
 10
7.625807
 20
-9.969386
  0
VERTEX
  8
LAYER_1
 62
    39
  6
CONTINUOUS
 10
12.167535
 20
-9.918315
  0
SEQEND
  8
0
  0
POLYLINE
  8
LAYER_1
 62
    39
  6
CONTINUOUS
 66
     1
 40
0.006945
 41
0.006945
  0
VERTEX
  8
LAYER_1
 62
    39
  6
CONTINUOUS
 10
-6.805571
 20
-8.641524
  0
VERTEX
  8
LAYER_1
 62
    39
  6
CONTINUOUS
 10
7.625807
 20
-9.706736
  0
VERTEX
  8
LAYER_1
 62
    39
  6
CONTINUOUS
 10
7.625807
 20
-9.969386
  0
SEQEND
  8
0
  0
POLYLINE
  8
LAYER_1
 62
    39
  6
CONTINUOUS
 66
     1
 40
0.006945
 41
0.006945
  0
VERTEX
  8
LAYER_1
 62
    39
  6
CONTINUOUS
 10
-10.920484
 20
-10.184618
  0
VERTEX
  8
LAYER_1
 62
    39
  6
CONTINUOUS
 10
-10.920484
 20
-9.451374
  0
VERTEX
  8
LAYER_1
 62
    39
  6
CONTINUOUS
 10
-16.450811
 20
-10.137193
  0
VERTEX
  8
LAYER_1
 62
    39
  6
CONTINUOUS
 10
-16.450811
 20
-10.246630
  0
SEQEND
  8
0
  0
POLYLINE
  8
LAYER_1
 62
    39
  6
CONTINUOUS
 66
     1
 40
0.006945
 41
0.006945
  0
VERTEX
  8
LAYER_1
 62
    39
  6
CONTINUOUS
 10
-11.200516
 20
-9.497209
  0
VERTEX
  8
LAYER_1
 62
    39
  6
CONTINUOUS
 10
-9.278031
 20
-8.877035
  0
VERTEX
  8
LAYER_1
 62
    39
  6
CONTINUOUS
 10
-8.861362
 20
-8.774244
  0
VERTEX
  8
LAYER_1
 62
    39
  6
CONTINUOUS
 10
-8.467535
 20
-8.684496
  0
VERTEX
  8
LAYER_1
 62
    39
  6
CONTINUOUS
 10
-8.156799
 20
-8.632878
  0
VERTEX
  8
LAYER_1
 62
    39
  6
CONTINUOUS
 10
-7.862130
 20
-8.602087
  0
VERTEX
  8
LAYER_1
 62
    39
  6
CONTINUOUS
 10
-7.512728
 20
-8.598902
  0
VERTEX
  8
LAYER_1
 62
    39
  6
CONTINUOUS
 10
-7.106122
 20
-8.616984
  0
VERTEX
  8
LAYER_1
 62
    39
  6
CONTINUOUS
 10
-6.792213
 20
-8.639386
  0
SEQEND
  8
0
  0
POLYLINE
  8
LAYER_1
 62
    39
  6
CONTINUOUS
 66
     1
 40
0.006945
 41
0.006945
  0
VERTEX
  8
LAYER_1
 62
    39
  6
CONTINUOUS
 10
-4.460031
 20
-9.973035
  0
VERTEX
  8
LAYER_1
 62
    39
  6
CONTINUOUS
 10
-9.244457
 20
-9.974469
  0
VERTEX
  8
LAYER_1
 62
    39
  6
CONTINUOUS
 10
-9.463335
 20
-9.967173
  0
VERTEX
  8
LAYER_1
 62
    39
  6
CONTINUOUS
 10
-9.747878
 20
-9.945287
  0
VERTEX
  8
LAYER_1
 62
    39
  6
CONTINUOUS
 10
-9.966756
 20
-9.923398
  0
VERTEX
  8
LAYER_1
 62
    39
  6
CONTINUOUS
 10
-10.229409
 20
-9.879622
  0
VERTEX
  8
LAYER_1
 62
    39
  6
CONTINUOUS
 10
-10.455587
 20
-9.835846
  0
VERTEX
  8
LAYER_1
 62
    39
  6
CONTINUOUS
 10
-10.667165
 20
-9.770185
  0
VERTEX
  8
LAYER_1
 62
    39
  6
CONTINUOUS
 10
-10.836929
 20
-9.713598
  0
VERTEX
  8
LAYER_1
 62
    39
  6
CONTINUOUS
 10
-11.182941
 20
-9.496382
  0
SEQEND
  8
0
  0
POLYLINE
  8
LAYER_1
 62
    39
  6
CONTINUOUS
 66
     1
 40
0.006945
 41
0.006945
 70
     1
  0
VERTEX
  8
LAYER_1
 62
    39
  6
CONTINUOUS
 10
-14.909146
 20
-11.757173
  0
VERTEX
  8
LAYER_1
 62
    39
  6
CONTINUOUS
 10
-16.175327
 20
-11.757173
  0
VERTEX
  8
LAYER_1
 62
    39
  6
CONTINUOUS
 10
-16.175327
 20
-10.927606
  0
VERTEX
  8
LAYER_1
 62
    39
  6
CONTINUOUS
 10
-14.909146
 20
-10.927606
  0
SEQEND
  8
0
  0
POLYLINE
  8
LAYER_1
 62
    39
  6
CONTINUOUS
 66
     1
 40
0.006945
 41
0.006945
 70
     1
  0
VERTEX
  8
LAYER_1
 62
    39
  6
CONTINUOUS
 10
-14.848020
 20
-11.438445
  0
VERTEX
  8
LAYER_1
 62
    39
  6
CONTINUOUS
 10
-14.909146
 20
-11.438445
  0
VERTEX
  8
LAYER_1
 62
    39
  6
CONTINUOUS
 10
-14.909146
 20
-11.246335
  0
VERTEX
  8
LAYER_1
 62
    39
  6
CONTINUOUS
 10
-14.848020
 20
-11.246335
  0
SEQEND
  8
0
  0
POLYLINE
  8
LAYER_1
 62
    39
  6
CONTINUOUS
 66
     1
 40
0.006945
 41
0.006945
 70
     1
  0
VERTEX
  8
LAYER_1
 62
    39
  6
CONTINUOUS
 10
-14.795626
 20
-11.372953
  0
VERTEX
  8
LAYER_1
 62
    39
  6
CONTINUOUS
 10
-14.848020
 20
-11.372953
  0
VERTEX
  8
LAYER_1
 62
    39
  6
CONTINUOUS
 10
-14.848020
 20
-11.311827
  0
VERTEX
  8
LAYER_1
 62
    39
  6
CONTINUOUS
 10
-14.795626
 20
-11.311827
  0
SEQEND
  8
0
  0
POLYLINE
  8
LAYER_1
 62
    39
  6
CONTINUOUS
 66
     1
 40
0.006945
 41
0.006945
 70
     1
  0
VERTEX
  8
LAYER_1
 62
    39
  6
CONTINUOUS
 10
-15.380689
 20
-10.927606
  0
VERTEX
  8
LAYER_1
 62
    39
  6
CONTINUOUS
 10
-16.175327
 20
-10.927606
  0
VERTEX
  8
LAYER_1
 62
    39
  6
CONTINUOUS
 10
-16.175327
 20
-10.167898
  0
VERTEX
  8
LAYER_1
 62
    39
  6
CONTINUOUS
 10
-15.380689
 20
-10.167898
  0
SEQEND
  8
0
  0
POLYLINE
  8
LAYER_1
 62
    39
  6
CONTINUOUS
 66
     1
 40
0.006945
 41
0.006945
 70
     1
  0
VERTEX
  8
LAYER_1
 62
    39
  6
CONTINUOUS
 10
-15.782374
 20
-11.809567
  0
VERTEX
  8
LAYER_1
 62
    39
  6
CONTINUOUS
 10
-16.175327
 20
-11.809567
  0
VERTEX
  8
LAYER_1
 62
    39
  6
CONTINUOUS
 10
-16.175327
 20
-10.927606
  0
VERTEX
  8
LAYER_1
 62
    39
  6
CONTINUOUS
 10
-15.782374
 20
-10.927606
  0
SEQEND
  8
0
  0
POLYLINE
  8
LAYER_1
 62
    39
  6
CONTINUOUS
 66
     1
 40
0.006945
 41
0.006945
 70
     1
  0
VERTEX
  8
LAYER_1
 62
    39
  6
CONTINUOUS
 10
-16.210256
 20
-11.271480
  0
VERTEX
  8
LAYER_1
 62
    39
  6
CONTINUOUS
 10
-16.367437
 20
-11.271480
  0
VERTEX
  8
LAYER_1
 62
    39
  6
CONTINUOUS
 10
-16.367437
 20
-10.227972
  0
VERTEX
  8
LAYER_1
 62
    39
  6
CONTINUOUS
 10
-16.210256
 20
-10.227972
  0
SEQEND
  8
0
  0
POLYLINE
  8
LAYER_1
 62
    39
  6
CONTINUOUS
 66
     1
 40
0.006945
 41
0.006945
 70
     1
  0
VERTEX
  8
LAYER_1
 62
    39
  6
CONTINUOUS
 10
-16.210252
 20
-11.252886
  0
VERTEX
  8
LAYER_1
 62
    39
  6
CONTINUOUS
 10
-16.367433
 20
-11.252886
  0
VERTEX
  8
LAYER_1
 62
    39
  6
CONTINUOUS
 10
-16.367433
 20
-11.431898
  0
VERTEX
  8
LAYER_1
 62
    39
  6
CONTINUOUS
 10
-16.210252
 20
-11.431898
  0
SEQEND
  8
0
  0
POLYLINE
  8
LAYER_1
 62
    39
  6
CONTINUOUS
 66
     1
 40
0.006945
 41
0.006945
 70
     1
  0
VERTEX
  8
LAYER_1
 62
    39
  6
CONTINUOUS
 10
-15.380689
 20
-10.927606
  0
VERTEX
  8
LAYER_1
 62
    39
  6
CONTINUOUS
 10
-16.175327
 20
-10.927606
  0
VERTEX
  8
LAYER_1
 62
    39
  6
CONTINUOUS
 10
-16.175327
 20
-10.573949
  0
VERTEX
  8
LAYER_1
 62
    39
  6
CONTINUOUS
 10
-15.380689
 20
-10.573949
  0
SEQEND
  8
0
  0
POLYLINE
  8
LAYER_1
 62
    39
  6
CONTINUOUS
 66
     1
 40
0.006945
 41
0.006945
 70
     1
  0
VERTEX
  8
LAYER_1
 62
    39
  6
CONTINUOUS
 10
-15.306465
 20
-10.786839
  0
VERTEX
  8
LAYER_1
 62
    39
  6
CONTINUOUS
 10
-17.642350
 20
-10.786839
  0
VERTEX
  8
LAYER_1
 62
    39
  6
CONTINUOUS
 10
-17.642350
 20
-10.712614
  0
VERTEX
  8
LAYER_1
 62
    39
  6
CONTINUOUS
 10
-15.306465
 20
-10.712614
  0
SEQEND
  8
0
  0
POLYLINE
  8
LAYER_1
 62
    39
  6
CONTINUOUS
 66
     1
 40
0.006945
 41
0.006945
 70
     1
  0
VERTEX
  8
LAYER_1
 62
    39
  6
CONTINUOUS
 10
-15.354492
 20
-10.813035
  0
VERTEX
  8
LAYER_1
 62
    39
  6
CONTINUOUS
 10
-15.380689
 20
-10.813035
  0
VERTEX
  8
LAYER_1
 62
    39
  6
CONTINUOUS
 10
-15.380689
 20
-10.686417
  0
VERTEX
  8
LAYER_1
 62
    39
  6
CONTINUOUS
 10
-15.354492
 20
-10.686417
  0
SEQEND
  8
0
  0
POLYLINE
  8
LAYER_1
 62
    39
  6
CONTINUOUS
 66
     1
 40
0.006945
 41
0.006945
 70
     1
  0
VERTEX
  8
LAYER_1
 62
    39
  6
CONTINUOUS
 10
-15.385055
 20
-10.573949
  0
VERTEX
  8
LAYER_1
 62
    39
  6
CONTINUOUS
 10
-15.782374
 20
-10.927606
  0
SEQEND
  8
0
  0
POLYLINE
  8
LAYER_1
 62
    20
  6
CONTINUOUS
 66
     1
 40
0.006945
 41
0.006945
  0
VERTEX
  8
LAYER_1
 62
    20
  6
CONTINUOUS
 10
-18.759209
 20
-10.749358
  0
VERTEX
  8
LAYER_1
 62
    20
  6
CONTINUOUS
 10
15.649217
 20
-10.749358
  0
SEQEND
  8
0
  0
POLYLINE
  8
LAYER_1
 62
    39
  6
CONTINUOUS
 66
     1
 40
0.006945
 41
0.006945
 70
     1
  0
VERTEX
  8
LAYER_1
 62
    39
  6
CONTINUOUS
 10
-18.057839
 20
-10.767244
  0
VERTEX
  8
LAYER_1
 62
    39
  6
CONTINUOUS
 10
-18.049106
 20
-10.719217
  0
VERTEX
  8
LAYER_1
 62
    39
  6
CONTINUOUS
 10
-17.987980
 20
-10.666823
  0
VERTEX
  8
LAYER_1
 62
    39
  6
CONTINUOUS
 10
-17.909390
 20
-10.614429
  0
VERTEX
  8
LAYER_1
 62
    39
  6
CONTINUOUS
 10
-17.795870
 20
-10.548937
  0
VERTEX
  8
LAYER_1
 62
    39
  6
CONTINUOUS
 10
-17.638689
 20
-10.474713
  0
VERTEX
  8
LAYER_1
 62
    39
  6
CONTINUOUS
 10
-17.429114
 20
-10.387390
  0
VERTEX
  8
LAYER_1
 62
    39
  6
CONTINUOUS
 10
-17.245736
 20
-10.321898
  0
VERTEX
  8
LAYER_1
 62
    39
  6
CONTINUOUS
 10
-17.005598
 20
-10.252039
  0
VERTEX
  8
LAYER_1
 62
    39
  6
CONTINUOUS
 10
-16.804756
 20
-10.199646
  0
VERTEX
  8
LAYER_1
 62
    39
  6
CONTINUOUS
 10
-16.647575
 20
-10.169083
  0
VERTEX
  8
LAYER_1
 62
    39
  6
CONTINUOUS
 10
-16.564618
 20
-10.155984
  0
VERTEX
  8
LAYER_1
 62
    39
  6
CONTINUOUS
 10
-16.560252
 20
-10.762878
  0
SEQEND
  8
0
  0
POLYLINE
  8
LAYER_1
 62
    39
  6
CONTINUOUS
 66
     1
 40
0.006945
 41
0.006945
 70
     1
  0
VERTEX
  8
LAYER_1
 62
    39
  6
CONTINUOUS
 10
-18.053472
 20
-10.771614
  0
VERTEX
  8
LAYER_1
 62
    39
  6
CONTINUOUS
 10
-18.044740
 20
-10.819642
  0
VERTEX
  8
LAYER_1
 62
    39
  6
CONTINUOUS
 10
-17.983614
 20
-10.872035
  0
VERTEX
  8
LAYER_1
 62
    39
  6
CONTINUOUS
 10
-17.905024
 20
-10.924429
  0
VERTEX
  8
LAYER_1
 62
    39
  6
CONTINUOUS
 10
-17.791504
 20
-10.989921
  0
VERTEX
  8
LAYER_1
 62
    39
  6
CONTINUOUS
 10
-17.634323
 20
-11.064146
  0
VERTEX
  8
LAYER_1
 62
    39
  6
CONTINUOUS
 10
-17.424748
 20
-11.151469
  0
VERTEX
  8
LAYER_1
 62
    39
  6
CONTINUOUS
 10
-17.241370
 20
-11.216961
  0
VERTEX
  8
LAYER_1
 62
    39
  6
CONTINUOUS
 10
-17.001232
 20
-11.286819
  0
VERTEX
  8
LAYER_1
 62
    39
  6
CONTINUOUS
 10
-16.800390
 20
-11.339213
  0
VERTEX
  8
LAYER_1
 62
    39
  6
CONTINUOUS
 10
-16.643209
 20
-11.369776
  0
VERTEX
  8
LAYER_1
 62
    39
  6
CONTINUOUS
 10
-16.560252
 20
-11.382874
  0
VERTEX
  8
LAYER_1
 62
    39
  6
CONTINUOUS
 10
-16.560252
 20
-10.767248
  0
SEQEND
  8
0
  0
POLYLINE
  8
LAYER_1
 62
    39
  6
CONTINUOUS
 66
     1
 40
0.006945
 41
0.006945
 70
     1
  0
VERTEX
  8
LAYER_1
 62
    39
  6
CONTINUOUS
 10
8.455232
 20
-10.688650
  0
VERTEX
  8
LAYER_1
 62
    39
  6
CONTINUOUS
 10
12.924740
 20
-10.688650
  0
VERTEX
  8
LAYER_1
 62
    39
  6
CONTINUOUS
 10
13.017108
 20
-10.691990
  0
VERTEX
  8
LAYER_1
 62
    39
  6
CONTINUOUS
 10
13.082989
 20
-10.700746
  0
VERTEX
  8
LAYER_1
 62
    39
  6
CONTINUOUS
 10
13.108118
 20
-10.713024
  0
VERTEX
  8
LAYER_1
 62
    39
  6
CONTINUOUS
 10
13.108118
 20
-10.785693
  0
VERTEX
  8
LAYER_1
 62
    39
  6
CONTINUOUS
 10
13.082989
 20
-10.797970
  0
VERTEX
  8
LAYER_1
 62
    39
  6
CONTINUOUS
 10
13.017108
 20
-10.806727
  0
VERTEX
  8
LAYER_1
 62
    39
  6
CONTINUOUS
 10
12.924740
 20
-10.810067
  0
VERTEX
  8
LAYER_1
 62
    39
  6
CONTINUOUS
 10
8.455232
 20
-10.810067
  0
VERTEX
  8
LAYER_1
 62
    39
  6
CONTINUOUS
 10
8.362864
 20
-10.806727
  0
VERTEX
  8
LAYER_1
 62
    39
  6
CONTINUOUS
 10
8.296984
 20
-10.797970
  0
VERTEX
  8
LAYER_1
 62
    39
  6
CONTINUOUS
 10
8.271854
 20
-10.785693
  0
VERTEX
  8
LAYER_1
 62
    39
  6
CONTINUOUS
 10
8.271854
 20
-10.713024
  0
VERTEX
  8
LAYER_1
 62
    39
  6
CONTINUOUS
 10
8.296984
 20
-10.700746
  0
VERTEX
  8
LAYER_1
 62
    39
  6
CONTINUOUS
 10
8.362864
 20
-10.691990
  0
SEQEND
  8
0
  0
POLYLINE
  8
LAYER_1
 62
    39
  6
CONTINUOUS
 66
     1
 40
0.006945
 41
0.006945
 70
     1
  0
VERTEX
  8
LAYER_1
 62
    39
  6
CONTINUOUS
 10
2.452524
 20
-12.696657
  0
VERTEX
  8
LAYER_1
 62
    39
  6
CONTINUOUS
 10
2.504917
 20
-12.696657
  0
VERTEX
  8
LAYER_1
 62
    39
  6
CONTINUOUS
 10
2.504917
 20
-10.036059
  0
VERTEX
  8
LAYER_1
 62
    39
  6
CONTINUOUS
 10
2.452524
 20
-10.036059
  0
SEQEND
  8
0
  0
POLYLINE
  8
LAYER_1
 62
    39
  6
CONTINUOUS
 66
     1
 40
0.006945
 41
0.006945
 70
     1
  0
VERTEX
  8
LAYER_1
 62
    39
  6
CONTINUOUS
 10
7.596870
 20
-12.696657
  0
VERTEX
  8
LAYER_1
 62
    39
  6
CONTINUOUS
 10
7.649264
 20
-12.696657
  0
VERTEX
  8
LAYER_1
 62
    39
  6
CONTINUOUS
 10
7.649264
 20
-9.974933
  0
VERTEX
  8
LAYER_1
 62
    39
  6
CONTINUOUS
 10
7.596870
 20
-9.974933
  0
SEQEND
  8
0
  0
POLYLINE
  8
LAYER_1
 62
    39
  6
CONTINUOUS
 66
     1
 40
0.006945
 41
0.006945
 70
     1
  0
VERTEX
  8
LAYER_1
 62
    39
  6
CONTINUOUS
 10
-14.538291
 20
-12.745972
  0
VERTEX
  8
LAYER_1
 62
    39
  6
CONTINUOUS
 10
-14.538291
 20
-12.693579
  0
VERTEX
  8
LAYER_1
 62
    39
  6
CONTINUOUS
 10
12.058114
 20
-12.693579
  0
VERTEX
  8
LAYER_1
 62
    39
  6
CONTINUOUS
 10
12.058114
 20
-12.745972
  0
SEQEND
  8
0
  0
POLYLINE
  8
LAYER_1
 62
    39
  6
CONTINUOUS
 66
     1
 40
0.006945
 41
0.006945
  0
VERTEX
  8
LAYER_1
 62
    39
  6
CONTINUOUS
 10
-10.921980
 20
-10.183756
  0
VERTEX
  8
LAYER_1
 62
    39
  6
CONTINUOUS
 10
-10.922059
 20
-10.242346
  0
VERTEX
  8
LAYER_1
 62
    39
  6
CONTINUOUS
 10
-14.542079
 20
-10.284488
  0
VERTEX
  8
LAYER_1
 62
    39
  6
CONTINUOUS
 10
-14.542657
 20
-10.232098
  0
VERTEX
  8
LAYER_1
 62
    39
  6
CONTINUOUS
 10
-10.922008
 20
-10.189949
  0
SEQEND
  8
0
  0
POLYLINE
  8
LAYER_1
 62
    39
  6
CONTINUOUS
 66
     1
 40
0.006945
 41
0.006945
  0
VERTEX
  8
LAYER_1
 62
    39
  6
CONTINUOUS
 10
7.652256
 20
-10.027827
  0
VERTEX
  8
LAYER_1
 62
    39
  6
CONTINUOUS
 10
7.647902
 20
-9.973752
  0
VERTEX
  8
LAYER_1
 62
    39
  6
CONTINUOUS
 10
12.091921
 20
-9.922012
  0
VERTEX
  8
LAYER_1
 62
    39
  6
CONTINUOUS
 10
12.092500
 20
-9.974402
  0
VERTEX
  8
LAYER_1
 62
    39
  6
CONTINUOUS
 10
7.647902
 20
-10.026150
  0
SEQEND
  8
0
  0
POLYLINE
  8
LAYER_1
 62
    39
  6
CONTINUOUS
 66
     1
 40
0.006945
 41
0.006945
 70
     1
  0
VERTEX
  8
LAYER_1
 62
    39
  6
CONTINUOUS
 10
-14.487299
 20
-12.695953
  0
VERTEX
  8
LAYER_1
 62
    39
  6
CONTINUOUS
 10
-14.539693
 20
-12.695953
  0
VERTEX
  8
LAYER_1
 62
    39
  6
CONTINUOUS
 10
-14.539693
 20
-10.277815
  0
VERTEX
  8
LAYER_1
 62
    39
  6
CONTINUOUS
 10
-14.487299
 20
-10.277815
  0
SEQEND
  8
0
  0
POLYLINE
  8
LAYER_1
 62
    39
  6
CONTINUOUS
 66
     1
 40
0.006945
 41
0.006945
 70
     1
  0
VERTEX
  8
LAYER_1
 62
    39
  6
CONTINUOUS
 10
-2.674354
 20
-12.699894
  0
VERTEX
  8
LAYER_1
 62
    39
  6
CONTINUOUS
 10
-2.621961
 20
-12.699894
  0
VERTEX
  8
LAYER_1
 62
    39
  6
CONTINUOUS
 10
-2.621961
 20
-10.088453
  0
VERTEX
  8
LAYER_1
 62
    39
  6
CONTINUOUS
 10
-2.674354
 20
-10.088453
  0
SEQEND
  8
0
  0
POLYLINE
  8
LAYER_1
 62
    39
  6
CONTINUOUS
 66
     1
 40
0.006945
 41
0.006945
 70
     1
  0
VERTEX
  8
LAYER_1
 62
    39
  6
CONTINUOUS
 10
-10.973260
 20
-12.685665
  0
VERTEX
  8
LAYER_1
 62
    39
  6
CONTINUOUS
 10
-10.920866
 20
-12.685665
  0
VERTEX
  8
LAYER_1
 62
    39
  6
CONTINUOUS
 10
-10.920866
 20
-10.240382
  0
VERTEX
  8
LAYER_1
 62
    39
  6
CONTINUOUS
 10
-10.973260
 20
-10.240382
  0
SEQEND
  8
0
  0
POLYLINE
  8
LAYER_1
 62
    39
  6
CONTINUOUS
 66
     1
 40
0.006945
 41
0.006945
 70
     1
  0
VERTEX
  8
LAYER_1
 62
    39
  6
CONTINUOUS
 10
-14.538291
 20
-12.692969
  0
VERTEX
  8
LAYER_1
 62
    39
  6
CONTINUOUS
 10
12.060244
 20
-12.692969
  0
VERTEX
  8
LAYER_1
 62
    39
  6
CONTINUOUS
 10
12.060244
 20
-12.570717
  0
VERTEX
  8
LAYER_1
 62
    39
  6
CONTINUOUS
 10
-14.538291
 20
-12.570717
  0
SEQEND
  8
0
  0
POLYLINE
  8
LAYER_1
 62
    39
  6
CONTINUOUS
 66
     1
 40
0.006945
 41
0.006945
 70
     1
  0
VERTEX
  8
LAYER_1
 62
    39
  6
CONTINUOUS
 10
3.057260
 20
-10.592177
  0
VERTEX
  8
LAYER_1
 62
    39
  6
CONTINUOUS
 10
7.065378
 20
-10.531051
  0
VERTEX
  8
LAYER_1
 62
    39
  6
CONTINUOUS
 10
7.221452
 20
-10.588806
  0
VERTEX
  8
LAYER_1
 62
    39
  6
CONTINUOUS
 10
7.330189
 20
-10.731761
  0
VERTEX
  8
LAYER_1
 62
    39
  6
CONTINUOUS
 10
7.371008
 20
-10.906539
  0
VERTEX
  8
LAYER_1
 62
    39
  6
CONTINUOUS
 10
7.371008
 20
-11.867091
  0
VERTEX
  8
LAYER_1
 62
    39
  6
CONTINUOUS
 10
7.327929
 20
-12.025437
  0
VERTEX
  8
LAYER_1
 62
    39
  6
CONTINUOUS
 10
7.214992
 20
-12.138374
  0
VERTEX
  8
LAYER_1
 62
    39
  6
CONTINUOUS
 10
7.056646
 20
-12.181453
  0
VERTEX
  8
LAYER_1
 62
    39
  6
CONTINUOUS
 10
3.057260
 20
-12.181453
  0
VERTEX
  8
LAYER_1
 62
    39
  6
CONTINUOUS
 10
2.898913
 20
-12.138374
  0
VERTEX
  8
LAYER_1
 62
    39
  6
CONTINUOUS
 10
2.785976
 20
-12.025437
  0
VERTEX
  8
LAYER_1
 62
    39
  6
CONTINUOUS
 10
2.742898
 20
-11.867091
  0
VERTEX
  8
LAYER_1
 62
    39
  6
CONTINUOUS
 10
2.742898
 20
-10.906539
  0
VERTEX
  8
LAYER_1
 62
    39
  6
CONTINUOUS
 10
2.785981
 20
-10.748779
  0
VERTEX
  8
LAYER_1
 62
    39
  6
CONTINUOUS
 10
2.898922
 20
-10.636428
  0
SEQEND
  8
0
  0
POLYLINE
  8
LAYER_1
 62
    39
  6
CONTINUOUS
 66
     1
 40
0.006945
 41
0.006945
 70
     1
  0
VERTEX
  8
LAYER_1
 62
    39
  6
CONTINUOUS
 10
8.156913
 20
-11.220902
  0
VERTEX
  8
LAYER_1
 62
    39
  6
CONTINUOUS
 10
10.601953
 20
-11.220902
  0
VERTEX
  8
LAYER_1
 62
    39
  6
CONTINUOUS
 10
10.742705
 20
-11.259194
  0
VERTEX
  8
LAYER_1
 62
    39
  6
CONTINUOUS
 10
10.843093
 20
-11.359583
  0
VERTEX
  8
LAYER_1
 62
    39
  6
CONTINUOUS
 10
10.881386
 20
-11.500335
  0
VERTEX
  8
LAYER_1
 62
    39
  6
CONTINUOUS
 10
10.881386
 20
-11.902020
  0
VERTEX
  8
LAYER_1
 62
    39
  6
CONTINUOUS
 10
10.843093
 20
-12.042772
  0
VERTEX
  8
LAYER_1
 62
    39
  6
CONTINUOUS
 10
10.742705
 20
-12.143160
  0
VERTEX
  8
LAYER_1
 62
    39
  6
CONTINUOUS
 10
10.601953
 20
-12.181453
  0
VERTEX
  8
LAYER_1
 62
    39
  6
CONTINUOUS
 10
8.156913
 20
-12.181453
  0
VERTEX
  8
LAYER_1
 62
    39
  6
CONTINUOUS
 10
8.016162
 20
-12.143160
  0
VERTEX
  8
LAYER_1
 62
    39
  6
CONTINUOUS
 10
7.915773
 20
-12.042772
  0
VERTEX
  8
LAYER_1
 62
    39
  6
CONTINUOUS
 10
7.877480
 20
-11.902020
  0
VERTEX
  8
LAYER_1
 62
    39
  6
CONTINUOUS
 10
7.877480
 20
-11.500335
  0
VERTEX
  8
LAYER_1
 62
    39
  6
CONTINUOUS
 10
7.915773
 20
-11.359583
  0
VERTEX
  8
LAYER_1
 62
    39
  6
CONTINUOUS
 10
8.016162
 20
-11.259194
  0
SEQEND
  8
0
  0
POLYLINE
  8
LAYER_1
 62
    39
  6
CONTINUOUS
 66
     1
 40
0.006945
 41
0.006945
 70
     1
  0
VERTEX
  8
LAYER_1
 62
    39
  6
CONTINUOUS
 10
-2.155339
 20
-10.644571
  0
VERTEX
  8
LAYER_1
 62
    39
  6
CONTINUOUS
 10
1.956417
 20
-10.592177
  0
VERTEX
  8
LAYER_1
 62
    39
  6
CONTINUOUS
 10
2.090921
 20
-10.648023
  0
VERTEX
  8
LAYER_1
 62
    39
  6
CONTINUOUS
 10
2.189449
 20
-10.786596
  0
VERTEX
  8
LAYER_1
 62
    39
  6
CONTINUOUS
 10
2.227693
 20
-10.958933
  0
VERTEX
  8
LAYER_1
 62
    39
  6
CONTINUOUS
 10
2.227693
 20
-11.867091
  0
VERTEX
  8
LAYER_1
 62
    39
  6
CONTINUOUS
 10
2.191715
 20
-12.025437
  0
VERTEX
  8
LAYER_1
 62
    39
  6
CONTINUOUS
 10
2.097395
 20
-12.138374
  0
VERTEX
  8
LAYER_1
 62
    39
  6
CONTINUOUS
 10
1.965150
 20
-12.181453
  0
VERTEX
  8
LAYER_1
 62
    39
  6
CONTINUOUS
 10
-2.155339
 20
-12.181453
  0
VERTEX
  8
LAYER_1
 62
    39
  6
CONTINUOUS
 10
-2.287584
 20
-12.138374
  0
VERTEX
  8
LAYER_1
 62
    39
  6
CONTINUOUS
 10
-2.381904
 20
-12.025437
  0
VERTEX
  8
LAYER_1
 62
    39
  6
CONTINUOUS
 10
-2.417882
 20
-11.867091
  0
VERTEX
  8
LAYER_1
 62
    39
  6
CONTINUOUS
 10
-2.417882
 20
-10.958933
  0
VERTEX
  8
LAYER_1
 62
    39
  6
CONTINUOUS
 10
-2.381902
 20
-10.800995
  0
VERTEX
  8
LAYER_1
 62
    39
  6
CONTINUOUS
 10
-2.287579
 20
-10.688467
  0
SEQEND
  8
0
  0
POLYLINE
  8
LAYER_1
 62
    39
  6
CONTINUOUS
 66
     1
 40
0.006945
 41
0.006945
 70
     1
  0
VERTEX
  8
LAYER_1
 62
    39
  6
CONTINUOUS
 10
-10.891937
 20
-11.843823
  0
VERTEX
  8
LAYER_1
 62
    39
  6
CONTINUOUS
 10
-10.886165
 20
-11.875449
  0
VERTEX
  8
LAYER_1
 62
    39
  6
CONTINUOUS
 10
-10.858693
 20
-11.915913
  0
VERTEX
  8
LAYER_1
 62
    39
  6
CONTINUOUS
 10
-10.789760
 20
-11.962650
  0
VERTEX
  8
LAYER_1
 62
    39
  6
CONTINUOUS
 10
-10.683106
 20
-12.023276
  0
VERTEX
  8
LAYER_1
 62
    39
  6
CONTINUOUS
 10
-10.557598
 20
-12.072091
  0
VERTEX
  8
LAYER_1
 62
    39
  6
CONTINUOUS
 10
-10.409594
 20
-12.127740
  0
VERTEX
  8
LAYER_1
 62
    39
  6
CONTINUOUS
 10
-10.235571
 20
-12.175110
  0
VERTEX
  8
LAYER_1
 62
    39
  6
CONTINUOUS
 10
-10.046650
 20
-12.226016
  0
VERTEX
  8
LAYER_1
 62
    39
  6
CONTINUOUS
 10
-9.891823
 20
-12.251220
  0
VERTEX
  8
LAYER_1
 62
    39
  6
CONTINUOUS
 10
-9.680965
 20
-12.282709
  0
VERTEX
  8
LAYER_1
 62
    39
  6
CONTINUOUS
 10
-9.507610
 20
-12.299858
  0
VERTEX
  8
LAYER_1
 62
    39
  6
CONTINUOUS
 10
-9.300839
 20
-12.319984
  0
VERTEX
  8
LAYER_1
 62
    39
  6
CONTINUOUS
 10
-9.127701
 20
-12.329862
  0
VERTEX
  8
LAYER_1
 62
    39
  6
CONTINUOUS
 10
-8.932406
 20
-12.335323
  0
VERTEX
  8
LAYER_1
 62
    39
  6
CONTINUOUS
 10
-8.688476
 20
-12.335587
  0
VERTEX
  8
LAYER_1
 62
    39
  6
CONTINUOUS
 10
-8.369669
 20
-12.337382
  0
VERTEX
  8
LAYER_1
 62
    39
  6
CONTINUOUS
 10
-8.099496
 20
-12.329591
  0
VERTEX
  8
LAYER_1
 62
    39
  6
CONTINUOUS
 10
-7.773307
 20
-12.319685
  0
VERTEX
  8
LAYER_1
 62
    39
  6
CONTINUOUS
 10
-7.387126
 20
-12.308224
  0
VERTEX
  8
LAYER_1
 62
    39
  6
CONTINUOUS
 10
-6.967307
 20
-12.284508
  0
VERTEX
  8
LAYER_1
 62
    39
  6
CONTINUOUS
 10
-6.604063
 20
-12.259165
  0
VERTEX
  8
LAYER_1
 62
    39
  6
CONTINUOUS
 10
-6.240937
 20
-12.236681
  0
VERTEX
  8
LAYER_1
 62
    39
  6
CONTINUOUS
 10
-5.814177
 20
-12.201945
  0
VERTEX
  8
LAYER_1
 62
    39
  6
CONTINUOUS
 10
-5.383906
 20
-12.166209
  0
VERTEX
  8
LAYER_1
 62
    39
  6
CONTINUOUS
 10
-4.979650
 20
-12.124193
  0
VERTEX
  8
LAYER_1
 62
    39
  6
CONTINUOUS
 10
-2.671429
 20
-11.883067
  0
VERTEX
  8
LAYER_1
 62
    39
  6
CONTINUOUS
 10
-2.671118
 20
-11.838071
  0
VERTEX
  8
LAYER_1
 62
    39
  6
CONTINUOUS
 10
-2.671406
 20
-11.799760
  0
VERTEX
  8
LAYER_1
 62
    39
  6
CONTINUOUS
 10
-4.979626
 20
-11.558630
  0
VERTEX
  8
LAYER_1
 62
    39
  6
CONTINUOUS
 10
-5.383882
 20
-11.516618
  0
VERTEX
  8
LAYER_1
 62
    39
  6
CONTINUOUS
 10
-5.814154
 20
-11.480878
  0
VERTEX
  8
LAYER_1
 62
    39
  6
CONTINUOUS
 10
-6.240913
 20
-11.446146
  0
VERTEX
  8
LAYER_1
 62
    39
  6
CONTINUOUS
 10
-6.604039
 20
-11.423661
  0
VERTEX
  8
LAYER_1
 62
    39
  6
CONTINUOUS
 10
-6.967283
 20
-11.398319
  0
VERTEX
  8
LAYER_1
 62
    39
  6
CONTINUOUS
 10
-7.387102
 20
-11.374598
  0
VERTEX
  8
LAYER_1
 62
    39
  6
CONTINUOUS
 10
-7.773280
 20
-11.363142
  0
VERTEX
  8
LAYER_1
 62
    39
  6
CONTINUOUS
 10
-8.099472
 20
-11.353236
  0
VERTEX
  8
LAYER_1
 62
    39
  6
CONTINUOUS
 10
-8.369646
 20
-11.345445
  0
VERTEX
  8
LAYER_1
 62
    39
  6
CONTINUOUS
 10
-8.688453
 20
-11.347236
  0
VERTEX
  8
LAYER_1
 62
    39
  6
CONTINUOUS
 10
-8.932382
 20
-11.347500
  0
VERTEX
  8
LAYER_1
 62
    39
  6
CONTINUOUS
 10
-9.127677
 20
-11.352965
  0
VERTEX
  8
LAYER_1
 62
    39
  6
CONTINUOUS
 10
-9.300815
 20
-11.362839
  0
VERTEX
  8
LAYER_1
 62
    39
  6
CONTINUOUS
 10
-9.507587
 20
-11.382969
  0
VERTEX
  8
LAYER_1
 62
    39
  6
CONTINUOUS
 10
-9.680941
 20
-11.400118
  0
VERTEX
  8
LAYER_1
 62
    39
  6
CONTINUOUS
 10
-9.891799
 20
-11.431606
  0
VERTEX
  8
LAYER_1
 62
    39
  6
CONTINUOUS
 10
-10.046626
 20
-11.456811
  0
VERTEX
  8
LAYER_1
 62
    39
  6
CONTINUOUS
 10
-10.235547
 20
-11.507713
  0
VERTEX
  8
LAYER_1
 62
    39
  6
CONTINUOUS
 10
-10.409571
 20
-11.555087
  0
VERTEX
  8
LAYER_1
 62
    39
  6
CONTINUOUS
 10
-10.557575
 20
-11.610736
  0
VERTEX
  8
LAYER_1
 62
    39
  6
CONTINUOUS
 10
-10.683083
 20
-11.659551
  0
VERTEX
  8
LAYER_1
 62
    39
  6
CONTINUOUS
 10
-10.789736
 20
-11.720177
  0
VERTEX
  8
LAYER_1
 62
    39
  6
CONTINUOUS
 10
-10.858669
 20
-11.766913
  0
VERTEX
  8
LAYER_1
 62
    39
  6
CONTINUOUS
 10
-10.886138
 20
-11.807378
  0
SEQEND
  8
0
  0
POLYLINE
  8
LAYER_1
 62
    39
  6
CONTINUOUS
 66
     1
 40
0.006945
 41
0.006945
  0
VERTEX
  8
LAYER_1
 62
    39
  6
CONTINUOUS
 10
-4.503157
 20
-10.104492
  0
VERTEX
  8
LAYER_1
 62
    39
  6
CONTINUOUS
 10
-4.083913
 20
-8.811823
  0
SEQEND
  8
0
  0
TEXT
  8
LAYER_1
 62
    39
 10
-12.261681
 20
-8.195339
 40
0.306980
  1
MOTOR,WING,AND TAIL ALL MOUNTED AT O DEGREES
 41
1.000000
  7
SN0
 71
     0
 72
     5
 11
-4.818473
 21
-8.195339
  0
TEXT
  8
LAYER_1
 62
    39
 10
-12.261681
 20
-8.527240
 40
0.306980
  1
NO SIDE THRUST
 41
1.000000
  7
SN0
 71
     0
 72
     5
 11
-9.893388
 21
-8.527240
  0
TEXT
  8
LAYER_1
 62
    39
 10
-16.209213
 20
-9.065413
 40
0.306980
  1
GWS 370A MOTOR
 41
1.000000
  7
SN0
 71
     0
 72
     5
 11
-13.343785
 21
-9.065413
  0
TEXT
  8
LAYER_1
 62
    39
 10
-16.209213
 20
-9.464969
 40
0.306980
  1
APC 8X6 SLO-FLY PROP
 41
1.000000
  7
SN0
 71
     0
 72
     5
 11
-12.494513
 21
-9.464969
  0
TEXT
  8
LAYER_1
 62
    39
 10
-17.660024
 20
11.638602
 40
0.481041
  1
NOTE:THESE DRAWINGS ARE THE SOLE INTELLECTUAL
 41
1.000000
  7
SN1
 71
     0
 72
     5
 11
-5.853080
 21
11.638602
  0
TEXT
  8
LAYER_1
 62
    39
 10
-17.660024
 20
11.010846
 40
0.481041
  1
PROPERTY OF DAVE BLUM. THEY MAY NOT BE COPIED,
 41
1.000000
  7
SN1
 71
     0
 72
     5
 11
-5.590703
 21
11.010846
  0
TEXT
  8
LAYER_1
 62
    39
 10
-17.660024
 20
10.383094
 40
0.481041
  1
DISTRIBUTED OR REPRODUCED IN ANY WAY WITHOUT
 41
1.000000
  7
SN1
 71
     0
 72
     5
 11
-6.115456
 21
10.383094
  0
TEXT
  8
LAYER_1
 62
    39
 10
-17.660024
 20
9.755339
 40
0.481041
  1
WRITTEN PERMISSION.
 41
1.000000
  7
SN1
 71
     0
 72
     5
 11
-12.674869
 21
9.755339
  0
TEXT
  8
LAYER_1
 62
    39
 10
-17.667969
 20
13.374591
 40
0.477876
  1
DESIGNED AND DRAWN BY DAVE BLUM.
 41
1.000000
  7
SN0
 71
     0
 72
     5
 11
-9.271919
 21
13.374591
  0
TEXT
  8
LAYER_1
 62
    39
 10
-17.667969
 20
12.750465
 40
0.477876
  1
PROTOTYPE WEIGHT 11.7 OZ WITH 8 720NIMH PACK.
 41
1.000000
  7
SN0
 71
     0
 72
     5
 11
-4.048555
 21
12.750465
  0
POLYLINE
  8
LAYER_1
 62
    39
  6
CONTINUOUS
 66
     1
 40
0.006945
 41
0.006945
 70
     1
  0
VERTEX
  8
LAYER_1
 62
    39
  6
CONTINUOUS
 10
17.295004
 20
-12.368937
  0
VERTEX
  8
LAYER_1
 62
    39
  6
CONTINUOUS
 10
18.294850
 20
-12.368937
  0
VERTEX
  8
LAYER_1
 62
    39
  6
CONTINUOUS
 10
18.294850
 20
-12.696398
  0
VERTEX
  8
LAYER_1
 62
    39
  6
CONTINUOUS
 10
17.295004
 20
-12.696398
  0
SEQEND
  8
0
  0
POLYLINE
  8
LAYER_1
 62
    39
  6
CONTINUOUS
 66
     1
 40
0.006945
 41
0.006945
 70
     1
  0
VERTEX
  8
LAYER_1
 62
    39
  6
CONTINUOUS
 10
18.294850
 20
-12.368937
  0
VERTEX
  8
LAYER_1
 62
    39
  6
CONTINUOUS
 10
19.294697
 20
-12.368937
  0
VERTEX
  8
LAYER_1
 62
    39
  6
CONTINUOUS
 10
19.294697
 20
-12.696398
  0
VERTEX
  8
LAYER_1
 62
    39
  6
CONTINUOUS
 10
18.294850
 20
-12.696398
  0
SEQEND
  8
0
  0
POLYLINE
  8
LAYER_1
 62
    39
  6
CONTINUOUS
 66
     1
 40
0.006945
 41
0.006945
 70
     1
  0
VERTEX
  8
LAYER_1
 62
    39
  6
CONTINUOUS
 10
19.294697
 20
-12.368937
  0
VERTEX
  8
LAYER_1
 62
    39
  6
CONTINUOUS
 10
20.294543
 20
-12.368937
  0
VERTEX
  8
LAYER_1
 62
    39
  6
CONTINUOUS
 10
20.294543
 20
-12.696398
  0
VERTEX
  8
LAYER_1
 62
    39
  6
CONTINUOUS
 10
19.294697
 20
-12.696398
  0
SEQEND
  8
0
  0
POLYLINE
  8
LAYER_1
 62
    39
  6
CONTINUOUS
 66
     1
 40
0.006945
 41
0.006945
 70
     1
  0
VERTEX
  8
LAYER_1
 62
    39
  6
CONTINUOUS
 10
20.294543
 20
-12.368937
  0
VERTEX
  8
LAYER_1
 62
    39
  6
CONTINUOUS
 10
21.294390
 20
-12.368937
  0
VERTEX
  8
LAYER_1
 62
    39
  6
CONTINUOUS
 10
21.294390
 20
-12.696398
  0
VERTEX
  8
LAYER_1
 62
    39
  6
CONTINUOUS
 10
20.294543
 20
-12.696398
  0
SEQEND
  8
0
  0
POLYLINE
  8
LAYER_1
 62
    39
  6
CONTINUOUS
 66
     1
 40
0.006945
 41
0.006945
 70
     1
  0
VERTEX
  8
LAYER_1
 62
    39
  6
CONTINUOUS
 10
21.294390
 20
-12.368937
  0
VERTEX
  8
LAYER_1
 62
    39
  6
CONTINUOUS
 10
22.294236
 20
-12.368937
  0
VERTEX
  8
LAYER_1
 62
    39
  6
CONTINUOUS
 10
22.294236
 20
-12.696398
  0
VERTEX
  8
LAYER_1
 62
    39
  6
CONTINUOUS
 10
21.294390
 20
-12.696398
  0
SEQEND
  8
0
  0
POLYLINE
  8
LAYER_1
 62
    39
  6
CONTINUOUS
 66
     1
 40
0.006945
 41
0.006945
 70
     1
  0
VERTEX
  8
LAYER_1
 62
    39
  6
CONTINUOUS
 10
22.294236
 20
-12.368937
  0
VERTEX
  8
LAYER_1
 62
    39
  6
CONTINUOUS
 10
23.294083
 20
-12.368937
  0
VERTEX
  8
LAYER_1
 62
    39
  6
CONTINUOUS
 10
23.294083
 20
-12.696398
  0
VERTEX
  8
LAYER_1
 62
    39
  6
CONTINUOUS
 10
22.294236
 20
-12.696398
  0
SEQEND
  8
0
  0
POLYLINE
  8
LAYER_1
 62
    39
  6
CONTINUOUS
 66
     1
 40
0.006945
 41
0.006945
 70
     1
  0
VERTEX
  8
LAYER_1
 62
    39
  6
CONTINUOUS
 10
23.294083
 20
-12.368937
  0
VERTEX
  8
LAYER_1
 62
    39
  6
CONTINUOUS
 10
24.293929
 20
-12.368937
  0
VERTEX
  8
LAYER_1
 62
    39
  6
CONTINUOUS
 10
24.293929
 20
-12.696398
  0
VERTEX
  8
LAYER_1
 62
    39
  6
CONTINUOUS
 10
23.294083
 20
-12.696398
  0
SEQEND
  8
0
  0
POLYLINE
  8
LAYER_1
 62
    39
  6
CONTINUOUS
 66
     1
 40
0.006945
 41
0.006945
 70
     1
  0
VERTEX
  8
LAYER_1
 62
    39
  6
CONTINUOUS
 10
24.293929
 20
-12.368937
  0
VERTEX
  8
LAYER_1
 62
    39
  6
CONTINUOUS
 10
25.293776
 20
-12.368937
  0
VERTEX
  8
LAYER_1
 62
    39
  6
CONTINUOUS
 10
25.293776
 20
-12.696398
  0
VERTEX
  8
LAYER_1
 62
    39
  6
CONTINUOUS
 10
24.293929
 20
-12.696398
  0
SEQEND
  8
0
  0
POLYLINE
  8
LAYER_1
 62
    39
  6
CONTINUOUS
 66
     1
 40
0.006945
 41
0.006945
 70
     1
  0
VERTEX
  8
LAYER_1
 62
    39
  6
CONTINUOUS
 10
25.293776
 20
-12.368937
  0
VERTEX
  8
LAYER_1
 62
    39
  6
CONTINUOUS
 10
26.293622
 20
-12.368937
  0
VERTEX
  8
LAYER_1
 62
    39
  6
CONTINUOUS
 10
26.293622
 20
-12.696398
  0
VERTEX
  8
LAYER_1
 62
    39
  6
CONTINUOUS
 10
25.293776
 20
-12.696398
  0
SEQEND
  8
0
  0
POLYLINE
  8
LAYER_1
 62
    39
  6
CONTINUOUS
 66
     1
 40
0.006945
 41
0.006945
 70
     1
  0
VERTEX
  8
LAYER_1
 62
    39
  6
CONTINUOUS
 10
26.293622
 20
-12.368937
  0
VERTEX
  8
LAYER_1
 62
    39
  6
CONTINUOUS
 10
27.293469
 20
-12.368937
  0
VERTEX
  8
LAYER_1
 62
    39
  6
CONTINUOUS
 10
27.293469
 20
-12.696398
  0
VERTEX
  8
LAYER_1
 62
    39
  6
CONTINUOUS
 10
26.293622
 20
-12.696398
  0
SEQEND
  8
0
  0
POLYLINE
  8
LAYER_1
 62
    39
  6
CONTINUOUS
 66
     1
 40
0.006945
 41
0.006945
 70
     1
  0
VERTEX
  8
LAYER_1
 62
    39
  6
CONTINUOUS
 10
27.293469
 20
-12.368937
  0
VERTEX
  8
LAYER_1
 62
    39
  6
CONTINUOUS
 10
28.293315
 20
-12.368937
  0
VERTEX
  8
LAYER_1
 62
    39
  6
CONTINUOUS
 10
28.293315
 20
-12.696398
  0
VERTEX
  8
LAYER_1
 62
    39
  6
CONTINUOUS
 10
27.293469
 20
-12.696398
  0
SEQEND
  8
0
  0
POLYLINE
  8
LAYER_1
 62
    39
  6
CONTINUOUS
 66
     1
 40
0.006945
 41
0.006945
 70
     1
  0
VERTEX
  8
LAYER_1
 62
    39
  6
CONTINUOUS
 10
28.293315
 20
-12.368937
  0
VERTEX
  8
LAYER_1
 62
    39
  6
CONTINUOUS
 10
29.293161
 20
-12.368937
  0
VERTEX
  8
LAYER_1
 62
    39
  6
CONTINUOUS
 10
29.293161
 20
-12.696398
  0
VERTEX
  8
LAYER_1
 62
    39
  6
CONTINUOUS
 10
28.293315
 20
-12.696398
  0
SEQEND
  8
0
  0
SOLID
  8
LAYER_1
 62
    39
 10
17.295004
 20
-12.696394
 11
18.294846
 21
-12.696394
 12
17.295004
 22
-12.377669
 13
18.294846
 23
-12.377669
  0
POLYLINE
  8
LAYER_1
 62
    39
  6
CONTINUOUS
 66
     1
 40
0.006945
 41
0.006945
 70
     1
  0
VERTEX
  8
LAYER_1
 62
    39
  6
CONTINUOUS
 10
17.295004
 20
-12.696394
  0
VERTEX
  8
LAYER_1
 62
    39
  6
CONTINUOUS
 10
18.294846
 20
-12.696394
  0
VERTEX
  8
LAYER_1
 62
    39
  6
CONTINUOUS
 10
18.294846
 20
-12.377669
  0
VERTEX
  8
LAYER_1
 62
    39
  6
CONTINUOUS
 10
17.295004
 20
-12.377669
  0
SEQEND
  8
0
  0
SOLID
  8
LAYER_1
 62
    39
 10
21.299886
 20
-12.690898
 11
22.299728
 21
-12.690898
 12
21.299886
 22
-12.372173
 13
22.299728
 23
-12.372173
  0
POLYLINE
  8
LAYER_1
 62
    39
  6
CONTINUOUS
 66
     1
 40
0.006945
 41
0.006945
 70
     1
  0
VERTEX
  8
LAYER_1
 62
    39
  6
CONTINUOUS
 10
21.299886
 20
-12.690898
  0
VERTEX
  8
LAYER_1
 62
    39
  6
CONTINUOUS
 10
22.299728
 20
-12.690898
  0
VERTEX
  8
LAYER_1
 62
    39
  6
CONTINUOUS
 10
22.299728
 20
-12.372173
  0
VERTEX
  8
LAYER_1
 62
    39
  6
CONTINUOUS
 10
21.299886
 20
-12.372173
  0
SEQEND
  8
0
  0
SOLID
  8
LAYER_1
 62
    39
 10
23.296343
 20
-12.694134
 11
24.296185
 21
-12.694134
 12
23.296343
 22
-12.375409
 13
24.296185
 23
-12.375409
  0
POLYLINE
  8
LAYER_1
 62
    39
  6
CONTINUOUS
 66
     1
 40
0.006945
 41
0.006945
 70
     1
  0
VERTEX
  8
LAYER_1
 62
    39
  6
CONTINUOUS
 10
23.296343
 20
-12.694134
  0
VERTEX
  8
LAYER_1
 62
    39
  6
CONTINUOUS
 10
24.296185
 20
-12.694134
  0
VERTEX
  8
LAYER_1
 62
    39
  6
CONTINUOUS
 10
24.296185
 20
-12.375409
  0
VERTEX
  8
LAYER_1
 62
    39
  6
CONTINUOUS
 10
23.296343
 20
-12.375409
  0
SEQEND
  8
0
  0
SOLID
  8
LAYER_1
 62
    39
 10
25.292799
 20
-12.688638
 11
26.292642
 21
-12.688638
 12
25.292799
 22
-12.369913
 13
26.292642
 23
-12.369913
  0
POLYLINE
  8
LAYER_1
 62
    39
  6
CONTINUOUS
 66
     1
 40
0.006945
 41
0.006945
 70
     1
  0
VERTEX
  8
LAYER_1
 62
    39
  6
CONTINUOUS
 10
25.292799
 20
-12.688638
  0
VERTEX
  8
LAYER_1
 62
    39
  6
CONTINUOUS
 10
26.292642
 20
-12.688638
  0
VERTEX
  8
LAYER_1
 62
    39
  6
CONTINUOUS
 10
26.292642
 20
-12.369913
  0
VERTEX
  8
LAYER_1
 62
    39
  6
CONTINUOUS
 10
25.292799
 20
-12.369913
  0
SEQEND
  8
0
  0
SOLID
  8
LAYER_1
 62
    39
 10
27.289256
 20
-12.687508
 11
28.289098
 21
-12.687508
 12
27.289256
 22
-12.368783
 13
28.289098
 23
-12.368783
  0
POLYLINE
  8
LAYER_1
 62
    39
  6
CONTINUOUS
 66
     1
 40
0.006945
 41
0.006945
 70
     1
  0
VERTEX
  8
LAYER_1
 62
    39
  6
CONTINUOUS
 10
27.289256
 20
-12.687508
  0
VERTEX
  8
LAYER_1
 62
    39
  6
CONTINUOUS
 10
28.289098
 20
-12.687508
  0
VERTEX
  8
LAYER_1
 62
    39
  6
CONTINUOUS
 10
28.289098
 20
-12.368783
  0
VERTEX
  8
LAYER_1
 62
    39
  6
CONTINUOUS
 10
27.289256
 20
-12.368783
  0
SEQEND
  8
0
  0
SOLID
  8
LAYER_1
 62
    39
 10
19.296957
 20
-12.694134
 11
20.296799
 21
-12.694134
 12
19.296957
 22
-12.375409
 13
20.296799
 23
-12.375409
  0
POLYLINE
  8
LAYER_1
 62
    39
  6
CONTINUOUS
 66
     1
 40
0.006945
 41
0.006945
 70
     1
  0
VERTEX
  8
LAYER_1
 62
    39
  6
CONTINUOUS
 10
19.296957
 20
-12.694134
  0
VERTEX
  8
LAYER_1
 62
    39
  6
CONTINUOUS
 10
20.296799
 20
-12.694134
  0
VERTEX
  8
LAYER_1
 62
    39
  6
CONTINUOUS
 10
20.296799
 20
-12.375409
  0
VERTEX
  8
LAYER_1
 62
    39
  6
CONTINUOUS
 10
19.296957
 20
-12.375409
  0
SEQEND
  8
0
  0
TEXT
  8
LAYER_1
 62
    39
 10
21.103839
 20
-11.898728
 40
1.123484
  1
1 FOOT
 41
1.000000
  7
SN0
 71
     0
 72
     5
 11
25.401981
 21
-11.898728
  0
POLYLINE
  8
LAYER_1
 62
    39
  6
CONTINUOUS
 66
     1
 40
0.006945
 41
0.006945
 70
     1
  0
VERTEX
  8
LAYER_1
 62
    39
  6
CONTINUOUS
 10
-0.001776
 20
4.644677
  0
VERTEX
  8
LAYER_1
 62
    39
  6
CONTINUOUS
 10
-0.001776
 20
5.644524
  0
VERTEX
  8
LAYER_1
 62
    39
  6
CONTINUOUS
 10
0.325685
 20
5.644524
  0
VERTEX
  8
LAYER_1
 62
    39
  6
CONTINUOUS
 10
0.325685
 20
4.644677
  0
SEQEND
  8
0
  0
POLYLINE
  8
LAYER_1
 62
    39
  6
CONTINUOUS
 66
     1
 40
0.006945
 41
0.006945
 70
     1
  0
VERTEX
  8
LAYER_1
 62
    39
  6
CONTINUOUS
 10
-0.001776
 20
5.644524
  0
VERTEX
  8
LAYER_1
 62
    39
  6
CONTINUOUS
 10
-0.001776
 20
6.644370
  0
VERTEX
  8
LAYER_1
 62
    39
  6
CONTINUOUS
 10
0.325685
 20
6.644370
  0
VERTEX
  8
LAYER_1
 62
    39
  6
CONTINUOUS
 10
0.325685
 20
5.644524
  0
SEQEND
  8
0
  0
POLYLINE
  8
LAYER_1
 62
    39
  6
CONTINUOUS
 66
     1
 40
0.006945
 41
0.006945
 70
     1
  0
VERTEX
  8
LAYER_1
 62
    39
  6
CONTINUOUS
 10
-0.001776
 20
6.644370
  0
VERTEX
  8
LAYER_1
 62
    39
  6
CONTINUOUS
 10
-0.001776
 20
7.644217
  0
VERTEX
  8
LAYER_1
 62
    39
  6
CONTINUOUS
 10
0.325685
 20
7.644217
  0
VERTEX
  8
LAYER_1
 62
    39
  6
CONTINUOUS
 10
0.325685
 20
6.644370
  0
SEQEND
  8
0
  0
POLYLINE
  8
LAYER_1
 62
    39
  6
CONTINUOUS
 66
     1
 40
0.006945
 41
0.006945
 70
     1
  0
VERTEX
  8
LAYER_1
 62
    39
  6
CONTINUOUS
 10
-0.001776
 20
7.644217
  0
VERTEX
  8
LAYER_1
 62
    39
  6
CONTINUOUS
 10
-0.001776
 20
8.644063
  0
VERTEX
  8
LAYER_1
 62
    39
  6
CONTINUOUS
 10
0.325685
 20
8.644063
  0
VERTEX
  8
LAYER_1
 62
    39
  6
CONTINUOUS
 10
0.325685
 20
7.644217
  0
SEQEND
  8
0
  0
POLYLINE
  8
LAYER_1
 62
    39
  6
CONTINUOUS
 66
     1
 40
0.006945
 41
0.006945
 70
     1
  0
VERTEX
  8
LAYER_1
 62
    39
  6
CONTINUOUS
 10
-0.001776
 20
8.644063
  0
VERTEX
  8
LAYER_1
 62
    39
  6
CONTINUOUS
 10
-0.001776
 20
9.643909
  0
VERTEX
  8
LAYER_1
 62
    39
  6
CONTINUOUS
 10
0.325685
 20
9.643909
  0
VERTEX
  8
LAYER_1
 62
    39
  6
CONTINUOUS
 10
0.325685
 20
8.644063
  0
SEQEND
  8
0
  0
POLYLINE
  8
LAYER_1
 62
    39
  6
CONTINUOUS
 66
     1
 40
0.006945
 41
0.006945
 70
     1
  0
VERTEX
  8
LAYER_1
 62
    39
  6
CONTINUOUS
 10
-0.001776
 20
9.643909
  0
VERTEX
  8
LAYER_1
 62
    39
  6
CONTINUOUS
 10
-0.001776
 20
10.643756
  0
VERTEX
  8
LAYER_1
 62
    39
  6
CONTINUOUS
 10
0.325685
 20
10.643756
  0
VERTEX
  8
LAYER_1
 62
    39
  6
CONTINUOUS
 10
0.325685
 20
9.643909
  0
SEQEND
  8
0
  0
POLYLINE
  8
LAYER_1
 62
    39
  6
CONTINUOUS
 66
     1
 40
0.006945
 41
0.006945
 70
     1
  0
VERTEX
  8
LAYER_1
 62
    39
  6
CONTINUOUS
 10
-0.001776
 20
10.643756
  0
VERTEX
  8
LAYER_1
 62
    39
  6
CONTINUOUS
 10
-0.001776
 20
11.643602
  0
VERTEX
  8
LAYER_1
 62
    39
  6
CONTINUOUS
 10
0.325685
 20
11.643602
  0
VERTEX
  8
LAYER_1
 62
    39
  6
CONTINUOUS
 10
0.325685
 20
10.643756
  0
SEQEND
  8
0
  0
POLYLINE
  8
LAYER_1
 62
    39
  6
CONTINUOUS
 66
     1
 40
0.006945
 41
0.006945
 70
     1
  0
VERTEX
  8
LAYER_1
 62
    39
  6
CONTINUOUS
 10
-0.001776
 20
11.643602
  0
VERTEX
  8
LAYER_1
 62
    39
  6
CONTINUOUS
 10
-0.001776
 20
12.643449
  0
VERTEX
  8
LAYER_1
 62
    39
  6
CONTINUOUS
 10
0.325685
 20
12.643449
  0
VERTEX
  8
LAYER_1
 62
    39
  6
CONTINUOUS
 10
0.325685
 20
11.643602
  0
SEQEND
  8
0
  0
POLYLINE
  8
LAYER_1
 62
    39
  6
CONTINUOUS
 66
     1
 40
0.006945
 41
0.006945
 70
     1
  0
VERTEX
  8
LAYER_1
 62
    39
  6
CONTINUOUS
 10
-0.001776
 20
12.643449
  0
VERTEX
  8
LAYER_1
 62
    39
  6
CONTINUOUS
 10
-0.001776
 20
13.643295
  0
VERTEX
  8
LAYER_1
 62
    39
  6
CONTINUOUS
 10
0.325685
 20
13.643295
  0
VERTEX
  8
LAYER_1
 62
    39
  6
CONTINUOUS
 10
0.325685
 20
12.643449
  0
SEQEND
  8
0
  0
POLYLINE
  8
LAYER_1
 62
    39
  6
CONTINUOUS
 66
     1
 40
0.006945
 41
0.006945
 70
     1
  0
VERTEX
  8
LAYER_1
 62
    39
  6
CONTINUOUS
 10
-0.001776
 20
13.643295
  0
VERTEX
  8
LAYER_1
 62
    39
  6
CONTINUOUS
 10
-0.001776
 20
14.643142
  0
VERTEX
  8
LAYER_1
 62
    39
  6
CONTINUOUS
 10
0.325685
 20
14.643142
  0
VERTEX
  8
LAYER_1
 62
    39
  6
CONTINUOUS
 10
0.325685
 20
13.643295
  0
SEQEND
  8
0
  0
POLYLINE
  8
LAYER_1
 62
    39
  6
CONTINUOUS
 66
     1
 40
0.006945
 41
0.006945
 70
     1
  0
VERTEX
  8
LAYER_1
 62
    39
  6
CONTINUOUS
 10
-0.001776
 20
14.643142
  0
VERTEX
  8
LAYER_1
 62
    39
  6
CONTINUOUS
 10
-0.001776
 20
15.642988
  0
VERTEX
  8
LAYER_1
 62
    39
  6
CONTINUOUS
 10
0.325685
 20
15.642988
  0
VERTEX
  8
LAYER_1
 62
    39
  6
CONTINUOUS
 10
0.325685
 20
14.643142
  0
SEQEND
  8
0
  0
POLYLINE
  8
LAYER_1
 62
    39
  6
CONTINUOUS
 66
     1
 40
0.006945
 41
0.006945
 70
     1
  0
VERTEX
  8
LAYER_1
 62
    39
  6
CONTINUOUS
 10
-0.001776
 20
15.642988
  0
VERTEX
  8
LAYER_1
 62
    39
  6
CONTINUOUS
 10
-0.001776
 20
16.642835
  0
VERTEX
  8
LAYER_1
 62
    39
  6
CONTINUOUS
 10
0.325685
 20
16.642835
  0
VERTEX
  8
LAYER_1
 62
    39
  6
CONTINUOUS
 10
0.325685
 20
15.642988
  0
SEQEND
  8
0
  0
SOLID
  8
LAYER_1
 62
    39
  6
CONTINUOUS
 10
0.006957
 20
4.644677
 11
0.006957
 21
5.644524
 12
0.325685
 22
4.644677
 13
0.325685
 23
5.644524
  0
POLYLINE
  8
LAYER_1
 62
    39
  6
CONTINUOUS
 66
     1
 40
0.006945
 41
0.006945
 70
     1
  0
VERTEX
  8
LAYER_1
 62
    39
  6
CONTINUOUS
 10
0.006957
 20
4.644677
  0
VERTEX
  8
LAYER_1
 62
    39
  6
CONTINUOUS
 10
0.006957
 20
5.644524
  0
VERTEX
  8
LAYER_1
 62
    39
  6
CONTINUOUS
 10
0.325685
 20
5.644524
  0
VERTEX
  8
LAYER_1
 62
    39
  6
CONTINUOUS
 10
0.325685
 20
4.644677
  0
SEQEND
  8
0
  0
SOLID
  8
LAYER_1
 62
    39
  6
CONTINUOUS
 10
0.001461
 20
8.649559
 11
0.001461
 21
9.649406
 12
0.320189
 22
8.649559
 13
0.320189
 23
9.649406
  0
POLYLINE
  8
LAYER_1
 62
    39
  6
CONTINUOUS
 66
     1
 40
0.006945
 41
0.006945
 70
     1
  0
VERTEX
  8
LAYER_1
 62
    39
  6
CONTINUOUS
 10
0.001461
 20
8.649559
  0
VERTEX
  8
LAYER_1
 62
    39
  6
CONTINUOUS
 10
0.001461
 20
9.649406
  0
VERTEX
  8
LAYER_1
 62
    39
  6
CONTINUOUS
 10
0.320189
 20
9.649406
  0
VERTEX
  8
LAYER_1
 62
    39
  6
CONTINUOUS
 10
0.320189
 20
8.649559
  0
SEQEND
  8
0
  0
SOLID
  8
LAYER_1
 62
    39
  6
CONTINUOUS
 10
0.004697
 20
10.646016
 11
0.004697
 21
11.645862
 12
0.323425
 22
10.646016
 13
0.323425
 23
11.645862
  0
POLYLINE
  8
LAYER_1
 62
    39
  6
CONTINUOUS
 66
     1
 40
0.006945
 41
0.006945
 70
     1
  0
VERTEX
  8
LAYER_1
 62
    39
  6
CONTINUOUS
 10
0.004697
 20
10.646016
  0
VERTEX
  8
LAYER_1
 62
    39
  6
CONTINUOUS
 10
0.004697
 20
11.645862
  0
VERTEX
  8
LAYER_1
 62
    39
  6
CONTINUOUS
 10
0.323425
 20
11.645862
  0
VERTEX
  8
LAYER_1
 62
    39
  6
CONTINUOUS
 10
0.323425
 20
10.646016
  0
SEQEND
  8
0
  0
SOLID
  8
LAYER_1
 62
    39
  6
CONTINUOUS
 10
-0.000799
 20
12.642472
 11
-0.000799
 21
13.642319
 12
0.317929
 22
12.642472
 13
0.317929
 23
13.642319
  0
POLYLINE
  8
LAYER_1
 62
    39
  6
CONTINUOUS
 66
     1
 40
0.006945
 41
0.006945
 70
     1
  0
VERTEX
  8
LAYER_1
 62
    39
  6
CONTINUOUS
 10
-0.000799
 20
12.642472
  0
VERTEX
  8
LAYER_1
 62
    39
  6
CONTINUOUS
 10
-0.000799
 20
13.642319
  0
VERTEX
  8
LAYER_1
 62
    39
  6
CONTINUOUS
 10
0.317929
 20
13.642319
  0
VERTEX
  8
LAYER_1
 62
    39
  6
CONTINUOUS
 10
0.317929
 20
12.642472
  0
SEQEND
  8
0
  0
SOLID
  8
LAYER_1
 62
    39
  6
CONTINUOUS
 10
-0.001929
 20
14.638929
 11
-0.001929
 21
15.638776
 12
0.316799
 22
14.638929
 13
0.316799
 23
15.638776
  0
POLYLINE
  8
LAYER_1
 62
    39
  6
CONTINUOUS
 66
     1
 40
0.006945
 41
0.006945
 70
     1
  0
VERTEX
  8
LAYER_1
 62
    39
  6
CONTINUOUS
 10
-0.001929
 20
14.638929
  0
VERTEX
  8
LAYER_1
 62
    39
  6
CONTINUOUS
 10
-0.001929
 20
15.638776
  0
VERTEX
  8
LAYER_1
 62
    39
  6
CONTINUOUS
 10
0.316799
 20
15.638776
  0
VERTEX
  8
LAYER_1
 62
    39
  6
CONTINUOUS
 10
0.316799
 20
14.638929
  0
SEQEND
  8
0
  0
SOLID
  8
LAYER_1
 62
    39
  6
CONTINUOUS
 10
0.004697
 20
6.646630
 11
0.004697
 21
7.646476
 12
0.323425
 22
6.646630
 13
0.323425
 23
7.646476
  0
POLYLINE
  8
LAYER_1
 62
    39
  6
CONTINUOUS
 66
     1
 40
0.006945
 41
0.006945
 70
     1
  0
VERTEX
  8
LAYER_1
 62
    39
  6
CONTINUOUS
 10
0.004697
 20
6.646630
  0
VERTEX
  8
LAYER_1
 62
    39
  6
CONTINUOUS
 10
0.004697
 20
7.646476
  0
VERTEX
  8
LAYER_1
 62
    39
  6
CONTINUOUS
 10
0.323425
 20
7.646476
  0
VERTEX
  8
LAYER_1
 62
    39
  6
CONTINUOUS
 10
0.323425
 20
6.646630
  0
SEQEND
  8
0
  0
TEXT
  8
LAYER_1
 62
    39
 10
-0.471980
 20
8.453516
 40
1.123484
  1
1 FOOT
 50
90.000660
 41
1.000000
  7
SN0
 71
     0
 72
     5
 11
-0.471980
 21
12.751658
  0
ENDSEC
  0
EOF
