  0
SECTION
  2
HEADER
  9
$ACADVER
  1
AC1018
  9
$ACADMAINTVER
 70
     0
  9
$DWGCODEPAGE
  3
ANSI_1252
  9
$INSBASE
 10
0.0
 20
0.0
 30
0.0
  9
$EXTMIN
 10
-0.7012042292251408
 20
64.40866859287826
 30
0.0
  9
$EXTMAX
 10
1673.356520829027
 20
1014.408324563568
 30
0.0
  9
$LIMMIN
 10
0.0
 20
0.0
  9
$LIMMAX
 10
420.0
 20
297.0
  9
$ORTHOMODE
 70
     0
  9
$REGENMODE
 70
     1
  9
$FILLMODE
 70
     1
  9
$QTEXTMODE
 70
     0
  9
$MIRRTEXT
 70
     0
  9
$LTSCALE
 40
1.0
  9
$ATTMODE
 70
     1
  9
$TEXTSIZE
 40
2.5
  9
$TRACEWID
 40
1.0
  9
$TEXTSTYLE
  7
Standard
  9
$CLAYER
  8
0
  9
$CELTYPE
  6
ByLayer
  9
$CECOLOR
 62
   256
  9
$CELTSCALE
 40
1.0
  9
$DISPSILH
 70
     0
  9
$DIMSCALE
 40
1.0
  9
$DIMASZ
 40
2.5
  9
$DIMEXO
 40
0.625
  9
$DIMDLI
 40
3.75
  9
$DIMRND
 40
0.0
  9
$DIMDLE
 40
0.0
  9
$DIMEXE
 40
1.25
  9
$DIMTP
 40
0.0
  9
$DIMTM
 40
0.0
  9
$DIMTXT
 40
2.5
  9
$DIMCEN
 40
2.5
  9
$DIMTSZ
 40
0.0
  9
$DIMTOL
 70
     0
  9
$DIMLIM
 70
     0
  9
$DIMTIH
 70
     0
  9
$DIMTOH
 70
     0
  9
$DIMSE1
 70
     0
  9
$DIMSE2
 70
     0
  9
$DIMTAD
 70
     1
  9
$DIMZIN
 70
     8
  9
$DIMBLK
  1

  9
$DIMASO
 70
     1
  9
$DIMSHO
 70
     1
  9
$DIMPOST
  1

  9
$DIMAPOST
  1

  9
$DIMALT
 70
     0
  9
$DIMALTD
 70
     3
  9
$DIMALTF
 40
0.03937007874016
  9
$DIMLFAC
 40
1.0
  9
$DIMTOFL
 70
     1
  9
$DIMTVP
 40
0.0
  9
$DIMTIX
 70
     0
  9
$DIMSOXD
 70
     0
  9
$DIMSAH
 70
     0
  9
$DIMBLK1
  1

  9
$DIMBLK2
  1

  9
$DIMSTYLE
  2
ISO-25
  9
$DIMCLRD
 70
     0
  9
$DIMCLRE
 70
     0
  9
$DIMCLRT
 70
     0
  9
$DIMTFAC
 40
1.0
  9
$DIMGAP
 40
0.625
  9
$DIMJUST
 70
     0
  9
$DIMSD1
 70
     0
  9
$DIMSD2
 70
     0
  9
$DIMTOLJ
 70
     0
  9
$DIMTZIN
 70
     8
  9
$DIMALTZ
 70
     0
  9
$DIMALTTZ
 70
     0
  9
$DIMUPT
 70
     0
  9
$DIMDEC
 70
     2
  9
$DIMTDEC
 70
     2
  9
$DIMALTU
 70
     2
  9
$DIMALTTD
 70
     3
  9
$DIMTXSTY
  7
Standard
  9
$DIMAUNIT
 70
     0
  9
$DIMADEC
 70
     0
  9
$DIMALTRND
 40
0.0
  9
$DIMAZIN
 70
     0
  9
$DIMDSEP
 70
    44
  9
$DIMATFIT
 70
     3
  9
$DIMFRAC
 70
     0
  9
$DIMLDRBLK
  1

  9
$DIMLUNIT
 70
     2
  9
$DIMLWD
 70
    -2
  9
$DIMLWE
 70
    -2
  9
$DIMTMOVE
 70
     0
  9
$LUNITS
 70
     2
  9
$LUPREC
 70
     4
  9
$SKETCHINC
 40
1.0
  9
$FILLETRAD
 40
0.0
  9
$AUNITS
 70
     0
  9
$AUPREC
 70
     0
  9
$MENU
  1
.
  9
$ELEVATION
 40
0.0
  9
$PELEVATION
 40
0.0
  9
$THICKNESS
 40
0.0
  9
$LIMCHECK
 70
     0
  9
$CHAMFERA
 40
0.0
  9
$CHAMFERB
 40
0.0
  9
$CHAMFERC
 40
0.0
  9
$CHAMFERD
 40
0.0
  9
$SKPOLY
 70
     0
  9
$TDCREATE
 40
2454151.545873299
  9
$TDUCREATE
 40
2454151.504206632
  9
$TDUPDATE
 40
2454159.851115810
  9
$TDUUPDATE
 40
2454159.809449144
  9
$TDINDWG
 40
0.0630020255
  9
$TDUSRTIMER
 40
0.0629987731
  9
$USRTIMER
 70
     1
  9
$ANGBASE
 50
0.0
  9
$ANGDIR
 70
     0
  9
$PDMODE
 70
     0
  9
$PDSIZE
 40
0.0
  9
$PLINEWID
 40
0.0
  9
$SPLFRAME
 70
     0
  9
$SPLINETYPE
 70
     6
  9
$SPLINESEGS
 70
     8
  9
$HANDSEED
  5
74A
  9
$SURFTAB1
 70
     6
  9
$SURFTAB2
 70
     6
  9
$SURFTYPE
 70
     6
  9
$SURFU
 70
     6
  9
$SURFV
 70
     6
  9
$UCSBASE
  2

  9
$UCSNAME
  2

  9
$UCSORG
 10
0.0
 20
0.0
 30
0.0
  9
$UCSXDIR
 10
1.0
 20
0.0
 30
0.0
  9
$UCSYDIR
 10
0.0
 20
1.0
 30
0.0
  9
$UCSORTHOREF
  2

  9
$UCSORTHOVIEW
 70
     0
  9
$UCSORGTOP
 10
0.0
 20
0.0
 30
0.0
  9
$UCSORGBOTTOM
 10
0.0
 20
0.0
 30
0.0
  9
$UCSORGLEFT
 10
0.0
 20
0.0
 30
0.0
  9
$UCSORGRIGHT
 10
0.0
 20
0.0
 30
0.0
  9
$UCSORGFRONT
 10
0.0
 20
0.0
 30
0.0
  9
$UCSORGBACK
 10
0.0
 20
0.0
 30
0.0
  9
$PUCSBASE
  2

  9
$PUCSNAME
  2

  9
$PUCSORG
 10
0.0
 20
0.0
 30
0.0
  9
$PUCSXDIR
 10
1.0
 20
0.0
 30
0.0
  9
$PUCSYDIR
 10
0.0
 20
1.0
 30
0.0
  9
$PUCSORTHOREF
  2

  9
$PUCSORTHOVIEW
 70
     0
  9
$PUCSORGTOP
 10
0.0
 20
0.0
 30
0.0
  9
$PUCSORGBOTTOM
 10
0.0
 20
0.0
 30
0.0
  9
$PUCSORGLEFT
 10
0.0
 20
0.0
 30
0.0
  9
$PUCSORGRIGHT
 10
0.0
 20
0.0
 30
0.0
  9
$PUCSORGFRONT
 10
0.0
 20
0.0
 30
0.0
  9
$PUCSORGBACK
 10
0.0
 20
0.0
 30
0.0
  9
$USERI1
 70
     0
  9
$USERI2
 70
     0
  9
$USERI3
 70
     0
  9
$USERI4
 70
     0
  9
$USERI5
 70
     0
  9
$USERR1
 40
0.0
  9
$USERR2
 40
0.0
  9
$USERR3
 40
0.0
  9
$USERR4
 40
0.0
  9
$USERR5
 40
0.0
  9
$WORLDVIEW
 70
     1
  9
$SHADEDGE
 70
     3
  9
$SHADEDIF
 70
    70
  9
$TILEMODE
 70
     1
  9
$MAXACTVP
 70
    64
  9
$PINSBASE
 10
0.0
 20
0.0
 30
0.0
  9
$PLIMCHECK
 70
     0
  9
$PEXTMIN
 10
0.0
 20
0.0
 30
0.0
  9
$PEXTMAX
 10
0.0
 20
0.0
 30
0.0
  9
$PLIMMIN
 10
0.0
 20
0.0
  9
$PLIMMAX
 10
12.0
 20
9.0
  9
$UNITMODE
 70
     0
  9
$VISRETAIN
 70
     1
  9
$PLINEGEN
 70
     0
  9
$PSLTSCALE
 70
     1
  9
$TREEDEPTH
 70
  3020
  9
$CMLSTYLE
  2
Standard
  9
$CMLJUST
 70
     0
  9
$CMLSCALE
 40
20.0
  9
$PROXYGRAPHICS
 70
     1
  9
$MEASUREMENT
 70
     1
  9
$CELWEIGHT
370
    -1
  9
$ENDCAPS
280
     0
  9
$JOINSTYLE
280
     0
  9
$LWDISPLAY
290
     0
  9
$INSUNITS
 70
     4
  9
$HYPERLINKBASE
  1

  9
$STYLESHEET
  1

  9
$XEDIT
290
     1
  9
$CEPSNTYPE
380
     0
  9
$PSTYLEMODE
290
     1
  9
$FINGERPRINTGUID
  2
{FDEAD578-A652-11D2-9A35-0060089B3A3F}
  9
$VERSIONGUID
  2
{BA8F13A1-E68C-4B65-AA16-1B2354D73068}
  9
$EXTNAMES
290
     1
  9
$PSVPSCALE
 40
0.0
  9
$OLESTARTUP
290
     0
  9
$SORTENTS
280
   127
  9
$INDEXCTL
280
     0
  9
$HIDETEXT
280
     1
  9
$XCLIPFRAME
290
     0
  9
$HALOGAP
280
     0
  9
$OBSCOLOR
 70
   257
  9
$OBSLTYPE
280
     0
  9
$INTERSECTIONDISPLAY
280
     0
  9
$INTERSECTIONCOLOR
 70
   257
  9
$DIMASSOC
280
     2
  9
$PROJECTNAME
  1

  0
ENDSEC
  0
SECTION
  2
CLASSES
  0
CLASS
  1
ACDBDICTIONARYWDFLT
  2
AcDbDictionaryWithDefault
  3
ObjectDBX Classes
 90
        0
 91
        1
280
     0
281
     0
  0
CLASS
  1
DICTIONARYVAR
  2
AcDbDictionaryVar
  3
ObjectDBX Classes
 90
        0
 91
        2
280
     0
281
     0
  0
CLASS
  1
DIMASSOC
  2
AcDbDimAssoc
  3
"AcDbDimAssoc|Product Desc:     AcDim ARX App For Dimension|Company:          Autodesk, Inc.|WEB Address:      www.autodesk.com"
 90
        0
 91
        0
280
     0
281
     0
  0
ENDSEC
  0
SECTION
  2
TABLES
  0
TABLE
  2
VPORT
  5
8
330
0
100
AcDbSymbolTable
 70
    10
  0
VPORT
  5
749
330
8
100
AcDbSymbolTableRecord
100
AcDbViewportTableRecord
  2
*Active
 70
     0
 10
0.0
 20
0.0
 11
1.0
 21
1.0
 12
1399.016692694973
 22
230.0960806691721
 13
0.0
 23
0.0
 14
10.0
 24
10.0
 15
10.0
 25
10.0
 16
0.0
 26
0.0
 36
1.0
 17
0.0
 27
0.0
 37
0.0
 40
1765.917977986667
 41
1.58893280632411
 42
50.0
 43
0.0
 44
0.0
 50
0.0
 51
0.0
 71
     0
 72
 10000
 73
     1
 74
     3
 75
     0
 76
     0
 77
     0
 78
     0
281
     0
 65
     1
110
0.0
120
0.0
130
0.0
111
1.0
121
0.0
131
0.0
112
0.0
122
1.0
132
0.0
 79
     0
146
0.0
  0
ENDTAB
  0
TABLE
  2
LTYPE
  5
5
330
0
100
AcDbSymbolTable
 70
     1
  0
LTYPE
  5
14
330
5
100
AcDbSymbolTableRecord
100
AcDbLinetypeTableRecord
  2
ByBlock
 70
     0
  3

 72
    65
 73
     0
 40
0.0
  0
LTYPE
  5
15
330
5
100
AcDbSymbolTableRecord
100
AcDbLinetypeTableRecord
  2
ByLayer
 70
     0
  3

 72
    65
 73
     0
 40
0.0
  0
LTYPE
  5
16
330
5
100
AcDbSymbolTableRecord
100
AcDbLinetypeTableRecord
  2
Continuous
 70
     0
  3
Solid line
 72
    65
 73
     0
 40
0.0
  0
ENDTAB
  0
TABLE
  2
LAYER
  5
2
330
0
100
AcDbSymbolTable
 70
     1
  0
LAYER
  5
10
330
2
100
AcDbSymbolTableRecord
100
AcDbLayerTableRecord
  2
0
 70
     0
 62
     7
  6
Continuous
370
    -3
390
F
  0
ENDTAB
  0
TABLE
  2
STYLE
  5
3
330
0
100
AcDbSymbolTable
 70
     1
  0
STYLE
  5
11
330
3
100
AcDbSymbolTableRecord
100
AcDbTextStyleTableRecord
  2
Standard
 70
     0
 40
0.0
 41
1.0
 50
0.0
 71
     0
 42
2.5
  3
txt
  4

  0
ENDTAB
  0
TABLE
  2
VIEW
  5
6
330
0
100
AcDbSymbolTable
 70
     0
  0
ENDTAB
  0
TABLE
  2
UCS
  5
7
330
0
100
AcDbSymbolTable
 70
     0
  0
ENDTAB
  0
TABLE
  2
APPID
  5
9
330
0
100
AcDbSymbolTable
 70
     1
  0
APPID
  5
12
330
9
100
AcDbSymbolTableRecord
100
AcDbRegAppTableRecord
  2
ACAD
 70
     0
  0
ENDTAB
  0
TABLE
  2
DIMSTYLE
  5
A
330
0
100
AcDbSymbolTable
 70
     1
100
AcDbDimStyleTable
 71
     1
340
27
  0
DIMSTYLE
105
27
330
A
100
AcDbSymbolTableRecord
100
AcDbDimStyleTableRecord
  2
ISO-25
 70
     0
 41
2.5
 42
0.625
 43
3.75
 44
1.25
 73
     0
 74
     0
 77
     1
 78
     8
140
2.5
141
2.5
143
0.03937007874016
147
0.625
171
     3
172
     1
271
     2
272
     2
274
     3
278
    44
283
     0
284
     8
340
11
  0
ENDTAB
  0
TABLE
  2
BLOCK_RECORD
  5
1
330
0
100
AcDbSymbolTable
 70
     7
  0
BLOCK_RECORD
  5
1F
330
1
100
AcDbSymbolTableRecord
100
AcDbBlockTableRecord
  2
*Model_Space
340
22
  0
BLOCK_RECORD
  5
50
330
1
100
AcDbSymbolTableRecord
100
AcDbBlockTableRecord
  2
*Paper_Space
340
51
  0
BLOCK_RECORD
  5
55
330
1
100
AcDbSymbolTableRecord
100
AcDbBlockTableRecord
  2
*Paper_Space0
340
56
  0
BLOCK_RECORD
  5
684
330
1
100
AcDbSymbolTableRecord
100
AcDbBlockTableRecord
  2
A$C44350EE5
340
0
  0
BLOCK_RECORD
  5
6DF
330
1
100
AcDbSymbolTableRecord
100
AcDbBlockTableRecord
  2
A$C20206BB1
340
0
  0
ENDTAB
  0
ENDSEC
  0
SECTION
  2
BLOCKS
  0
BLOCK
  5
20
330
1F
100
AcDbEntity
  8
0
100
AcDbBlockBegin
  2
*Model_Space
 70
     0
 10
0.0
 20
0.0
 30
0.0
  3
*Model_Space
  1

  0
ENDBLK
  5
21
330
1F
100
AcDbEntity
  8
0
100
AcDbBlockEnd
  0
BLOCK
  5
52
330
50
100
AcDbEntity
 67
     1
  8
0
100
AcDbBlockBegin
  2
*Paper_Space
 70
     0
 10
0.0
 20
0.0
 30
0.0
  3
*Paper_Space
  1

  0
ENDBLK
  5
53
330
50
100
AcDbEntity
 67
     1
  8
0
100
AcDbBlockEnd
  0
BLOCK
  5
57
330
55
100
AcDbEntity
  8
0
100
AcDbBlockBegin
  2
*Paper_Space0
 70
     0
 10
0.0
 20
0.0
 30
0.0
  3
*Paper_Space0
  1

  0
ENDBLK
  5
58
330
55
100
AcDbEntity
  8
0
100
AcDbBlockEnd
  0
BLOCK
  5
686
330
684
100
AcDbEntity
  8
0
100
AcDbBlockBegin
  2
A$C44350EE5
 70
     0
 10
0.0
 20
0.0
 30
0.0
  3
A$C44350EE5
  1

  0
SPLINE
  5
685
330
684
100
AcDbEntity
  8
0
100
AcDbSpline
210
0.0
220
0.0
230
1.0
 70
     8
 71
     3
 72
    10
 73
     6
 74
     4
 42
0.0000000001
 43
0.0000000001
 44
0.0000000001
 40
0.0
 40
0.0
 40
0.0
 40
0.0
 40
4.508720933192807
 40
7.154617465309371
 40
9.809644442030471
 40
9.809644442030471
 40
9.809644442030471
 40
9.809644442030471
 10
0.0000015475228565
 20
-0.0000008667969382
 30
0.0
 10
0.1335142418212172
 20
1.593454891806345
 30
0.0
 10
0.3453774883212191
 20
4.122013782371254
 30
0.0
 10
3.2096842438566
 20
6.139791816947479
 30
0.0
 10
4.929104339792047
 20
6.537465314732003
 30
0.0
 10
5.790295174070934
 20
6.736644545065075
 30
0.0
 11
0.0000015475228565
 21
-0.0000008667969382
 31
0.0
 11
1.146036173307948
 21
4.360637743534425
 31
0.0
 11
3.249772980943816
 21
5.965337062056278
 31
0.0
 11
5.790295174070934
 21
6.736644545065075
 31
0.0
  0
ENDBLK
  5
687
330
684
100
AcDbEntity
  8
0
100
AcDbBlockEnd
  0
BLOCK
  5
6E1
330
6DF
100
AcDbEntity
  8
0
100
AcDbBlockBegin
  2
A$C20206BB1
 70
     0
 10
0.0
 20
0.0
 30
0.0
  3
A$C20206BB1
  1

  0
LINE
  5
6E0
330
6DF
100
AcDbEntity
  8
0
 62
     1
100
AcDbLine
 10
0.0000029350806585
 20
-0.0000008155828937
 30
0.0
 11
-0.0000008871261343
 21
189.9999247582094
 31
0.0
  0
ENDBLK
  5
6E2
330
6DF
100
AcDbEntity
  8
0
100
AcDbBlockEnd
  0
ENDSEC
  0
SECTION
  2
ENTITIES
  0
LINE
  5
2EE
330
1F
100
AcDbEntity
  8
0
100
AcDbLine
 10
1100.364954714406
 20
541.9067543722865
 30
0.0
 11
1097.38563871746
 21
541.5550781144339
 31
0.0
  0
LINE
  5
2EF
330
1F
100
AcDbEntity
  8
0
100
AcDbLine
 10
1304.934168654156
 20
496.8951228812187
 30
0.0
 11
1307.933284457133
 21
496.9679541953838
 31
0.0
  0
LINE
  5
2F0
330
1F
100
AcDbEntity
  8
0
100
AcDbLine
 10
1286.519362706068
 20
547.1927277378057
 30
0.0
 11
1147.348149135379
 21
532.0167274606972
 31
0.0
  0
SPLINE
  5
2F1
330
1F
100
AcDbEntity
  8
0
100
AcDbSpline
210
0.0
220
0.0
230
1.0
 70
     8
 71
     3
 72
    11
 73
     7
 74
     5
 42
0.0000000001
 43
0.0000000001
 44
0.0000000001
 40
0.0
 40
0.0
 40
0.0
 40
0.0
 40
5.713554845348557
 40
11.07171000729965
 40
25.40624625142523
 40
53.5933461336593
 40
53.5933461336593
 40
53.5933461336593
 40
53.5933461336593
 10
1147.348149135379
 20
532.0167274606972
 30
0.0
 10
1145.451722240332
 20
531.8353954552813
 30
0.0
 10
1141.776831703646
 20
531.4840108211355
 30
0.0
 10
1133.262645503479
 20
531.8208389444252
 30
0.0
 10
1118.096630908321
 20
537.848376115943
 30
0.0
 10
1106.667291991359
 20
546.2535627388077
 30
0.0
 10
1099.090915657133
 20
551.8252635586792
 30
0.0
 11
1147.348149135379
 21
532.0167274606972
 31
0.0
 11
1141.649419723704
 21
531.6053978321555
 31
0.0
 11
1136.297607518217
 21
531.8660371552502
 31
0.0
 11
1122.716230651551
 21
536.4513541279076
 31
0.0
 11
1099.090915657133
 21
551.8252635586792
 31
0.0
  0
SPLINE
  5
2F2
330
1F
100
AcDbEntity
  8
0
100
AcDbSpline
210
0.0
220
0.0
230
1.0
 70
     8
 71
     3
 72
    12
 73
     8
 74
     6
 42
0.0000000001
 43
0.0000000001
 44
0.0000000001
 40
0.0
 40
0.0
 40
0.0
 40
0.0
 40
6.400609840754703
 40
13.89888168789945
 40
22.8590230395233
 40
32.99461513190269
 40
44.88767472432814
 40
44.88767472432814
 40
44.88767472432814
 40
44.88767472432814
 10
1141.67227578629
 20
491.2136791006718
 30
0.0
 10
1139.53932397248
 20
491.0573016707286
 30
0.0
 10
1134.907633298666
 20
490.7177291219384
 30
0.0
 10
1127.568957853272
 20
488.4165468960354
 30
0.0
 10
1119.828583314842
 20
483.8512446016972
 30
0.0
 10
1113.203803987939
 20
475.5476961284964
 30
0.0
 10
1111.023803348187
 20
468.4852296093986
 30
0.0
 10
1109.846841730605
 20
464.6722710868812
 30
0.0
 11
1141.67227578629
 21
491.2136791006718
 31
0.0
 11
1135.309384497232
 21
490.5198341776562
 31
0.0
 11
1128.140704998831
 21
488.3211720974636
 31
0.0
 11
1120.495603226189
 21
483.6482124435569
 31
0.0
 11
1114.11496583885
 21
475.7730811053262
 31
0.0
 11
1109.846841730605
 21
464.6722710868812
 31
0.0
  0
SPLINE
  5
2F3
330
1F
100
AcDbEntity
  8
0
100
AcDbSpline
210
0.0
220
0.0
230
1.0
 70
     8
 71
     3
 72
    11
 73
     7
 74
     5
 42
0.0000000001
 43
0.0000000001
 44
0.0000000001
 40
0.0
 40
0.0
 40
0.0
 40
0.0
 40
8.4348863562276
 40
15.1544057474934
 40
22.53252079039493
 40
28.86342651650158
 40
28.86342651650158
 40
28.86342651650158
 40
28.86342651650158
 10
1286.519362706068
 20
547.1927277378057
 30
0.0
 10
1289.266964405721
 20
547.7397504408359
 30
0.0
 10
1294.203399732831
 20
548.7225501662512
 30
0.0
 10
1301.101675968956
 20
552.7254061714535
 30
0.0
 10
1303.166241190523
 20
559.6013516810079
 30
0.0
 10
1304.13795516739
 20
564.0224429929031
 30
0.0
 10
1304.586698347808
 20
566.0641287393713
 30
0.0
 11
1286.519362706068
 21
547.1927277378057
 31
0.0
 11
1294.670172546828
 21
549.3633513307493
 31
0.0
 11
1300.243202470951
 21
553.1174528629974
 31
0.0
 11
1303.152228886937
 21
559.8978766622436
 31
0.0
 11
1304.586698347808
 21
566.0641287393713
 31
0.0
  0
SPLINE
  5
2F4
330
1F
100
AcDbEntity
  8
0
100
AcDbSpline
210
0.0
220
0.0
230
1.0
 70
     8
 71
     3
 72
    10
 73
     6
 74
     4
 42
0.0000000001
 43
0.0000000001
 44
0.0000000001
 40
0.0
 40
0.0
 40
0.0
 40
0.0
 40
4.653672875444311
 40
9.538639330901574
 40
19.39964022681733
 40
19.39964022681733
 40
19.39964022681733
 40
19.39964022681733
 10
1291.529048214932
 20
507.5548919244612
 30
0.0
 10
1293.073512426009
 20
507.6712437173003
 30
0.0
 10
1296.239202723384
 20
507.909730138048
 30
0.0
 10
1302.850352409725
 20
505.6119961851057
 30
0.0
 10
1304.099099756323
 20
500.3883242620382
 30
0.0
 10
1304.934168654156
 20
496.8951228812187
 30
0.0
 11
1291.529048214932
 21
507.5548919244612
 31
0.0
 11
1296.182662372551
 21
507.5782693420908
 31
0.0
 11
1300.740140245429
 21
505.8197777415508
 31
0.0
 11
1304.934168654156
 21
496.8951228812187
 31
0.0
  0
LINE
  5
2F5
330
1F
100
AcDbEntity
  8
0
100
AcDbLine
 10
1304.586698347808
 20
566.0641287391711
 30
0.0
 11
1307.586572051229
 21
566.0791985962817
 31
0.0
  0
LINE
  5
2F6
330
1F
100
AcDbEntity
  8
0
100
AcDbLine
 10
1307.734479254668
 20
536.5964607000949
 30
0.0
 11
1304.734517107238
 21
536.5813903986865
 31
0.0
  0
LINE
  5
2F7
330
1F
100
AcDbEntity
  8
0
100
AcDbLine
 10
1307.7846460142
 20
526.5965865358464
 30
0.0
 11
1304.78468386677
 21
526.5815162344381
 31
0.0
  0
LINE
  5
2F8
330
1F
100
AcDbEntity
  8
0
100
AcDbLine
 10
1304.933299897619
 20
496.9574858773885
 30
0.0
 11
1307.93326204505
 21
496.9725561787969
 31
0.0
  0
LINE
  5
2F9
330
1F
100
AcDbEntity
  8
0
100
AcDbLine
 10
1304.586609903799
 20
566.0641282948732
 30
0.0
 11
1307.586572051229
 21
566.0791985962817
 31
0.0
  0
LINE
  5
2FA
330
1F
100
AcDbEntity
  8
0
100
AcDbLine
 10
1304.734517107238
 20
536.5813903986865
 30
0.0
 11
1304.78468386677
 21
526.5815162344381
 31
0.0
  0
LINE
  5
2FB
330
1F
100
AcDbEntity
  8
0
100
AcDbLine
 10
1307.586572051229
 20
566.0791985962817
 30
0.0
 11
1307.734479254668
 21
536.5964607000949
 31
0.0
  0
LINE
  5
2FC
330
1F
100
AcDbEntity
  8
0
100
AcDbLine
 10
1307.7846460142
 20
526.5965865358464
 30
0.0
 11
1307.933284457133
 21
496.9679541953838
 31
0.0
  0
LINE
  5
2FD
330
1F
100
AcDbEntity
  8
0
100
AcDbLine
 10
1099.090915657136
 20
551.8252635586585
 30
0.0
 11
1096.120442326503
 21
551.4363923885563
 31
0.0
  0
LINE
  5
2FE
330
1F
100
AcDbEntity
  8
0
100
AcDbLine
 10
1108.621991324895
 20
474.5969746836457
 30
0.0
 11
1105.501301102195
 21
474.2426804525216
 31
0.0
  0
LINE
  5
2FF
330
1F
100
AcDbEntity
  8
0
100
AcDbLine
 10
1107.397140919184
 20
484.5216782804107
 30
0.0
 11
1104.424978741803
 21
484.1139381777217
 31
0.0
  0
LINE
  5
300
330
1F
100
AcDbEntity
  8
0
100
AcDbLine
 10
1104.424978741803
 20
484.1139381777217
 30
0.0
 11
1105.501301102195
 21
474.2426804525216
 31
0.0
  0
LINE
  5
301
330
1F
100
AcDbEntity
  8
0
100
AcDbLine
 10
1096.120442326503
 20
551.4363923885563
 30
0.0
 11
1097.38563871746
 21
541.5550781144339
 31
0.0
  0
LINE
  5
302
330
1F
100
AcDbEntity
  8
0
100
AcDbLine
 10
1202.81771256069
 20
481.3462779154178
 30
0.0
 11
1201.317731486975
 21
481.3387427647132
 31
0.0
  0
LINE
  5
303
330
1F
100
AcDbEntity
  8
0
100
AcDbLine
 10
1202.81771256069
 20
481.3462779154178
 30
0.0
 11
1204.317693634405
 21
481.3538130661219
 31
0.0
  0
SPLINE
  5
304
330
1F
100
AcDbEntity
  8
0
100
AcDbSpline
210
0.0
220
0.0
230
1.0
 70
     8
 71
     3
 72
    10
 73
     6
 74
     4
 42
0.0000000001
 43
0.0000000001
 44
0.0000000001
 40
0.0
 40
0.0
 40
0.0
 40
0.0
 40
9.20168961151122
 40
14.55465964176929
 40
22.80617987534383
 40
22.80617987534383
 40
22.80617987534383
 40
22.80617987534383
 10
1201.317731486975
 20
481.3387427647132
 30
0.0
 10
1201.005859756009
 20
484.4325602708011
 30
0.0
 10
1200.5125604721
 20
489.3261681510893
 30
0.0
 10
1195.526907121808
 20
495.8101132717436
 30
0.0
 10
1190.736192820152
 20
496.0820739146235
 30
0.0
 10
1187.830484835011
 20
496.2470259785334
 30
0.0
 11
1201.317731486975
 21
481.3387427647132
 31
0.0
 11
1199.307533997722
 21
490.3181746933373
 31
0.0
 11
1195.879307541403
 21
494.4293243511623
 31
0.0
 11
1187.830484835011
 21
496.2470259785334
 31
0.0
  0
SPLINE
  5
305
330
1F
100
AcDbEntity
  8
0
100
AcDbSpline
210
0.0
220
0.0
230
1.0
 70
     8
 71
     3
 72
    11
 73
     7
 74
     5
 42
0.0000000001
 43
0.0000000001
 44
0.0000000001
 40
0.0
 40
0.0
 40
0.0
 40
0.0
 40
8.522258594680989
 40
14.27366372860992
 40
19.00714788199208
 40
25.14329987188011
 40
25.14329987188011
 40
25.14329987188011
 40
25.14329987188011
 10
1204.317693634405
 20
481.3538130661219
 30
0.0
 10
1204.674721272607
 20
484.115518901297
 30
0.0
 10
1205.272695670227
 20
488.7410134190571
 30
0.0
 10
1206.889312031821
 20
495.4190490290248
 30
0.0
 10
1212.308373876685
 20
497.8048814804739
 30
0.0
 10
1215.732014227937
 20
498.8209039693474
 30
0.0
 10
1217.664735551548
 20
499.3944713210689
 30
0.0
 11
1204.317693634405
 21
481.3538130661219
 31
0.0
 11
1205.608385803736
 21
489.777767320428
 31
0.0
 11
1207.736164467303
 21
495.1211013894764
 31
0.0
 11
1211.828248072863
 21
497.5003289942732
 31
0.0
 11
1217.664735551548
 21
499.3944713210689
 31
0.0
  0
LINE
  5
306
330
1F
100
AcDbEntity
  8
0
100
AcDbLine
 10
1291.529048214932
 20
507.5548919244612
 30
0.0
 11
1217.664735551548
 21
499.3944713210689
 31
0.0
  0
LINE
  5
307
330
1F
100
AcDbEntity
  8
0
100
AcDbLine
 10
1187.830484835011
 20
496.2470259785334
 30
0.0
 11
1141.67227578629
 21
491.2136791006718
 31
0.0
  0
LINE
  5
308
330
1F
100
AcDbEntity
  8
0
100
AcDbLine
 10
1100.364954714406
 20
541.9067543722865
 30
0.0
 11
1107.397140919184
 21
484.5216782804107
 31
0.0
  0
LINE
  5
309
330
1F
100
AcDbEntity
  8
0
100
AcDbLine
 10
1108.621991324895
 20
474.5969746836457
 30
0.0
 11
1109.846841730605
 21
464.6722710868812
 31
0.0
  0
LINE
  5
30A
330
1F
100
AcDbEntity
  8
0
100
AcDbLine
 10
1304.214420822542
 20
281.7676306204066
 30
0.0
 11
1303.039441962941
 21
271.8368992938886
 31
0.0
  0
LINE
  5
30B
330
1F
100
AcDbEntity
  8
0
100
AcDbLine
 10
1312.133227027133
 20
349.1180397031616
 30
0.0
 11
1305.389399682143
 21
291.6983619469251
 31
0.0
  0
MTEXT
  5
30C
330
1F
100
AcDbEntity
  8
0
100
AcDbMText
 10
596.7731223553649
 20
421.8099768825565
 30
0.0
 40
12.0
 41
643.236313066187
 71
     1
 72
     5
  1
X-TAZI DESIGN
 73
     1
 44
1.0
  0
LWPOLYLINE
  5
30D
330
1F
100
AcDbEntity
  8
0
100
AcDbPolyline
 90
        4
 70
     1
 43
0.0
 10
1098.196172604076
 20
217.5367326219333
 10
1336.268772666944
 20
217.5367326219333
 10
1336.268772666944
 20
91.94858346900641
 10
1098.196172604076
 20
91.94858346900641
  0
LINE
  5
30E
330
1F
100
AcDbEntity
  8
0
 62
     1
100
AcDbLine
 10
809.2988002725101
 20
824.4083939258331
 30
0.0
 11
809.2988002725101
 21
634.4084664592982
 31
0.0
  0
LINE
  5
30F
330
1F
100
AcDbEntity
  8
0
 62
     1
100
AcDbLine
 10
539.2988079169235
 20
824.408388861889
 30
0.0
 11
539.2988026038216
 21
634.4084603275685
 31
0.0
  0
LINE
  5
310
330
1F
100
AcDbEntity
  8
0
 62
     1
100
AcDbLine
 10
269.2988064260283
 20
634.4084541958388
 30
0.0
 11
269.2988026038215
 21
824.408379769631
 31
0.0
  0
LINE
  5
311
330
1F
100
AcDbEntity
  8
0
 62
     1
100
AcDbLine
 10
1079.298799541587
 20
634.4084725910281
 30
0.0
 11
269.2988064260283
 21
634.4084541958388
 31
0.0
  0
LINE
  5
312
330
1F
100
AcDbEntity
  8
0
 62
     1
100
AcDbLine
 10
1079.298799541587
 20
824.408398989777
 30
0.0
 11
1079.298799541587
 21
634.4084725910281
 31
0.0
  0
LINE
  5
313
330
1F
100
AcDbEntity
  8
0
 62
     1
100
AcDbLine
 10
269.2988026038215
 20
824.4083837979449
 30
0.0
 11
1079.298799541587
 21
824.408398989777
 31
0.0
  0
LINE
  5
314
330
1F
100
AcDbEntity
  8
0
 62
     1
100
AcDbLine
 10
269.2988117391301
 20
1014.408306168379
 30
0.0
 11
269.2988117391301
 21
824.408379769631
 31
0.0
  0
LINE
  5
315
330
1F
100
AcDbEntity
  8
0
 62
     1
100
AcDbLine
 10
-0.7011882608692304
 20
1014.408306168379
 30
0.0
 11
-0.7011882608692304
 21
824.408379769631
 31
0.0
  0
LINE
  5
316
330
1F
100
AcDbEntity
  8
0
 62
     1
100
AcDbLine
 10
-0.7011882608692304
 20
824.408379769631
 30
0.0
 11
269.2988117391301
 21
824.408379769631
 31
0.0
  0
LINE
  5
317
330
1F
100
AcDbEntity
  8
0
 62
     1
100
AcDbLine
 10
-0.7011882608692304
 20
1014.408306168379
 30
0.0
 11
269.2988117391301
 21
1014.408306168379
 31
0.0
  0
LINE
  5
318
330
1F
100
AcDbEntity
  8
0
 62
     1
100
AcDbLine
 10
269.2988079169236
 20
1014.408309371737
 30
0.0
 11
539.2988079169235
 21
1014.408309371737
 31
0.0
  0
LINE
  5
319
330
1F
100
AcDbEntity
  8
0
 62
     1
100
AcDbLine
 10
269.2988079169236
 20
1014.408309371737
 30
0.0
 11
269.2988079169236
 21
824.4083829729881
 31
0.0
  0
LINE
  5
31A
330
1F
100
AcDbEntity
  8
0
 62
     1
100
AcDbLine
 10
539.2988079169235
 20
1014.408309371737
 30
0.0
 11
539.2988079169235
 21
824.4083829729881
 31
0.0
  0
LINE
  5
31B
330
1F
100
AcDbEntity
  8
0
 62
     1
100
AcDbLine
 10
1079.29880027251
 20
1014.408315778452
 30
0.0
 11
1079.29880027251
 21
824.4083893797041
 31
0.0
  0
LINE
  5
31C
330
1F
100
AcDbEntity
  8
0
 62
     1
100
AcDbLine
 10
809.2988002725101
 20
1014.408315778452
 30
0.0
 11
809.2988002725101
 21
824.4083893797041
 31
0.0
  0
LINE
  5
31D
330
1F
100
AcDbEntity
  8
0
 62
     1
100
AcDbLine
 10
809.2988002725101
 20
1014.408315778452
 30
0.0
 11
1079.29880027251
 21
1014.408315778452
 31
0.0
  0
LINE
  5
31E
330
1F
100
AcDbEntity
  8
0
 62
     1
100
AcDbLine
 10
539.2988040947168
 20
1014.408312575094
 30
0.0
 11
809.2988040947169
 21
1014.408312575094
 31
0.0
  0
LINE
  5
31F
330
1F
100
AcDbEntity
  8
0
 62
     1
100
AcDbLine
 10
539.2988040947168
 20
1014.408312575094
 30
0.0
 11
539.2988040947168
 21
824.4083861763463
 31
0.0
  0
LINE
  5
320
330
1F
100
AcDbEntity
  8
0
 62
     1
100
AcDbLine
 10
809.2988040947169
 20
1014.408312575094
 30
0.0
 11
809.2988040947169
 21
824.4083861763463
 31
0.0
  0
LINE
  5
321
330
1F
100
AcDbEntity
  8
0
 62
     1
100
AcDbLine
 10
539.2988002725102
 20
1014.408315778452
 30
0.0
 11
809.2988002725101
 21
1014.408315778452
 31
0.0
  0
LINE
  5
322
330
1F
100
AcDbEntity
  8
0
 62
     1
100
AcDbLine
 10
809.2987964503036
 20
1014.40831898181
 30
0.0
 11
1079.298796450303
 21
1014.40831898181
 31
0.0
  0
LINE
  5
323
330
1F
100
AcDbEntity
  8
0
 62
     1
100
AcDbLine
 10
269.2988040947171
 20
1014.408312575094
 30
0.0
 11
539.2988040947168
 21
1014.408312575094
 31
0.0
  0
LINE
  5
324
330
1F
100
AcDbEntity
  8
0
 62
     1
100
AcDbLine
 10
-0.7011920830761939
 20
1014.408309371737
 30
0.0
 11
269.2988079169236
 21
1014.408309371737
 31
0.0
  0
LINE
  5
325
330
1F
100
AcDbEntity
  8
0
 62
     1
100
AcDbLine
 10
1079.298804854689
 20
1014.408324563568
 30
0.0
 11
1349.298804854689
 21
1014.408324563568
 31
0.0
  0
LINE
  5
326
330
1F
100
AcDbEntity
  8
0
 62
     1
100
AcDbLine
 10
1079.298812499102
 20
1014.408318156853
 30
0.0
 11
1079.298812499102
 21
824.408391758105
 31
0.0
  0
LINE
  5
327
330
1F
100
AcDbEntity
  8
0
 62
     1
100
AcDbLine
 10
1079.298808676896
 20
1014.408321360211
 30
0.0
 11
1349.298808676896
 21
1014.408321360211
 31
0.0
  0
LINE
  5
328
330
1F
100
AcDbEntity
  8
0
 62
     1
100
AcDbLine
 10
1079.298808676896
 20
824.4083949614619
 30
0.0
 11
1349.298808676896
 21
824.4083949614619
 31
0.0
  0
LINE
  5
329
330
1F
100
AcDbEntity
  8
0
 62
     1
100
AcDbLine
 10
1079.298808676896
 20
1014.408321360211
 30
0.0
 11
1079.298808676896
 21
824.4083949614619
 31
0.0
  0
LINE
  5
32A
330
1F
100
AcDbEntity
  8
0
 62
     1
100
AcDbLine
 10
1349.298808676896
 20
1014.408321360211
 30
0.0
 11
1349.298808676896
 21
824.4083949614619
 31
0.0
  0
LINE
  5
32B
330
1F
100
AcDbEntity
  8
0
 62
     1
100
AcDbLine
 10
1349.298796530747
 20
254.4086101834586
 30
0.0
 11
1349.298796530747
 21
64.40868378471027
 31
0.0
  0
LINE
  5
32C
330
1F
100
AcDbEntity
  8
0
 62
     1
100
AcDbLine
 10
1079.298796530747
 20
254.4086101834586
 30
0.0
 11
1079.298796530747
 21
64.40868378471027
 31
0.0
  0
LINE
  5
32D
330
1F
100
AcDbEntity
  8
0
 62
     1
100
AcDbLine
 10
1079.298796530747
 20
64.40868378471027
 30
0.0
 11
1349.298796530747
 21
64.40868378471027
 31
0.0
  0
LINE
  5
32E
330
1F
100
AcDbEntity
  8
0
 62
     1
100
AcDbLine
 10
1079.298784304154
 20
254.4086046016996
 30
0.0
 11
1349.298784304154
 21
254.4086046016996
 31
0.0
  0
LINE
  5
32F
330
1F
100
AcDbEntity
  8
0
 62
     1
100
AcDbLine
 10
1079.298800352954
 20
254.4086069801007
 30
0.0
 11
1079.298800352954
 21
64.40868058135261
 31
0.0
  0
LINE
  5
330
330
1F
100
AcDbEntity
  8
0
 62
     1
100
AcDbLine
 10
1079.298796530747
 20
444.4085365822068
 30
0.0
 11
1079.298796530747
 21
254.4086101834586
 31
0.0
  0
LINE
  5
331
330
1F
100
AcDbEntity
  8
0
 62
     1
100
AcDbLine
 10
1079.29879270854
 20
444.4085397855643
 30
0.0
 11
1349.29879270854
 21
444.4085397855643
 31
0.0
  0
LINE
  5
332
330
1F
100
AcDbEntity
  8
0
 62
     1
100
AcDbLine
 10
1079.29879270854
 20
444.4085397855643
 30
0.0
 11
1079.29879270854
 21
254.4086133868162
 31
0.0
  0
LINE
  5
333
330
1F
100
AcDbEntity
  8
0
 62
     1
100
AcDbLine
 10
1349.29879270854
 20
444.4085397855643
 30
0.0
 11
1349.29879270854
 21
254.4086133868162
 31
0.0
  0
LINE
  5
334
330
1F
100
AcDbEntity
  8
0
 62
     1
100
AcDbLine
 10
1349.298799541587
 20
824.408398989777
 30
0.0
 11
1349.298799541587
 21
634.4084725910281
 31
0.0
  0
LINE
  5
335
330
1F
100
AcDbEntity
  8
0
 62
     1
100
AcDbLine
 10
1079.298799541587
 20
634.4084725910281
 30
0.0
 11
1349.298799541587
 21
634.4084725910281
 31
0.0
  0
LINE
  5
336
330
1F
100
AcDbEntity
  8
0
 62
     1
100
AcDbLine
 10
1079.298799541587
 20
824.408398989777
 30
0.0
 11
1349.298799541587
 21
824.408398989777
 31
0.0
  0
LINE
  5
337
330
1F
100
AcDbEntity
  8
0
 62
     1
100
AcDbLine
 10
1079.298807186001
 20
634.4084661843129
 30
0.0
 11
1079.298807186001
 21
444.4085397855643
 31
0.0
  0
LINE
  5
338
330
1F
100
AcDbEntity
  8
0
 62
     1
100
AcDbLine
 10
1079.298803363794
 20
634.4084693876705
 30
0.0
 11
1349.298803363794
 21
634.4084693876705
 31
0.0
  0
LINE
  5
339
330
1F
100
AcDbEntity
  8
0
 62
     1
100
AcDbLine
 10
1079.298803363794
 20
444.4085429889224
 30
0.0
 11
1349.298803363794
 21
444.4085429889224
 31
0.0
  0
LINE
  5
33A
330
1F
100
AcDbEntity
  8
0
 62
     1
100
AcDbLine
 10
1079.298803363794
 20
634.4084693876705
 30
0.0
 11
1079.298803363794
 21
444.4085429889224
 31
0.0
  0
LINE
  5
33B
330
1F
100
AcDbEntity
  8
0
 62
     1
100
AcDbLine
 10
1349.298803363794
 20
634.4084693876705
 30
0.0
 11
1349.298803363794
 21
444.4085429889224
 31
0.0
  0
LINE
  5
33D
330
1F
100
AcDbEntity
  8
0
 62
     1
100
AcDbLine
 10
-0.701193573971068
 20
634.4084541958388
 30
0.0
 11
-0.701193573971068
 21
444.4085277970903
 31
0.0
  0
LINE
  5
33E
330
1F
100
AcDbEntity
  8
0
 62
     1
100
AcDbLine
 10
-0.701193573971068
 20
444.4085277970903
 30
0.0
 11
269.2988064260283
 21
444.4085277970903
 31
0.0
  0
LINE
  5
33F
330
1F
100
AcDbEntity
  8
0
 62
     1
100
AcDbLine
 10
-0.701193573971068
 20
634.4084541958388
 30
0.0
 11
269.2988064260283
 21
634.4084541958388
 31
0.0
  0
LINE
  5
340
330
1F
100
AcDbEntity
  8
0
 62
     1
100
AcDbLine
 10
269.2988170812815
 20
444.408531000448
 30
0.0
 11
539.2988170812815
 21
444.408531000448
 31
0.0
  0
LINE
  5
342
330
1F
100
AcDbEntity
  8
0
 62
     1
100
AcDbLine
 10
539.2988026038216
 20
634.4084573991962
 30
0.0
 11
539.2988026038216
 21
444.408531000448
 31
0.0
  0
LINE
  5
343
330
1F
100
AcDbEntity
  8
0
 62
     1
100
AcDbLine
 10
1079.298794959408
 20
634.4084638059115
 30
0.0
 11
1079.298794959408
 21
444.4085374071631
 31
0.0
  0
LINE
  5
344
330
1F
100
AcDbEntity
  8
0
 62
     1
100
AcDbLine
 10
809.2987949594082
 20
634.4084638059115
 30
0.0
 11
809.2987949594082
 21
444.4085374071631
 31
0.0
  0
LINE
  5
345
330
1F
100
AcDbEntity
  8
0
 62
     1
100
AcDbLine
 10
809.2987949594082
 20
444.4085374071631
 30
0.0
 11
1079.298794959408
 21
444.4085374071631
 31
0.0
  0
LINE
  5
346
330
1F
100
AcDbEntity
  8
0
 62
     1
100
AcDbLine
 10
539.2987843041542
 20
444.4085342038055
 30
0.0
 11
809.2987843041546
 21
444.4085342038055
 31
0.0
  0
LINE
  5
347
330
1F
100
AcDbEntity
  8
0
 62
     1
100
AcDbLine
 10
539.2987987816146
 20
634.4084606025537
 30
0.0
 11
539.2987987816146
 21
444.4085342038055
 31
0.0
  0
LINE
  5
348
330
1F
100
AcDbEntity
  8
0
 62
     1
100
AcDbLine
 10
809.2987987816149
 20
634.4084606025537
 30
0.0
 11
809.2987987816149
 21
444.4085342038055
 31
0.0
  0
LINE
  5
349
330
1F
100
AcDbEntity
  8
0
 62
     1
100
AcDbLine
 10
-0.7011973961782588
 20
824.4083837979449
 30
0.0
 11
269.2988026038215
 21
824.4083837979449
 31
0.0
  0
LINE
  5
34A
330
1F
100
AcDbEntity
  8
0
 62
     1
100
AcDbLine
 10
-0.7011973961782588
 20
634.4084573991962
 30
0.0
 11
269.2988026038215
 21
634.4084573991962
 31
0.0
  0
LINE
  5
34B
330
1F
100
AcDbEntity
  8
0
 62
     1
100
AcDbLine
 10
-0.7011973961782588
 20
824.4083837979449
 30
0.0
 11
-0.7011973961782588
 21
634.4084573991962
 31
0.0
  0
LINE
  5
34C
330
1F
100
AcDbEntity
  8
0
 62
     1
100
AcDbLine
 10
269.2987957707746
 20
444.4085245937325
 30
0.0
 11
269.2987957707746
 21
254.4085981949843
 31
0.0
  0
LINE
  5
34D
330
1F
100
AcDbEntity
  8
0
 62
     1
100
AcDbLine
 10
-0.7012042292251408
 20
444.4085245937325
 30
0.0
 11
-0.7012042292251408
 21
254.4085981949843
 31
0.0
  0
LINE
  5
34E
330
1F
100
AcDbEntity
  8
0
 62
     1
100
AcDbLine
 10
-0.7012042292251408
 20
254.4085981949843
 30
0.0
 11
269.2987957707746
 21
254.4085981949843
 31
0.0
  0
LINE
  5
34F
330
1F
100
AcDbEntity
  8
0
 62
     1
100
AcDbLine
 10
-0.7012042292251408
 20
444.4085245937325
 30
0.0
 11
269.2987957707746
 21
444.4085245937325
 31
0.0
  0
LINE
  5
350
330
1F
100
AcDbEntity
  8
0
 62
     1
100
AcDbLine
 10
269.298791948568
 20
254.4086013983419
 30
0.0
 11
539.2987919485679
 21
254.4086013983419
 31
0.0
  0
LINE
  5
351
330
1F
100
AcDbEntity
  8
0
 62
     1
100
AcDbLine
 10
269.298791948568
 20
444.4085277970903
 30
0.0
 11
269.298791948568
 21
254.4086013983419
 31
0.0
  0
LINE
  5
352
330
1F
100
AcDbEntity
  8
0
 62
     1
100
AcDbLine
 10
539.2987919485679
 20
444.4085277970903
 30
0.0
 11
539.2987919485679
 21
254.4086013983419
 31
0.0
  0
LINE
  5
353
330
1F
100
AcDbEntity
  8
0
 62
     1
100
AcDbLine
 10
1079.298784304154
 20
444.4085342038055
 30
0.0
 11
1079.298784304154
 21
254.4086078050573
 31
0.0
  0
LINE
  5
354
330
1F
100
AcDbEntity
  8
0
 62
     1
100
AcDbLine
 10
809.2987843041546
 20
444.4085342038055
 30
0.0
 11
809.2987843041546
 21
254.4086078050573
 31
0.0
  0
LINE
  5
355
330
1F
100
AcDbEntity
  8
0
 62
     1
100
AcDbLine
 10
809.2987843041546
 20
254.4086078050573
 30
0.0
 11
1079.298784304154
 21
254.4086078050573
 31
0.0
  0
LINE
  5
356
330
1F
100
AcDbEntity
  8
0
 62
     1
100
AcDbLine
 10
809.2987843041546
 20
444.4085342038055
 30
0.0
 11
1079.298784304154
 21
444.4085342038055
 31
0.0
  0
LINE
  5
357
330
1F
100
AcDbEntity
  8
0
 62
     1
100
AcDbLine
 10
539.298788126361
 20
254.4086046016996
 30
0.0
 11
809.2987881263612
 21
254.4086046016996
 31
0.0
  0
LINE
  5
358
330
1F
100
AcDbEntity
  8
0
 62
     1
100
AcDbLine
 10
539.298788126361
 20
444.408531000448
 30
0.0
 11
539.298788126361
 21
254.4086046016996
 31
0.0
  0
LINE
  5
359
330
1F
100
AcDbEntity
  8
0
 62
     1
100
AcDbLine
 10
809.2987881263612
 20
444.408531000448
 30
0.0
 11
809.2987881263612
 21
254.4086046016996
 31
0.0
  0
LINE
  5
35A
330
1F
100
AcDbEntity
  8
0
 62
     1
100
AcDbLine
 10
809.2987919485677
 20
254.4086013983419
 30
0.0
 11
809.2987919485677
 21
64.40867499959359
 31
0.0
  0
LINE
  5
35B
330
1F
100
AcDbEntity
  8
0
 62
     1
100
AcDbLine
 10
539.2987919485679
 20
254.4086013983419
 30
0.0
 11
539.2987919485679
 21
64.40867499959359
 31
0.0
  0
LINE
  5
35C
330
1F
100
AcDbEntity
  8
0
 62
     1
100
AcDbLine
 10
539.2987919485679
 20
64.40867499959359
 30
0.0
 11
809.2987919485677
 21
64.40867499959359
 31
0.0
  0
LINE
  5
35D
330
1F
100
AcDbEntity
  8
0
 62
     1
100
AcDbLine
 10
539.2987919485679
 20
254.4086013983419
 30
0.0
 11
809.2987919485677
 21
254.4086013983419
 31
0.0
  0
LINE
  5
35E
330
1F
100
AcDbEntity
  8
0
 62
     1
100
AcDbLine
 10
809.2987881263612
 20
254.4086046016996
 30
0.0
 11
1079.298788126361
 21
254.4086046016996
 31
0.0
  0
LINE
  5
35F
330
1F
100
AcDbEntity
  8
0
 62
     1
100
AcDbLine
 10
809.2987881263612
 20
64.40867820295125
 30
0.0
 11
1079.298788126361
 21
64.40867820295125
 31
0.0
  0
LINE
  5
360
330
1F
100
AcDbEntity
  8
0
 62
     1
100
AcDbLine
 10
809.2987881263612
 20
254.4086046016996
 30
0.0
 11
809.2987881263612
 21
64.40867820295125
 31
0.0
  0
LINE
  5
361
330
1F
100
AcDbEntity
  8
0
 62
     1
100
AcDbLine
 10
1079.298788126361
 20
254.4086046016996
 30
0.0
 11
1079.298788126361
 21
64.40867820295125
 31
0.0
  0
LINE
  5
362
330
1F
100
AcDbEntity
  8
0
 62
     1
100
AcDbLine
 10
539.2987957707747
 20
254.4085981949843
 30
0.0
 11
539.2987957707747
 21
64.40867179623598
 31
0.0
  0
LINE
  5
363
330
1F
100
AcDbEntity
  8
0
 62
     1
100
AcDbLine
 10
269.2987957707746
 20
254.4085981949843
 30
0.0
 11
269.2987957707746
 21
64.40867179623598
 31
0.0
  0
LINE
  5
364
330
1F
100
AcDbEntity
  8
0
 62
     1
100
AcDbLine
 10
269.2987957707746
 20
64.40867179623598
 30
0.0
 11
539.2987957707747
 21
64.40867179623598
 31
0.0
  0
LINE
  5
365
330
1F
100
AcDbEntity
  8
0
 62
     1
100
AcDbLine
 10
269.2987957707746
 20
254.4085981949843
 30
0.0
 11
539.2987957707747
 21
254.4085981949843
 31
0.0
  0
LINE
  5
366
330
1F
100
AcDbEntity
  8
0
 62
     1
100
AcDbLine
 10
-0.7012004070181776
 20
254.4085949916263
 30
0.0
 11
269.2987995929815
 21
254.4085949916263
 31
0.0
  0
LINE
  5
367
330
1F
100
AcDbEntity
  8
0
 62
     1
100
AcDbLine
 10
-0.7012004070181776
 20
64.40866859287826
 30
0.0
 11
269.2987995929815
 21
64.40866859287826
 31
0.0
  0
LINE
  5
368
330
1F
100
AcDbEntity
  8
0
 62
     1
100
AcDbLine
 10
-0.7012004070181776
 20
254.4085949916263
 30
0.0
 11
-0.7012004070181776
 21
64.40866859287826
 31
0.0
  0
LINE
  5
369
330
1F
100
AcDbEntity
  8
0
 62
     1
100
AcDbLine
 10
269.2987995929815
 20
254.4085949916263
 30
0.0
 11
269.2987995929815
 21
64.40866859287826
 31
0.0
  0
LINE
  5
36A
330
1F
100
AcDbEntity
  8
0
100
AcDbLine
 10
618.6843083837239
 20
487.4611009268146
 30
0.0
 11
599.4305009548306
 21
496.0430724074765
 31
0.0
  0
MTEXT
  5
36B
330
1F
100
AcDbEntity
  8
0
100
AcDbMText
 10
618.7391634846071
 20
487.0070780166233
 30
0.0
 40
2.5
 41
612.2093182843817
 71
     1
 72
     5
  1
Emplacement plat carbone 3x1 mm
 73
     1
 44
1.0
  0
MTEXT
  5
36C
330
1F
100
AcDbEntity
  8
0
100
AcDbMText
 10
1109.677552246925
 20
203.8028083759988
 30
0.0
 40
8.0
 41
444.9146667154415
 71
     1
 72
     5
  1
{\H2.5x;MORBACK F3P\P\H0.6x;Envergure:  88.5  cm   \P\Plongueur:  94 cm}\P 
 73
     1
 44
1.0
  0
MTEXT
  5
36D
330
1F
100
AcDbEntity
  8
0
100
AcDbMText
 10
986.9433400243902
 20
584.6073281952102
 30
0.0
 40
2.5
 41
53.61222530905251
 71
     1
 72
     5
  1
{\H1.6x;AVANT}
 73
     1
 44
1.0
  0
MTEXT
  5
36E
330
1F
100
AcDbEntity
  8
0
100
AcDbMText
 10
985.81159284034
 20
386.29160881261
 30
0.0
 40
2.5
 41
53.61222530905251
 71
     1
 72
     5
  1
{\H1.6x;AVANT}
 73
     1
 44
1.0
  0
LINE
  5
36F
330
1F
100
AcDbEntity
  8
0
100
AcDbLine
 10
967.5638253430014
 20
326.2869498925335
 30
0.0
 11
985.5776636466332
 21
291.2747247834253
 31
0.0
  0
LINE
  5
370
330
1F
100
AcDbEntity
  8
0
100
AcDbLine
 10
970.5638002967674
 20
326.2746911497274
 30
0.0
 11
967.5638253430014
 21
326.2869498925335
 31
0.0
  0
LINE
  5
371
330
1F
100
AcDbEntity
  8
0
100
AcDbLine
 10
970.5638002967674
 20
383.1158557237568
 30
0.0
 11
985.5638002967676
 21
358.0090004840983
 31
0.0
  0
LINE
  5
372
330
1F
100
AcDbEntity
  8
0
100
AcDbLine
 10
970.5638002967674
 20
326.2746911497274
 30
0.0
 11
970.5638002967674
 21
383.1158557237568
 31
0.0
  0
LINE
  5
373
330
1F
100
AcDbEntity
  8
0
100
AcDbLine
 10
988.5635362760993
 20
301.2747151737976
 30
0.0
 11
988.5772233041638
 21
291.3261238195737
 31
0.0
  0
LINE
  5
374
330
1F
100
AcDbEntity
  8
0
100
AcDbLine
 10
988.530179044141
 20
352.9999104428932
 30
0.0
 11
988.5297983292556
 21
343.0201211441816
 31
0.0
  0
LINE
  5
375
330
1F
100
AcDbEntity
  8
0
100
AcDbLine
 10
985.5302057161688
 20
353.0125607968653
 30
0.0
 11
988.530179044141
 21
352.9999104428932
 31
0.0
  0
LINE
  5
376
330
1F
100
AcDbEntity
  8
0
100
AcDbLine
 10
985.5298078557261
 20
343.0125608047798
 30
0.0
 11
988.5297983292556
 21
343.0201211441816
 31
0.0
  0
LINE
  5
377
330
1F
100
AcDbEntity
  8
0
100
AcDbLine
 10
985.5638002967676
 20
301.2747151737976
 30
0.0
 11
988.5635362760993
 21
301.2747151737976
 31
0.0
  0
LINE
  5
378
330
1F
100
AcDbEntity
  8
0
100
AcDbLine
 10
985.5776636466332
 20
291.2747247834253
 30
0.0
 11
988.5772233041638
 21
291.3261238195737
 31
0.0
  0
LINE
  5
379
330
1F
100
AcDbEntity
  8
0
100
AcDbLine
 10
985.5638002967676
 20
358.0090004840983
 30
0.0
 11
985.5302057161688
 21
353.0125607968653
 31
0.0
  0
LINE
  5
37A
330
1F
100
AcDbEntity
  8
0
100
AcDbLine
 10
985.5298078557261
 20
343.0125608047798
 30
0.0
 11
985.5281472719514
 21
301.2747151737976
 31
0.0
  0
LINE
  5
37B
330
1F
100
AcDbEntity
  8
0
100
AcDbLine
 10
985.529141922103
 20
326.2746911497274
 30
0.0
 11
985.529141922103
 21
326.2746911497274
 31
0.0
  0
LINE
  5
37C
330
1F
100
AcDbEntity
  8
0
100
AcDbLine
 10
1024.45072614921
 20
564.9757802514673
 30
0.0
 11
1021.450814594336
 21
564.9757802514673
 31
0.0
  0
LINE
  5
37D
330
1F
100
AcDbEntity
  8
0
100
AcDbLine
 10
1024.45072614921
 20
495.8059016409672
 30
0.0
 11
1021.451282324359
 21
495.8636661764789
 31
0.0
  0
LINE
  5
37E
330
1F
100
AcDbEntity
  8
0
100
AcDbLine
 10
1006.450815300294
 20
564.9711782135342
 30
0.0
 11
1003.450815300294
 21
564.9711782135342
 31
0.0
  0
LINE
  5
37F
330
1F
100
AcDbEntity
  8
0
100
AcDbLine
 10
1006.451282324359
 20
495.8636661764789
 30
0.0
 11
1003.451282324359
 21
495.8636661764789
 31
0.0
  0
LINE
  5
380
330
1F
100
AcDbEntity
  8
0
100
AcDbLine
 10
1021.451282324359
 20
472.5367395588606
 30
0.0
 11
1003.451282324359
 21
495.8636661764789
 31
0.0
  0
LINE
  5
381
330
1F
100
AcDbEntity
  8
0
100
AcDbLine
 10
1021.45072614921
 20
578.0444936594967
 30
0.0
 11
1003.450815300294
 21
564.9711782135342
 31
0.0
  0
LINE
  5
382
330
1F
100
AcDbEntity
  8
0
100
AcDbLine
 10
1021.45115935845
 20
485.8636661764789
 30
0.0
 11
1024.45072614921
 21
485.8636661764789
 31
0.0
  0
LINE
  5
383
330
1F
100
AcDbEntity
  8
0
100
AcDbLine
 10
1003.451082124573
 20
525.4880693144313
 30
0.0
 11
1006.451082124572
 21
525.4880693144313
 31
0.0
  0
LINE
  5
384
330
1F
100
AcDbEntity
  8
0
100
AcDbLine
 10
1003.451014545224
 20
535.4880693144313
 30
0.0
 11
1006.451014545224
 21
535.4880693144313
 31
0.0
  0
LINE
  5
385
330
1F
100
AcDbEntity
  8
0
100
AcDbLine
 10
1024.45072614921
 20
495.8059016409672
 30
0.0
 11
1024.45072614921
 21
485.8636661764789
 31
0.0
  0
LINE
  5
386
330
1F
100
AcDbEntity
  8
0
100
AcDbLine
 10
1003.451014545224
 20
535.4880693144313
 30
0.0
 11
1003.451082124573
 21
525.4880693144313
 31
0.0
  0
LINE
  5
387
330
1F
100
AcDbEntity
  8
0
100
AcDbLine
 10
1021.451282324359
 20
472.5367395588606
 30
0.0
 11
1021.451282324359
 21
485.8636661764789
 31
0.0
  0
LINE
  5
388
330
1F
100
AcDbEntity
  8
0
100
AcDbLine
 10
1006.450815300294
 20
564.9711782135342
 30
0.0
 11
1006.451014545224
 21
535.4880693144313
 31
0.0
  0
LINE
  5
389
330
1F
100
AcDbEntity
  8
0
100
AcDbLine
 10
1006.451082124572
 20
525.4880693144313
 30
0.0
 11
1006.451282324359
 21
495.8636661764789
 31
0.0
  0
LINE
  5
38A
330
1F
100
AcDbEntity
  8
0
100
AcDbLine
 10
1024.45072614921
 20
564.9757802514673
 30
0.0
 11
1024.45072614921
 21
554.9757802514672
 31
0.0
  0
LINE
  5
38B
330
1F
100
AcDbEntity
  8
0
100
AcDbLine
 10
1024.45072614921
 20
554.9757802514672
 30
0.0
 11
1021.450860677074
 21
554.9757802514672
 31
0.0
  0
LINE
  5
38C
330
1F
100
AcDbEntity
  8
0
100
AcDbLine
 10
1021.450814594336
 20
564.9757802514673
 30
0.0
 11
1021.45072614921
 21
578.0444936594967
 31
0.0
  0
LINE
  5
38D
330
1F
100
AcDbEntity
  8
0
100
AcDbLine
 10
1021.450860677074
 20
554.9757802514672
 30
0.0
 11
1021.451282324359
 21
495.8636661764789
 31
0.0
  0
LINE
  5
38E
330
1F
100
AcDbEntity
  8
0
100
AcDbLine
 10
1112.416140303674
 20
705.7619749324234
 30
0.0
 11
1102.424423011284
 21
705.716652022328
 31
0.0
  0
LINE
  5
38F
330
1F
100
AcDbEntity
  8
0
100
AcDbLine
 10
1112.414473103657
 20
708.7619744691636
 30
0.0
 11
1112.416140303674
 21
705.7619749324234
 31
0.0
  0
LINE
  5
390
330
1F
100
AcDbEntity
  8
0
100
AcDbLine
 10
1102.414527143845
 20
708.7290989338261
 30
0.0
 11
1112.414473103657
 21
708.7619744691636
 31
0.0
  0
LINE
  5
391
330
1F
100
AcDbEntity
  8
0
100
AcDbLine
 10
1102.414527143845
 20
708.7290989338261
 30
0.0
 11
1102.424423011284
 21
705.716652022328
 31
0.0
  0
LINE
  5
392
330
1F
100
AcDbEntity
  8
0
100
AcDbLine
 10
1170.414159670571
 20
708.952652574125
 30
0.0
 11
1170.423590202069
 21
705.9526673966487
 31
0.0
  0
LINE
  5
393
330
1F
100
AcDbEntity
  8
0
100
AcDbLine
 10
1180.414138837222
 20
708.9730649859092
 30
0.0
 11
1170.414159670571
 21
708.952652574125
 31
0.0
  0
LINE
  5
394
330
1F
100
AcDbEntity
  8
0
100
AcDbLine
 10
1180.424001497823
 20
705.9730811979654
 30
0.0
 11
1180.414138837222
 21
708.9730649859092
 31
0.0
  0
LINE
  5
395
330
1F
100
AcDbEntity
  8
0
100
AcDbLine
 10
1180.424001497823
 20
705.9730811979654
 30
0.0
 11
1170.424055538011
 21
705.9402056626271
 31
0.0
  0
LINE
  5
396
330
1F
100
AcDbEntity
  8
0
100
AcDbLine
 10
1100.473747122328
 20
690.7101579755414
 30
0.0
 11
1100.48360978293
 21
687.7101741875975
 31
0.0
  0
LINE
  5
397
330
1F
100
AcDbEntity
  8
0
100
AcDbLine
 10
1110.483555742743
 20
687.7430497229356
 30
0.0
 11
1110.473693082141
 21
690.7430335108795
 31
0.0
  0
LINE
  5
398
330
1F
100
AcDbEntity
  8
0
100
AcDbLine
 10
1170.473368841018
 20
690.9402867229083
 30
0.0
 11
1170.483231501619
 21
687.9403029349642
 31
0.0
  0
LINE
  5
399
330
1F
100
AcDbEntity
  8
0
100
AcDbLine
 10
1085.270589624685
 20
725.5942824502128
 30
0.0
 11
1100.473747122328
 21
690.7101579755414
 31
0.0
  0
SPLINE
  5
39A
330
1F
100
AcDbEntity
  8
0
100
AcDbSpline
210
0.0
220
0.0
230
1.0
 70
     8
 71
     3
 72
    11
 73
     7
 74
     5
 42
0.0000000001
 43
0.0000000001
 44
0.0000000001
 40
0.0
 40
0.0
 40
0.0
 40
0.0
 40
13.65464550034603
 40
40.17035788178371
 40
87.26752758297442
 40
137.7850323927168
 40
137.7850323927168
 40
137.7850323927168
 40
137.7850323927168
 10
1211.647788590638
 20
689.5808656739267
 30
0.0
 10
1209.357963675243
 20
693.5871472131097
 30
0.0
 10
1202.621568626708
 20
705.3731553668971
 30
0.0
 10
1175.254024734728
 20
718.9596291967651
 30
0.0
 10
1134.901630563942
 20
728.2953819741042
 30
0.0
 10
1102.196259393802
 20
726.5154381964898
 30
0.0
 10
1085.270589624685
 20
725.5942824502128
 30
0.0
 11
1211.647788590638
 21
689.5808656739267
 31
0.0
 11
1204.101080090563
 21
700.9605200867381
 31
0.0
 11
1181.598870934177
 21
714.9866951240523
 31
0.0
 11
1135.787077771011
 21
725.9147782605443
 31
0.0
 11
1085.270589624685
 21
725.5942824502128
 31
0.0
  0
SPLINE
  5
39B
330
1F
100
AcDbEntity
  8
0
100
AcDbSpline
210
0.0
220
0.0
230
1.0
 70
     8
 71
     3
 72
    11
 73
     7
 74
     5
 42
0.0000000001
 43
0.0000000001
 44
0.0000000001
 40
0.0
 40
0.0
 40
0.0
 40
0.0
 40
13.6546455003457
 40
40.17035788178353
 40
87.2675275829737
 40
137.785032392716
 40
137.785032392716
 40
137.785032392716
 40
137.785032392716
 10
1211.647788590638
 20
689.5808656739267
 30
0.0
 10
1209.384017497953
 20
685.5598048245632
 30
0.0
 10
1202.724269725427
 20
673.7303176819444
 30
0.0
 10
1175.445494953344
 20
659.9664818523824
 30
0.0
 10
1135.154551181549
 20
650.3689902419619
 30
0.0
 10
1102.438315076837
 20
651.9365993669763
 30
0.0
 10
1085.507022491404
 20
652.7478677742058
 30
0.0
 11
1211.647788590638
 21
689.5808656739267
 31
0.0
 11
1204.175106714321
 21
678.1524638033467
 31
0.0
 11
1181.764418363732
 21
663.9805178978647
 31
0.0
 11
1136.024526755687
 21
652.7552914169864
 31
0.0
 11
1085.507022491404
 21
652.7478677742058
 31
0.0
  0
LINE
  5
39C
330
1F
100
AcDbEntity
  8
0
100
AcDbLine
 10
1085.507022491404
 20
652.7478677742058
 30
0.0
 11
1100.483419808641
 21
687.7299440656266
 31
0.0
  0
LINE
  5
39D
330
1F
100
AcDbEntity
  8
0
100
AcDbLine
 10
1170.483060582455
 20
687.9542018123227
 30
0.0
 11
1170.473449536168
 21
690.9541864169146
 31
0.0
  0
LINE
  5
39E
330
1F
100
AcDbEntity
  8
0
100
AcDbLine
 10
1110.473757444327
 20
690.7619654911752
 30
0.0
 11
1110.483368490614
 21
687.7619808865837
 31
0.0
  0
LINE
  5
39F
330
1F
100
AcDbEntity
  8
0
100
AcDbLine
 10
1100.483419808641
 20
687.7299440656266
 30
0.0
 11
1100.473808762354
 21
690.7299286702192
 31
0.0
  0
LINE
  5
3A0
330
1F
100
AcDbEntity
  8
0
100
AcDbLine
 10
1170.473368841018
 20
690.9402867229083
 30
0.0
 11
1110.473757444327
 21
690.7619654911752
 31
0.0
  0
LINE
  5
3A1
330
1F
100
AcDbEntity
  8
0
100
AcDbLine
 10
1170.483231501619
 20
687.9403029349642
 30
0.0
 11
1110.483555742743
 21
687.7430497229356
 31
0.0
  0
LINE
  5
3A2
330
1F
100
AcDbEntity
  8
0
100
AcDbLine
 10
1110.478593292999
 20
689.2525074018982
 30
0.0
 11
1100.478645954523
 21
689.2200512226646
 31
0.0
  0
LINE
  5
3A3
330
1F
100
AcDbEntity
  8
0
100
AcDbLine
 10
1109.731184059731
 20
779.0381179089711
 30
0.0
 11
1099.731236721255
 21
779.005661729738
 31
0.0
  0
LINE
  5
3A4
330
1F
100
AcDbEntity
  8
0
100
AcDbLine
 10
1169.735822268351
 20
777.725913442037
 30
0.0
 11
1109.736146509474
 21
777.5286602300081
 31
0.0
  0
LINE
  5
3A5
330
1F
100
AcDbEntity
  8
0
100
AcDbLine
 10
1169.72595960775
 20
780.7258972299811
 30
0.0
 11
1109.726348211059
 21
780.547575998249
 31
0.0
  0
LINE
  5
3A6
330
1F
100
AcDbEntity
  8
0
100
AcDbLine
 10
1099.736010575373
 20
777.5155545727
 30
0.0
 11
1099.726399529086
 21
780.5155391772919
 31
0.0
  0
LINE
  5
3A7
330
1F
100
AcDbEntity
  8
0
100
AcDbLine
 10
1109.726348211059
 20
780.547575998249
 30
0.0
 11
1109.735959257346
 21
777.5475913936571
 31
0.0
  0
LINE
  5
3A8
330
1F
100
AcDbEntity
  8
0
100
AcDbLine
 10
1169.735651349187
 20
777.7398123193951
 30
0.0
 11
1169.7260403029
 21
780.739796923988
 31
0.0
  0
LINE
  5
3A9
330
1F
100
AcDbEntity
  8
0
100
AcDbLine
 10
1084.759613258136
 20
742.5334782812787
 30
0.0
 11
1099.736010575373
 21
777.5155545727
 31
0.0
  0
SPLINE
  5
3AA
330
1F
100
AcDbEntity
  8
0
100
AcDbSpline
210
0.0
220
0.0
230
1.0
 70
     8
 71
     3
 72
    11
 73
     7
 74
     5
 42
0.0000000001
 43
0.0000000001
 44
0.0000000001
 40
0.0
 40
0.0
 40
0.0
 40
0.0
 40
13.6546455003457
 40
40.17035788178347
 40
87.26752758297378
 40
137.7850323927161
 40
137.7850323927161
 40
137.7850323927161
 40
137.7850323927161
 10
1210.90037935737
 20
779.366476181
 30
0.0
 10
1208.636608264685
 20
775.3454153316364
 30
0.0
 10
1201.976860492158
 20
763.5159281890174
 30
0.0
 10
1174.698085720076
 20
749.7520923594562
 30
0.0
 10
1134.407141948281
 20
740.1546007490346
 30
0.0
 10
1101.690905843569
 20
741.7222098740491
 30
0.0
 10
1084.759613258136
 20
742.5334782812787
 30
0.0
 11
1210.90037935737
 21
779.366476181
 31
0.0
 11
1203.427697481053
 21
767.9380743104201
 31
0.0
 11
1181.017009130464
 21
753.7661284049382
 31
0.0
 11
1135.277117522419
 21
742.5409019240594
 31
0.0
 11
1084.759613258136
 21
742.5334782812787
 31
0.0
  0
SPLINE
  5
3AB
330
1F
100
AcDbEntity
  8
0
100
AcDbSpline
210
0.0
220
0.0
230
1.0
 70
     8
 71
     3
 72
    11
 73
     7
 74
     5
 42
0.0000000001
 43
0.0000000001
 44
0.0000000001
 40
0.0
 40
0.0
 40
0.0
 40
0.0
 40
13.65464550034565
 40
40.17035788178327
 40
87.26752758297422
 40
137.7850323927168
 40
137.7850323927168
 40
137.7850323927168
 40
137.7850323927168
 10
1210.90037935737
 20
779.366476181
 30
0.0
 10
1208.610554441975
 20
783.3727577201828
 30
0.0
 10
1201.87415939344
 20
795.15876587397
 30
0.0
 10
1174.506615501461
 20
808.7452397038379
 30
0.0
 10
1134.154221330675
 20
818.0809924811784
 30
0.0
 10
1101.448850160534
 20
816.3010487035631
 30
0.0
 10
1084.523180391417
 20
815.3798929572859
 30
0.0
 11
1210.90037935737
 21
779.366476181
 31
0.0
 11
1203.353670857295
 21
790.746130593811
 31
0.0
 11
1180.851461700909
 21
804.772305631125
 31
0.0
 11
1135.039668537743
 21
815.7003887676181
 31
0.0
 11
1084.523180391417
 21
815.3798929572859
 31
0.0
  0
LINE
  5
3AC
330
1F
100
AcDbEntity
  8
0
100
AcDbLine
 10
1084.523180391417
 20
815.3798929572859
 30
0.0
 11
1099.72633788906
 21
780.4957684826141
 31
0.0
  0
LINE
  5
3AD
330
1F
100
AcDbEntity
  8
0
100
AcDbLine
 10
1169.72595960775
 20
780.7258972299811
 30
0.0
 11
1169.735822268351
 21
777.725913442037
 31
0.0
  0
LINE
  5
3AE
330
1F
100
AcDbEntity
  8
0
100
AcDbLine
 10
1109.736146509474
 20
777.5286602300081
 30
0.0
 11
1109.726283848873
 21
780.5286440179521
 31
0.0
  0
LINE
  5
3AF
330
1F
100
AcDbEntity
  8
0
100
AcDbLine
 10
1099.72633788906
 20
780.4957684826141
 30
0.0
 11
1099.736200549662
 21
777.49578469467
 31
0.0
  0
LINE
  5
3B0
330
1F
100
AcDbEntity
  8
0
100
AcDbLine
 10
1266.097590883333
 20
920.2646099813755
 30
0.0
 11
1276.469200033848
 21
920.2657552417488
 31
0.0
  0
LINE
  5
3B1
330
1F
100
AcDbEntity
  8
0
100
AcDbLine
 10
1255.704470443154
 20
866.5948787320026
 30
0.0
 11
1255.706821319725
 21
869.5947893657455
 31
0.0
  0
LINE
  5
3B2
330
1F
100
AcDbEntity
  8
0
100
AcDbLine
 10
1255.704470442954
 20
866.5948787320026
 30
0.0
 11
1255.706821319524
 21
869.5947893657463
 31
0.0
  0
LINE
  5
3B3
330
1F
100
AcDbEntity
  8
0
100
AcDbLine
 10
1255.704470373844
 20
866.5947902869046
 30
0.0
 11
1255.706821319725
 21
869.5947893657455
 31
0.0
  0
LINE
  5
3B4
330
1F
100
AcDbEntity
  8
0
100
AcDbLine
 10
1255.704470443154
 20
866.5948787320026
 30
0.0
 11
1255.706821319725
 21
869.5947893657455
 31
0.0
  0
LINE
  5
3B5
330
1F
100
AcDbEntity
  8
0
100
AcDbLine
 10
1268.773179769291
 20
866.5845490075865
 30
0.0
 11
1268.775530645863
 21
869.5844596413293
 31
0.0
  0
LINE
  5
3B6
330
1F
100
AcDbEntity
  8
0
100
AcDbLine
 10
1268.773179699982
 20
866.5844605624874
 30
0.0
 11
1268.775530645863
 21
869.5844596413293
 31
0.0
  0
LINE
  5
3B7
330
1F
100
AcDbEntity
  8
0
100
AcDbLine
 10
1255.706821319925
 20
869.5947893657455
 30
0.0
 11
1268.775530645863
 21
869.5844596413293
 31
0.0
  0
LINE
  5
3B8
330
1F
100
AcDbEntity
  8
0
100
AcDbLine
 10
1268.773179769091
 20
866.5845490075865
 30
0.0
 11
1268.775530645662
 21
869.5844596413305
 31
0.0
  0
LINE
  5
3B9
330
1F
100
AcDbEntity
  8
0
100
AcDbLine
 10
1255.706821319725
 20
869.5947893657455
 30
0.0
 11
1255.704470373844
 21
866.5947902869046
 31
0.0
  0
LINE
  5
3BA
330
1F
100
AcDbEntity
  8
0
100
AcDbLine
 10
1255.704470373844
 20
866.5947902869046
 30
0.0
 11
1268.773179769091
 21
866.5845490075865
 31
0.0
  0
LINE
  5
3BB
330
1F
100
AcDbEntity
  8
0
100
AcDbLine
 10
1268.773179769291
 20
866.5845490075865
 30
0.0
 11
1268.775530645863
 21
869.5844596413293
 31
0.0
  0
LINE
  5
3BC
330
1F
100
AcDbEntity
  8
0
100
AcDbLine
 10
1255.706821319925
 20
869.5947893657455
 30
0.0
 11
1255.704470374045
 21
866.5947902869035
 31
0.0
  0
LINE
  5
3BD
330
1F
100
AcDbEntity
  8
0
100
AcDbLine
 10
1224.993135163168
 20
868.672837350666
 30
0.0
 11
1283.609778385174
 21
856.9955956179104
 31
0.0
  0
LINE
  5
3C1
330
1F
100
AcDbEntity
  8
0
100
AcDbLine
 10
1276.469200033847
 20
920.2657552417488
 30
0.0
 11
1283.609778385174
 21
856.9955956179104
 31
0.0
  0
LINE
  5
3C2
330
1F
100
AcDbEntity
  8
0
100
AcDbLine
 10
1134.104941499577
 20
923.2432967186483
 30
0.0
 11
1144.104941438611
 21
923.2444009449537
 31
0.0
  0
LINE
  5
3C3
330
1F
100
AcDbEntity
  8
0
100
AcDbLine
 10
1256.103563747197
 20
923.2635037740307
 30
0.0
 11
1266.101016170957
 21
923.2646077247576
 31
0.0
  0
LINE
  5
3C4
330
1F
100
AcDbEntity
  8
0
100
AcDbLine
 10
1204.067665106122
 20
920.2509110977644
 30
0.0
 11
1256.104226469486
 21
920.2624030153943
 31
0.0
  0
LINE
  5
3C5
330
1F
100
AcDbEntity
  8
0
100
AcDbLine
 10
1144.097361662029
 20
920.2376670676171
 30
0.0
 11
1194.073532732363
 21
920.2487039621857
 31
0.0
  0
LINE
  5
3C6
330
1F
100
AcDbEntity
  8
0
100
AcDbLine
 10
1124.106433263073
 20
920.2332521869612
 30
0.0
 11
1134.107156435935
 21
920.2354607993216
 31
0.0
  0
LINE
  5
3C7
330
1F
100
AcDbEntity
  8
0
100
AcDbLine
 10
1256.103563930049
 20
923.2623998260104
 30
0.0
 11
1266.101016170957
 21
923.2646077247563
 31
0.0
  0
LINE
  5
3C8
330
1F
100
AcDbEntity
  8
0
100
AcDbLine
 10
1194.069078226411
 20
923.2486997492385
 30
0.0
 11
1204.06700256672
 21
923.2509077522452
 31
0.0
  0
LINE
  5
3C9
330
1F
100
AcDbEntity
  8
0
100
AcDbLine
 10
1204.06700256672
 20
923.2509077522452
 30
0.0
 11
1204.067665106122
 21
920.2509110977644
 31
0.0
  0
LINE
  5
3CA
330
1F
100
AcDbEntity
  8
0
100
AcDbLine
 10
1194.073532732363
 20
920.2487039621857
 30
0.0
 11
1194.069078226411
 21
923.2486997492385
 31
0.0
  0
LINE
  5
3CB
330
1F
100
AcDbEntity
  8
0
100
AcDbLine
 10
1266.101016170957
 20
923.2646077247563
 30
0.0
 11
1266.097590883333
 21
920.2646099813755
 31
0.0
  0
LINE
  5
3CC
330
1F
100
AcDbEntity
  8
0
100
AcDbLine
 10
1256.103563930049
 20
923.2623998260104
 30
0.0
 11
1256.104226469486
 21
920.2624030153943
 31
0.0
  0
LINE
  5
3CD
330
1F
100
AcDbEntity
  8
0
100
AcDbLine
 10
1144.104941438611
 20
923.2444009449537
 30
0.0
 11
1144.097361662029
 21
920.2376670676171
 31
0.0
  0
LINE
  5
3CE
330
1F
100
AcDbEntity
  8
0
100
AcDbLine
 10
1134.104941682478
 20
923.2421924778723
 30
0.0
 11
1144.104941438611
 21
923.2444009449537
 31
0.0
  0
LINE
  5
3CF
330
1F
100
AcDbEntity
  8
0
100
AcDbLine
 10
1134.104941682478
 20
923.2421924778723
 30
0.0
 11
1134.107156435935
 21
920.2354607993216
 31
0.0
  0
LINE
  5
3D0
330
1F
100
AcDbEntity
  8
0
100
AcDbLine
 10
1276.482812282037
 20
940.5114735910771
 30
0.0
 11
1283.750987421555
 21
1003.891458356962
 31
0.0
  0
LINE
  5
3D1
330
1F
100
AcDbEntity
  8
0
100
AcDbLine
 10
1256.128470014982
 20
940.5319516398511
 30
0.0
 11
1276.482812282037
 21
940.5114735910771
 31
0.0
  0
LINE
  5
3D2
330
1F
100
AcDbEntity
  8
0
100
AcDbLine
 10
1194.097815721988
 20
940.6032338661411
 30
0.0
 11
1246.127628868312
 21
940.543444058073
 31
0.0
  0
LINE
  5
3D3
330
1F
100
AcDbEntity
  8
0
100
AcDbLine
 10
1134.131477557028
 20
940.6721438935401
 30
0.0
 11
1184.129278996965
 21
940.614689161892
 31
0.0
  0
LINE
  5
3D5
330
1F
100
AcDbEntity
  8
0
100
AcDbLine
 10
1246.124736783204
 20
937.54344854693
 30
0.0
 11
1256.125022574633
 21
937.5319567368862
 31
0.0
  0
LINE
  5
3D6
330
1F
100
AcDbEntity
  8
0
100
AcDbLine
 10
1184.101709803167
 20
937.614722194429
 30
0.0
 11
1194.090576317708
 21
937.603243506826
 31
0.0
  0
LINE
  5
3D7
330
1F
100
AcDbEntity
  8
0
100
AcDbLine
 10
1224.852874803871
 20
991.9871164590961
 30
0.0
 11
1283.750987421555
 21
1003.891458356962
 31
0.0
  0
SPLINE
  5
3D9
330
1F
100
AcDbEntity
  8
0
100
AcDbSpline
210
0.0
220
0.0
230
1.0
 70
     8
 71
     3
 72
    13
 73
     9
 74
     7
 42
0.0000000001
 43
0.0000000001
 44
0.0000000001
 40
0.0
 40
0.0
 40
0.0
 40
0.0
 40
6.411040704880994
 40
12.31485977529607
 40
17.49180716028263
 40
25.6683266084963
 40
42.66722248626499
 40
70.40015035178981
 40
70.40015035178981
 40
70.40015035178981
 40
70.40015035178981
 10
1161.166427934618
 20
978.9857132596321
 30
0.0
 10
1162.231568640836
 20
980.8314728281546
 30
0.0
 10
1164.277579427828
 20
984.376961199171
 30
0.0
 10
1167.279365748123
 20
989.4659923633431
 30
0.0
 10
1172.834870688539
 20
993.1587426728638
 30
0.0
 10
1183.22582714367
 20
993.7769330413454
 30
0.0
 10
1200.607814333626
 20
991.2721717686622
 30
0.0
 10
1215.574066856783
 20
991.7135005411994
 30
0.0
 10
1224.852874803982
 20
991.9871164591192
 30
0.0
 11
1161.166427934618
 21
978.9857132596321
 31
0.0
 11
1164.380104327788
 21
984.533120488205
 31
0.0
 11
1167.771748610145
 21
989.3654934744459
 31
0.0
 11
1172.077618777099
 21
992.2395613811341
 31
0.0
 11
1180.168852988774
 21
993.4174405000741
 31
0.0
 11
1197.120424638563
 21
992.1498918164759
 31
0.0
 11
1224.852874803982
 21
991.9871164591192
 31
0.0
  0
LINE
  5
3DC
330
1F
100
AcDbEntity
  8
0
100
AcDbLine
 10
1124.126481713052
 20
937.6796012689553
 30
0.0
 11
1134.126471651339
 21
937.6654155664626
 31
0.0
  0
LINE
  5
3DD
330
1F
100
AcDbEntity
  8
0
100
AcDbLine
 10
1134.126471651339
 20
937.6654155664626
 30
0.0
 11
1134.131477557028
 21
940.6721438935401
 31
0.0
  0
LINE
  5
3DE
330
1F
100
AcDbEntity
  8
0
100
AcDbLine
 10
1134.126471651339
 20
937.6654155664626
 30
0.0
 11
1124.126481713052
 21
937.6796012689553
 31
0.0
  0
LINE
  5
3DF
330
1F
100
AcDbEntity
  8
0
100
AcDbLine
 10
1246.124736783204
 20
937.54344854693
 30
0.0
 11
1246.127628868312
 21
940.543444058073
 31
0.0
  0
LINE
  5
3E0
330
1F
100
AcDbEntity
  8
0
100
AcDbLine
 10
1256.125022574633
 20
937.5319567368862
 30
0.0
 11
1256.128470014982
 21
940.5319516398511
 31
0.0
  0
LINE
  5
3E1
330
1F
100
AcDbEntity
  8
0
100
AcDbLine
 10
1194.097815721988
 20
940.6032338661411
 30
0.0
 11
1194.090576317708
 21
937.603243506826
 31
0.0
  0
LINE
  5
3E2
330
1F
100
AcDbEntity
  8
0
100
AcDbLine
 10
1184.101709803167
 20
937.614722194429
 30
0.0
 11
1184.129278996965
 21
940.614689161892
 31
0.0
  0
LINE
  5
3E3
330
1F
100
AcDbEntity
  8
0
100
AcDbLine
 10
1124.126481713052
 20
937.6796012689553
 30
0.0
 11
1124.126481713052
 21
937.6796012689553
 31
0.0
  0
LINE
  5
3E4
330
1F
100
AcDbEntity
  8
0
100
AcDbLine
 10
1124.126481713052
 20
937.6796012689553
 30
0.0
 11
1124.126481713052
 21
937.6796012689553
 31
0.0
  0
LINE
  5
3E5
330
1F
100
AcDbEntity
  8
0
100
AcDbLine
 10
1255.766519699833
 20
994.2066088794161
 30
0.0
 11
1255.766850957958
 21
991.2066973428308
 31
0.0
  0
LINE
  5
3E6
330
1F
100
AcDbEntity
  8
0
100
AcDbLine
 10
1255.766519699632
 20
994.2066088794152
 30
0.0
 11
1255.766850957758
 21
991.2066973428308
 31
0.0
  0
LINE
  5
3E7
330
1F
100
AcDbEntity
  8
0
100
AcDbLine
 10
1255.766519690066
 20
994.2066973245413
 30
0.0
 11
1255.766850957958
 21
991.2066973428308
 31
0.0
  0
LINE
  5
3E8
330
1F
100
AcDbEntity
  8
0
100
AcDbLine
 10
1255.766519699833
 20
994.2066088794152
 30
0.0
 11
1255.766850957958
 21
991.2066973428308
 31
0.0
  0
LINE
  5
3E9
330
1F
100
AcDbEntity
  8
0
100
AcDbLine
 10
1256.128470197834
 20
940.5308476918301
 30
0.0
 11
1266.125922438742
 21
940.5330555905772
 31
0.0
  0
LINE
  5
3EA
330
1F
100
AcDbEntity
  8
0
100
AcDbLine
 10
1256.128470014982
 20
940.5319516398511
 30
0.0
 11
1266.125922438742
 21
940.5330555905772
 31
0.0
  0
LINE
  5
3EB
330
1F
100
AcDbEntity
  8
0
100
AcDbLine
 10
1268.835233018622
 20
994.2081404062527
 30
0.0
 11
1268.835564276747
 21
991.2082288696682
 31
0.0
  0
LINE
  5
3EC
330
1F
100
AcDbEntity
  8
0
100
AcDbLine
 10
1268.835233008856
 20
994.208228851378
 30
0.0
 11
1268.835564276747
 21
991.2082288696682
 31
0.0
  0
LINE
  5
3ED
330
1F
100
AcDbEntity
  8
0
100
AcDbLine
 10
1255.766850958158
 20
991.2066973428308
 30
0.0
 11
1268.835564276747
 21
991.2082288696682
 31
0.0
  0
LINE
  5
3EE
330
1F
100
AcDbEntity
  8
0
100
AcDbLine
 10
1268.835233018422
 20
994.2081404062527
 30
0.0
 11
1268.835564276547
 21
991.2082288696682
 31
0.0
  0
LINE
  5
3EF
330
1F
100
AcDbEntity
  8
0
100
AcDbLine
 10
1255.766850957958
 20
991.2066973428308
 30
0.0
 11
1255.766519690066
 21
994.2066973245413
 31
0.0
  0
LINE
  5
3F0
330
1F
100
AcDbEntity
  8
0
100
AcDbLine
 10
1255.766519690066
 20
994.2066973245413
 30
0.0
 11
1268.835233018422
 21
994.2081404062527
 31
0.0
  0
LINE
  5
3F1
330
1F
100
AcDbEntity
  8
0
100
AcDbLine
 10
1268.835233018622
 20
994.2081404062527
 30
0.0
 11
1268.835564276747
 21
991.2082288696682
 31
0.0
  0
LINE
  5
3F2
330
1F
100
AcDbEntity
  8
0
100
AcDbLine
 10
1255.766850958158
 20
991.2066973428308
 30
0.0
 11
1255.766519690267
 21
994.2066973245413
 31
0.0
  0
LINE
  5
3FA
330
1F
100
AcDbEntity
  8
0
100
AcDbLine
 10
980.67622015354
 20
553.8528502987523
 30
0.0
 11
980.6766418008256
 21
494.7407362237639
 31
0.0
  0
LINE
  5
3FB
330
1F
100
AcDbEntity
  8
0
100
AcDbLine
 10
980.6761740708022
 20
563.8528502987521
 30
0.0
 11
980.6760856256765
 21
576.9215637067822
 31
0.0
  0
LINE
  5
3FC
330
1F
100
AcDbEntity
  8
0
100
AcDbLine
 10
983.6760856256764
 20
553.8528502987523
 30
0.0
 11
980.67622015354
 21
553.8528502987523
 31
0.0
  0
LINE
  5
3FD
330
1F
100
AcDbEntity
  8
0
100
AcDbLine
 10
983.6760856256764
 20
563.8528502987521
 30
0.0
 11
983.6760856256764
 21
553.8528502987523
 31
0.0
  0
LINE
  5
42A
330
1F
100
AcDbEntity
  8
0
100
AcDbLine
 10
1329.503363653909
 20
780.049943370867
 30
0.0
 11
1329.503363653909
 21
777.049943370867
 31
0.0
  0
LINE
  5
42B
330
1F
100
AcDbEntity
  8
0
100
AcDbLine
 10
1319.503363653909
 20
777.049943370867
 30
0.0
 11
1319.503363653909
 21
780.049943370867
 31
0.0
  0
LINE
  5
42C
330
1F
100
AcDbEntity
  8
0
100
AcDbLine
 10
1259.50336365391
 20
780.049943370867
 30
0.0
 11
1259.50336365391
 21
777.049943370867
 31
0.0
  0
LINE
  5
42D
330
1F
100
AcDbEntity
  8
0
100
AcDbLine
 10
1344.591755566715
 20
814.9838605252329
 30
0.0
 11
1329.503363653909
 21
780.049943370867
 31
0.0
  0
SPLINE
  5
42E
330
1F
100
AcDbEntity
  8
0
100
AcDbSpline
210
0.0
220
0.0
230
1.0
 70
     8
 71
     3
 72
    11
 73
     7
 74
     5
 42
0.0000000001
 43
0.0000000001
 44
0.0000000001
 40
0.0
 40
0.0
 40
0.0
 40
0.0
 40
13.65464550034555
 40
40.1703578817839
 40
87.26752758297385
 40
137.7850323927168
 40
137.7850323927168
 40
137.7850323927168
 40
137.7850323927168
 10
1218.333635581098
 20
778.5551665590721
 30
0.0
 10
1220.610277257204
 20
782.5689543702264
 30
0.0
 10
1227.30788876938
 20
794.3770450915515
 30
0.0
 10
1254.630618506588
 20
808.0534177654959
 30
0.0
 10
1294.952102825246
 20
817.5217807483056
 30
0.0
 10
1327.663148915404
 20
815.8493672481055
 30
0.0
 10
1344.591755566715
 20
814.9838605252329
 30
0.0
 11
1218.333635581098
 21
778.5551665590721
 31
0.0
 11
1225.842892075541
 21
789.9595696842151
 31
0.0
 11
1248.298867828258
 21
804.0596461410482
 31
0.0
 11
1294.074486765302
 21
815.1382789444781
 31
0.0
 11
1344.591755566715
 21
814.9838605252329
 31
0.0
  0
SPLINE
  5
42F
330
1F
100
AcDbEntity
  8
0
100
AcDbSpline
210
0.0
220
0.0
230
1.0
 70
     8
 71
     3
 72
    11
 73
     7
 74
     5
 42
0.0000000001
 43
0.0000000001
 44
0.0000000001
 40
0.0
 40
0.0
 40
0.0
 40
0.0
 40
13.65464550034554
 40
40.17035788178286
 40
87.26752758297383
 40
137.7850323927167
 40
137.7850323927167
 40
137.7850323927167
 40
137.7850323927167
 10
1218.333635581098
 20
778.5551665590721
 30
0.0
 10
1220.610613893126
 20
774.5415697082519
 30
0.0
 10
1227.309215748509
 20
762.7340407697263
 30
0.0
 10
1254.633092452703
 20
749.0599597525925
 30
0.0
 10
1294.955370758943
 20
739.5949786417729
 30
0.0
 10
1327.666276465584
 20
741.2701356730171
 30
0.0
 10
1344.594810465677
 20
742.1370622269082
 30
0.0
 11
1218.333635581098
 21
778.5551665590721
 31
0.0
 11
1225.843848557857
 21
767.151393289499
 31
0.0
 11
1248.301006831509
 21
753.0532003071606
 31
0.0
 11
1294.077554793309
 21
741.9784068299082
 31
0.0
 11
1344.594810465677
 21
742.1370622269082
 31
0.0
  0
LINE
  5
430
330
1F
100
AcDbEntity
  8
0
100
AcDbLine
 10
1344.594810465677
 20
742.1370622269082
 30
0.0
 11
1329.503488632639
 21
777.06971376661
 31
0.0
  0
LINE
  5
431
330
1F
100
AcDbEntity
  8
0
100
AcDbLine
 10
1259.503488878847
 20
777.0638427350212
 30
0.0
 11
1259.503237263207
 21
780.0638427244693
 31
0.0
  0
LINE
  5
432
330
1F
100
AcDbEntity
  8
0
100
AcDbLine
 10
1319.503237052172
 20
780.0688750372601
 30
0.0
 11
1319.503488667812
 21
777.0688750478122
 31
0.0
  0
LINE
  5
433
330
1F
100
AcDbEntity
  8
0
100
AcDbLine
 10
1329.503488632639
 20
777.06971376661
 30
0.0
 11
1329.503237017
 21
780.069713756059
 31
0.0
  0
LINE
  5
434
330
1F
100
AcDbEntity
  8
0
100
AcDbLine
 10
1259.50336365391
 20
780.049943370867
 30
0.0
 11
1319.503237052172
 21
780.0688750372601
 31
0.0
  0
LINE
  5
435
330
1F
100
AcDbEntity
  8
0
100
AcDbLine
 10
1259.50336365391
 20
777.049943370867
 30
0.0
 11
1319.503363653909
 21
777.049943370867
 31
0.0
  0
LINE
  5
436
330
1F
100
AcDbEntity
  8
0
100
AcDbLine
 10
1319.503363653909
 20
778.5594092070108
 30
0.0
 11
1329.503363653909
 21
778.5598285653819
 31
0.0
  0
LINE
  5
437
330
1F
100
AcDbEntity
  8
0
100
AcDbLine
 10
1318.332848997834
 20
689.0828555700862
 30
0.0
 11
1328.332848997834
 21
689.083274928457
 31
0.0
  0
LINE
  5
438
330
1F
100
AcDbEntity
  8
0
100
AcDbLine
 10
1258.332848997834
 20
687.5733897339418
 30
0.0
 11
1318.332848997834
 21
687.5733897339418
 31
0.0
  0
LINE
  5
439
330
1F
100
AcDbEntity
  8
0
100
AcDbLine
 10
1258.332848997834
 20
690.5733897339421
 30
0.0
 11
1318.332722396097
 21
690.5923214003351
 31
0.0
  0
LINE
  5
43A
330
1F
100
AcDbEntity
  8
0
100
AcDbLine
 10
1328.332973976564
 20
687.593160129685
 30
0.0
 11
1328.332722360924
 21
690.5931601191338
 31
0.0
  0
LINE
  5
43B
330
1F
100
AcDbEntity
  8
0
100
AcDbLine
 10
1318.332722396097
 20
690.5923214003351
 30
0.0
 11
1318.332974011736
 21
687.5923214108873
 31
0.0
  0
LINE
  5
43C
330
1F
100
AcDbEntity
  8
0
100
AcDbLine
 10
1258.332974222771
 20
687.5872890980963
 30
0.0
 11
1258.332722607131
 21
690.5872890875447
 31
0.0
  0
LINE
  5
43D
330
1F
100
AcDbEntity
  8
0
100
AcDbLine
 10
1343.424295809601
 20
652.6605085899832
 30
0.0
 11
1328.332973976564
 21
687.593160129685
 31
0.0
  0
SPLINE
  5
43E
330
1F
100
AcDbEntity
  8
0
100
AcDbSpline
210
0.0
220
0.0
230
1.0
 70
     8
 71
     3
 72
    11
 73
     7
 74
     5
 42
0.0000000001
 43
0.0000000001
 44
0.0000000001
 40
0.0
 40
0.0
 40
0.0
 40
0.0
 40
13.65464550034516
 40
40.17035788178285
 40
87.26752758297369
 40
137.7850323927157
 40
137.7850323927157
 40
137.7850323927157
 40
137.7850323927157
 10
1217.163120925023
 20
689.0786129221472
 30
0.0
 10
1219.440099237051
 20
685.0650160713273
 30
0.0
 10
1226.138701092434
 20
673.257487132802
 30
0.0
 10
1253.462577796628
 20
659.5834061156672
 30
0.0
 10
1293.784856102868
 20
650.1184250048474
 30
0.0
 10
1326.495761809509
 20
651.7935820360921
 30
0.0
 10
1343.424295809601
 20
652.6605085899832
 30
0.0
 11
1217.163120925023
 21
689.0786129221472
 31
0.0
 11
1224.673333901782
 21
677.6748396525747
 31
0.0
 11
1247.130492175434
 21
663.5766466702356
 31
0.0
 11
1292.907040137234
 21
652.5018531929828
 31
0.0
 11
1343.424295809601
 21
652.6605085899832
 31
0.0
  0
SPLINE
  5
43F
330
1F
100
AcDbEntity
  8
0
100
AcDbSpline
210
0.0
220
0.0
230
1.0
 70
     8
 71
     3
 72
    11
 73
     7
 74
     5
 42
0.0000000001
 43
0.0000000001
 44
0.0000000001
 40
0.0
 40
0.0
 40
0.0
 40
0.0
 40
13.6546455003453
 40
40.1703578817831
 40
87.2675275829742
 40
137.7850323927163
 40
137.7850323927163
 40
137.7850323927163
 40
137.7850323927163
 10
1217.163120925023
 20
689.0786129221472
 30
0.0
 10
1219.439762601129
 20
693.0924007333018
 30
0.0
 10
1226.137374113303
 20
704.9004914546275
 30
0.0
 10
1253.460103850512
 20
718.5768641285705
 30
0.0
 10
1293.781588169171
 20
728.045227111381
 30
0.0
 10
1326.492634259329
 20
726.3728136111811
 30
0.0
 10
1343.421240910639
 20
725.5073068883087
 30
0.0
 11
1217.163120925023
 21
689.0786129221472
 31
0.0
 11
1224.672377419465
 21
700.4830160472907
 31
0.0
 11
1247.128353172182
 21
714.5830925041232
 31
0.0
 11
1292.903972109227
 21
725.6617253075534
 31
0.0
 11
1343.421240910639
 21
725.5073068883087
 31
0.0
  0
LINE
  5
440
330
1F
100
AcDbEntity
  8
0
100
AcDbLine
 10
1343.421240910639
 20
725.5073068883087
 30
0.0
 11
1328.332848997834
 21
690.5733897339421
 31
0.0
  0
LINE
  5
441
330
1F
100
AcDbEntity
  8
0
100
AcDbLine
 10
1258.332848997834
 20
690.5733897339421
 30
0.0
 11
1258.332848997834
 21
687.5733897339418
 31
0.0
  0
LINE
  5
442
330
1F
100
AcDbEntity
  8
0
100
AcDbLine
 10
1318.332848997834
 20
687.5733897339418
 30
0.0
 11
1318.332848997834
 21
690.5733897339421
 31
0.0
  0
LINE
  5
443
330
1F
100
AcDbEntity
  8
0
100
AcDbLine
 10
1328.332848997834
 20
690.5733897339421
 30
0.0
 11
1328.332848997834
 21
687.5733897339418
 31
0.0
  0
LINE
  5
444
330
1F
100
AcDbEntity
  8
0
100
AcDbLine
 10
1248.332848997834
 20
705.5733897339417
 30
0.0
 11
1258.332848997834
 21
705.5733897339417
 31
0.0
  0
LINE
  5
445
330
1F
100
AcDbEntity
  8
0
100
AcDbLine
 10
1248.332848997834
 20
705.5733897339417
 30
0.0
 11
1248.332848997834
 21
708.5733897339418
 31
0.0
  0
LINE
  5
446
330
1F
100
AcDbEntity
  8
0
100
AcDbLine
 10
1248.332848997834
 20
708.5733897339418
 30
0.0
 11
1258.332841231306
 21
708.5858528993143
 31
0.0
  0
LINE
  5
447
330
1F
100
AcDbEntity
  8
0
100
AcDbLine
 10
1258.332841231306
 20
708.5858528993143
 30
0.0
 11
1258.333273362643
 21
705.5858529304366
 31
0.0
  0
LINE
  5
448
330
1F
100
AcDbEntity
  8
0
100
AcDbLine
 10
1326.332841231306
 20
708.5858528993143
 30
0.0
 11
1326.332848997834
 21
705.5733897339417
 31
0.0
  0
LINE
  5
449
330
1F
100
AcDbEntity
  8
0
100
AcDbLine
 10
1326.332841231306
 20
708.5858528993143
 30
0.0
 11
1316.332841231306
 21
708.5858528993143
 31
0.0
  0
LINE
  5
44A
330
1F
100
AcDbEntity
  8
0
100
AcDbLine
 10
1316.332841231306
 20
708.5858528993143
 30
0.0
 11
1316.341036699377
 21
705.5858640936182
 31
0.0
  0
LINE
  5
44B
330
1F
100
AcDbEntity
  8
0
100
AcDbLine
 10
1316.341036699377
 20
705.5858640936182
 30
0.0
 11
1326.332848997834
 21
705.5733897339417
 31
0.0
  0
LINE
  5
44C
330
1F
100
AcDbEntity
  8
0
100
AcDbLine
 10
1028.027845402605
 20
326.9240450482563
 30
0.0
 11
1028.027845402605
 21
326.9240450482563
 31
0.0
  0
LINE
  5
44D
330
1F
100
AcDbEntity
  8
0
100
AcDbLine
 10
1028.028511336228
 20
343.6619147033085
 30
0.0
 11
1028.026850752453
 21
301.9240690723265
 31
0.0
  0
LINE
  5
44E
330
1F
100
AcDbEntity
  8
0
100
AcDbLine
 10
1028.062503777269
 20
358.6583543826268
 30
0.0
 11
1028.02890919667
 21
353.6619146953939
 31
0.0
  0
LINE
  5
44F
330
1F
100
AcDbEntity
  8
0
100
AcDbLine
 10
1028.076367127135
 20
291.9240786819544
 30
0.0
 11
1031.075926784665
 21
291.9754777181024
 31
0.0
  0
LINE
  5
450
330
1F
100
AcDbEntity
  8
0
100
AcDbLine
 10
1028.062503777269
 20
301.9240690723265
 30
0.0
 11
1031.0622397566
 21
301.9240690723265
 31
0.0
  0
LINE
  5
451
330
1F
100
AcDbEntity
  8
0
100
AcDbLine
 10
1028.028511336228
 20
343.6619147033085
 30
0.0
 11
1031.028501809757
 21
343.6694750427104
 31
0.0
  0
LINE
  5
452
330
1F
100
AcDbEntity
  8
0
100
AcDbLine
 10
1028.02890919667
 20
353.6619146953939
 30
0.0
 11
1031.028882524642
 21
353.6492643414218
 31
0.0
  0
LINE
  5
453
330
1F
100
AcDbEntity
  8
0
100
AcDbLine
 10
1031.028882524642
 20
353.6492643414218
 30
0.0
 11
1031.028501809757
 21
343.6694750427104
 31
0.0
  0
LINE
  5
454
330
1F
100
AcDbEntity
  8
0
100
AcDbLine
 10
1031.0622397566
 20
301.9240690723265
 30
0.0
 11
1031.075926784665
 21
291.9754777181024
 31
0.0
  0
LINE
  5
455
330
1F
100
AcDbEntity
  8
0
100
AcDbLine
 10
1013.062503777269
 20
326.9240450482563
 30
0.0
 11
1013.062503777269
 21
383.7652096222856
 31
0.0
  0
LINE
  5
456
330
1F
100
AcDbEntity
  8
0
100
AcDbLine
 10
1013.062503777269
 20
383.7652096222856
 30
0.0
 11
1028.062503777269
 21
358.6583543826268
 31
0.0
  0
LINE
  5
457
330
1F
100
AcDbEntity
  8
0
100
AcDbLine
 10
1013.062503777269
 20
326.9240450482563
 30
0.0
 11
1010.062528823503
 21
326.9363037910622
 31
0.0
  0
LINE
  5
458
330
1F
100
AcDbEntity
  8
0
100
AcDbLine
 10
1010.062528823503
 20
326.9363037910622
 30
0.0
 11
1028.076367127135
 21
291.9240786819544
 31
0.0
  0
LINE
  5
459
330
1F
100
AcDbEntity
  8
0
100
AcDbLine
 10
663.45840475485
 20
522.1091128025906
 30
0.0
 11
663.4720917829147
 21
512.160521448367
 31
0.0
  0
LINE
  5
45A
330
1F
100
AcDbEntity
  8
0
100
AcDbLine
 10
663.4250475228919
 20
573.8343080716862
 30
0.0
 11
663.4246668080066
 21
563.8545187729744
 31
0.0
  0
LINE
  5
45B
330
1F
100
AcDbEntity
  8
0
100
AcDbLine
 10
660.4250741949194
 20
573.8469584256582
 30
0.0
 11
663.4250475228919
 21
573.8343080716862
 31
0.0
  0
LINE
  5
45C
330
1F
100
AcDbEntity
  8
0
100
AcDbLine
 10
660.4246763344772
 20
563.8469584335727
 30
0.0
 11
663.4246668080066
 21
563.8545187729744
 31
0.0
  0
LINE
  5
45D
330
1F
100
AcDbEntity
  8
0
100
AcDbLine
 10
660.4250741949194
 20
573.8469584256582
 30
0.0
 11
660.4246763344772
 21
563.8469584335727
 31
0.0
  0
LINE
  5
45E
330
1F
100
AcDbEntity
  8
0
100
AcDbLine
 10
660.4586687755181
 20
522.1091128025906
 30
0.0
 11
663.45840475485
 21
522.1091128025906
 31
0.0
  0
LINE
  5
45F
330
1F
100
AcDbEntity
  8
0
100
AcDbLine
 10
660.4725321253839
 20
512.1091224122188
 30
0.0
 11
660.4586687755181
 21
522.1091128025906
 31
0.0
  0
LINE
  5
460
330
1F
100
AcDbEntity
  8
0
100
AcDbLine
 10
660.4725321253839
 20
512.1091224122188
 30
0.0
 11
663.4720917829147
 21
512.160521448367
 31
0.0
  0
LINE
  5
461
330
1F
100
AcDbEntity
  8
0
100
AcDbLine
 10
764.0712540025446
 20
608.1834657591262
 30
0.0
 11
767.0522990303031
 21
607.8467603352453
 31
0.0
  0
LINE
  5
462
330
1F
100
AcDbEntity
  8
0
100
AcDbLine
 10
559.7307341707465
 20
562.1447622990492
 30
0.0
 11
556.7312903458947
 21
562.202526834561
 31
0.0
  0
LINE
  5
463
330
1F
100
AcDbEntity
  8
0
100
AcDbLine
 10
559.7312896399371
 20
562.2071288724938
 30
0.0
 11
556.731289639937
 21
562.2071288724938
 31
0.0
  0
LINE
  5
464
330
1F
100
AcDbEntity
  8
0
100
AcDbLine
 10
1224.898169127923
 20
303.0195101215045
 30
0.0
 11
1271.081080459217
 21
298.2180994596244
 31
0.0
  0
LINE
  5
465
330
1F
100
AcDbEntity
  8
0
100
AcDbLine
 10
1121.144109850999
 20
313.8063105215894
 30
0.0
 11
1195.04848386241
 21
306.0170453675451
 31
0.0
  0
SPLINE
  5
466
330
1F
100
AcDbEntity
  8
0
100
AcDbSpline
210
0.0
220
0.0
230
1.0
 70
     8
 71
     3
 72
    11
 73
     7
 74
     5
 42
0.0000000001
 43
0.0000000001
 44
0.0000000001
 40
0.0
 40
0.0
 40
0.0
 40
0.0
 40
8.522258594680982
 40
14.27366372861024
 40
19.00714788199186
 40
25.14329987187996
 40
25.14329987187996
 40
25.14329987187996
 40
25.14329987187996
 10
1208.485983425444
 20
288.0436627225559
 30
0.0
 10
1208.1150870456
 20
290.8035402071375
 30
0.0
 10
1207.493884327422
 20
295.4259724778113
 30
0.0
 10
1205.843741693702
 20
302.0958028622319
 30
0.0
 10
1200.412763152592
 20
304.454382911935
 30
0.0
 10
1196.984062077487
 20
305.4531941504516
 30
0.0
 10
1195.048483862409
 20
306.0170453675451
 30
0.0
 11
1208.485983425444
 21
288.0436627225559
 31
0.0
 11
1207.152990364897
 21
296.4610269807514
 31
0.0
 11
1204.998396663644
 21
301.7936048748949
 31
0.0
 11
1200.894412797669
 21
304.1522461486244
 31
0.0
 11
1195.048483862409
 21
306.0170453675451
 31
0.0
  0
SPLINE
  5
467
330
1F
100
AcDbEntity
  8
0
100
AcDbSpline
210
0.0
220
0.0
230
1.0
 70
     8
 71
     3
 72
    10
 73
     6
 74
     4
 42
0.0000000001
 43
0.0000000001
 44
0.0000000001
 40
0.0
 40
0.0
 40
0.0
 40
0.0
 40
9.201689611510916
 40
14.5546596417689
 40
22.80617987534431
 40
22.80617987534431
 40
22.80617987534431
 40
22.80617987534431
 10
1211.485983425444
 20
288.0436627225559
 30
0.0
 10
1211.782309633922
 20
291.1390078593253
 30
0.0
 10
1212.251019978371
 20
296.0350320507003
 30
0.0
 10
1217.204038752973
 20
302.5439404595951
 30
0.0
 10
1221.993326431394
 20
302.8399635071676
 30
0.0
 10
1224.898169127924
 20
303.0195101215045
 30
0.0
 11
1211.485983425444
 21
288.0436627225559
 31
0.0
 11
1213.451047969103
 21
297.0330794470071
 31
0.0
 11
1216.858579081536
 21
301.1613987009701
 31
0.0
 11
1224.898169127924
 21
303.0195101215045
 31
0.0
  0
LINE
  5
468
330
1F
100
AcDbEntity
  8
0
100
AcDbLine
 10
1209.985983425444
 20
288.0436627225559
 30
0.0
 11
1208.485983425444
 21
288.0436627225559
 31
0.0
  0
LINE
  5
469
330
1F
100
AcDbEntity
  8
0
100
AcDbLine
 10
1209.985983425444
 20
288.0436627225559
 30
0.0
 11
1211.485983425444
 21
288.0436627225559
 31
0.0
  0
LINE
  5
46A
330
1F
100
AcDbEntity
  8
0
100
AcDbLine
 10
1316.329814354064
 20
358.6688795060086
 30
0.0
 11
1315.114272054893
 21
348.7813342792805
 31
0.0
  0
LINE
  5
46B
330
1F
100
AcDbEntity
  8
0
100
AcDbLine
 10
1308.363572613615
 20
291.3055574488558
 30
0.0
 11
1307.336851443477
 21
281.429017440351
 31
0.0
  0
LINE
  5
46C
330
1F
100
AcDbEntity
  8
0
100
AcDbLine
 10
1305.389399682143
 20
291.6983619469251
 30
0.0
 11
1308.363572613615
 21
291.3055574488558
 31
0.0
  0
LINE
  5
46D
330
1F
100
AcDbEntity
  8
0
100
AcDbLine
 10
1304.214420822542
 20
281.7676306204066
 30
0.0
 11
1307.336851443477
 21
281.429017440351
 31
0.0
  0
LINE
  5
46E
330
1F
100
AcDbEntity
  8
0
100
AcDbLine
 10
1313.357425034868
 20
359.0428237933801
 30
0.0
 11
1316.329814354064
 21
358.6688795060086
 31
0.0
  0
LINE
  5
46F
330
1F
100
AcDbEntity
  8
0
100
AcDbLine
 10
556.7312903458947
 20
562.202526834561
 30
0.0
 11
556.7311673799863
 21
552.2025268347613
 31
0.0
  0
LINE
  5
470
330
1F
100
AcDbEntity
  8
0
100
AcDbLine
 10
1104.793062464739
 20
332.766105954482
 30
0.0
 11
1104.793263370485
 21
303.1371007785967
 31
0.0
  0
LINE
  5
471
330
1F
100
AcDbEntity
  8
0
100
AcDbLine
 10
1104.792795640462
 20
372.2492148535851
 30
0.0
 11
1104.792994885391
 21
342.766105954482
 31
0.0
  0
LINE
  5
472
330
1F
100
AcDbEntity
  8
0
100
AcDbLine
 10
1107.792994885392
 20
342.7661059544821
 30
0.0
 11
1107.79306246474
 21
332.766105954482
 31
0.0
  0
LINE
  5
473
330
1F
100
AcDbEntity
  8
0
100
AcDbLine
 10
1107.792795640462
 20
372.2492148535851
 30
0.0
 11
1104.792795640462
 21
372.2492148535851
 31
0.0
  0
LINE
  5
474
330
1F
100
AcDbEntity
  8
0
100
AcDbLine
 10
1107.793262664527
 20
303.1417028165294
 30
0.0
 11
1104.793262664527
 21
303.1417028165294
 31
0.0
  0
LINE
  5
475
330
1F
100
AcDbEntity
  8
0
100
AcDbLine
 10
1104.793062464739
 20
332.766105954482
 30
0.0
 11
1107.79306246474
 21
332.766105954482
 31
0.0
  0
LINE
  5
476
330
1F
100
AcDbEntity
  8
0
100
AcDbLine
 10
1104.792994885391
 20
342.766105954482
 30
0.0
 11
1107.792994885392
 21
342.7661059544821
 31
0.0
  0
LINE
  5
477
330
1F
100
AcDbEntity
  8
0
100
AcDbLine
 10
559.7307341707465
 20
562.1447622992499
 30
0.0
 11
556.7312903458947
 21
562.2025268347615
 31
0.0
  0
LINE
  5
478
330
1F
100
AcDbEntity
  8
0
100
AcDbLine
 10
556.7311673799863
 20
552.2025268347613
 30
0.0
 11
559.7307341707465
 21
552.2025268347613
 31
0.0
  0
LINE
  5
479
330
1F
100
AcDbEntity
  8
0
100
AcDbLine
 10
559.7307341707465
 20
562.1447622992499
 30
0.0
 11
559.7307341707465
 21
552.2025268347613
 31
0.0
  0
LINE
  5
47A
330
1F
100
AcDbEntity
  8
0
100
AcDbLine
 10
965.6764416010387
 20
524.3651393617166
 30
0.0
 11
965.6766418008256
 21
494.7407362237639
 31
0.0
  0
LINE
  5
47B
330
1F
100
AcDbEntity
  8
0
100
AcDbLine
 10
965.6761747767607
 20
563.8482482608194
 30
0.0
 11
965.6763740216902
 21
534.3651393617165
 31
0.0
  0
LINE
  5
47C
330
1F
100
AcDbEntity
  8
0
100
AcDbLine
 10
980.6766418008256
 20
471.4138096061454
 30
0.0
 11
980.6766418008256
 21
484.7407362237638
 31
0.0
  0
LINE
  5
47D
330
1F
100
AcDbEntity
  8
0
100
AcDbLine
 10
962.6763740216901
 20
534.3651393617165
 30
0.0
 11
962.6764416010386
 21
524.3651393617166
 31
0.0
  0
LINE
  5
47E
330
1F
100
AcDbEntity
  8
0
100
AcDbLine
 10
983.6760856256764
 20
494.6829716882525
 30
0.0
 11
983.6760856256764
 21
484.7407362237638
 31
0.0
  0
LINE
  5
47F
330
1F
100
AcDbEntity
  8
0
100
AcDbLine
 10
962.6763740216901
 20
534.3651393617165
 30
0.0
 11
965.6763740216902
 21
534.3651393617165
 31
0.0
  0
LINE
  5
480
330
1F
100
AcDbEntity
  8
0
100
AcDbLine
 10
962.6764416010386
 20
524.3651393617166
 30
0.0
 11
965.6764416010387
 21
524.3651393617166
 31
0.0
  0
LINE
  5
481
330
1F
100
AcDbEntity
  8
0
100
AcDbLine
 10
980.6765188349164
 20
484.7407362237638
 30
0.0
 11
983.6760856256764
 21
484.7407362237638
 31
0.0
  0
LINE
  5
482
330
1F
100
AcDbEntity
  8
0
100
AcDbLine
 10
980.6760856256765
 20
576.9215637067822
 30
0.0
 11
962.6761747767607
 21
563.8482482608194
 31
0.0
  0
LINE
  5
483
330
1F
100
AcDbEntity
  8
0
100
AcDbLine
 10
980.6766418008256
 20
471.4138096061454
 30
0.0
 11
962.6766418008257
 21
494.7407362237639
 31
0.0
  0
LINE
  5
484
330
1F
100
AcDbEntity
  8
0
100
AcDbLine
 10
965.6766418008256
 20
494.7407362237639
 30
0.0
 11
962.6766418008257
 21
494.7407362237639
 31
0.0
  0
LINE
  5
485
330
1F
100
AcDbEntity
  8
0
100
AcDbLine
 10
965.6761747767607
 20
563.8482482608194
 30
0.0
 11
962.6761747767607
 21
563.8482482608194
 31
0.0
  0
LINE
  5
486
330
1F
100
AcDbEntity
  8
0
100
AcDbLine
 10
983.6760856256764
 20
494.6829716882525
 30
0.0
 11
980.6766418008256
 21
494.7407362237639
 31
0.0
  0
LINE
  5
487
330
1F
100
AcDbEntity
  8
0
100
AcDbLine
 10
983.6760856256764
 20
563.8528502987521
 30
0.0
 11
980.6761740708022
 21
563.8528502987521
 31
0.0
  0
LINE
  5
488
330
1F
100
AcDbEntity
  8
0
100
AcDbLine
 10
1107.792707195336
 20
372.2492148535851
 30
0.0
 11
1104.792795640462
 21
372.2492148535851
 31
0.0
  0
SPLINE
  5
489
330
1F
100
AcDbEntity
  8
0
100
AcDbSpline
210
0.0
220
0.0
230
1.0
 70
     8
 71
     3
 72
    10
 73
     6
 74
     4
 42
0.0000000001
 43
0.0000000001
 44
0.0000000001
 40
0.0
 40
0.0
 40
0.0
 40
0.0
 40
4.653672875444044
 40
9.538639330901979
 40
19.39964022681739
 40
19.39964022681739
 40
19.39964022681739
 40
19.39964022681739
 10
1121.144109850999
 20
313.8063105215894
 30
0.0
 10
1119.599080641706
 20
313.9149023326319
 30
0.0
 10
1116.432232266755
 20
314.1374831086226
 30
0.0
 10
1109.832708511156
 20
311.8065674745829
 30
0.0
 10
1108.610217690769
 20
306.5766884616844
 30
0.0
 10
1107.792707195336
 20
303.0793362430851
 30
0.0
 11
1121.144109850999
 21
313.8063105215894
 31
0.0
 11
1116.490436975555
 21
313.8063105215894
 31
0.0
 11
1111.941850272907
 21
312.0249469204559
 31
0.0
 11
1107.792707195336
 21
303.0793362430851
 31
0.0
  0
SPLINE
  5
48A
330
1F
100
AcDbEntity
  8
0
100
AcDbSpline
210
0.0
220
0.0
230
1.0
 70
     8
 71
     3
 72
    11
 73
     7
 74
     5
 42
0.0000000001
 43
0.0000000001
 44
0.0000000001
 40
0.0
 40
0.0
 40
0.0
 40
0.0
 40
8.434886356227663
 40
15.15440574749293
 40
22.53252079039433
 40
28.86342651650164
 40
28.86342651650164
 40
28.86342651650164
 40
28.86342651650164
 10
1125.954614105745
 20
353.4688120271481
 30
0.0
 10
1123.204299141684
 20
354.0020254328518
 30
0.0
 10
1118.262989070799
 20
354.9600149016809
 30
0.0
 10
1111.344691791671
 20
358.9281673667298
 30
0.0
 10
1109.245611762704
 20
365.7936549121603
 30
0.0
 10
1108.251700986919
 20
370.2098090999955
 30
0.0
 10
1107.792707195336
 20
372.2492148537853
 30
0.0
 11
1125.954614105745
 21
353.4688120271481
 31
0.0
 11
1117.793003124088
 21
355.5984631785237
 31
0.0
 11
1112.201185037263
 21
359.324521596404
 31
0.0
 11
1109.258134315876
 21
366.0902465418645
 31
0.0
 11
1107.792707195336
 21
372.2492148537853
 31
0.0
  0
SPLINE
  5
48B
330
1F
100
AcDbEntity
  8
0
100
AcDbSpline
210
0.0
220
0.0
230
1.0
 70
     8
 71
     3
 72
    12
 73
     8
 74
     6
 42
0.0000000001
 43
0.0000000001
 44
0.0000000001
 40
0.0
 40
0.0
 40
0.0
 40
0.0
 40
6.400609840753916
 40
13.89888168789996
 40
22.85902303952331
 40
32.99461513190308
 40
44.88767472432842
 40
44.88767472432842
 40
44.88767472432842
 40
44.88767472432842
 10
1271.081080459217
 20
298.2180994596244
 30
0.0
 10
1273.214790912127
 20
298.0724387450186
 30
0.0
 10
1277.848128965697
 20
297.7561374722881
 30
0.0
 10
1285.198271651762
 20
295.491849631905
 30
0.0
 10
1292.961482019702
 20
290.9654881994766
 30
0.0
 10
1299.627890084383
 20
282.6953236368983
 30
0.0
 10
1301.843341050969
 20
275.643897317539
 30
0.0
 10
1303.039441962941
 20
271.8368992938886
 30
0.0
 11
1271.081080459217
 21
298.2180994596244
 31
0.0
 11
1277.447376948387
 21
297.5562268543986
 31
0.0
 11
1284.627010829225
 21
295.3936039027891
 31
0.0
 11
1292.295490443101
 21
290.7591078727296
 31
0.0
 11
1298.715607523567
 21
282.916128608686
 31
0.0
 11
1303.039441962941
 21
271.8368992938886
 31
0.0
  0
SPLINE
  5
48C
330
1F
100
AcDbEntity
  8
0
100
AcDbSpline
210
0.0
220
0.0
230
1.0
 70
     8
 71
     3
 72
    11
 73
     7
 74
     5
 42
0.0000000001
 43
0.0000000001
 44
0.0000000001
 40
0.0
 40
0.0
 40
0.0
 40
0.0
 40
5.713554845348861
 40
11.07171000729937
 40
25.40624625142541
 40
53.5933461336597
 40
53.5933461336597
 40
53.5933461336597
 40
53.5933461336597
 10
1265.200307313204
 20
338.9921206121992
 30
0.0
 10
1267.097621189366
 20
338.8203174697133
 30
0.0
 10
1270.774230515485
 20
338.4873978385146
 30
0.0
 10
1279.28661725393
 20
338.866992162629
 30
0.0
 10
1294.422161557571
 20
344.9706387519275
 30
0.0
 10
1305.809133365985
 20
353.4331338496144
 30
0.0
 10
1313.35742503487
 20
359.0428237934013
 30
0.0
 11
1265.200307313204
 21
338.9921206121992
 31
0.0
 11
1270.901031108189
 21
338.6094233635781
 31
0.0
 11
1276.251466482675
 21
338.8969438723894
 31
0.0
 11
1289.809637949727
 21
343.5504281373439
 31
0.0
 11
1313.35742503487
 21
359.0428237934013
 31
0.0
  0
LINE
  5
48D
330
1F
100
AcDbEntity
  8
0
100
AcDbLine
 10
1125.954614105745
 20
353.4688120271481
 30
0.0
 11
1265.200307313204
 21
338.9921206121992
 31
0.0
  0
LINE
  5
48E
330
1F
100
AcDbEntity
  8
0
100
AcDbLine
 10
1107.792707195336
 20
303.0793362430851
 30
0.0
 11
1104.793263370485
 21
303.1371007785967
 31
0.0
  0
LINE
  5
48F
330
1F
100
AcDbEntity
  8
0
100
AcDbLine
 10
1312.133227027133
 20
349.1180397031616
 30
0.0
 11
1315.114272054893
 21
348.7813342792805
 31
0.0
  0
LINE
  5
490
330
1F
100
AcDbEntity
  8
0
100
AcDbLine
 10
559.7307341707465
 20
562.1447622990492
 30
0.0
 11
556.7312903458947
 21
562.202526834561
 31
0.0
  0
LINE
  5
495
330
1F
100
AcDbEntity
  8
0
100
AcDbLine
 10
559.9167169258917
 20
466.7761181063929
 30
0.0
 11
559.8075914883776
 21
371.7761807819988
 31
0.0
  0
LINE
  5
498
330
1F
100
AcDbEntity
  8
0
100
AcDbLine
 10
831.7320060047725
 20
595.9074804667721
 30
0.0
 11
838.5849454945045
 21
588.1000494566277
 31
0.0
  0
SPLINE
  5
499
330
1F
100
AcDbEntity
  8
0
100
AcDbSpline
210
0.0
220
0.0
230
1.0
 70
     8
 71
     3
 72
    10
 73
     6
 74
     4
 42
0.0000000001
 43
0.0000000001
 44
0.0000000001
 40
0.0
 40
0.0
 40
0.0
 40
0.0
 40
74.20342106590246
 40
156.5840591129156
 40
207.9899280379627
 40
207.9899280379627
 40
207.9899280379627
 40
207.9899280379627
 10
947.2345294671494
 20
416.5016514714481
 30
0.0
 10
940.4940597417091
 20
440.3016143335281
 30
0.0
 10
926.2703205289344
 20
490.524295958562
 30
0.0
 10
888.621295384957
 20
551.4376617173743
 30
0.0
 10
852.4740812188904
 20
577.9232703669182
 30
0.0
 10
838.5849454945045
 20
588.1000494566277
 30
0.0
 11
947.2345294671494
 21
416.5016514714481
 31
0.0
 11
923.8421575318666
 21
486.9214259181545
 31
0.0
 11
878.4910170814141
 21
555.6952842138496
 31
0.0
 11
838.5849454945045
 21
588.1000494566277
 31
0.0
  0
LINE
  5
49A
330
1F
100
AcDbEntity
  8
0
100
AcDbLine
 10
504.61041157015
 20
610.7676095608596
 30
0.0
 11
569.4124934707081
 21
603.3291039318812
 31
0.0
  0
SPLINE
  5
49B
330
1F
100
AcDbEntity
  8
0
100
AcDbSpline
210
0.0
220
0.0
230
1.0
 70
     8
 71
     3
 72
     9
 73
     5
 74
     3
 42
0.0000000001
 43
0.0000000001
 44
0.0000000001
 40
0.0
 40
0.0
 40
0.0
 40
0.0
 40
13.37328677782929
 40
25.41006956619083
 40
25.41006956619083
 40
25.41006956619083
 40
25.41006956619083
 10
587.2079584079754
 20
586.4589150132005
 30
0.0
 10
582.8815456855513
 20
588.1838153379677
 30
0.0
 10
574.6610947167511
 20
591.4612323241749
 30
0.0
 10
571.0995851531593
 20
599.5143375704901
 30
0.0
 10
569.4124934707081
 20
603.3291039318812
 30
0.0
 11
587.2079584079754
 21
586.4589150132005
 31
0.0
 11
575.5192019572063
 21
592.9564354538507
 31
0.0
 11
569.4124934707081
 21
603.3291039318812
 31
0.0
  0
SPLINE
  5
49C
330
1F
100
AcDbEntity
  8
0
100
AcDbSpline
210
0.0
220
0.0
230
1.0
 70
     8
 71
     3
 72
     9
 73
     5
 74
     3
 42
0.0000000001
 43
0.0000000001
 44
0.0000000001
 40
0.0
 40
0.0
 40
0.0
 40
0.0
 40
10.63719514428019
 40
18.96283925976978
 40
18.96283925976978
 40
18.96283925976978
 40
18.96283925976978
 10
737.0896841347716
 20
581.6828011934829
 30
0.0
 10
734.3887279854093
 20
579.2967584702762
 30
0.0
 10
729.5737559356029
 20
575.0431799645324
 30
0.0
 10
723.4084519473102
 20
573.3316758278156
 30
0.0
 10
720.7015721300439
 20
572.5802390756872
 30
0.0
 11
737.0896841347716
 21
581.6828011934829
 31
0.0
 11
728.5619143809457
 21
575.3245731727815
 31
0.0
 11
720.7015721300439
 21
572.5802390756872
 31
0.0
  0
LINE
  5
49D
330
1F
100
AcDbEntity
  8
0
100
AcDbLine
 10
765.2954520102802
 20
618.1082498493657
 30
0.0
 11
737.0896841347716
 21
581.6828011934829
 31
0.0
  0
LINE
  5
49E
330
1F
100
AcDbEntity
  8
0
100
AcDbLine
 10
720.7015721300439
 20
572.5802390756872
 30
0.0
 11
587.2079584079754
 21
586.4589150132005
 31
0.0
  0
LINE
  5
4A1
330
1F
100
AcDbEntity
  8
0
100
AcDbLine
 10
765.2954520102802
 20
618.1082498493657
 30
0.0
 11
764.0712540025446
 21
608.1834657591262
 31
0.0
  0
LINE
  5
4A2
330
1F
100
AcDbEntity
  8
0
100
AcDbLine
 10
764.0712540025446
 20
608.1834657591262
 30
0.0
 11
767.0522990303031
 21
607.8467603352453
 31
0.0
  0
LINE
  5
4A3
330
1F
100
AcDbEntity
  8
0
100
AcDbLine
 10
768.1973824446097
 20
617.1385263392891
 30
0.0
 11
767.0522990303031
 21
607.8467603352453
 31
0.0
  0
LINE
  5
4A4
330
1F
100
AcDbEntity
  8
0
100
AcDbLine
 10
755.8958351785977
 20
538.6642083120148
 30
0.0
 11
758.8750814942585
 21
538.3119422327191
 31
0.0
  0
LINE
  5
4A5
330
1F
100
AcDbEntity
  8
0
100
AcDbLine
 10
757.0086022445247
 20
548.6021029309458
 30
0.0
 11
759.9941499730139
 21
548.3079860138707
 31
0.0
  0
LINE
  5
4A6
330
1F
100
AcDbEntity
  8
0
100
AcDbLine
 10
759.9941499730139
 20
548.3079860138707
 30
0.0
 11
758.8750814942585
 21
538.3119422327191
 31
0.0
  0
LINE
  5
4A7
330
1F
100
AcDbEntity
  8
0
100
AcDbLine
 10
757.0086022445247
 20
548.6021029309458
 30
0.0
 11
755.8958351785977
 21
538.6642083120148
 31
0.0
  0
LINE
  5
4A8
330
1F
100
AcDbEntity
  8
0
100
AcDbLine
 10
820.5432258046867
 20
527.3710570584285
 30
0.0
 11
819.43045873876
 21
517.4331624394966
 31
0.0
  0
LINE
  5
4A9
330
1F
100
AcDbEntity
  8
0
100
AcDbLine
 10
823.5287735331763
 20
527.0769401413531
 30
0.0
 11
822.4097050544207
 21
517.0808963602028
 31
0.0
  0
LINE
  5
4AA
330
1F
100
AcDbEntity
  8
0
100
AcDbLine
 10
820.5432258046867
 20
527.3710570584285
 30
0.0
 11
823.5287735331763
 21
527.0769401413531
 31
0.0
  0
LINE
  5
4AB
330
1F
100
AcDbEntity
  8
0
100
AcDbLine
 10
819.43045873876
 20
517.4331624394966
 30
0.0
 11
822.4097050544207
 21
517.0808963602028
 31
0.0
  0
LINE
  5
4AC
330
1F
100
AcDbEntity
  8
0
100
AcDbLine
 10
831.7320060047725
 20
595.9074804667721
 30
0.0
 11
830.5869225904661
 21
586.6157144627277
 31
0.0
  0
LINE
  5
4AD
330
1F
100
AcDbEntity
  8
0
100
AcDbLine
 10
827.6058775627065
 20
586.9524198866096
 30
0.0
 11
830.5869225904661
 21
586.6157144627277
 31
0.0
  0
LINE
  5
4AE
330
1F
100
AcDbEntity
  8
0
100
AcDbLine
 10
828.8300755704426
 20
596.877203976848
 30
0.0
 11
827.6058775627065
 21
586.9524198866096
 31
0.0
  0
LINE
  5
4AF
330
1F
100
AcDbEntity
  8
0
100
AcDbLine
 10
828.8300755704426
 20
596.877203976848
 30
0.0
 11
768.1973824446097
 21
617.1385263392891
 31
0.0
  0
LINE
  5
4B0
330
1F
100
AcDbEntity
  8
0
100
AcDbLine
 10
504.4808508136251
 20
463.7677128774972
 30
0.0
 11
923.800302072817
 21
487.0177437503722
 31
0.0
  0
SPLINE
  5
4B5
330
1F
100
AcDbEntity
  8
0
100
AcDbSpline
210
0.0
220
0.0
230
1.0
 70
     8
 71
     3
 72
     9
 73
     5
 74
     3
 42
0.0000000001
 43
0.0000000001
 44
0.0000000001
 40
0.0
 40
0.0
 40
0.0
 40
0.0
 40
6.746438222263855
 40
11.75877316303764
 40
11.75877316303764
 40
11.75877316303764
 40
11.75877316303764
 10
183.4937332101149
 20
890.7725385010509
 30
0.0
 10
185.6586931703011
 20
891.4100820075923
 30
0.0
 10
189.4321321673229
 20
892.5212949510751
 30
0.0
 10
192.8890852838051
 20
894.3894548974398
 30
0.0
 10
194.3626579647398
 20
895.1857831575638
 30
0.0
 11
183.4937332101149
 21
890.7725385010509
 31
0.0
 11
189.8844342764028
 21
892.9343360327751
 31
0.0
 11
194.3626579647398
 21
895.1857831575638
 31
0.0
  0
LINE
  5
4BB
330
1F
100
AcDbEntity
  8
0
100
AcDbLine
 10
807.6565795561906
 20
929.0453179042073
 30
0.0
 11
830.6927358343681
 21
950.2644880066739
 31
0.0
  0
LINE
  5
4C2
330
1F
100
AcDbEntity
  8
0
100
AcDbLine
 10
963.1839323793624
 20
996.6780289863221
 30
0.0
 11
1007.835860387783
 21
769.5579952663138
 31
0.0
  0
SPLINE
  5
4C3
330
1F
100
AcDbEntity
  8
0
100
AcDbSpline
210
0.0
220
0.0
230
1.0
 70
     8
 71
     3
 72
     9
 73
     5
 74
     3
 42
0.0000000001
 43
0.0000000001
 44
0.0000000001
 40
0.0
 40
0.0
 40
0.0
 40
0.0
 40
68.56666778313692
 40
144.1105125301849
 40
144.1105125301849
 40
144.1105125301849
 40
144.1105125301849
 10
830.6927358343681
 20
950.2644880066739
 30
0.0
 10
849.0173480904788
 20
965.0312518812636
 30
0.0
 10
887.5312404747091
 20
996.0674095243609
 30
0.0
 10
937.165348988694
 20
996.4680238564184
 30
0.0
 10
963.1839323793624
 20
996.6780289863221
 30
0.0
 11
830.6927358343681
 21
950.2644880066739
 31
0.0
 11
888.1839480423247
 21
987.6295579215392
 31
0.0
 11
963.1839323793624
 21
996.6780289863221
 31
0.0
  0
SPLINE
  5
4C4
330
1F
100
AcDbEntity
  8
0
100
AcDbSpline
210
0.0
220
0.0
230
1.0
 70
     8
 71
     3
 72
    12
 73
     8
 74
     6
 42
0.0000000001
 43
0.0000000001
 44
0.0000000001
 40
0.0
 40
0.0
 40
0.0
 40
0.0
 40
2.911042981041832
 40
5.119243248455174
 40
7.131497050297404
 40
71.73317995088712
 40
126.5395048888028
 40
126.5395048888028
 40
126.5395048888028
 40
126.5395048888028
 10
1007.835860387783
 20
769.5579952663138
 30
0.0
 10
1008.088791178217
 20
768.6542642616441
 30
0.0
 10
1008.533585105921
 20
767.0649992201437
 30
0.0
 10
1008.226936481415
 20
764.2108028785729
 30
0.0
 10
982.4740485261255
 20
762.019405765556
 30
0.0
 10
945.7374225030617
 20
757.8376386145394
 30
0.0
 10
906.162520629744
 20
749.4701635179733
 30
0.0
 10
887.9982871690483
 20
745.6296291404753
 30
0.0
 11
1007.835860387783
 21
769.5579952663138
 31
0.0
 11
1008.379645407217
 21
766.698192984667
 31
0.0
 11
1007.835860387783
 21
764.5579952663139
 31
0.0
 11
1005.899043916656
 21
764.012186398486
 31
0.0
 11
941.7648010683793
 21
756.2548461412457
 31
0.0
 11
887.9982871690483
 21
745.6296291404753
 31
0.0
  0
SPLINE
  5
4C5
330
1F
100
AcDbEntity
  8
0
100
AcDbSpline
210
0.0
220
0.0
230
1.0
 70
     8
 71
     3
 72
    12
 73
     8
 74
     0
 42
0.0000000001
 43
0.0000000001
 40
54.41949666636896
 40
54.41949666636896
 40
54.41949666636896
 40
54.41949666636896
 40
66.81806860580628
 40
77.31826830102544
 40
86.17316467128452
 40
92.90351355237914
 40
98.10436499010393
 40
98.10436499010393
 40
98.10436499010393
 40
98.10436499010393
 10
846.3006570212112
 20
746.5992270359677
 30
0.0
 10
850.1047170791455
 20
745.0019824996754
 30
0.0
 10
857.1882472490356
 20
742.0543959841507
 30
0.0
 10
867.5894598483354
 20
738.5760990309599
 30
0.0
 10
876.1821537606422
 20
741.3274373075578
 30
0.0
 10
882.4562679408881
 20
744.1826059501107
 30
0.0
 10
886.3158722966051
 20
745.1903500192717
 30
0.0
 10
887.9982871690483
 20
745.6296291404753
 30
0.0
  0
LINE
  5
4C9
330
1F
100
AcDbEntity
  8
0
100
AcDbLine
 10
380.3344988024943
 20
839.6294095999712
 30
0.0
 11
380.3351490780449
 21
838.129409740924
 31
0.0
  0
LINE
  5
4CA
330
1F
100
AcDbEntity
  8
0
100
AcDbLine
 10
233.128813917494
 20
839.6294095999712
 30
0.0
 11
233.128813917494
 21
838.1294095999701
 31
0.0
  0
LINE
  5
4CB
330
1F
100
AcDbEntity
  8
0
100
AcDbLine
 10
233.128813917494
 20
838.1294095999701
 30
0.0
 11
380.3351490780449
 21
838.129409740924
 31
0.0
  0
LINE
  5
4CC
330
1F
100
AcDbEntity
  8
0
100
AcDbLine
 10
775.2473045509921
 20
839.6294095999712
 30
0.0
 11
775.2567618122717
 21
838.1294394135311
 31
0.0
  0
LINE
  5
4CD
330
1F
100
AcDbEntity
  8
0
100
AcDbLine
 10
825.0761604102802
 20
838.129410683511
 30
0.0
 11
775.2567618122717
 21
838.1294394135311
 31
0.0
  0
LINE
  5
4D7
330
1F
100
AcDbEntity
  8
0
100
AcDbLine
 10
233.128813917494
 20
841.1294095999711
 30
0.0
 11
380.3351490780449
 21
841.1294094590179
 31
0.0
  0
LINE
  5
4D8
330
1F
100
AcDbEntity
  8
0
100
AcDbLine
 10
233.128813917494
 20
839.6294095999712
 30
0.0
 11
233.128813917494
 21
841.1294095999711
 31
0.0
  0
LINE
  5
4D9
330
1F
100
AcDbEntity
  8
0
100
AcDbLine
 10
380.3344988024943
 20
839.6294095999712
 30
0.0
 11
380.3351490780449
 21
841.1294094590179
 31
0.0
  0
LINE
  5
4DA
330
1F
100
AcDbEntity
  8
0
100
AcDbLine
 10
825.0761604102802
 20
841.12940851643
 30
0.0
 11
775.2567618122717
 21
841.1293797864111
 31
0.0
  0
LINE
  5
4DB
330
1F
100
AcDbEntity
  8
0
100
AcDbLine
 10
775.2473045509921
 20
839.6294095999712
 30
0.0
 11
775.2567618122717
 21
841.1293797864111
 31
0.0
  0
LINE
  5
4DC
330
1F
100
AcDbEntity
  8
0
100
AcDbLine
 10
825.0761604102802
 20
841.12940851643
 30
0.0
 11
836.8038368879524
 21
863.207941176801
 31
0.0
  0
LINE
  5
4DD
330
1F
100
AcDbEntity
  8
0
100
AcDbLine
 10
825.0761604102802
 20
838.129410683511
 30
0.0
 11
836.8038368879524
 21
816.0508780231401
 31
0.0
  0
ARC
  5
4DE
330
1F
100
AcDbEntity
  8
0
100
AcDbCircle
 10
822.4923864230174
 20
839.6294095999712
 30
0.0
 40
27.58196450091766
100
AcDbArc
 50
301.2564754166323
 51
58.74352458336787
  0
SPLINE
  5
4DF
330
1F
100
AcDbEntity
  8
0
100
AcDbSpline
210
0.0
220
0.0
230
1.0
 70
     8
 71
     3
 72
    16
 73
    12
 74
    10
 42
0.0000000001
 43
0.0000000001
 44
0.0000000001
 40
0.0
 40
0.0
 40
0.0
 40
0.0
 40
72.86768594444282
 40
93.813066184474
 40
114.1558063434282
 40
137.5197078875039
 40
188.8157429815964
 40
247.8400248518667
 40
304.5000084647128
 40
329.6992180482729
 40
343.3628088556949
 40
343.3628088556949
 40
343.3628088556949
 40
343.3628088556949
 10
194.3626579647398
 20
895.1857831575638
 30
0.0
 10
217.3727737413283
 20
887.3420475799788
 30
0.0
 10
246.9970095913228
 20
877.2436771523171
 30
0.0
 10
284.2510154765792
 20
869.0826164386244
 30
0.0
 10
305.850278237151
 20
867.8403346766211
 30
0.0
 10
337.5692444715496
 20
871.290981282106
 30
0.0
 10
378.9730995830006
 20
888.3216195716443
 30
0.0
 10
432.8628854927883
 20
904.9708933371052
 30
0.0
 10
476.5350059786776
 20
914.4745808966026
 30
0.0
 10
510.8659876230026
 20
924.1350136314833
 30
0.0
 10
514.8436190174301
 20
937.0786022636686
 30
0.0
 10
516.242095895304
 20
941.6293782466267
 30
0.0
 11
194.3626579647398
 21
895.1857831575638
 31
0.0
 11
263.9909188348125
 21
873.7007897177917
 31
0.0
 11
284.5299394818617
 21
869.5949908601299
 31
0.0
 11
304.8389615083938
 21
868.4242212412211
 31
0.0
 11
328.0667700337269
 21
870.9423170439521
 31
0.0
 11
376.8900397376997
 21
886.676723667257
 31
0.0
 11
433.2421334187946
 21
904.2354077881759
 31
0.0
 11
488.2253500131397
 21
917.9174995853873
 31
0.0
 11
510.8118163487521
 21
929.0912054212519
 31
0.0
 11
516.242095895304
 21
941.6293782466267
 31
0.0
  0
LINE
  5
4E0
330
1F
100
AcDbEntity
  8
0
100
AcDbLine
 10
223.1072097217548
 20
841.1294096095668
 30
0.0
 11
202.6917869502609
 21
841.1294096291154
 31
0.0
  0
LINE
  5
4E1
330
1F
100
AcDbEntity
  8
0
100
AcDbLine
 10
223.1068332903228
 20
838.132347398778
 30
0.0
 11
202.6841885359788
 21
838.1383340019889
 31
0.0
  0
LINE
  5
4E2
330
1F
100
AcDbEntity
  8
0
100
AcDbLine
 10
161.228342980246
 20
841.138279698208
 30
0.0
 11
141.1836332751988
 21
841.1425677636211
 31
0.0
  0
LINE
  5
4E3
330
1F
100
AcDbEntity
  8
0
100
AcDbLine
 10
161.2307066427768
 20
838.145244040567
 30
0.0
 11
141.1852208904988
 21
838.148585498838
 31
0.0
  0
LINE
  5
4E4
330
1F
100
AcDbEntity
  8
0
100
AcDbLine
 10
100.9150146944168
 20
841.124393103318
 30
0.0
 11
81.21529997983884
 21
841.115501921161
 31
0.0
  0
LINE
  5
4E5
330
1F
100
AcDbEntity
  8
0
100
AcDbLine
 10
100.9113088457518
 20
838.12846281978
 30
0.0
 11
81.21676587268371
 21
838.118622529943
 31
0.0
  0
LINE
  5
4E6
330
1F
100
AcDbEntity
  8
0
100
AcDbLine
 10
81.21529997983884
 20
841.115501921161
 30
0.0
 11
81.21676587268371
 21
838.118622529943
 31
0.0
  0
LINE
  5
4E7
330
1F
100
AcDbEntity
  8
0
100
AcDbLine
 10
100.9150146944168
 20
841.124393103318
 30
0.0
 11
100.9113088457518
 21
838.12846281978
 31
0.0
  0
LINE
  5
4E8
330
1F
100
AcDbEntity
  8
0
100
AcDbLine
 10
141.1836332751988
 20
841.1425677636211
 30
0.0
 11
141.1852208904988
 21
838.148585498838
 31
0.0
  0
LINE
  5
4E9
330
1F
100
AcDbEntity
  8
0
100
AcDbLine
 10
161.228342980246
 20
841.138279698208
 30
0.0
 11
161.2307066427768
 21
838.145244040567
 31
0.0
  0
LINE
  5
4EA
330
1F
100
AcDbEntity
  8
0
100
AcDbLine
 10
202.6917869502609
 20
841.1294096291154
 30
0.0
 11
202.6841885359788
 21
838.1383340019889
 31
0.0
  0
LINE
  5
4EB
330
1F
100
AcDbEntity
  8
0
100
AcDbLine
 10
223.1072097217548
 20
841.1294096095668
 30
0.0
 11
223.1068332903228
 21
838.132347398778
 31
0.0
  0
LINE
  5
4EC
330
1F
100
AcDbEntity
  8
0
100
AcDbLine
 10
748.6636525131558
 20
838.1284465326531
 30
0.0
 11
748.6554087094797
 21
841.1351786626971
 31
0.0
  0
LINE
  5
4ED
330
1F
100
AcDbEntity
  8
0
100
AcDbLine
 10
738.6636525131563
 20
838.1284465326531
 30
0.0
 11
748.6636525131558
 21
838.1284465326531
 31
0.0
  0
LINE
  5
4EE
330
1F
100
AcDbEntity
  8
0
100
AcDbLine
 10
728.6636528760976
 20
838.1311407575761
 30
0.0
 11
728.6636528760976
 21
841.135178591266
 31
0.0
  0
LINE
  5
4EF
330
1F
100
AcDbEntity
  8
0
100
AcDbLine
 10
728.6636528760976
 20
838.1311407575761
 30
0.0
 11
738.6636525131563
 21
838.1284465326531
 31
0.0
  0
LINE
  5
4F0
330
1F
100
AcDbEntity
  8
0
100
AcDbLine
 10
738.6636525131563
 20
838.1284465326531
 30
0.0
 11
728.6636528760976
 21
838.1311407575761
 31
0.0
  0
LINE
  5
4F1
330
1F
100
AcDbEntity
  8
0
100
AcDbLine
 10
728.6636528760976
 20
838.1311407575761
 30
0.0
 11
728.6636528760976
 21
838.1311407575761
 31
0.0
  0
LINE
  5
4F2
330
1F
100
AcDbEntity
  8
0
100
AcDbLine
 10
728.6636528760976
 20
838.1311407575761
 30
0.0
 11
728.6636528760976
 21
838.1311407575761
 31
0.0
  0
LINE
  5
4F3
330
1F
100
AcDbEntity
  8
0
100
AcDbLine
 10
395.006571390764
 20
838.1253716253279
 30
0.0
 11
395.006571390764
 21
838.1253716253279
 31
0.0
  0
LINE
  5
4F4
330
1F
100
AcDbEntity
  8
0
100
AcDbLine
 10
395.006571390764
 20
838.1253716253279
 30
0.0
 11
395.006571390764
 21
838.1253716253279
 31
0.0
  0
LINE
  5
4F5
330
1F
100
AcDbEntity
  8
0
100
AcDbLine
 10
517.0049023686605
 20
838.12941304115
 30
0.0
 11
517.0043470130889
 21
841.1294098949181
 31
0.0
  0
LINE
  5
4F6
330
1F
100
AcDbEntity
  8
0
100
AcDbLine
 10
405.0065710278219
 20
838.122677400406
 30
0.0
 11
395.006571390764
 21
838.1253716253279
 31
0.0
  0
LINE
  5
4F7
330
1F
100
AcDbEntity
  8
0
100
AcDbLine
 10
395.006571390764
 20
838.1253716253279
 30
0.0
 11
405.0065710278219
 21
838.122677400406
 31
0.0
  0
LINE
  5
4F8
330
1F
100
AcDbEntity
  8
0
100
AcDbLine
 10
395.006571390764
 20
838.1253716253279
 30
0.0
 11
395.006571390764
 21
841.1294094590179
 31
0.0
  0
LINE
  5
4F9
330
1F
100
AcDbEntity
  8
0
100
AcDbLine
 10
405.0065710278219
 20
838.122677400406
 30
0.0
 11
415.0065710278219
 21
838.122677400406
 31
0.0
  0
LINE
  5
4FA
330
1F
100
AcDbEntity
  8
0
100
AcDbLine
 10
415.0065710278219
 20
838.122677400406
 30
0.0
 11
414.9983272241459
 21
841.1294095304491
 31
0.0
  0
LINE
  5
4FB
330
1F
100
AcDbEntity
  8
0
100
AcDbLine
 10
537.0026472476946
 20
838.129413052599
 30
0.0
 11
536.9985594205286
 21
841.1294099663567
 31
0.0
  0
LINE
  5
4FC
330
1F
100
AcDbEntity
  8
0
100
AcDbLine
 10
527.0051947629836
 20
838.129413046875
 30
0.0
 11
537.0026472476946
 21
838.129413052599
 31
0.0
  0
LINE
  5
4FD
330
1F
100
AcDbEntity
  8
0
100
AcDbLine
 10
517.0049023686605
 20
838.12941304115
 30
0.0
 11
527.0051947629836
 21
838.129413046875
 31
0.0
  0
LINE
  5
4FE
330
1F
100
AcDbEntity
  8
0
100
AcDbLine
 10
621.8103751793137
 20
838.132297571763
 30
0.0
 11
621.8344969489387
 21
841.13229423952
 31
0.0
  0
LINE
  5
4FF
330
1F
100
AcDbEntity
  8
0
100
AcDbLine
 10
641.7971728733316
 20
838.1322975832059
 30
0.0
 11
641.7971728733322
 21
841.1322943108469
 31
0.0
  0
LINE
  5
500
330
1F
100
AcDbEntity
  8
0
100
AcDbLine
 10
631.7992482892082
 20
838.1322975774818
 30
0.0
 11
641.7971728733316
 21
838.1322975832059
 31
0.0
  0
LINE
  5
501
330
1F
100
AcDbEntity
  8
0
100
AcDbLine
 10
621.8103751793137
 20
838.132297571763
 30
0.0
 11
631.7992482892085
 21
838.1322975774818
 31
0.0
  0
LINE
  5
502
330
1F
100
AcDbEntity
  8
0
100
AcDbLine
 10
395.006571390764
 20
841.1294094590179
 30
0.0
 11
414.9983272241459
 21
841.1294095304491
 31
0.0
  0
LINE
  5
503
330
1F
100
AcDbEntity
  8
0
100
AcDbLine
 10
517.0043470130889
 20
841.1294098949181
 30
0.0
 11
536.9985594205286
 21
841.1294099663567
 31
0.0
  0
LINE
  5
504
330
1F
100
AcDbEntity
  8
0
100
AcDbLine
 10
621.8344969489387
 20
841.13229423952
 30
0.0
 11
641.7971728733322
 21
841.1322943108469
 31
0.0
  0
LINE
  5
505
330
1F
100
AcDbEntity
  8
0
100
AcDbLine
 10
728.6636528760976
 20
841.135178591266
 30
0.0
 11
748.6554087094797
 21
841.1351786626971
 31
0.0
  0
LINE
  5
506
330
1F
100
AcDbEntity
  8
0
100
AcDbLine
 10
979.0650136325348
 20
162.0813635354155
 30
0.0
 11
989.0421090979378
 21
162.0807137699664
 31
0.0
  0
LINE
  5
507
330
1F
100
AcDbEntity
  8
0
100
AcDbLine
 10
835.3445355947275
 20
165.0842447166166
 30
0.0
 11
845.3424601788507
 21
165.0842447108924
 31
0.0
  0
LINE
  5
508
330
1F
100
AcDbEntity
  8
0
100
AcDbLine
 10
845.3424601788507
 20
165.0842447108924
 30
0.0
 11
845.3424601788517
 21
162.0842479832512
 31
0.0
  0
LINE
  5
509
330
1F
100
AcDbEntity
  8
0
100
AcDbLine
 10
835.3483275613776
 20
162.0842480189601
 30
0.0
 11
835.3445355947275
 21
165.0842447166166
 31
0.0
  0
LINE
  5
50A
330
1F
100
AcDbEntity
  8
0
100
AcDbLine
 10
835.3483275613776
 20
162.0842480189601
 30
0.0
 11
835.3445355947279
 21
165.0842447166166
 31
0.0
  0
LINE
  5
50B
330
1F
100
AcDbEntity
  8
0
100
AcDbLine
 10
730.5504820685028
 20
165.0871292472233
 30
0.0
 11
740.5479345532135
 21
165.0871292414994
 31
0.0
  0
LINE
  5
50C
330
1F
100
AcDbEntity
  8
0
100
AcDbLine
 10
740.5479345532135
 20
165.0871292414994
 30
0.0
 11
740.5438467260474
 21
162.0871323277414
 31
0.0
  0
LINE
  5
50D
330
1F
100
AcDbEntity
  8
0
100
AcDbLine
 10
730.5504820685028
 20
165.0871292472233
 30
0.0
 11
730.5504820685034
 21
162.0871323634479
 31
0.0
  0
LINE
  5
50E
330
1F
100
AcDbEntity
  8
0
100
AcDbLine
 10
618.551858333341
 20
165.0938648936928
 30
0.0
 11
618.5436145296647
 21
162.08713276365
 31
0.0
  0
LINE
  5
50F
330
1F
100
AcDbEntity
  8
0
100
AcDbLine
 10
608.551858333341
 20
165.0938648936928
 30
0.0
 11
618.551858333341
 21
165.0938648936928
 31
0.0
  0
LINE
  5
510
330
1F
100
AcDbEntity
  8
0
100
AcDbLine
 10
608.551858333341
 20
165.0938648936928
 30
0.0
 11
608.5534090599515
 21
162.0871327993449
 31
0.0
  0
LINE
  5
511
330
1F
100
AcDbEntity
  8
0
100
AcDbLine
 10
608.551858333341
 20
165.0938648936928
 30
0.0
 11
608.5534090599515
 21
162.0871327993449
 31
0.0
  0
LINE
  5
512
330
1F
100
AcDbEntity
  8
0
100
AcDbLine
 10
730.5504820685028
 20
165.0871292472233
 30
0.0
 11
730.5504820685034
 21
162.0871323634479
 31
0.0
  0
LINE
  5
513
330
1F
100
AcDbEntity
  8
0
100
AcDbLine
 10
942.2089398186749
 20
165.0880957614454
 30
0.0
 11
942.2104905452856
 21
162.0813636670968
 31
0.0
  0
LINE
  5
514
330
1F
100
AcDbEntity
  8
0
100
AcDbLine
 10
942.2089398186749
 20
165.0880957614454
 30
0.0
 11
942.2104905452856
 21
162.0813636670968
 31
0.0
  0
LINE
  5
515
330
1F
100
AcDbEntity
  8
0
100
AcDbLine
 10
942.2089398186749
 20
165.0880957614454
 30
0.0
 11
952.2089398186748
 21
165.0880957614454
 31
0.0
  0
LINE
  5
516
330
1F
100
AcDbEntity
  8
0
100
AcDbLine
 10
952.2089398186748
 20
165.0880957614454
 30
0.0
 11
952.2006960149989
 21
162.081363631402
 31
0.0
  0
LINE
  5
517
330
1F
100
AcDbEntity
  8
0
100
AcDbLine
 10
989.0421090979378
 20
162.0807137699664
 30
0.0
 11
991.8953124744792
 21
137.4769698210077
 31
0.0
  0
LINE
  5
518
330
1F
100
AcDbEntity
  8
0
100
AcDbLine
 10
590.9103634897182
 20
108.0975503988213
 30
0.0
 11
685.9103409134982
 21
108.1630445309727
 31
0.0
  0
LINE
  5
519
330
1F
100
AcDbEntity
  8
0
100
AcDbLine
 10
700.4504261600044
 20
121.3429700459897
 30
0.0
 11
991.8953124744792
 21
137.4769698210077
 31
0.0
  0
SPLINE
  5
51A
330
1F
100
AcDbEntity
  8
0
100
AcDbSpline
210
0.0
220
0.0
230
1.0
 70
     8
 71
     3
 72
     9
 73
     5
 74
     3
 42
0.0000000001
 43
0.0000000001
 44
0.0000000001
 40
0.0
 40
0.0
 40
0.0
 40
0.0
 40
10.09044278898062
 40
20.4044450977441
 40
20.4044450977441
 40
20.4044450977441
 40
20.4044450977441
 10
685.9103409134982
 20
108.1630445309727
 30
0.0
 10
687.372675210619
 20
111.3600885205561
 30
0.0
 10
690.329742655938
 20
117.8250088342382
 30
0.0
 10
697.0523132395874
 20
120.1617820914042
 30
0.0
 10
700.4504261600044
 20
121.3429700459903
 30
0.0
 11
685.9103409134982
 21
108.1630445309727
 31
0.0
 11
691.2182043919415
 21
116.7446306880825
 31
0.0
 11
700.4504261600044
 21
121.3429700459903
 31
0.0
  0
LINE
  5
51B
330
1F
100
AcDbEntity
  8
0
100
AcDbLine
 10
590.6170272140339
 20
108.1143131204477
 30
0.0
 11
593.857531848967
 21
162.0864830696316
 31
0.0
  0
LINE
  5
51C
330
1F
100
AcDbEntity
  8
0
100
AcDbLine
 10
593.857531848967
 20
162.0864830696316
 30
0.0
 11
608.5534090599515
 21
162.0871327993449
 31
0.0
  0
LINE
  5
51D
330
1F
100
AcDbEntity
  8
0
100
AcDbLine
 10
618.5436145296647
 20
162.08713276365
 30
0.0
 11
730.5504820685034
 21
162.0871323634479
 31
0.0
  0
LINE
  5
51E
330
1F
100
AcDbEntity
  8
0
100
AcDbLine
 10
740.5438467260474
 20
162.0871323277414
 30
0.0
 11
835.3483275613776
 21
162.0842480189601
 31
0.0
  0
LINE
  5
51F
330
1F
100
AcDbEntity
  8
0
100
AcDbLine
 10
845.3424601788517
 20
162.0842479832512
 30
0.0
 11
942.2104905452856
 21
162.0813636670968
 31
0.0
  0
LINE
  5
520
330
1F
100
AcDbEntity
  8
0
100
AcDbLine
 10
952.2006960149989
 20
162.081363631402
 30
0.0
 11
979.0650136325348
 21
162.0813635354155
 31
0.0
  0
LINE
  5
521
330
1F
100
AcDbEntity
  8
0
100
AcDbLine
 10
962.1794729117176
 20
183.1632449252364
 30
0.0
 11
989.0437905292539
 21
183.1632450212233
 31
0.0
  0
LINE
  5
522
330
1F
100
AcDbEntity
  8
0
100
AcDbLine
 10
855.3212370755705
 20
183.1603605733874
 30
0.0
 11
952.1892674420048
 21
183.1632448895417
 31
0.0
  0
LINE
  5
523
330
1F
100
AcDbEntity
  8
0
100
AcDbLine
 10
750.5226236227667
 20
183.1574762288972
 30
0.0
 11
845.3271044580963
 21
183.1603605376784
 31
0.0
  0
LINE
  5
524
330
1F
100
AcDbEntity
  8
0
100
AcDbLine
 10
628.5223914263837
 20
183.1574757929887
 30
0.0
 11
740.5292589652223
 21
183.1574761931906
 31
0.0
  0
LINE
  5
525
330
1F
100
AcDbEntity
  8
0
100
AcDbLine
 10
593.8592132802828
 20
183.1574757215579
 30
0.0
 11
618.5321859566705
 21
183.1574757572938
 31
0.0
  0
LINE
  5
526
330
1F
100
AcDbEntity
  8
0
100
AcDbLine
 10
590.6187086453497
 20
237.1296456707418
 30
0.0
 11
593.8592132802828
 21
183.1574757215579
 31
0.0
  0
SPLINE
  5
527
330
1F
100
AcDbEntity
  8
0
100
AcDbSpline
210
0.0
220
0.0
230
1.0
 70
     8
 71
     3
 72
     9
 73
     5
 74
     3
 42
0.0000000001
 43
0.0000000001
 44
0.0000000001
 40
0.0
 40
0.0
 40
0.0
 40
0.0
 40
10.09044278898076
 40
20.40444509774436
 40
20.40444509774436
 40
20.40444509774436
 40
20.40444509774436
 10
685.9120223448138
 20
237.0809142602166
 30
0.0
 10
687.3743566419348
 20
233.8838702706332
 30
0.0
 10
690.331424087254
 20
227.4189499569512
 30
0.0
 10
697.0539946709034
 20
225.0821766997852
 30
0.0
 10
700.4521075913207
 20
223.9009887451993
 30
0.0
 11
685.9120223448138
 21
237.0809142602166
 31
0.0
 11
691.2198858232576
 21
228.4993281031069
 31
0.0
 11
700.4521075913207
 21
223.9009887451993
 31
0.0
  0
LINE
  5
528
330
1F
100
AcDbEntity
  8
0
100
AcDbLine
 10
700.4521075913207
 20
223.9009887451997
 30
0.0
 11
991.8969939057953
 21
207.7669889701819
 31
0.0
  0
LINE
  5
529
330
1F
100
AcDbEntity
  8
0
100
AcDbLine
 10
590.9120449210345
 20
237.146408392368
 30
0.0
 11
685.9120223448138
 21
237.0809142602166
 31
0.0
  0
LINE
  5
52A
330
1F
100
AcDbEntity
  8
0
100
AcDbLine
 10
989.0437905292539
 20
183.1632450212233
 30
0.0
 11
991.8969939057953
 21
207.7669889701819
 31
0.0
  0
LINE
  5
52B
330
1F
100
AcDbEntity
  8
0
100
AcDbLine
 10
962.187716715394
 20
180.1565127951936
 30
0.0
 11
962.1794729117176
 21
183.1632449252364
 31
0.0
  0
LINE
  5
52C
330
1F
100
AcDbEntity
  8
0
100
AcDbLine
 10
952.1877167153936
 20
180.1565127951936
 30
0.0
 11
962.187716715394
 21
180.1565127951936
 31
0.0
  0
LINE
  5
52D
330
1F
100
AcDbEntity
  8
0
100
AcDbLine
 10
952.1877167153936
 20
180.1565127951936
 30
0.0
 11
952.1892674420048
 21
183.1632448895417
 31
0.0
  0
LINE
  5
52E
330
1F
100
AcDbEntity
  8
0
100
AcDbLine
 10
952.1877167153936
 20
180.1565127951936
 30
0.0
 11
952.1892674420048
 21
183.1632448895417
 31
0.0
  0
LINE
  5
52F
330
1F
100
AcDbEntity
  8
0
100
AcDbLine
 10
740.5292589652223
 20
180.1574793094153
 30
0.0
 11
740.5292589652223
 21
183.1574761931906
 31
0.0
  0
LINE
  5
530
330
1F
100
AcDbEntity
  8
0
100
AcDbLine
 10
618.5306352300599
 20
180.1507436629457
 30
0.0
 11
618.5321859566705
 21
183.1574757572938
 31
0.0
  0
LINE
  5
531
330
1F
100
AcDbEntity
  8
0
100
AcDbLine
 10
618.5306352300599
 20
180.1507436629457
 30
0.0
 11
618.5321859566705
 21
183.1574757572938
 31
0.0
  0
LINE
  5
532
330
1F
100
AcDbEntity
  8
0
100
AcDbLine
 10
618.5306352300599
 20
180.1507436629457
 30
0.0
 11
628.5306352300599
 21
180.1507436629457
 31
0.0
  0
LINE
  5
533
330
1F
100
AcDbEntity
  8
0
100
AcDbLine
 10
628.5306352300599
 20
180.1507436629457
 30
0.0
 11
628.5223914263837
 21
183.1574757929887
 31
0.0
  0
LINE
  5
534
330
1F
100
AcDbEntity
  8
0
100
AcDbLine
 10
740.5292589652223
 20
180.1574793094153
 30
0.0
 11
740.5292589652223
 21
183.1574761931906
 31
0.0
  0
LINE
  5
535
330
1F
100
AcDbEntity
  8
0
100
AcDbLine
 10
750.5267114499322
 20
180.1574793151392
 30
0.0
 11
750.5226236227667
 21
183.1574762288972
 31
0.0
  0
LINE
  5
536
330
1F
100
AcDbEntity
  8
0
100
AcDbLine
 10
740.5292589652223
 20
180.1574793094153
 30
0.0
 11
750.5267114499322
 21
180.1574793151392
 31
0.0
  0
LINE
  5
537
330
1F
100
AcDbEntity
  8
0
100
AcDbLine
 10
845.3271044580963
 20
183.1603605376784
 30
0.0
 11
845.3233124914472
 21
180.1603638400222
 31
0.0
  0
LINE
  5
538
330
1F
100
AcDbEntity
  8
0
100
AcDbLine
 10
845.3271044580963
 20
183.1603605376784
 30
0.0
 11
845.3233124914467
 21
180.1603638400222
 31
0.0
  0
LINE
  5
539
330
1F
100
AcDbEntity
  8
0
100
AcDbLine
 10
855.32123707557
 20
180.1603638457462
 30
0.0
 11
855.3212370755705
 21
183.1603605733874
 31
0.0
  0
LINE
  5
53A
330
1F
100
AcDbEntity
  8
0
100
AcDbLine
 10
845.3233124914467
 20
180.1603638400222
 30
0.0
 11
855.32123707557
 21
180.1603638457462
 31
0.0
  0
LINE
  5
544
330
1F
100
AcDbEntity
  8
0
100
AcDbLine
 10
441.3883340891906
 20
127.2003542904136
 30
0.0
 11
273.2077443518984
 21
99.51451380860635
 31
0.0
  0
LINE
  5
545
330
1F
100
AcDbEntity
  8
0
100
AcDbLine
 10
250.9248295757017
 20
114.5692611340708
 30
0.0
 11
273.2077443518984
 21
99.51451380860635
 31
0.0
  0
ARC
  5
549
330
1F
100
AcDbEntity
  8
0
100
AcDbCircle
 10
342.1115697770886
 20
122.3319626740131
 30
0.0
 40
99.39606214137135
100
AcDbArc
 50
2.807454708411014
 51
84.38774069173154
  0
SPLINE
  5
552
330
1F
100
AcDbEntity
  8
0
100
AcDbSpline
210
0.0
220
0.0
230
1.0
 70
     8
 71
     3
 72
    10
 73
     6
 74
     4
 42
0.0000000001
 43
0.0000000001
 44
0.0000000001
 40
0.0
 40
0.0
 40
0.0
 40
0.0
 40
35.22194736864363
 40
117.2163485082107
 40
413.4057742637269
 40
413.4057742637269
 40
413.4057742637269
 40
413.4057742637269
 10
131.2349383940397
 20
763.5726400738591
 30
0.0
 10
141.5350692748571
 20
757.7723927511274
 30
0.0
 10
175.8132344872925
 20
738.4695471560426
 30
0.0
 10
316.8871506100361
 20
728.0943928148606
 30
0.0
 10
441.61405904492
 20
741.1631749521148
 30
0.0
 10
539.2988058752965
 20
751.3985017992122
 30
0.0
 11
131.2349383940397
 21
763.5726400738591
 31
0.0
 11
162.6519547601074
 21
747.6491775391671
 31
0.0
 11
243.5900883625763
 21
734.5304753478244
 31
0.0
 11
539.2988058752965
 21
751.3985017992122
 31
0.0
  0
SPLINE
  5
557
330
1F
100
AcDbEntity
  8
0
100
AcDbSpline
210
0.0
220
0.0
230
1.0
 70
     8
 71
     3
 72
    10
 73
     6
 74
     0
 42
0.0000000001
 43
0.0000000001
 40
0.0
 40
0.0
 40
0.0
 40
0.0
 40
106.1265048768294
 40
182.7657304920147
 40
233.8477178285633
 40
233.8477178285633
 40
233.8477178285633
 40
233.8477178285633
 10
194.3626579647398
 20
895.1857831575638
 30
0.0
 10
225.3990867441553
 20
913.1403008400367
 30
0.0
 10
278.848463827822
 20
944.060668411525
 30
0.0
 10
357.7058655210351
 20
951.964015486042
 30
0.0
 10
400.3575142521123
 20
951.2448806756237
 30
0.0
 10
417.3718452351065
 20
950.425406436685
 30
0.0
  0
SPLINE
  5
558
330
1F
100
AcDbEntity
  8
0
100
AcDbSpline
210
0.0
220
0.0
230
1.0
 70
     8
 71
     3
 72
     9
 73
     5
 74
     3
 42
0.0000000001
 43
0.0000000001
 44
0.0000000001
 40
0.0
 40
0.0
 40
0.0
 40
0.0
 40
131.71765718406
 40
255.0984594028023
 40
255.0984594028023
 40
255.0984594028023
 40
255.0984594028023
 10
539.2988058752965
 20
751.3985017992122
 30
0.0
 10
582.9889482286906
 20
756.8094374818763
 30
0.0
 10
667.6039364065149
 20
767.2888324702521
 30
0.0
 10
752.6411290632054
 20
761.3514987164365
 30
0.0
 10
793.7701781095007
 20
758.4798506347468
 30
0.0
 11
539.2988058752965
 21
751.3985017992122
 31
0.0
 11
670.4817958059193
 21
763.2544862340727
 31
0.0
 11
793.7701781095007
 21
758.4798506347468
 31
0.0
  0
SPLINE
  5
55A
330
1F
100
AcDbEntity
  8
0
100
AcDbSpline
210
0.0
220
0.0
230
1.0
 70
     8
 71
     3
 72
     9
 73
     5
 74
     3
 42
0.0000000001
 43
0.0000000001
 44
0.0000000001
 40
0.0
 40
0.0
 40
0.0
 40
0.0
 40
22.84665015019927
 40
53.99943522023622
 40
53.99943522023622
 40
53.99943522023622
 40
53.99943522023622
 10
793.7701781095007
 20
758.4798506347468
 30
0.0
 10
801.3632649350121
 20
757.6662322151215
 30
0.0
 10
819.3099834893841
 20
755.7431960213818
 30
0.0
 10
836.4261681521451
 20
749.9445314745205
 30
0.0
 10
846.3006570212112
 20
746.5992270359677
 30
0.0
 11
793.7701781095007
 21
758.4798506347468
 31
0.0
 11
816.4007683650025
 21
755.3452361810713
 31
0.0
 11
846.3006570212112
 21
746.5992270359677
 31
0.0
  0
LINE
  5
562
330
1F
100
AcDbEntity
  8
0
100
AcDbLine
 10
81.21603292626128
 20
839.6170622255521
 30
0.0
 11
81.1957436180519
 21
859.6170519341486
 31
0.0
  0
LINE
  5
563
330
1F
100
AcDbEntity
  8
0
100
AcDbLine
 10
81.21603292626128
 20
839.6170622255521
 30
0.0
 11
81.23632223447065
 21
819.6170725169555
 31
0.0
  0
SPLINE
  5
56C
330
1F
100
AcDbEntity
  8
0
100
AcDbSpline
210
0.0
220
0.0
230
1.0
 70
     8
 71
     3
 72
    14
 73
    10
 74
     8
 42
0.0000000001
 43
0.0000000001
 44
0.0000000001
 40
0.0
 40
0.0
 40
0.0
 40
0.0
 40
14.04066141157812
 40
32.88970209571477
 40
47.88781258142254
 40
61.93958034018932
 40
70.73846945476565
 40
79.43963202154009
 40
85.59044402542317
 40
85.59044402542317
 40
85.59044402542317
 40
85.59044402542317
 10
81.23632223447065
 20
819.6170725169555
 30
0.0
 10
85.0187694728739
 20
816.833275430118
 30
0.0
 10
93.87900470091365
 20
810.3123392578732
 30
0.0
 10
109.3541270308334
 20
805.1611087111119
 30
0.0
 10
123.2155335445613
 20
798.4955877113419
 30
0.0
 10
133.835261236378
 20
787.7952549885024
 30
0.0
 10
129.6688224818355
 20
777.4875288657824
 30
0.0
 10
126.58345742907
 20
769.3611578886819
 30
0.0
 10
129.8727198687203
 20
765.2678477423149
 30
0.0
 10
131.2349383940397
 20
763.5726400738591
 30
0.0
 11
81.23632223447065
 21
819.6170725169555
 31
0.0
 11
92.90590794976194
 21
811.8093236667396
 31
0.0
 11
110.2441457072318
 21
804.4152824051773
 31
0.0
 11
123.4212101782977
 21
797.2523018756163
 31
0.0
 11
131.743567855191
 21
785.9301757570742
 31
0.0
 11
129.6629784359675
 21
777.3808133645197
 31
0.0
 11
128.0447409872286
 21
768.8314544661616
 31
0.0
 11
131.2349383940397
 21
763.5726400738591
 31
0.0
  0
SPLINE
  5
56D
330
1F
100
AcDbEntity
  8
0
100
AcDbSpline
210
0.0
220
0.0
230
1.0
 70
     8
 71
     3
 72
    10
 73
     6
 74
     4
 42
0.0000000001
 43
0.0000000001
 44
0.0000000001
 40
0.0
 40
0.0
 40
0.0
 40
0.0
 40
18.65671595789493
 40
55.99259580851236
 40
107.3401779825693
 40
107.3401779825693
 40
107.3401779825693
 40
107.3401779825693
 10
81.1957436180519
 20
859.6170519341486
 30
0.0
 10
86.64031288793905
 20
862.6655561932992
 30
0.0
 10
102.9805716541789
 20
871.8147369595381
 30
0.0
 10
138.2657395914591
 20
879.7118183420449
 30
0.0
 10
166.909209883946
 20
886.7167147334098
 30
0.0
 10
183.4937332101149
 20
890.7725385010509
 30
0.0
 11
81.1957436180519
 21
859.6170519341486
 31
0.0
 11
97.75879922572677
 21
868.2041491893706
 31
0.0
 11
133.5695905301099
 21
878.7661163533821
 31
0.0
 11
183.4937332101149
 21
890.7725385010509
 31
0.0
  0
SPLINE
  5
58E
330
1F
100
AcDbEntity
  8
0
100
AcDbSpline
210
0.0
220
0.0
230
1.0
 70
     8
 71
     3
 72
    11
 73
     7
 74
     5
 42
0.0000000001
 43
0.0000000001
 44
0.0000000001
 40
0.0
 40
0.0
 40
0.0
 40
0.0
 40
9.486814091494053
 40
25.09262103905708
 40
33.02283820791996
 40
42.9907365685235
 40
42.9907365685235
 40
42.9907365685235
 40
42.9907365685235
 10
1124.161582732411
 20
960.6836120777726
 30
0.0
 10
1127.17647428314
 20
961.6605506487342
 30
0.0
 10
1135.150861725192
 20
964.2445529389817
 30
0.0
 10
1146.055687530735
 20
965.6824091276345
 30
0.0
 10
1156.547415043568
 20
970.6262576164187
 30
0.0
 10
1159.514169696108
 20
975.9954684212335
 30
0.0
 10
1161.166427934618
 20
978.9857132596321
 30
0.0
 11
1124.161582732411
 21
960.6836120777726
 31
0.0
 11
1133.25081358624
 21
963.4012441522763
 31
0.0
 11
1148.413677438679
 21
967.0929605927694
 31
0.0
 11
1155.39143012835
 21
970.8611580062706
 31
0.0
 11
1161.166427934618
 21
978.9857132596321
 31
0.0
  0
SPLINE
  5
592
330
1F
100
AcDbEntity
  8
0
100
AcDbSpline
210
0.0
220
0.0
230
1.0
 70
     8
 71
     3
 72
    11
 73
     7
 74
     5
 42
0.0000000001
 43
0.0000000001
 44
0.0000000001
 40
0.0
 40
0.0
 40
0.0
 40
0.0
 40
9.606203928527971
 40
25.21201087609103
 40
33.1422280449538
 40
43.11012640555747
 40
43.11012640555747
 40
43.11012640555747
 40
43.11012640555747
 10
1124.106433263073
 20
899.7472040745067
 30
0.0
 10
1127.165444280852
 20
898.7781245650253
 30
0.0
 10
1135.193987045941
 20
896.2347220602884
 30
0.0
 10
1146.135536968307
 20
894.7954782906601
 30
0.0
 10
1156.639441087755
 20
889.8788996233104
 30
0.0
 10
1159.618285586986
 20
884.5160387737633
 30
0.0
 10
1161.277276956859
 20
881.5293303807855
 30
0.0
 11
1124.106433263073
 21
899.7472040745067
 31
0.0
 11
1133.326282652402
 21
897.0502555850931
 31
0.0
 11
1148.497505338877
 21
893.393041798342
 31
0.0
 11
1155.483812023219
 21
889.6407274115077
 31
0.0
 11
1161.277276956859
 21
881.5293303807855
 31
0.0
  0
SPLINE
  5
593
330
1F
100
AcDbEntity
  8
0
100
AcDbSpline
210
0.0
220
0.0
230
1.0
 70
     8
 71
     3
 72
    13
 73
     9
 74
     7
 42
0.0000000001
 43
0.0000000001
 44
0.0000000001
 40
0.0
 40
0.0
 40
0.0
 40
0.0
 40
6.411040704881174
 40
12.31485977529656
 40
17.49180716028254
 40
25.66832660849565
 40
42.66722248626478
 40
70.40015035178993
 40
70.40015035178993
 40
70.40015035178993
 40
70.40015035178993
 10
1161.277276956859
 20
881.5293303807857
 30
0.0
 10
1162.34661371628
 20
879.685998613635
 30
0.0
 10
1164.400684630977
 20
876.1451737652562
 30
0.0
 10
1167.414039920101
 20
871.062984354763
 30
0.0
 10
1172.977930905036
 20
867.3828814894605
 30
0.0
 10
1183.370266758732
 20
866.7883304923922
 30
0.0
 10
1200.74651104042
 20
869.3326265380632
 30
0.0
 10
1215.713728791797
 20
868.9253447495641
 30
0.0
 10
1224.993135163168
 20
868.672837350666
 30
0.0
 11
1161.277276956859
 21
881.5293303807857
 31
0.0
 11
1164.503564503183
 21
875.9892481081044
 31
0.0
 11
1167.906192889131
 21
871.1646030762558
 31
0.0
 11
1172.21858996183
 21
868.3003377752946
 31
0.0
 11
1180.312482725308
 21
867.1408679739084
 31
0.0
 11
1197.261127042207
 21
868.4469755048866
 31
0.0
 11
1224.993135163168
 21
868.672837350666
 31
0.0
  0
LINE
  5
595
330
1F
100
AcDbEntity
  8
0
100
AcDbLine
 10
1124.106433263073
 20
920.2332521869612
 30
0.0
 11
1124.106433263073
 21
899.7472040745067
 31
0.0
  0
LINE
  5
596
330
1F
100
AcDbEntity
  8
0
100
AcDbLine
 10
1124.126481713052
 20
937.6796012689553
 30
0.0
 11
1124.161582732411
 21
960.6836120777726
 31
0.0
  0
LINE
  5
597
330
1F
100
AcDbEntity
  8
0
100
AcDbLine
 10
240.9269397192569
 20
234.2261928622207
 30
0.0
 11
351.8320913305354
 21
221.2515695774998
 31
0.0
  0
LINE
  5
599
330
1F
100
AcDbEntity
  8
0
100
AcDbLine
 10
393.6816492093993
 20
184.4331381779698
 30
0.0
 11
393.6816492093993
 21
184.4331381779698
 31
0.0
  0
LINE
  5
59A
330
1F
100
AcDbEntity
  8
0
100
AcDbLine
 10
393.5963827120735
 20
184.2263117676836
 30
0.0
 11
401.0696983220672
 21
202.3539362043199
 31
0.0
  0
LINE
  5
59C
330
1F
100
AcDbEntity
  8
0
100
AcDbLine
 10
241.0359834359038
 20
184.2263117676836
 30
0.0
 11
393.5963827120735
 21
184.2263117676836
 31
0.0
  0
LINE
  5
5A7
330
1F
100
AcDbEntity
  8
0
100
AcDbLine
 10
240.9269397192569
 20
234.2261928622207
 30
0.0
 11
240.9129702179936
 21
164.2263817797865
 31
0.0
  0
LINE
  5
5A8
330
1F
100
AcDbEntity
  8
0
100
AcDbLine
 10
240.9269397192569
 20
234.2261928622207
 30
0.0
 11
240.9129702179936
 21
164.2263817797865
 31
0.0
  0
LINE
  5
5A9
330
1F
100
AcDbEntity
  8
0
100
AcDbLine
 10
240.7979395753138
 20
184.2263592728691
 30
0.0
 11
88.23755245092312
 21
184.2872506545055
 31
0.0
  0
LINE
  5
5AA
330
1F
100
AcDbEntity
  8
0
100
AcDbLine
 10
88.23755245092305
 20
184.2872506545055
 30
0.0
 11
80.77147270893345
 21
202.4178564692201
 31
0.0
  0
LINE
  5
5AB
330
1F
100
AcDbEntity
  8
0
100
AcDbLine
 10
88.15236851094551
 20
184.4941110807063
 30
0.0
 11
88.15236851094551
 21
184.4941110807063
 31
0.0
  0
LINE
  5
5AC
330
1F
100
AcDbEntity
  8
0
100
AcDbLine
 10
240.9269397192569
 20
234.2261928622207
 30
0.0
 11
130.0166183847287
 21
221.2958361473895
 31
0.0
  0
ARC
  5
5AD
330
1F
100
AcDbEntity
  8
0
100
AcDbCircle
 10
139.697657413972
 20
122.3723573745238
 30
0.0
 40
99.39606214137135
100
AcDbArc
 50
95.58939086216007
 51
177.1696768454806
  0
LINE
  5
5AE
330
1F
100
AcDbEntity
  8
0
100
AcDbLine
 10
230.9011108602855
 20
114.5692611340708
 30
0.0
 11
208.5923702300087
 21
99.52740876555651
 31
0.0
  0
LINE
  5
5AF
330
1F
100
AcDbEntity
  8
0
100
AcDbLine
 10
40.4228441290209
 20
127.2803729052062
 30
0.0
 11
208.5923702300087
 21
99.52740876555651
 31
0.0
  0
SPLINE
  5
5B6
330
1F
100
AcDbEntity
  8
0
100
AcDbSpline
210
0.0
220
0.0
230
1.0
 70
     8
 71
     3
 72
    14
 73
    10
 74
     8
 42
0.0000000001
 43
0.0000000001
 44
0.0000000001
 40
0.0
 40
0.0
 40
0.0
 40
0.0
 40
38.51726181435514
 40
99.28742062813107
 40
194.0874921182253
 40
273.5692225903168
 40
348.0507606796756
 40
374.5446691627695
 40
397.2925735400254
 40
397.2925735400254
 40
397.2925735400254
 40
397.2925735400254
 10
417.3718452351066
 20
950.425406436685
 30
0.0
 10
430.1964561672845
 20
949.7733607710218
 30
0.0
 10
463.2549468292741
 20
948.0925576914184
 30
0.0
 10
527.5531318786015
 20
940.406739673603
 30
0.0
 10
605.0513726026363
 20
929.8616424506207
 30
0.0
 10
687.5595606300336
 20
918.0826470362173
 30
0.0
 10
746.1913011930999
 20
911.056539783628
 30
0.0
 10
789.4738075504505
 20
912.2544004629407
 30
0.0
 10
801.9110373486162
 20
923.7395853771623
 30
0.0
 10
807.6565795561906
 20
929.0453179042073
 30
0.0
 11
417.3718452351066
 21
950.425406436685
 31
0.0
 11
455.8206802772993
 21
948.1305117607062
 31
0.0
 11
516.242095895304
 21
941.6293782466267
 31
0.0
 11
610.2033433313818
 21
929.0461539069294
 31
0.0
 11
688.9403415472043
 21
918.1911739069592
 31
0.0
 11
763.1522300283647
 21
911.8591028226756
 31
0.0
 11
789.3978942496251
 21
915.4774306540646
 31
0.0
 11
807.6565795561906
 21
929.0453179042073
 31
0.0
  0
LINE
  5
5B9
330
1F
100
AcDbEntity
  8
0
100
AcDbLine
 10
887.9982871690483
 20
745.6296291404753
 30
0.0
 11
887.9982871690483
 21
987.5595859692717
 31
0.0
  0
LINE
  5
5BC
330
1F
100
AcDbEntity
  8
0
100
AcDbLine
 10
913.1833163588186
 20
508.7241133802907
 30
0.0
 11
504.5036670759146
 21
508.9890306316328
 31
0.0
  0
LINE
  5
62C
330
1F
100
AcDbEntity
  8
0
100
AcDbLine
 10
825.0761604102802
 20
838.129410683511
 30
0.0
 11
825.0761604102802
 21
841.12940851643
 31
0.0
  0
LINE
  5
62D
330
1F
100
AcDbEntity
  8
0
100
AcDbLine
 10
850.0743487326568
 20
839.6184150780467
 30
0.0
 11
861.3031429612137
 21
839.61347651119
 31
0.0
  0
LINE
  5
62E
330
1F
100
AcDbEntity
  8
0
100
AcDbLine
 10
861.3031429612137
 20
839.61347651119
 30
0.0
 11
887.9982871690483
 21
839.6017356464335
 31
0.0
  0
LINE
  5
631
330
1F
100
AcDbEntity
  8
0
100
AcDbLine
 10
240.9129702179936
 20
164.2263817797865
 30
0.0
 11
230.9129702179936
 21
164.2263817797865
 31
0.0
  0
LINE
  5
632
330
1F
100
AcDbEntity
  8
0
100
AcDbLine
 10
230.9129702179936
 20
164.2263817797865
 30
0.0
 11
230.9011108602855
 21
114.5692611340708
 31
0.0
  0
LINE
  5
633
330
1F
100
AcDbEntity
  8
0
100
AcDbLine
 10
250.9129702179936
 20
164.2263817797865
 30
0.0
 11
250.9248295757017
 21
114.5692611340708
 31
0.0
  0
LINE
  5
634
330
1F
100
AcDbEntity
  8
0
100
AcDbLine
 10
240.9129702179936
 20
164.2263817797865
 30
0.0
 11
250.9129702179936
 21
164.2263817797865
 31
0.0
  0
SPLINE
  5
68A
330
1F
100
AcDbEntity
  8
0
100
AcDbSpline
210
0.0
220
0.0
230
1.0
 70
     8
 71
     3
 72
    10
 73
     6
 74
     4
 42
0.0000000001
 43
0.0000000001
 44
0.0000000001
 40
0.0
 40
0.0
 40
0.0
 40
0.0
 40
4.508720933192807
 40
7.154617465309371
 40
9.809644442030471
 40
9.809644442030471
 40
9.809644442030471
 40
9.809644442030471
 10
1673.356520829027
 20
795.3294251746095
 30
0.0
 10
1672.864812974444
 20
796.8509869643196
 30
0.0
 10
1672.084551419922
 20
799.2654616493825
 30
0.0
 10
1668.837011781333
 20
800.580439855442
 30
0.0
 10
1667.07220561201
 20
800.5774629664481
 30
0.0
 10
1666.188282653978
 20
800.5759719582167
 30
0.0
 11
1673.356520829027
 21
795.3294251746095
 31
0.0
 11
1671.250627613438
 21
799.3161253411569
 31
0.0
 11
1668.837566809826
 21
800.4014391283799
 31
0.0
 11
1666.188282653978
 21
800.5759719582167
 31
0.0
  0
LINE
  5
68D
330
1F
100
AcDbEntity
  8
0
100
AcDbLine
 10
808.158192756821
 20
400.4463543008766
 30
0.0
 11
818.0922168075587
 21
401.5931612416316
 31
0.0
  0
LINE
  5
68E
330
1F
100
AcDbEntity
  8
0
100
AcDbLine
 10
818.0922168075587
 20
401.5931612416316
 30
0.0
 11
817.7576508169616
 21
404.5744471383439
 31
0.0
  0
LINE
  5
690
330
1F
100
AcDbEntity
  8
0
100
AcDbLine
 10
877.6963611119851
 20
408.4740028861623
 30
0.0
 11
877.2917405049016
 21
411.4465913481468
 31
0.0
  0
LINE
  5
691
330
1F
100
AcDbEntity
  8
0
100
AcDbLine
 10
877.6963611119851
 20
408.4740028861623
 30
0.0
 11
887.6258957098345
 21
409.6590525349597
 31
0.0
  0
LINE
  5
692
330
1F
100
AcDbEntity
  8
0
100
AcDbLine
 10
887.6258957098345
 20
409.6590525349597
 30
0.0
 11
887.2999419650788
 21
412.6412923234878
 31
0.0
  0
LINE
  5
694
330
1F
100
AcDbEntity
  8
0
100
AcDbLine
 10
947.2345294671494
 20
416.5016514714481
 30
0.0
 11
937.2998419890992
 21
415.3606060238546
 31
0.0
  0
LINE
  5
695
330
1F
100
AcDbEntity
  8
0
100
AcDbLine
 10
937.2998419890992
 20
415.3606060238546
 30
0.0
 11
936.942942366616
 21
418.3393008151132
 31
0.0
  0
LINE
  5
699
330
1F
100
AcDbEntity
  8
0
100
AcDbLine
 10
559.8075914883776
 20
371.7761807819988
 30
0.0
 11
808.158192756821
 21
400.4463543008766
 31
0.0
  0
LINE
  5
69A
330
1F
100
AcDbEntity
  8
0
100
AcDbLine
 10
817.7576508169616
 20
404.5744471383439
 30
0.0
 11
877.2917405049016
 21
411.4465913481468
 31
0.0
  0
LINE
  5
69D
330
1F
100
AcDbEntity
  8
0
100
AcDbLine
 10
121.5722322752247
 20
413.3161789295184
 30
0.0
 11
71.93935305728155
 21
419.101685836846
 31
0.0
  0
LINE
  5
69E
330
1F
100
AcDbEntity
  8
0
100
AcDbLine
 10
191.100195701504
 20
405.1267619072556
 30
0.0
 11
131.5783122497959
 21
412.1038380407999
 31
0.0
  0
LINE
  5
69F
330
1F
100
AcDbEntity
  8
0
100
AcDbLine
 10
448.9920397467146
 20
371.8738498759391
 30
0.0
 11
200.6923621295608
 21
400.9817542185283
 31
0.0
  0
LINE
  5
6A0
330
1F
100
AcDbEntity
  8
0
100
AcDbLine
 10
71.5772033508864
 20
416.1236247914411
 30
0.0
 11
71.93935305728155
 21
419.101685836846
 31
0.0
  0
LINE
  5
6A1
330
1F
100
AcDbEntity
  8
0
100
AcDbLine
 10
61.64454266395456
 20
417.2821806503782
 30
0.0
 11
71.5772033508864
 21
416.1236247914411
 31
0.0
  0
LINE
  5
6A2
330
1F
100
AcDbEntity
  8
0
100
AcDbLine
 10
121.2410221496018
 20
410.3345183430858
 30
0.0
 11
121.5722322752247
 21
413.3161789295184
 31
0.0
  0
LINE
  5
6A3
330
1F
100
AcDbEntity
  8
0
100
AcDbLine
 10
131.1684523967576
 20
409.1319674344532
 30
0.0
 11
121.2410221496018
 21
410.3345183430858
 31
0.0
  0
LINE
  5
6A4
330
1F
100
AcDbEntity
  8
0
100
AcDbLine
 10
131.1684523967576
 20
409.1319674344532
 30
0.0
 11
131.5783122497959
 21
412.1038380407999
 31
0.0
  0
LINE
  5
6A5
330
1F
100
AcDbEntity
  8
0
100
AcDbLine
 10
190.7603750248746
 20
402.1460703922318
 30
0.0
 11
191.100195701504
 21
405.1267619072556
 31
0.0
  0
LINE
  5
6A6
330
1F
100
AcDbEntity
  8
0
100
AcDbLine
 10
200.6923621295608
 20
400.9817542185283
 30
0.0
 11
190.7603750248746
 21
402.1460703922318
 31
0.0
  0
LINE
  5
6A7
330
1F
100
AcDbEntity
  8
0
100
AcDbLine
 10
95.85826628555571
 20
509.444476143826
 30
0.0
 11
504.5377476167953
 21
508.9890005941922
 31
0.0
  0
LINE
  5
6A8
330
1F
100
AcDbEntity
  8
0
100
AcDbLine
 10
504.4808508136251
 20
463.7677128774972
 30
0.0
 11
85.20303457014279
 21
487.7568551296907
 31
0.0
  0
LINE
  5
6A9
330
1F
100
AcDbEntity
  8
0
100
AcDbLine
 10
180.3667662293875
 20
597.4487376910372
 30
0.0
 11
241.0350804216573
 21
617.6031494322467
 31
0.0
  0
LINE
  5
6AA
330
1F
100
AcDbEntity
  8
0
100
AcDbLine
 10
180.3667662293875
 20
597.4487376910372
 30
0.0
 11
181.5734676081207
 21
587.5218110879761
 31
0.0
  0
LINE
  5
6AB
330
1F
100
AcDbEntity
  8
0
100
AcDbLine
 10
181.5734676081207
 20
587.5218110879761
 30
0.0
 11
178.5918336905752
 21
587.1903609684345
 31
0.0
  0
LINE
  5
6AC
330
1F
100
AcDbEntity
  8
0
100
AcDbLine
 10
177.4631309415954
 20
596.4841310109997
 30
0.0
 11
178.5918336905752
 21
587.1903609684345
 31
0.0
  0
LINE
  5
6AD
330
1F
100
AcDbEntity
  8
0
100
AcDbLine
 10
189.6263299629977
 20
517.9882505805612
 30
0.0
 11
186.6464673255029
 21
517.6412366591371
 31
0.0
  0
LINE
  5
6AE
330
1F
100
AcDbEntity
  8
0
100
AcDbLine
 10
188.531082463292
 20
527.9280912691436
 30
0.0
 11
185.5450209241039
 21
527.6392375272937
 31
0.0
  0
LINE
  5
6AF
330
1F
100
AcDbEntity
  8
0
100
AcDbLine
 10
185.5450209241039
 20
527.6392375272937
 30
0.0
 11
186.6464673255029
 21
517.6412366591371
 31
0.0
  0
LINE
  5
6B0
330
1F
100
AcDbEntity
  8
0
100
AcDbLine
 10
188.531082463292
 20
527.9280912691436
 30
0.0
 11
189.6263299629977
 21
517.9882505805612
 31
0.0
  0
LINE
  5
6B1
330
1F
100
AcDbEntity
  8
0
100
AcDbLine
 10
252.1030319433533
 20
549.0471096903909
 30
0.0
 11
253.1982794430589
 21
539.1072690018098
 31
0.0
  0
LINE
  5
6B2
330
1F
100
AcDbEntity
  8
0
100
AcDbLine
 10
249.1169704041654
 20
548.7582559485415
 30
0.0
 11
250.2184168055643
 21
538.7602550803835
 31
0.0
  0
LINE
  5
6B3
330
1F
100
AcDbEntity
  8
0
100
AcDbLine
 10
252.1030319433533
 20
549.0471096903909
 30
0.0
 11
249.1169704041654
 21
548.7582559485415
 31
0.0
  0
LINE
  5
6B4
330
1F
100
AcDbEntity
  8
0
100
AcDbLine
 10
253.1982794430589
 20
539.1072690018098
 30
0.0
 11
250.2184168055643
 21
538.7602550803835
 31
0.0
  0
LINE
  5
6B5
330
1F
100
AcDbEntity
  8
0
100
AcDbLine
 10
241.0350804216573
 20
617.6031494322467
 30
0.0
 11
242.1637831706373
 21
608.3093793896823
 31
0.0
  0
LINE
  5
6B6
330
1F
100
AcDbEntity
  8
0
100
AcDbLine
 10
245.1454170881817
 20
608.6408295092231
 30
0.0
 11
242.1637831706373
 21
608.3093793896823
 31
0.0
  0
LINE
  5
6B7
330
1F
100
AcDbEntity
  8
0
100
AcDbLine
 10
243.938715709449
 20
618.5677561122847
 30
0.0
 11
245.1454170881817
 21
608.6408295092231
 31
0.0
  0
LINE
  5
6B8
330
1F
100
AcDbEntity
  8
0
100
AcDbLine
 10
288.4522726607191
 20
572.9612090458037
 30
0.0
 11
421.9701433613117
 21
586.6045500565371
 31
0.0
  0
LINE
  5
6B9
330
1F
100
AcDbEntity
  8
0
100
AcDbLine
 10
243.938715709449
 20
618.5677561122847
 30
0.0
 11
272.0802314874662
 21
582.0926448589241
 31
0.0
  0
SPLINE
  5
6BA
330
1F
100
AcDbEntity
  8
0
100
AcDbSpline
210
0.0
220
0.0
230
1.0
 70
     8
 71
     3
 72
     9
 73
     5
 74
     3
 42
0.0000000001
 43
0.0000000001
 44
0.0000000001
 40
0.0
 40
0.0
 40
0.0
 40
0.0
 40
10.63719514428019
 40
18.96283925976978
 40
18.96283925976978
 40
18.96283925976978
 40
18.96283925976978
 10
272.0802314874662
 20
582.0926448589241
 30
0.0
 10
274.7769774885165
 20
579.7018447828902
 30
0.0
 10
279.5844441419647
 20
575.4397853838522
 30
0.0
 10
285.7467216299398
 20
573.7174161321372
 30
0.0
 10
288.4522726607191
 20
572.9612090458037
 30
0.0
 11
272.0802314874662
 21
582.0926448589241
 31
0.0
 11
280.5967801452148
 21
575.7193945501962
 31
0.0
 11
288.4522726607191
 21
572.9612090458037
 31
0.0
  0
SPLINE
  5
6BB
330
1F
100
AcDbEntity
  8
0
100
AcDbSpline
210
0.0
220
0.0
230
1.0
 70
     8
 71
     3
 72
     9
 73
     5
 74
     3
 42
0.0000000001
 43
0.0000000001
 44
0.0000000001
 40
0.0
 40
0.0
 40
0.0
 40
0.0
 40
13.37328677782929
 40
25.41006956619083
 40
25.41006956619083
 40
25.41006956619083
 40
25.41006956619083
 10
421.9701433613117
 20
586.6045500565371
 30
0.0
 10
426.2995898978765
 20
588.3218213985685
 30
0.0
 10
434.5258053006297
 20
591.5847428471225
 30
0.0
 10
438.1015047913023
 20
599.631557597829
 30
0.0
 10
439.7953182605479
 20
603.4433441433218
 30
0.0
 11
421.9701433613117
 21
586.6045500565371
 31
0.0
 11
433.6703350346234
 21
593.0814562662821
 31
0.0
 11
439.7953182605479
 21
603.4433441433218
 31
0.0
  0
LINE
  5
6BC
330
1F
100
AcDbEntity
  8
0
100
AcDbLine
 10
504.61041157015
 20
610.7676095608594
 30
0.0
 11
439.7953182605479
 21
603.4433441433218
 31
0.0
  0
SPLINE
  5
6BD
330
1F
100
AcDbEntity
  8
0
100
AcDbSpline
210
0.0
220
0.0
230
1.0
 70
     8
 71
     3
 72
    10
 73
     6
 74
     4
 42
0.0000000001
 43
0.0000000001
 44
0.0000000001
 40
0.0
 40
0.0
 40
0.0
 40
0.0
 40
74.20342106590246
 40
156.5840591129156
 40
207.9899280379627
 40
207.9899280379627
 40
207.9899280379627
 40
207.9899280379627
 10
61.64454266395456
 20
417.2821806503782
 30
0.0
 10
68.42695485562774
 20
441.0702248999211
 30
0.0
 10
82.73920106063588
 20
491.2677558687821
 30
0.0
 10
120.4955416060588
 20
552.1146618786751
 30
0.0
 10
156.6893866234475
 20
578.5365115558176
 30
0.0
 10
170.5964396960412
 20
588.6887920211725
 30
0.0
 11
61.64454266395456
 21
417.2821806503782
 31
0.0
 11
85.16100939366742
 21
487.6606112270395
 31
0.0
 11
130.6333092153093
 21
556.3544208023113
 31
0.0
 11
170.5964396960412
 21
588.6887920211725
 31
0.0
  0
LINE
  5
6BE
330
1F
100
AcDbEntity
  8
0
100
AcDbLine
 10
177.4631309415954
 20
596.4841310109997
 30
0.0
 11
170.5964396960412
 21
588.6887920211725
 31
0.0
  0
LINE
  5
6BF
330
1F
100
AcDbEntity
  8
0
100
AcDbLine
 10
449.0503738370944
 20
466.8738319661153
 30
0.0
 11
448.9920397467146
 21
371.8738498759391
 31
0.0
  0
LINE
  5
6C0
330
1F
100
AcDbEntity
  8
0
100
AcDbLine
 10
449.4044655927686
 20
562.242000155293
 30
0.0
 11
452.4040065810006
 21
562.2944773876956
 31
0.0
  0
LINE
  5
6C1
330
1F
100
AcDbEntity
  8
0
100
AcDbLine
 10
449.404465592769
 20
562.2420001554935
 30
0.0
 11
449.3869401036119
 21
552.2997801373805
 31
0.0
  0
LINE
  5
6C2
330
1F
100
AcDbEntity
  8
0
100
AcDbLine
 10
452.3865022342095
 20
552.2944927072594
 30
0.0
 11
449.3869401036119
 21
552.2997801373805
 31
0.0
  0
LINE
  5
6C3
330
1F
100
AcDbEntity
  8
0
100
AcDbLine
 10
449.404465592769
 20
562.2420001554935
 30
0.0
 11
452.404006581001
 21
562.2944773878962
 31
0.0
  0
LINE
  5
6C4
330
1F
100
AcDbEntity
  8
0
100
AcDbLine
 10
452.4040065810006
 20
562.2944773876956
 30
0.0
 11
452.3865022342095
 21
552.2944927072594
 31
0.0
  0
LINE
  5
6C5
330
1F
100
AcDbEntity
  8
0
100
AcDbLine
 10
449.4040200599491
 20
562.3043676109869
 30
0.0
 11
452.4040153991135
 21
562.2990794172342
 31
0.0
  0
LINE
  5
6C6
330
1F
100
AcDbEntity
  8
0
100
AcDbLine
 10
449.4044655927686
 20
562.242000155293
 30
0.0
 11
452.4040065810006
 21
562.2944773876956
 31
0.0
  0
LINE
  5
6C7
330
1F
100
AcDbEntity
  8
0
100
AcDbLine
 10
245.1454170881817
 20
608.6408295092231
 30
0.0
 11
242.1637831706373
 21
608.3093793896823
 31
0.0
  0
LINE
  5
6C8
330
1F
100
AcDbEntity
  8
0
100
AcDbLine
 10
348.5746247657041
 20
512.3840187199562
 30
0.0
 11
345.5751603710123
 21
512.4407050937975
 31
0.0
  0
LINE
  5
6C9
330
1F
100
AcDbEntity
  8
0
100
AcDbLine
 10
348.5746247657041
 20
512.3840187199562
 30
0.0
 11
348.6061153896014
 21
522.3839691368636
 31
0.0
  0
LINE
  5
6CA
330
1F
100
AcDbEntity
  8
0
100
AcDbLine
 10
348.6061153896014
 20
522.3839691368636
 30
0.0
 11
345.6063840706953
 21
522.3892568652188
 31
0.0
  0
LINE
  5
6CB
330
1F
100
AcDbEntity
  8
0
100
AcDbLine
 10
348.7309098353412
 20
574.1216751611796
 30
0.0
 11
348.7136803826702
 21
564.1216900038923
 31
0.0
  0
LINE
  5
6CC
330
1F
100
AcDbEntity
  8
0
100
AcDbLine
 10
348.7136803826702
 20
564.1216900038923
 30
0.0
 11
345.7137078968084
 21
564.1345385085083
 31
0.0
  0
LINE
  5
6CD
330
1F
100
AcDbEntity
  8
0
100
AcDbLine
 10
348.7309098353412
 20
574.1216751611796
 30
0.0
 11
345.7309188689887
 21
574.1143129735982
 31
0.0
  0
LINE
  5
6CE
330
1F
100
AcDbEntity
  8
0
100
AcDbLine
 10
345.7309188689887
 20
574.1143129735982
 30
0.0
 11
345.7137078968084
 21
564.1345385085083
 31
0.0
  0
LINE
  5
6CF
330
1F
100
AcDbEntity
  8
0
100
AcDbLine
 10
345.6063840706953
 20
522.3892568652188
 30
0.0
 11
345.5751603710123
 21
512.4407050937975
 31
0.0
  0
LINE
  5
6DE
330
1F
100
AcDbEntity
  8
0
 62
     1
100
AcDbLine
 10
269.2988200163622
 20
444.4085301848651
 30
0.0
 11
269.2988161941554
 21
634.4084557586575
 31
0.0
  0
LINE
  5
6E5
330
1F
100
AcDbEntity
  8
0
100
AcDbLine
 10
1131.585021795783
 20
404.2816587897844
 30
0.0
 11
1141.585020489498
 21
404.2867701200826
 31
0.0
  0
LINE
  5
6E6
330
1F
100
AcDbEntity
  8
0
100
AcDbLine
 10
1141.585020489498
 20
404.2867701200826
 30
0.0
 11
1141.585020489498
 21
402.781658803777
 31
0.0
  0
LINE
  5
6E8
330
1F
100
AcDbEntity
  8
0
100
AcDbLine
 10
1271.585226680998
 20
404.281658803777
 30
0.0
 11
1261.585242096679
 21
404.2992176589454
 31
0.0
  0
LINE
  5
6E9
330
1F
100
AcDbEntity
  8
0
100
AcDbLine
 10
1261.585242096679
 20
404.2992176589454
 30
0.0
 11
1261.585242096679
 21
402.781658803777
 31
0.0
  0
LINE
  5
6EB
330
1F
100
AcDbEntity
  8
0
100
AcDbLine
 10
1201.585012651788
 20
404.3174381018724
 30
0.0
 11
1201.585012651788
 21
402.781658803777
 31
0.0
  0
LINE
  5
6EC
330
1F
100
AcDbEntity
  8
0
100
AcDbLine
 10
1201.585012651788
 20
404.3174381018724
 30
0.0
 11
1211.585000230336
 21
404.301676474618
 31
0.0
  0
LINE
  5
6ED
330
1F
100
AcDbEntity
  8
0
100
AcDbLine
 10
1211.585000230336
 20
404.301676474618
 30
0.0
 11
1211.585000230336
 21
402.781658803777
 31
0.0
  0
LINE
  5
6F0
330
1F
100
AcDbEntity
  8
0
100
AcDbLine
 10
1151.614306029927
 20
417.8052426102617
 30
0.0
 11
1131.585021795783
 21
404.2816587897844
 31
0.0
  0
LINE
  5
6F3
330
1F
100
AcDbEntity
  8
0
100
AcDbLine
 10
1261.585242096679
 20
412.781658803777
 30
0.0
 11
1271.585226680998
 21
404.281658803777
 31
0.0
  0
LINE
  5
6F5
330
1F
100
AcDbEntity
  8
0
100
AcDbLine
 10
1151.614306029927
 20
417.8052426102617
 30
0.0
 11
1181.614268963752
 21
417.8524015871102
 31
0.0
  0
LINE
  5
6F6
330
1F
100
AcDbEntity
  8
0
100
AcDbLine
 10
1181.614268963752
 20
417.8524015871102
 30
0.0
 11
1261.585242096679
 21
412.781658803777
 31
0.0
  0
LINE
  5
6F7
330
1F
100
AcDbEntity
  8
0
100
AcDbLine
 10
1181.614268963752
 20
387.7109160204441
 30
0.0
 11
1261.585242096679
 21
392.7816588037772
 31
0.0
  0
LINE
  5
6F8
330
1F
100
AcDbEntity
  8
0
100
AcDbLine
 10
1151.614306029927
 20
387.7580749972925
 30
0.0
 11
1181.614268963752
 21
387.7109160204441
 31
0.0
  0
LINE
  5
6F9
330
1F
100
AcDbEntity
  8
0
100
AcDbLine
 10
1261.585242096679
 20
392.7816588037772
 30
0.0
 11
1271.585226680998
 21
401.2816588037772
 31
0.0
  0
LINE
  5
6FA
330
1F
100
AcDbEntity
  8
0
100
AcDbLine
 10
1151.614306029927
 20
387.7580749972925
 30
0.0
 11
1131.585021795783
 21
401.2816588177698
 31
0.0
  0
LINE
  5
6FB
330
1F
100
AcDbEntity
  8
0
100
AcDbLine
 10
1211.585000230336
 20
401.2616411329362
 30
0.0
 11
1211.585000230336
 21
402.7816588037771
 31
0.0
  0
LINE
  5
6FC
330
1F
100
AcDbEntity
  8
0
100
AcDbLine
 10
1201.585012651788
 20
401.2458795056818
 30
0.0
 11
1211.585000230336
 21
401.2616411329362
 31
0.0
  0
LINE
  5
6FD
330
1F
100
AcDbEntity
  8
0
100
AcDbLine
 10
1201.585012651788
 20
401.2458795056818
 30
0.0
 11
1201.585012651788
 21
402.7816588037771
 31
0.0
  0
LINE
  5
6FE
330
1F
100
AcDbEntity
  8
0
100
AcDbLine
 10
1261.585242096679
 20
401.2640999486087
 30
0.0
 11
1261.585242096679
 21
402.7816588037771
 31
0.0
  0
LINE
  5
6FF
330
1F
100
AcDbEntity
  8
0
100
AcDbLine
 10
1271.585226680998
 20
401.2816588037772
 30
0.0
 11
1261.585242096679
 21
401.2640999486087
 31
0.0
  0
LINE
  5
700
330
1F
100
AcDbEntity
  8
0
100
AcDbLine
 10
1141.585020489498
 20
401.2765474874716
 30
0.0
 11
1141.585020489498
 21
402.7816588037771
 31
0.0
  0
LINE
  5
701
330
1F
100
AcDbEntity
  8
0
100
AcDbLine
 10
1131.585021795783
 20
401.2816588177698
 30
0.0
 11
1141.585020489498
 21
401.2765474874716
 31
0.0
  0
LINE
  5
71D
330
1F
100
AcDbEntity
  8
0
100
AcDbLine
 10
1124.721486836974
 20
590.8396561573579
 30
0.0
 11
1134.721485530689
 21
590.8345448270596
 31
0.0
  0
LINE
  5
71E
330
1F
100
AcDbEntity
  8
0
100
AcDbLine
 10
1134.721485530689
 20
590.8345448270596
 30
0.0
 11
1134.721485530689
 21
592.3396561433652
 31
0.0
  0
LINE
  5
71F
330
1F
100
AcDbEntity
  8
0
100
AcDbLine
 10
1264.721691722188
 20
590.8396561433652
 30
0.0
 11
1254.72170713787
 21
590.8220972881967
 31
0.0
  0
LINE
  5
720
330
1F
100
AcDbEntity
  8
0
100
AcDbLine
 10
1254.72170713787
 20
590.8220972881967
 30
0.0
 11
1254.72170713787
 21
592.3396561433652
 31
0.0
  0
LINE
  5
721
330
1F
100
AcDbEntity
  8
0
100
AcDbLine
 10
1194.721477692979
 20
590.8038768452699
 30
0.0
 11
1194.721477692979
 21
592.3396561433652
 31
0.0
  0
LINE
  5
722
330
1F
100
AcDbEntity
  8
0
100
AcDbLine
 10
1194.721477692979
 20
590.8038768452699
 30
0.0
 11
1204.721465271527
 21
590.8196384725242
 31
0.0
  0
LINE
  5
723
330
1F
100
AcDbEntity
  8
0
100
AcDbLine
 10
1204.721465271527
 20
590.8196384725242
 30
0.0
 11
1204.721465271527
 21
592.3396561433652
 31
0.0
  0
LINE
  5
724
330
1F
100
AcDbEntity
  8
0
100
AcDbLine
 10
1144.750771071118
 20
577.3160723368805
 30
0.0
 11
1124.721486836974
 21
590.8396561573579
 31
0.0
  0
LINE
  5
725
330
1F
100
AcDbEntity
  8
0
100
AcDbLine
 10
1254.72170713787
 20
582.3396561433652
 30
0.0
 11
1264.721691722188
 21
590.8396561433652
 31
0.0
  0
LINE
  5
726
330
1F
100
AcDbEntity
  8
0
100
AcDbLine
 10
1144.750771071118
 20
577.3160723368805
 30
0.0
 11
1174.750734004943
 21
577.2689133600321
 31
0.0
  0
LINE
  5
727
330
1F
100
AcDbEntity
  8
0
100
AcDbLine
 10
1174.750734004943
 20
577.2689133600321
 30
0.0
 11
1254.72170713787
 21
582.3396561433652
 31
0.0
  0
LINE
  5
728
330
1F
100
AcDbEntity
  8
0
100
AcDbLine
 10
1174.750734004943
 20
607.4103989266982
 30
0.0
 11
1254.72170713787
 21
602.3396561433651
 31
0.0
  0
LINE
  5
729
330
1F
100
AcDbEntity
  8
0
100
AcDbLine
 10
1144.750771071118
 20
607.3632399498498
 30
0.0
 11
1174.750734004943
 21
607.4103989266982
 31
0.0
  0
LINE
  5
72A
330
1F
100
AcDbEntity
  8
0
100
AcDbLine
 10
1254.72170713787
 20
602.3396561433651
 30
0.0
 11
1264.721691722188
 21
593.8396561433651
 31
0.0
  0
LINE
  5
72B
330
1F
100
AcDbEntity
  8
0
100
AcDbLine
 10
1144.750771071118
 20
607.3632399498498
 30
0.0
 11
1124.721486836974
 21
593.8396561293724
 31
0.0
  0
LINE
  5
72C
330
1F
100
AcDbEntity
  8
0
100
AcDbLine
 10
1204.721465271527
 20
593.859673814206
 30
0.0
 11
1204.721465271527
 21
592.3396561433651
 31
0.0
  0
LINE
  5
72D
330
1F
100
AcDbEntity
  8
0
100
AcDbLine
 10
1194.721477692979
 20
593.8754354414604
 30
0.0
 11
1204.721465271527
 21
593.859673814206
 31
0.0
  0
LINE
  5
72E
330
1F
100
AcDbEntity
  8
0
100
AcDbLine
 10
1194.721477692979
 20
593.8754354414604
 30
0.0
 11
1194.721477692979
 21
592.3396561433651
 31
0.0
  0
LINE
  5
72F
330
1F
100
AcDbEntity
  8
0
100
AcDbLine
 10
1254.72170713787
 20
593.8572149985335
 30
0.0
 11
1254.72170713787
 21
592.3396561433651
 31
0.0
  0
LINE
  5
730
330
1F
100
AcDbEntity
  8
0
100
AcDbLine
 10
1264.721691722188
 20
593.8396561433651
 30
0.0
 11
1254.72170713787
 21
593.8572149985335
 31
0.0
  0
LINE
  5
731
330
1F
100
AcDbEntity
  8
0
100
AcDbLine
 10
1134.721485530689
 20
593.8447674596707
 30
0.0
 11
1134.721485530689
 21
592.3396561433651
 31
0.0
  0
LINE
  5
732
330
1F
100
AcDbEntity
  8
0
100
AcDbLine
 10
1124.721486836974
 20
593.8396561293724
 30
0.0
 11
1134.721485530689
 21
593.8447674596707
 31
0.0
  0
LINE
  5
735
330
1F
100
AcDbEntity
  8
0
100
AcDbLine
 10
877.2917405049016
 20
411.4465913481468
 30
0.0
 11
877.2917405049016
 21
411.4465913481468
 31
0.0
  0
LINE
  5
73F
330
1F
100
AcDbEntity
  8
0
100
AcDbLine
 10
817.7576508169616
 20
404.5744471383439
 30
0.0
 11
822.7211979409334
 21
405.1771078622257
 31
0.0
  0
LINE
  5
740
330
1F
100
AcDbEntity
  8
0
100
AcDbLine
 10
877.2917405049016
 20
411.4465913481468
 30
0.0
 11
872.3247226802454
 21
410.8732381153583
 31
0.0
  0
LINE
  5
748
330
1F
100
AcDbEntity
  8
0
100
AcDbLine
 10
887.2999419650788
 20
412.6412923234878
 30
0.0
 11
936.942942366616
 21
418.3393008151132
 31
0.0
  0
ENDSEC
  0
SECTION
  2
OBJECTS
  0
DICTIONARY
  5
C
330
0
100
AcDbDictionary
281
     1
  3
ACAD_COLOR
350
6B
  3
ACAD_GROUP
350
D
  3
ACAD_LAYOUT
350
1A
  3
ACAD_MATERIAL
350
6A
  3
ACAD_MLINESTYLE
350
17
  3
ACAD_PLOTSETTINGS
350
19
  3
ACAD_PLOTSTYLENAME
350
E
  3
AcDbVariableDictionary
350
5E
  0
DICTIONARY
  5
6B
102
{ACAD_REACTORS
330
C
102
}
330
C
100
AcDbDictionary
281
     1
  0
DICTIONARY
  5
D
102
{ACAD_REACTORS
330
C
102
}
330
C
100
AcDbDictionary
281
     1
  0
DICTIONARY
  5
1A
102
{ACAD_REACTORS
330
C
102
}
330
C
100
AcDbDictionary
281
     1
  3
Model
350
22
  3
Présentation1
350
51
  3
Présentation2
350
56
  0
DICTIONARY
  5
6A
102
{ACAD_REACTORS
330
C
102
}
330
C
100
AcDbDictionary
281
     1
  0
DICTIONARY
  5
17
102
{ACAD_REACTORS
330
C
102
}
330
C
100
AcDbDictionary
281
     1
  3
Standard
350
18
  0
DICTIONARY
  5
19
102
{ACAD_REACTORS
330
C
102
}
330
C
100
AcDbDictionary
281
     1
  0
ACDBDICTIONARYWDFLT
  5
E
102
{ACAD_REACTORS
330
C
102
}
330
C
100
AcDbDictionary
281
     1
  3
Normal
350
F
100
AcDbDictionaryWithDefault
340
F
  0
DICTIONARY
  5
5E
102
{ACAD_REACTORS
330
C
102
}
330
C
100
AcDbDictionary
281
     1
  3
DIMASSOC
350
5F
  3
HIDETEXT
350
63
  0
LAYOUT
  5
22
102
{ACAD_REACTORS
330
1A
102
}
330
1A
100
AcDbPlotSettings
  1

  2
none_device
  4
ANSI_A_(8.50_x_11.00_Inches)
  6

 40
6.349999904632567
 41
19.04999923706055
 42
6.350006103515625
 43
19.04998779296875
 44
215.8999938964844
 45
279.3999938964844
 46
0.0
 47
0.0
 48
0.0
 49
0.0
140
0.0
141
0.0
142
1.0
143
78.436453180766
 70
 11952
 72
     0
 73
     1
 74
     0
  7

 75
     0
147
0.0127491741332998
 76
     0
 77
     2
 78
   300
148
0.0
149
0.0
100
AcDbLayout
  1
Model
 70
     1
 71
     0
 10
0.0
 20
0.0
 11
12.0
 21
9.0
 12
0.0
 22
0.0
 32
0.0
 14
0.0
 24
0.0
 34
0.0
 15
0.0
 25
0.0
 35
0.0
146
0.0
 13
0.0
 23
0.0
 33
0.0
 16
1.0
 26
0.0
 36
0.0
 17
0.0
 27
1.0
 37
0.0
 76
     0
330
1F
  0
LAYOUT
  5
51
102
{ACAD_REACTORS
330
1A
102
}
330
1A
100
AcDbPlotSettings
  1

  2
None
  4

  6

 40
0.0
 41
0.0
 42
0.0
 43
0.0
 44
0.0
 45
0.0
 46
0.0
 47
0.0
 48
0.0
 49
0.0
140
0.0
141
0.0
142
1.0
143
1.0
 70
   688
 72
     0
 73
     0
 74
     5
  7

 75
    16
147
1.0
 76
     0
 77
     2
 78
   300
148
0.0
149
0.0
100
AcDbLayout
  1
Présentation1
 70
     1
 71
     1
 10
0.0
 20
0.0
 11
12.0
 21
9.0
 12
0.0
 22
0.0
 32
0.0
 14
0.0
 24
0.0
 34
0.0
 15
0.0
 25
0.0
 35
0.0
146
0.0
 13
0.0
 23
0.0
 33
0.0
 16
1.0
 26
0.0
 36
0.0
 17
0.0
 27
1.0
 37
0.0
 76
     0
330
50
  0
LAYOUT
  5
56
102
{ACAD_REACTORS
330
1A
102
}
330
1A
100
AcDbPlotSettings
  1

  2
None
  4

  6

 40
0.0
 41
0.0
 42
0.0
 43
0.0
 44
0.0
 45
0.0
 46
0.0
 47
0.0
 48
0.0
 49
0.0
140
0.0
141
0.0
142
1.0
143
1.0
 70
   688
 72
     0
 73
     0
 74
     5
  7

 75
    16
147
1.0
 76
     0
 77
     2
 78
   300
148
0.0
149
0.0
100
AcDbLayout
  1
Présentation2
 70
     1
 71
     2
 10
0.0
 20
0.0
 11
12.0
 21
9.0
 12
0.0
 22
0.0
 32
0.0
 14
0.0
 24
0.0
 34
0.0
 15
0.0
 25
0.0
 35
0.0
146
0.0
 13
0.0
 23
0.0
 33
0.0
 16
1.0
 26
0.0
 36
0.0
 17
0.0
 27
1.0
 37
0.0
 76
     0
330
55
  0
MLINESTYLE
  5
18
102
{ACAD_REACTORS
330
17
102
}
330
17
100
AcDbMlineStyle
  2
STANDARD
 70
     0
  3

 62
   256
 51
90.0
 52
90.0
 71
     2
 49
0.5
 62
   256
  6
BYLAYER
 49
-0.5
 62
   256
  6
BYLAYER
  0
ACDBPLACEHOLDER
  5
F
102
{ACAD_REACTORS
330
E
102
}
330
E
  0
DICTIONARYVAR
  5
5F
102
{ACAD_REACTORS
330
5E
102
}
330
5E
100
DictionaryVariables
280
     0
  1
2
  0
DICTIONARYVAR
  5
63
102
{ACAD_REACTORS
330
5E
102
}
330
5E
100
DictionaryVariables
280
     0
  1
1
  0
ENDSEC
  0
EOF
