  0
SECTION
  2
HEADER
  9
$ACADVER
  1
AC1018
  9
$ACADMAINTVER
 70
     0
  9
$DWGCODEPAGE
  3
ANSI_1252
  9
$INSBASE
 10
0.0
 20
0.0
 30
0.0
  9
$EXTMIN
 10
-1253.608442083789
 20
301.1250431310872
 30
0.0
  9
$EXTMAX
 10
441.8128113892991
 20
1251.124699101777
 30
0.0
  9
$LIMMIN
 10
0.0
 20
0.0
  9
$LIMMAX
 10
420.0
 20
297.0
  9
$ORTHOMODE
 70
     0
  9
$REGENMODE
 70
     1
  9
$FILLMODE
 70
     1
  9
$QTEXTMODE
 70
     0
  9
$MIRRTEXT
 70
     0
  9
$LTSCALE
 40
1.0
  9
$ATTMODE
 70
     1
  9
$TEXTSIZE
 40
2.5
  9
$TRACEWID
 40
1.0
  9
$TEXTSTYLE
  7
Standard
  9
$CLAYER
  8
0
  9
$CELTYPE
  6
ByLayer
  9
$CECOLOR
 62
   256
  9
$CELTSCALE
 40
1.0
  9
$DISPSILH
 70
     0
  9
$DIMSCALE
 40
1.0
  9
$DIMASZ
 40
2.5
  9
$DIMEXO
 40
0.625
  9
$DIMDLI
 40
3.75
  9
$DIMRND
 40
0.0
  9
$DIMDLE
 40
0.0
  9
$DIMEXE
 40
1.25
  9
$DIMTP
 40
0.0
  9
$DIMTM
 40
0.0
  9
$DIMTXT
 40
2.5
  9
$DIMCEN
 40
2.5
  9
$DIMTSZ
 40
0.0
  9
$DIMTOL
 70
     0
  9
$DIMLIM
 70
     0
  9
$DIMTIH
 70
     0
  9
$DIMTOH
 70
     0
  9
$DIMSE1
 70
     0
  9
$DIMSE2
 70
     0
  9
$DIMTAD
 70
     1
  9
$DIMZIN
 70
     8
  9
$DIMBLK
  1

  9
$DIMASO
 70
     1
  9
$DIMSHO
 70
     1
  9
$DIMPOST
  1

  9
$DIMAPOST
  1

  9
$DIMALT
 70
     0
  9
$DIMALTD
 70
     3
  9
$DIMALTF
 40
0.03937007874016
  9
$DIMLFAC
 40
1.0
  9
$DIMTOFL
 70
     1
  9
$DIMTVP
 40
0.0
  9
$DIMTIX
 70
     0
  9
$DIMSOXD
 70
     0
  9
$DIMSAH
 70
     0
  9
$DIMBLK1
  1

  9
$DIMBLK2
  1

  9
$DIMSTYLE
  2
ISO-25
  9
$DIMCLRD
 70
     0
  9
$DIMCLRE
 70
     0
  9
$DIMCLRT
 70
     0
  9
$DIMTFAC
 40
1.0
  9
$DIMGAP
 40
0.625
  9
$DIMJUST
 70
     0
  9
$DIMSD1
 70
     0
  9
$DIMSD2
 70
     0
  9
$DIMTOLJ
 70
     0
  9
$DIMTZIN
 70
     8
  9
$DIMALTZ
 70
     0
  9
$DIMALTTZ
 70
     0
  9
$DIMUPT
 70
     0
  9
$DIMDEC
 70
     2
  9
$DIMTDEC
 70
     2
  9
$DIMALTU
 70
     2
  9
$DIMALTTD
 70
     3
  9
$DIMTXSTY
  7
Standard
  9
$DIMAUNIT
 70
     0
  9
$DIMADEC
 70
     0
  9
$DIMALTRND
 40
0.0
  9
$DIMAZIN
 70
     0
  9
$DIMDSEP
 70
    44
  9
$DIMATFIT
 70
     3
  9
$DIMFRAC
 70
     0
  9
$DIMLDRBLK
  1

  9
$DIMLUNIT
 70
     2
  9
$DIMLWD
 70
    -2
  9
$DIMLWE
 70
    -2
  9
$DIMTMOVE
 70
     0
  9
$LUNITS
 70
     2
  9
$LUPREC
 70
     4
  9
$SKETCHINC
 40
1.0
  9
$FILLETRAD
 40
0.0
  9
$AUNITS
 70
     0
  9
$AUPREC
 70
     0
  9
$MENU
  1
.
  9
$ELEVATION
 40
0.0
  9
$PELEVATION
 40
0.0
  9
$THICKNESS
 40
0.0
  9
$LIMCHECK
 70
     0
  9
$CHAMFERA
 40
0.0
  9
$CHAMFERB
 40
0.0
  9
$CHAMFERC
 40
0.0
  9
$CHAMFERD
 40
0.0
  9
$SKPOLY
 70
     0
  9
$TDCREATE
 40
2454145.025149017
  9
$TDUCREATE
 40
2454144.983482350
  9
$TDUPDATE
 40
2454147.483543472
  9
$TDUUPDATE
 40
2454147.441876806
  9
$TDINDWG
 40
0.2586973495
  9
$TDUSRTIMER
 40
0.2586964468
  9
$USRTIMER
 70
     1
  9
$ANGBASE
 50
0.0
  9
$ANGDIR
 70
     0
  9
$PDMODE
 70
     0
  9
$PDSIZE
 40
0.0
  9
$PLINEWID
 40
0.0
  9
$SPLFRAME
 70
     0
  9
$SPLINETYPE
 70
     6
  9
$SPLINESEGS
 70
     8
  9
$HANDSEED
  5
150D
  9
$SURFTAB1
 70
     6
  9
$SURFTAB2
 70
     6
  9
$SURFTYPE
 70
     6
  9
$SURFU
 70
     6
  9
$SURFV
 70
     6
  9
$UCSBASE
  2

  9
$UCSNAME
  2

  9
$UCSORG
 10
0.0
 20
0.0
 30
0.0
  9
$UCSXDIR
 10
1.0
 20
0.0
 30
0.0
  9
$UCSYDIR
 10
0.0
 20
1.0
 30
0.0
  9
$UCSORTHOREF
  2

  9
$UCSORTHOVIEW
 70
     0
  9
$UCSORGTOP
 10
0.0
 20
0.0
 30
0.0
  9
$UCSORGBOTTOM
 10
0.0
 20
0.0
 30
0.0
  9
$UCSORGLEFT
 10
0.0
 20
0.0
 30
0.0
  9
$UCSORGRIGHT
 10
0.0
 20
0.0
 30
0.0
  9
$UCSORGFRONT
 10
0.0
 20
0.0
 30
0.0
  9
$UCSORGBACK
 10
0.0
 20
0.0
 30
0.0
  9
$PUCSBASE
  2

  9
$PUCSNAME
  2

  9
$PUCSORG
 10
0.0
 20
0.0
 30
0.0
  9
$PUCSXDIR
 10
1.0
 20
0.0
 30
0.0
  9
$PUCSYDIR
 10
0.0
 20
1.0
 30
0.0
  9
$PUCSORTHOREF
  2

  9
$PUCSORTHOVIEW
 70
     0
  9
$PUCSORGTOP
 10
0.0
 20
0.0
 30
0.0
  9
$PUCSORGBOTTOM
 10
0.0
 20
0.0
 30
0.0
  9
$PUCSORGLEFT
 10
0.0
 20
0.0
 30
0.0
  9
$PUCSORGRIGHT
 10
0.0
 20
0.0
 30
0.0
  9
$PUCSORGFRONT
 10
0.0
 20
0.0
 30
0.0
  9
$PUCSORGBACK
 10
0.0
 20
0.0
 30
0.0
  9
$USERI1
 70
     0
  9
$USERI2
 70
     0
  9
$USERI3
 70
     0
  9
$USERI4
 70
     0
  9
$USERI5
 70
     0
  9
$USERR1
 40
0.0
  9
$USERR2
 40
0.0
  9
$USERR3
 40
0.0
  9
$USERR4
 40
0.0
  9
$USERR5
 40
0.0
  9
$WORLDVIEW
 70
     1
  9
$SHADEDGE
 70
     3
  9
$SHADEDIF
 70
    70
  9
$TILEMODE
 70
     1
  9
$MAXACTVP
 70
    64
  9
$PINSBASE
 10
0.0
 20
0.0
 30
0.0
  9
$PLIMCHECK
 70
     0
  9
$PEXTMIN
 10
26.66999878883363
 20
20.31999878883363
 30
0.0
  9
$PEXTMAX
 10
240.0299890995026
 20
182.8799890995025
 30
0.0
  9
$PLIMMIN
 10
-6.350006103515625
 20
-6.349999904632567
  9
$PLIMMAX
 10
273.0499877929688
 20
209.5499939918518
  9
$UNITMODE
 70
     0
  9
$VISRETAIN
 70
     1
  9
$PLINEGEN
 70
     0
  9
$PSLTSCALE
 70
     1
  9
$TREEDEPTH
 70
  3020
  9
$CMLSTYLE
  2
Standard
  9
$CMLJUST
 70
     0
  9
$CMLSCALE
 40
20.0
  9
$PROXYGRAPHICS
 70
     1
  9
$MEASUREMENT
 70
     1
  9
$CELWEIGHT
370
    -1
  9
$ENDCAPS
280
     0
  9
$JOINSTYLE
280
     0
  9
$LWDISPLAY
290
     0
  9
$INSUNITS
 70
     4
  9
$HYPERLINKBASE
  1

  9
$STYLESHEET
  1

  9
$XEDIT
290
     1
  9
$CEPSNTYPE
380
     0
  9
$PSTYLEMODE
290
     1
  9
$FINGERPRINTGUID
  2
{FDEAD578-A652-11D2-9A35-0060089B3A3F}
  9
$VERSIONGUID
  2
{DFB2C96E-CAEC-4C28-A753-DCF2A5E3E658}
  9
$EXTNAMES
290
     1
  9
$PSVPSCALE
 40
0.0
  9
$OLESTARTUP
290
     0
  9
$SORTENTS
280
   127
  9
$INDEXCTL
280
     0
  9
$HIDETEXT
280
     1
  9
$XCLIPFRAME
290
     0
  9
$HALOGAP
280
     0
  9
$OBSCOLOR
 70
   257
  9
$OBSLTYPE
280
     0
  9
$INTERSECTIONDISPLAY
280
     0
  9
$INTERSECTIONCOLOR
 70
   257
  9
$DIMASSOC
280
     2
  9
$PROJECTNAME
  1

  0
ENDSEC
  0
SECTION
  2
CLASSES
  0
CLASS
  1
ACDBDICTIONARYWDFLT
  2
AcDbDictionaryWithDefault
  3
ObjectDBX Classes
 90
        0
 91
        1
280
     0
281
     0
  0
CLASS
  1
DICTIONARYVAR
  2
AcDbDictionaryVar
  3
ObjectDBX Classes
 90
        0
 91
        2
280
     0
281
     0
  0
CLASS
  1
DIMASSOC
  2
AcDbDimAssoc
  3
"AcDbDimAssoc|Product Desc:     AcDim ARX App For Dimension|Company:          Autodesk, Inc.|WEB Address:      www.autodesk.com"
 90
        0
 91
        1
280
     0
281
     0
  0
ENDSEC
  0
SECTION
  2
TABLES
  0
TABLE
  2
VPORT
  5
8
330
0
100
AcDbSymbolTable
 70
     2
  0
VPORT
  5
150C
330
8
100
AcDbSymbolTableRecord
100
AcDbViewportTableRecord
  2
*Active
 70
     0
 10
0.0
 20
0.0
 11
1.0
 21
1.0
 12
142.4291109026017
 22
1479.73036175687
 13
0.0
 23
0.0
 14
10.0
 24
10.0
 15
10.0
 25
10.0
 16
0.0
 26
0.0
 36
1.0
 17
0.0
 27
0.0
 37
0.0
 40
3927.170073365977
 41
1.58893280632411
 42
50.0
 43
0.0
 44
0.0
 50
0.0
 51
0.0
 71
     0
 72
  1000
 73
     1
 74
     3
 75
     1
 76
     0
 77
     0
 78
     0
281
     0
 65
     1
110
0.0
120
0.0
130
0.0
111
1.0
121
0.0
131
0.0
112
0.0
122
1.0
132
0.0
 79
     0
146
0.0
  0
ENDTAB
  0
TABLE
  2
LTYPE
  5
5
330
0
100
AcDbSymbolTable
 70
     2
  0
LTYPE
  5
14
330
5
100
AcDbSymbolTableRecord
100
AcDbLinetypeTableRecord
  2
ByBlock
 70
     0
  3

 72
    65
 73
     0
 40
0.0
  0
LTYPE
  5
15
330
5
100
AcDbSymbolTableRecord
100
AcDbLinetypeTableRecord
  2
ByLayer
 70
     0
  3

 72
    65
 73
     0
 40
0.0
  0
LTYPE
  5
16
330
5
100
AcDbSymbolTableRecord
100
AcDbLinetypeTableRecord
  2
Continuous
 70
     0
  3
Solid line
 72
    65
 73
     0
 40
0.0
  0
LTYPE
  5
144
330
5
100
AcDbSymbolTableRecord
100
AcDbLinetypeTableRecord
  2
ACAD_ISO04W100
 70
     0
  3
ISO tiret long point ____ . ____ . ____ . ____ 
 72
    65
 73
     4
 40
30.0
 49
24.0
 74
     0
 49
-3.0
 74
     0
 49
0.0
 74
     0
 49
-3.0
 74
     0
  0
ENDTAB
  0
TABLE
  2
LAYER
  5
2
330
0
100
AcDbSymbolTable
 70
     2
  0
LAYER
  5
10
330
2
100
AcDbSymbolTableRecord
100
AcDbLayerTableRecord
  2
0
 70
     0
 62
     7
  6
Continuous
370
    -3
390
F
  0
LAYER
  5
14F4
330
2
100
AcDbSymbolTableRecord
100
AcDbLayerTableRecord
  2
Defpoints
 70
     0
 62
     7
  6
Continuous
290
     0
370
    -3
390
F
  0
ENDTAB
  0
TABLE
  2
STYLE
  5
3
330
0
100
AcDbSymbolTable
 70
     2
  0
STYLE
  5
11
330
3
100
AcDbSymbolTableRecord
100
AcDbTextStyleTableRecord
  2
Standard
 70
     0
 40
0.0
 41
1.0
 50
0.0
 71
     0
 42
2.5
  3
txt
  4

  0
STYLE
  5
143
330
3
100
AcDbSymbolTableRecord
100
AcDbTextStyleTableRecord
  2

 70
     1
 40
0.0
 41
1.0
 50
0.0
 71
     0
 42
2.5
  3
ltypeshp.shx
  4

  0
ENDTAB
  0
TABLE
  2
VIEW
  5
6
330
0
100
AcDbSymbolTable
 70
     0
  0
ENDTAB
  0
TABLE
  2
UCS
  5
7
330
0
100
AcDbSymbolTable
 70
     0
  0
ENDTAB
  0
TABLE
  2
APPID
  5
9
330
0
100
AcDbSymbolTable
 70
     1
  0
APPID
  5
12
330
9
100
AcDbSymbolTableRecord
100
AcDbRegAppTableRecord
  2
ACAD
 70
     0
  0
ENDTAB
  0
TABLE
  2
DIMSTYLE
  5
A
330
0
100
AcDbSymbolTable
 70
     1
100
AcDbDimStyleTable
 71
     1
340
27
  0
DIMSTYLE
105
27
330
A
100
AcDbSymbolTableRecord
100
AcDbDimStyleTableRecord
  2
ISO-25
 70
     0
 41
2.5
 42
0.625
 43
3.75
 44
1.25
 73
     0
 74
     0
 77
     1
 78
     8
140
2.5
141
2.5
143
0.03937007874016
147
0.625
171
     3
172
     1
271
     2
272
     2
274
     3
278
    44
283
     0
284
     8
340
11
  0
ENDTAB
  0
TABLE
  2
BLOCK_RECORD
  5
1
330
0
100
AcDbSymbolTable
 70
     6
  0
BLOCK_RECORD
  5
1F
330
1
100
AcDbSymbolTableRecord
100
AcDbBlockTableRecord
  2
*Model_Space
340
22
  0
BLOCK_RECORD
  5
50
330
1
100
AcDbSymbolTableRecord
100
AcDbBlockTableRecord
  2
*Paper_Space
340
51
  0
BLOCK_RECORD
  5
55
330
1
100
AcDbSymbolTableRecord
100
AcDbBlockTableRecord
  2
*Paper_Space0
340
56
  0
BLOCK_RECORD
  5
39D
330
1
100
AcDbSymbolTableRecord
100
AcDbBlockTableRecord
  2
A$C1D906D5A
340
0
  0
BLOCK_RECORD
  5
57F
330
1
100
AcDbSymbolTableRecord
100
AcDbBlockTableRecord
  2
A$C6EE750C7
340
0
  0
BLOCK_RECORD
  5
89C
330
1
100
AcDbSymbolTableRecord
100
AcDbBlockTableRecord
  2
A$C391D3B5C
340
0
  0
BLOCK_RECORD
  5
B2A
330
1
100
AcDbSymbolTableRecord
100
AcDbBlockTableRecord
  2
A$C4A9A5EBE
340
0
  0
BLOCK_RECORD
  5
14F5
330
1
100
AcDbSymbolTableRecord
100
AcDbBlockTableRecord
  2
*D5
340
0
  0
ENDTAB
  0
ENDSEC
  0
SECTION
  2
BLOCKS
  0
BLOCK
  5
20
330
1F
100
AcDbEntity
  8
0
100
AcDbBlockBegin
  2
*Model_Space
 70
     0
 10
0.0
 20
0.0
 30
0.0
  3
*Model_Space
  1

  0
ENDBLK
  5
21
330
1F
100
AcDbEntity
  8
0
100
AcDbBlockEnd
  0
BLOCK
  5
52
330
50
100
AcDbEntity
 67
     1
  8
0
100
AcDbBlockBegin
  2
*Paper_Space
 70
     0
 10
0.0
 20
0.0
 30
0.0
  3
*Paper_Space
  1

  0
ENDBLK
  5
53
330
50
100
AcDbEntity
 67
     1
  8
0
100
AcDbBlockEnd
  0
BLOCK
  5
57
330
55
100
AcDbEntity
  8
0
100
AcDbBlockBegin
  2
*Paper_Space0
 70
     0
 10
0.0
 20
0.0
 30
0.0
  3
*Paper_Space0
  1

  0
ENDBLK
  5
58
330
55
100
AcDbEntity
  8
0
100
AcDbBlockEnd
  0
BLOCK
  5
407
330
39D
100
AcDbEntity
  8
0
100
AcDbBlockBegin
  2
A$C1D906D5A
 70
     0
 10
0.0
 20
0.0
 30
0.0
  3
A$C1D906D5A
  1

  0
LINE
  5
39E
330
39D
100
AcDbEntity
  8
0
100
AcDbLine
 10
443.3743218272816
 20
84.77285946226526
 30
0.0
 11
443.3882297266525
 21
134.7728575279685
 31
0.0
  0
LINE
  5
39F
330
39D
100
AcDbEntity
  8
0
100
AcDbLine
 10
443.3743218272816
 20
84.77285946226526
 30
0.0
 11
553.3741227088586
 21
84.98215832375654
 31
0.0
  0
LINE
  5
3A0
330
39D
100
AcDbEntity
  8
0
100
AcDbLine
 10
553.3741227088586
 20
84.98215832375654
 30
0.0
 11
569.0130662118646
 21
121.7982342432483
 31
0.0
  0
ARC
  5
3A1
330
39D
100
AcDbEntity
  8
0
100
AcDbCircle
 10
537.9982491407619
 20
20.32040782284157
 30
0.0
 40
106.111583406168
100
AcDbArc
 50
4.013337835212483
 51
73.00519873102338
  0
LINE
  5
3A2
330
39D
100
AcDbEntity
  8
0
100
AcDbLine
 10
443.3882297266525
 20
134.7728575279685
 30
0.0
 11
551.0408930437643
 21
122.2887842459823
 31
0.0
  0
SPLINE
  5
3A3
330
39D
100
AcDbEntity
  8
0
100
AcDbSpline
210
0.0
220
0.0
230
1.0
 70
     8
 71
     3
 72
     9
 73
     5
 74
     0
 42
0.0000000001
 43
0.0000000001
 40
0.0
 40
0.0
 40
0.0
 40
0.0
 40
10.23121498274914
 40
17.00270563096023
 40
17.00270563096023
 40
17.00270563096023
 40
17.00270563096023
 10
551.0408930437643
 20
122.2887842459823
 30
0.0
 10
554.4288426439432
 20
121.7917265282448
 30
0.0
 10
560.059093776531
 20
120.9656930541622
 30
0.0
 10
565.3932368352717
 20
119.0602874968213
 30
0.0
 10
567.4992524234502
 20
118.2345227079057
 30
0.0
  0
LINE
  5
3A4
330
39D
100
AcDbEntity
  8
0
100
AcDbLine
 10
443.3743218272816
 20
84.77285946226526
 30
0.0
 11
443.4957332169422
 21
21.77297645225913
 31
0.0
  0
LINE
  5
3A5
330
39D
100
AcDbEntity
  8
0
100
AcDbLine
 10
443.4957332169422
 20
21.77297645225913
 30
0.0
 11
475.6690343592946
 21
0.0611784743541346
 31
0.0
  0
LINE
  5
3A6
330
39D
100
AcDbEntity
  8
0
100
AcDbLine
 10
643.8496240965868
 20
27.74701895616161
 30
0.0
 11
475.6690343592946
 21
0.0611784743541346
 31
0.0
  0
LINE
  5
3A7
330
39D
100
AcDbEntity
  8
0
100
AcDbLine
 10
243.1308380996272
 20
27.36579140344913
 30
0.0
 11
411.3638017190868
 21
0.000001091803826
 31
0.0
  0
LINE
  5
3A8
330
39D
100
AcDbEntity
  8
0
100
AcDbLine
 10
443.4957332169422
 20
21.77297645225913
 30
0.0
 11
411.3638017190868
 21
0.000001091803826
 31
0.0
  0
LINE
  5
3A9
330
39D
100
AcDbEntity
  8
0
100
AcDbLine
 10
443.4972734432998
 20
84.77297643343138
 30
0.0
 11
443.4957332169422
 21
21.77297645225913
 31
0.0
  0
SPLINE
  5
3AA
330
39D
100
AcDbEntity
  8
0
100
AcDbSpline
210
0.0
220
0.0
230
1.0
 70
     8
 71
     3
 72
     9
 73
     5
 74
     0
 42
0.0000000001
 43
0.0000000001
 40
0.0
 40
0.0
 40
0.0
 40
0.0
 40
10.23121498274914
 40
17.00270563096023
 40
17.00270563096023
 40
17.00270563096023
 40
17.00270563096023
 10
335.7595149363887
 20
122.0839742999842
 30
0.0
 10
332.3725172290969
 20
121.5804711729671
 30
0.0
 10
326.7438479960766
 20
120.7437264200348
 30
0.0
 10
321.4133400404266
 20
118.8281749475313
 30
0.0
 10
319.308899461127
 20
117.9984045018894
 30
0.0
  0
LINE
  5
3AB
330
39D
100
AcDbEntity
  8
0
100
AcDbLine
 10
443.3882297266525
 20
134.7728575279685
 30
0.0
 11
335.7595149363887
 21
122.0839742999842
 31
0.0
  0
ARC
  5
3AC
330
39D
100
AcDbEntity
  8
0
100
AcDbCircle
 10
348.9961521854164
 20
20.14059891595305
 30
0.0
 40
106.111583406168
100
AcDbArc
 50
107.1038189840311
 51
176.0956798798435
  0
LINE
  5
3AD
330
39D
100
AcDbEntity
  8
0
100
AcDbLine
 10
333.4972734432999
 20
84.7729764334314
 30
0.0
 11
317.7883076787233
 21
121.5592292272043
 31
0.0
  0
LINE
  5
3AE
330
39D
100
AcDbEntity
  8
0
100
AcDbLine
 10
443.4972734432998
 20
84.77297643343138
 30
0.0
 11
333.4972734432999
 21
84.7729764334314
 31
0.0
  0
LINE
  5
3AF
330
39D
100
AcDbEntity
  8
0
100
AcDbLine
 10
443.4972734432998
 20
84.77297643343138
 30
0.0
 11
443.3882297266525
 21
134.7728575279685
 31
0.0
  0
LINE
  5
3B0
330
39D
100
AcDbEntity
  8
0
100
AcDbLine
 10
401.1070822295566
 20
423.0728387567773
 30
0.0
 11
418.5678218781866
 21
131.846656490691
 31
0.0
  0
SPLINE
  5
3B1
330
39D
100
AcDbEntity
  8
0
100
AcDbSpline
210
0.0
220
0.0
230
1.0
 70
     8
 71
     3
 72
     9
 73
     5
 74
     3
 42
0.0000000001
 43
0.0000000001
 44
0.0000000001
 40
0.0
 40
0.0
 40
0.0
 40
0.0
 40
10.65690538029906
 40
20.97090768906219
 40
20.97090768906219
 40
20.97090768906219
 40
20.97090768906219
 10
387.3753054179018
 20
437.8444707646574
 30
0.0
 10
390.76957974173
 20
436.3260626611569
 30
0.0
 10
397.4489121535522
 20
433.3381036771446
 30
0.0
 10
399.9010575162881
 20
426.4570890581556
 30
0.0
 10
401.1070822295566
 20
423.0728387567773
 30
0.0
 11
387.3753054179018
 21
437.8444707646574
 31
0.0
 11
396.4664889243981
 21
432.2838939298446
 31
0.0
 11
401.1070822295566
 21
423.0728387567773
 31
0.0
  0
LINE
  5
3B2
330
39D
100
AcDbEntity
  8
0
100
AcDbLine
 10
442.7849286420178
 20
529.7723968033976
 30
0.0
 11
443.3882297266527
 21
134.7728575279685
 31
0.0
  0
SPLINE
  5
3B3
330
39D
100
AcDbEntity
  8
0
100
AcDbSpline
210
0.0
220
0.0
230
1.0
 70
     8
 71
     3
 72
     9
 73
     5
 74
     3
 42
0.0000000001
 43
0.0000000001
 44
0.0000000001
 40
0.0
 40
0.0
 40
0.0
 40
0.0
 40
13.37328677782909
 40
25.41006956619127
 40
25.41006956619127
 40
25.41006956619127
 40
25.41006956619127
 10
525.5231946049141
 20
652.6812488010155
 30
0.0
 10
521.1922545707907
 20
654.3947500691686
 30
0.0
 10
512.9632014305768
 20
657.6505081448651
 30
0.0
 10
509.3804973537586
 20
665.6942066709006
 30
0.0
 10
507.6833658030046
 20
669.5045170567397
 30
0.0
 11
525.5231946049141
 21
652.6812488010155
 31
0.0
 11
513.8173682621351
 21
659.1479658100363
 31
0.0
 11
507.6833658030046
 21
669.5045170567397
 31
0.0
  0
LINE
  5
3B4
330
39D
100
AcDbEntity
  8
0
100
AcDbLine
 10
442.8619202038063
 20
676.7723485812872
 30
0.0
 11
507.6833658030046
 21
669.5045170567397
 31
0.0
  0
LINE
  5
3B5
330
39D
100
AcDbEntity
  8
0
100
AcDbLine
 10
442.8544514634856
 20
676.771483498656
 30
0.0
 11
442.7304769049928
 21
843.7714374816103
 31
0.0
  0
LINE
  5
3B6
330
39D
100
AcDbEntity
  8
0
100
AcDbLine
 10
442.8544514634856
 20
676.771483498656
 30
0.0
 11
442.5750854176576
 21
791.7711441703833
 31
0.0
  0
LINE
  5
3B7
330
39D
100
AcDbEntity
  8
0
100
AcDbLine
 10
442.5750854176576
 20
791.7711441703833
 30
0.0
 11
482.5750847402137
 21
791.7785059293602
 31
0.0
  0
LINE
  5
3B8
330
39D
100
AcDbEntity
  8
0
100
AcDbLine
 10
482.5750847402137
 20
791.7785059293602
 30
0.0
 11
507.6833658030046
 21
669.5045170567397
 31
0.0
  0
LINE
  5
3B9
330
39D
100
AcDbEntity
  8
0
100
AcDbLine
 10
442.7690799634048
 20
791.771179873911
 30
0.0
 11
442.5572691324003
 21
803.7711309445418
 31
0.0
  0
LINE
  5
3BA
330
39D
100
AcDbEntity
  8
0
100
AcDbLine
 10
442.5572691324003
 20
803.7711309445418
 30
0.0
 11
467.5572672532116
 21
803.7808242125356
 31
0.0
  0
SPLINE
  5
3BB
330
39D
100
AcDbEntity
  8
0
100
AcDbSpline
210
0.0
220
0.0
230
1.0
 70
     8
 71
     3
 72
    10
 73
     6
 74
     4
 42
0.0000000001
 43
0.0000000001
 44
0.0000000001
 40
0.0
 40
0.0
 40
0.0
 40
0.0
 40
5.254381357790345
 40
18.2533609171934
 40
49.07708684588354
 40
49.07708684588354
 40
49.07708684588354
 40
49.07708684588354
 10
442.7304769049928
 20
843.7714374816103
 30
0.0
 10
444.4810399522994
 20
843.3984803205198
 30
0.0
 10
450.5623760668576
 20
842.1028526900773
 30
0.0
 10
460.1243030723451
 20
826.9932307651258
 30
0.0
 10
464.4879758430224
 20
813.3659154773472
 30
0.0
 10
467.5572672532116
 20
803.7808242125356
 30
0.0
 11
442.7304769049928
 21
843.7714374816103
 31
0.0
 11
447.7729430305141
 21
842.2942581336418
 31
0.0
 11
456.2841165645416
 21
832.4691171850625
 31
0.0
 11
467.5572672532116
 21
803.7808242125356
 31
0.0
  0
LINE
  5
3BC
330
39D
100
AcDbEntity
  8
0
100
AcDbLine
 10
482.5750847402137
 20
791.7785059293602
 30
0.0
 11
495.6496645068035
 21
728.1070416464721
 31
0.0
  0
SPLINE
  5
3BD
330
39D
100
AcDbEntity
  8
0
100
AcDbSpline
210
0.0
220
0.0
230
1.0
 70
     8
 71
     3
 72
    13
 73
     9
 74
     7
 42
0.0000000001
 43
0.0000000001
 44
0.0000000001
 40
0.0
 40
0.0
 40
0.0
 40
0.0
 40
6.411040704881026
 40
12.31485977529667
 40
17.49180716028301
 40
25.66832660849663
 40
42.66722248626525
 40
70.40015035179009
 40
70.40015035179009
 40
70.40015035179009
 40
70.40015035179009
 10
482.5750847402137
 20
791.7785059293602
 30
0.0
 10
484.4220670943224
 20
790.7154869772965
 30
0.0
 10
487.9699042935119
 20
788.6735518320117
 30
0.0
 10
493.0623815942219
 20
785.6776155435734
 30
0.0
 10
496.761513562788
 20
780.1263577878403
 30
0.0
 10
497.3916442696803
 20
769.736118585765
 30
0.0
 10
494.9068591262247
 20
752.3512645312787
 30
0.0
 10
495.3653860461677
 20
737.3855290419665
 30
0.0
 10
495.6496645068035
 20
728.1070416464721
 30
0.0
 11
482.5750847402137
 21
791.7785059293602
 31
0.0
 11
488.1261812957198
 21
788.5712064498776
 31
0.0
 11
492.9624485924509
 21
785.1851175185627
 31
0.0
 11
495.8414626834651
 21
780.8825529239681
 31
0.0
 11
497.0286390501073
 21
772.7926776121045
 31
0.0
 11
495.780571067694
 21
755.8396605539377
 31
0.0
 11
495.6496645068035
 21
728.1070416464721
 31
0.0
  0
SPLINE
  5
3BE
330
39D
100
AcDbEntity
  8
0
100
AcDbSpline
210
0.0
220
0.0
230
1.0
 70
     8
 71
     3
 72
    10
 73
     6
 74
     4
 42
0.0000000001
 43
0.0000000001
 44
0.0000000001
 40
0.0
 40
0.0
 40
0.0
 40
0.0
 40
4.281401921823135
 40
10.10055028827369
 40
19.60045194195236
 40
19.60045194195236
 40
19.60045194195236
 40
19.60045194195236
 10
467.5572672532116
 20
803.7808242125356
 30
0.0
 10
468.2968525790459
 20
802.5543545468394
 30
0.0
 10
470.0416592831264
 20
799.660905447314
 30
0.0
 10
475.0326708076856
 20
795.2564338068381
 30
0.0
 10
479.6880896917496
 20
793.1097455896355
 30
0.0
 10
482.5750847402137
 20
791.7785059293602
 30
0.0
 11
467.5572672532116
 21
803.7808242125356
 31
0.0
 11
469.924643564925
 21
800.2134818102801
 31
0.0
 11
474.2043006071112
 21
796.2705104291983
 31
0.0
 11
482.5750847402137
 21
791.7785059293602
 31
0.0
  0
SPLINE
  5
3BF
330
39D
100
AcDbEntity
  8
0
100
AcDbSpline
210
0.0
220
0.0
230
1.0
 70
     8
 71
     3
 72
    10
 73
     6
 74
     4
 42
0.0000000001
 43
0.0000000001
 44
0.0000000001
 40
0.0
 40
0.0
 40
0.0
 40
0.0
 40
4.28140192182341
 40
10.10055028827379
 40
19.60045194195267
 40
19.60045194195267
 40
19.60045194195267
 40
19.60045194195267
 10
417.9630876008403
 20
803.74400819009
 30
0.0
 10
417.2253240179276
 20
802.5164418208902
 30
0.0
 10
415.4848151131031
 20
799.6204054125598
 30
0.0
 10
410.5003483663341
 20
795.208528519401
 30
0.0
 10
405.8481217807255
 20
793.0549308122755
 30
0.0
 10
402.9631063929673
 20
791.7194063252873
 30
0.0
 11
417.9630876008403
 21
803.74400819009
 31
0.0
 11
415.6010102974928
 21
800.1731548986196
 31
0.0
 11
411.3272120640527
 21
796.2238338974088
 31
0.0
 11
402.9631063929673
 21
791.7194063252873
 31
0.0
  0
SPLINE
  5
3C0
330
39D
100
AcDbEntity
  8
0
100
AcDbSpline
210
0.0
220
0.0
230
1.0
 70
     8
 71
     3
 72
    13
 73
     9
 74
     7
 42
0.0000000001
 43
0.0000000001
 44
0.0000000001
 40
0.0
 40
0.0
 40
0.0
 40
0.0
 40
6.411040704881112
 40
12.31485977529637
 40
17.49180716028287
 40
25.66832660849654
 40
42.66722248626501
 40
70.40015035178999
 40
70.40015035178999
 40
70.40015035178999
 40
70.40015035178999
 10
402.9631063929673
 20
791.7194063252873
 30
0.0
 10
401.1177043285902
 20
790.653646347793
 30
0.0
 10
397.5729026812474
 20
788.6064460130683
 30
0.0
 10
392.484879031189
 20
785.6029522742578
 30
0.0
 10
388.7939930389435
 20
780.0462085709991
 30
0.0
 10
388.1792893153448
 20
769.6550452715269
 30
0.0
 10
390.6898828467673
 20
752.2738995145605
 30
0.0
 10
390.2535759165715
 20
737.3074997492515
 30
0.0
 10
389.9830734507704
 20
728.0286005145621
 30
0.0
 11
402.9631063929673
 21
791.7194063252873
 31
0.0
 11
397.4167778024907
 21
788.5038687207639
 31
0.0
 11
392.5855431299274
 21
785.1106031616275
 31
0.0
 11
389.7129201885413
 21
780.8037688644271
 31
0.0
 11
388.5377560908705
 21
772.7121398794476
 31
0.0
 11
389.8109926800438
 21
755.7609945007068
 31
0.0
 11
389.9830734507704
 21
728.0286005145621
 31
0.0
  0
LINE
  5
3C1
330
39D
100
AcDbEntity
  8
0
100
AcDbLine
 10
402.9631063929673
 20
791.7194063252873
 30
0.0
 11
389.9830734507704
 21
728.0286005145621
 31
0.0
  0
SPLINE
  5
3C2
330
39D
100
AcDbEntity
  8
0
100
AcDbSpline
210
0.0
220
0.0
230
1.0
 70
     8
 71
     3
 72
    10
 73
     6
 74
     4
 42
0.0000000001
 43
0.0000000001
 44
0.0000000001
 40
0.0
 40
0.0
 40
0.0
 40
0.0
 40
5.254381357790264
 40
18.25336091719365
 40
49.07708684588341
 40
49.07708684588341
 40
49.07708684588341
 40
49.07708684588341
 10
442.7304769049928
 20
843.7714374816097
 30
0.0
 10
440.9804695130061
 20
843.395881687358
 30
0.0
 10
434.9010637069675
 20
842.0912265833166
 30
0.0
 10
425.3615803513867
 20
826.967424809891
 30
0.0
 10
421.0181447348504
 20
813.3336458382679
 30
0.0
 10
417.9630876008403
 20
803.74400819009
 30
0.0
 11
442.7304769049928
 21
843.7714374816097
 31
0.0
 11
437.6902094910961
 21
842.2867732604792
 31
0.0
 11
429.1936326305071
 21
832.4490066827499
 31
0.0
 11
417.9630876008403
 21
803.74400819009
 31
0.0
  0
LINE
  5
3C3
330
39D
100
AcDbEntity
  8
0
100
AcDbLine
 10
442.9630725593193
 20
803.7714321909415
 30
0.0
 11
417.9630876008403
 21
803.74400819009
 31
0.0
  0
LINE
  5
3C4
330
39D
100
AcDbEntity
  8
0
100
AcDbLine
 10
442.7690781743748
 20
791.7711798725827
 30
0.0
 11
442.9630725593193
 21
803.7714321909415
 31
0.0
  0
LINE
  5
3C5
330
39D
100
AcDbEntity
  8
0
100
AcDbLine
 10
402.9631063929673
 20
791.7194063252873
 30
0.0
 11
378.0363920254607
 21
669.4082741925552
 31
0.0
  0
LINE
  5
3C6
330
39D
100
AcDbEntity
  8
0
100
AcDbLine
 10
442.9630725593193
 20
791.7714321909413
 30
0.0
 11
402.9631063929673
 21
791.7194063252873
 31
0.0
  0
LINE
  5
3C7
330
39D
100
AcDbEntity
  8
0
100
AcDbLine
 10
442.8544457179772
 20
676.7714834943906
 30
0.0
 11
442.9630725593193
 21
791.7714321909413
 31
0.0
  0
LINE
  5
3C8
330
39D
100
AcDbEntity
  8
0
100
AcDbLine
 10
442.8544457179772
 20
676.7714834943906
 30
0.0
 11
442.7304769049928
 21
843.7714374816097
 31
0.0
  0
LINE
  5
3C9
330
39D
100
AcDbEntity
  8
0
100
AcDbLine
 10
442.7849286420178
 20
529.7723968033976
 30
0.0
 11
790.2423880936062
 21
549.1979654351903
 31
0.0
  0
LINE
  5
3CA
330
39D
100
AcDbEntity
  8
0
100
AcDbLine
 10
767.0729850520139
 20
663.0308400289727
 30
0.0
 11
706.4309927599934
 21
683.2643130482221
 31
0.0
  0
LINE
  5
3CB
330
39D
100
AcDbEntity
  8
0
100
AcDbLine
 10
767.0729850520139
 20
663.0308400289727
 30
0.0
 11
765.8533453992515
 21
653.1054947393918
 31
0.0
  0
LINE
  5
3CC
330
39D
100
AcDbEntity
  8
0
100
AcDbLine
 10
765.8533453992515
 20
653.1054947393918
 30
0.0
 11
768.8345447536912
 21
652.7701584766791
 31
0.0
  0
LINE
  5
3CD
330
39D
100
AcDbEntity
  8
0
100
AcDbLine
 10
769.9753605520661
 20
662.0624494113086
 30
0.0
 11
768.8345447536912
 21
652.7701584766791
 31
0.0
  0
LINE
  5
3CE
330
39D
100
AcDbEntity
  8
0
100
AcDbLine
 10
757.7098560391406
 20
583.5824898418287
 30
0.0
 11
760.6892638283235
 21
583.2315920992365
 31
0.0
  0
LINE
  5
3CF
330
39D
100
AcDbEntity
  8
0
100
AcDbLine
 10
758.8180587404801
 20
593.5208944810424
 30
0.0
 11
761.8037412352499
 21
593.2281487886309
 31
0.0
  0
LINE
  5
3D0
330
39D
100
AcDbEntity
  8
0
100
AcDbLine
 10
761.8037412352499
 20
593.2281487886309
 30
0.0
 11
760.6892638283235
 21
583.2315920992365
 31
0.0
  0
LINE
  5
3D1
330
39D
100
AcDbEntity
  8
0
100
AcDbLine
 10
758.8180587404801
 20
593.5208944810424
 30
0.0
 11
757.7098560391406
 21
583.5824898418287
 31
0.0
  0
LINE
  5
3D2
330
39D
100
AcDbEntity
  8
0
100
AcDbLine
 10
695.2736909484078
 20
614.722758117956
 30
0.0
 11
694.1654882470677
 21
604.7843534787422
 31
0.0
  0
LINE
  5
3D3
330
39D
100
AcDbEntity
  8
0
100
AcDbLine
 10
698.2593734431776
 20
614.4300124255445
 30
0.0
 11
697.1448960362509
 21
604.43345573615
 31
0.0
  0
LINE
  5
3D4
330
39D
100
AcDbEntity
  8
0
100
AcDbLine
 10
695.2736909484078
 20
614.722758117956
 30
0.0
 11
698.2593734431776
 21
614.4300124255445
 31
0.0
  0
LINE
  5
3D5
330
39D
100
AcDbEntity
  8
0
100
AcDbLine
 10
694.1654882470677
 20
604.7843534787422
 30
0.0
 11
697.1448960362509
 21
604.43345573615
 31
0.0
  0
LINE
  5
3D6
330
39D
100
AcDbEntity
  8
0
100
AcDbLine
 10
706.4309927599934
 20
683.2643130482221
 30
0.0
 11
705.2901769616185
 21
673.9720221135926
 31
0.0
  0
LINE
  5
3D7
330
39D
100
AcDbEntity
  8
0
100
AcDbLine
 10
702.3089776071792
 20
674.3073583763052
 30
0.0
 11
705.2901769616185
 21
673.9720221135926
 31
0.0
  0
LINE
  5
3D8
330
39D
100
AcDbEntity
  8
0
100
AcDbLine
 10
703.5286172599413
 20
684.2327036658862
 30
0.0
 11
702.3089776071792
 21
674.3073583763052
 31
0.0
  0
LINE
  5
3D9
330
39D
100
AcDbEntity
  8
0
100
AcDbLine
 10
797.788764349015
 20
602.3249853617588
 30
0.0
 11
820.2860122095668
 21
618.2596855300975
 31
0.0
  0
LINE
  5
3DA
330
39D
100
AcDbEntity
  8
0
100
AcDbLine
 10
790.2423880936062
 20
549.1979654351903
 30
0.0
 11
797.788764349015
 21
602.3249853617588
 31
0.0
  0
LINE
  5
3DB
330
39D
100
AcDbEntity
  8
0
100
AcDbLine
 10
442.8076792352915
 20
562.7723889611318
 30
0.0
 11
442.7849286420178
 21
529.7723968033976
 31
0.0
  0
LINE
  5
3DC
330
39D
100
AcDbEntity
  8
0
100
AcDbLine
 10
442.8076792352915
 20
562.7723889611318
 30
0.0
 11
442.8544457179772
 21
676.7714834943906
 31
0.0
  0
LINE
  5
3DD
330
39D
100
AcDbEntity
  8
0
100
AcDbLine
 10
658.9556520547846
 20
638.6842167469885
 30
0.0
 11
525.4556782542196
 21
652.501580663586
 31
0.0
  0
LINE
  5
3DE
330
39D
100
AcDbEntity
  8
0
100
AcDbLine
 10
703.5286172599413
 20
684.2327036658862
 30
0.0
 11
675.3395817329417
 21
647.794304588992
 31
0.0
  0
SPLINE
  5
3DF
330
39D
100
AcDbEntity
  8
0
100
AcDbSpline
210
0.0
220
0.0
230
1.0
 70
     8
 71
     3
 72
     9
 73
     5
 74
     3
 42
0.0000000001
 43
0.0000000001
 44
0.0000000001
 40
0.0
 40
0.0
 40
0.0
 40
0.0
 40
10.63719514427983
 40
18.9628392597694
 40
18.9628392597694
 40
18.9628392597694
 40
18.9628392597694
 10
675.3395817329417
 20
647.794304588992
 30
0.0
 10
672.6397217231786
 20
645.4070216301815
 30
0.0
 10
667.8267037523137
 20
641.151232166748
 30
0.0
 10
661.6621864688847
 20
639.4368966277241
 30
0.0
 10
658.9556520547846
 20
638.6842167469885
 30
0.0
 11
675.3395817329417
 21
647.794304588992
 31
0.0
 11
666.8147330669222
 21
641.4321606296842
 31
0.0
 11
658.9556520547846
 21
638.6842167469885
 31
0.0
  0
SPLINE
  5
3E0
330
39D
100
AcDbEntity
  8
0
100
AcDbSpline
210
0.0
220
0.0
230
1.0
 70
     8
 71
     3
 72
     9
 73
     5
 74
     3
 42
0.0000000001
 43
0.0000000001
 44
0.0000000001
 40
0.0
 40
0.0
 40
0.0
 40
0.0
 40
13.37328677782905
 40
25.41006956619082
 40
25.41006956619082
 40
25.41006956619082
 40
25.41006956619082
 10
525.4556782542196
 20
652.501580663586
 30
0.0
 10
521.1284737809071
 20
654.2244937842276
 30
0.0
 10
512.9065184365944
 20
657.4981349600521
 30
0.0
 10
509.3413106419609
 20
665.5496036373103
 30
0.0
 10
507.6524671026866
 20
669.3635947538247
 30
0.0
 11
525.4556782542196
 21
652.501580663586
 31
0.0
 11
513.763938874019
 21
658.9937320410204
 31
0.0
 11
507.6524671026866
 21
669.3635947538247
 31
0.0
  0
LINE
  5
3E1
330
39D
100
AcDbEntity
  8
0
100
AcDbLine
 10
442.8469757015084
 20
676.7723374873014
 30
0.0
 11
507.6524671026866
 21
669.3635947538247
 31
0.0
  0
SPLINE
  5
3E2
330
39D
100
AcDbEntity
  8
0
100
AcDbSpline
210
0.0
220
0.0
230
1.0
 70
     8
 71
     3
 72
    10
 73
     6
 74
     4
 42
0.0000000001
 43
0.0000000001
 44
0.0000000001
 40
0.0
 40
0.0
 40
0.0
 40
0.0
 40
74.20342106590265
 40
156.5840591129151
 40
207.9899280379631
 40
207.9899280379631
 40
207.9899280379631
 40
207.9899280379631
 10
885.5602688180042
 20
482.7096869992653
 30
0.0
 10
878.8088690260092
 20
506.5065516079616
 30
0.0
 10
864.5620651867931
 20
556.7226952987052
 30
0.0
 10
826.8850679007879
 20
617.6187632987744
 30
0.0
 10
790.7256933140724
 20
644.0877675679549
 30
0.0
 10
776.831885093154
 20
654.2581666226382
 30
0.0
 11
885.5602688180042
 21
482.7096869992653
 31
0.0
 11
862.1355571614508
 21
553.1187104386723
 31
0.0
 11
816.7528352372334
 21
621.8717327415649
 31
0.0
 11
776.831885093154
 21
654.2581666226382
 31
0.0
  0
LINE
  5
3E3
330
39D
100
AcDbEntity
  8
0
100
AcDbLine
 10
769.9753605520661
 20
662.0624494113086
 30
0.0
 11
776.831885093154
 21
654.2581666226382
 31
0.0
  0
LINE
  5
3E4
330
39D
100
AcDbEntity
  8
0
100
AcDbLine
 10
498.153913083868
 20
437.8062847139617
 30
0.0
 11
885.5602688180042
 21
482.7096869992653
 31
0.0
  0
LINE
  5
3E5
330
39D
100
AcDbEntity
  8
0
100
AcDbLine
 10
857.7503594237127
 20
479.4863027399046
 30
0.0
 11
498.153913083868
 21
437.8062847139617
 31
0.0
  0
LINE
  5
3E6
330
39D
100
AcDbEntity
  8
0
100
AcDbLine
 10
498.2194072160194
 20
532.8062621377417
 30
0.0
 11
498.153913083868
 21
437.8062847139617
 31
0.0
  0
LINE
  5
3E7
330
39D
100
AcDbEntity
  8
0
100
AcDbLine
 10
442.8076792352915
 20
562.7723889611318
 30
0.0
 11
792.1363453141906
 21
562.5315575584209
 31
0.0
  0
LINE
  5
3E8
330
39D
100
AcDbEntity
  8
0
100
AcDbLine
 10
442.8076792352915
 20
562.7723889611318
 30
0.0
 11
93.4789301403631
 21
562.7723889611318
 31
0.0
  0
LINE
  5
3E9
330
39D
100
AcDbEntity
  8
0
100
AcDbLine
 10
387.3753054179018
 20
532.8444707646573
 30
0.0
 11
387.3753054179018
 21
437.8444707646574
 31
0.0
  0
LINE
  5
3EA
330
39D
100
AcDbEntity
  8
0
100
AcDbLine
 10
27.8076792352916
 20
479.7723889611315
 30
0.0
 11
387.3753054179018
 21
437.8444707646574
 31
0.0
  0
LINE
  5
3EB
330
39D
100
AcDbEntity
  8
0
100
AcDbLine
 10
387.3753054179018
 20
437.8444707646574
 30
0.0
 11
-0.0000013106075585
 21
483.0149449374308
 31
0.0
  0
LINE
  5
3EC
330
39D
100
AcDbEntity
  8
0
100
AcDbLine
 10
115.7085274190444
 20
662.2879791140623
 30
0.0
 11
108.84662414181
 21
654.4884251497665
 31
0.0
  0
SPLINE
  5
3ED
330
39D
100
AcDbEntity
  8
0
100
AcDbSpline
210
0.0
220
0.0
230
1.0
 70
     8
 71
     3
 72
    10
 73
     6
 74
     4
 42
0.0000000001
 43
0.0000000001
 44
0.0000000001
 40
0.0
 40
0.0
 40
0.0
 40
0.0
 40
74.20342106590282
 40
156.5840591129155
 40
207.9899280379631
 40
207.9899280379631
 40
207.9899280379631
 40
207.9899280379631
 10
-0.0000013106075585
 20
483.0149449374308
 30
0.0
 10
6.767802719012713
 20
506.8071493954592
 30
0.0
 10
21.04922278046113
 20
557.0134592362651
 30
0.0
 10
58.7681935877389
 20
617.8835377937831
 30
0.0
 10
94.94580762836475
 20
644.3276070689872
 30
0.0
 10
108.84662414181
 20
654.4884251497665
 30
0.0
 11
-0.0000013106075585
 21
483.0149449374308
 31
0.0
 11
23.4732455990445
 21
553.4078023691488
 31
0.0
 11
68.90335589124302
 21
622.1295209439313
 31
0.0
 11
108.84662414181
 21
654.4884251497665
 31
0.0
  0
LINE
  5
3EE
330
39D
100
AcDbEntity
  8
0
100
AcDbLine
 10
442.8469757015084
 20
676.7723374873014
 30
0.0
 11
378.0363920254607
 21
669.4082741925552
 31
0.0
  0
SPLINE
  5
3EF
330
39D
100
AcDbEntity
  8
0
100
AcDbSpline
210
0.0
220
0.0
230
1.0
 70
     8
 71
     3
 72
     9
 73
     5
 74
     3
 42
0.0000000001
 43
0.0000000001
 44
0.0000000001
 40
0.0
 40
0.0
 40
0.0
 40
0.0
 40
13.37328677782954
 40
25.41006956619123
 40
25.41006956619123
 40
25.41006956619123
 40
25.41006956619123
 10
360.2215602312965
 20
652.5585378554152
 30
0.0
 10
364.5499514731109
 20
654.2784673402836
 30
0.0
 10
372.7741617507618
 20
657.546439424147
 30
0.0
 10
376.3449194766019
 20
665.5954482912774
 30
0.0
 10
378.0363920254607
 20
669.4082741925552
 30
0.0
 11
360.2215602312965
 21
652.5585378554152
 31
0.0
 11
371.9177725995497
 21
659.0426272655629
 31
0.0
 11
378.0363920254607
 21
669.4082741925552
 31
0.0
  0
SPLINE
  5
3F0
330
39D
100
AcDbEntity
  8
0
100
AcDbSpline
210
0.0
220
0.0
230
1.0
 70
     8
 71
     3
 72
     9
 73
     5
 74
     3
 42
0.0000000001
 43
0.0000000001
 44
0.0000000001
 40
0.0
 40
0.0
 40
0.0
 40
0.0
 40
10.63719514427959
 40
18.96283925976955
 40
18.96283925976955
 40
18.96283925976955
 40
18.96283925976955
 10
210.3344471194239
 20
647.9545946487616
 30
0.0
 10
213.0326606662582
 20
645.5654509416095
 30
0.0
 10
217.8427435013622
 20
641.3063443375933
 30
0.0
 10
224.0060774364772
 20
639.5877593142911
 30
0.0
 10
226.7120923009049
 20
638.833213695346
 30
0.0
 11
210.3344471194239
 21
647.9545946487616
 31
0.0
 11
218.8549076216948
 21
641.5865750691177
 31
0.0
 11
226.7120923009049
 21
638.833213695346
 31
0.0
  0
LINE
  5
3F1
330
39D
100
AcDbEntity
  8
0
100
AcDbLine
 10
182.1705393579657
 20
684.4124189233053
 30
0.0
 11
210.3344471194239
 21
647.9545946487616
 31
0.0
  0
LINE
  5
3F2
330
39D
100
AcDbEntity
  8
0
100
AcDbLine
 10
226.7120923009049
 20
638.833213695346
 30
0.0
 11
360.2215602312965
 21
652.5585378554152
 31
0.0
  0
LINE
  5
3F3
330
39D
100
AcDbEntity
  8
0
100
AcDbLine
 10
442.8076792352915
 20
562.7723889611318
 30
0.0
 11
442.8395050980618
 21
676.771488644512
 31
0.0
  0
LINE
  5
3F4
330
39D
100
AcDbEntity
  8
0
100
AcDbLine
 10
442.8076792352915
 20
562.7723889611318
 30
0.0
 11
442.8076792352915
 21
529.7723889611318
 31
0.0
  0
LINE
  5
3F5
330
39D
100
AcDbEntity
  8
0
100
AcDbLine
 10
95.3636945735478
 20
549.4374942898761
 30
0.0
 11
87.85394651216583
 21
602.5697041528284
 31
0.0
  0
LINE
  5
3F6
330
39D
100
AcDbEntity
  8
0
100
AcDbLine
 10
87.85394651216583
 20
602.5697041528284
 30
0.0
 11
65.36768957015532
 21
618.5199104051577
 31
0.0
  0
LINE
  5
3F7
330
39D
100
AcDbEntity
  8
0
100
AcDbLine
 10
182.1705393579657
 20
684.4124189233053
 30
0.0
 11
183.3833360695604
 21
674.4862351583159
 31
0.0
  0
LINE
  5
3F8
330
39D
100
AcDbEntity
  8
0
100
AcDbLine
 10
183.3833360695604
 20
674.4862351583159
 30
0.0
 11
180.4019062387705
 21
674.1529542496573
 31
0.0
  0
LINE
  5
3F9
330
39D
100
AcDbEntity
  8
0
100
AcDbLine
 10
179.2674969276143
 20
683.4460294680325
 30
0.0
 11
180.4019062387705
 21
674.1529542496573
 31
0.0
  0
LINE
  5
3FA
330
39D
100
AcDbEntity
  8
0
100
AcDbLine
 10
191.478893506308
 20
604.9576325638935
 30
0.0
 11
188.4992445120792
 21
604.6087889439268
 31
0.0
  0
LINE
  5
3FB
330
39D
100
AcDbEntity
  8
0
100
AcDbLine
 10
190.3775427229244
 20
614.8967988494502
 30
0.0
 11
187.3916591153164
 21
614.6061115917009
 31
0.0
  0
LINE
  5
3FC
330
39D
100
AcDbEntity
  8
0
100
AcDbLine
 10
187.3916591153164
 20
614.6061115917009
 30
0.0
 11
188.4992445120792
 21
604.6087889439268
 31
0.0
  0
LINE
  5
3FD
330
39D
100
AcDbEntity
  8
0
100
AcDbLine
 10
190.3775427229244
 20
614.8967988494502
 30
0.0
 11
191.478893506308
 21
604.9576325638935
 31
0.0
  0
LINE
  5
3FE
330
39D
100
AcDbEntity
  8
0
100
AcDbLine
 10
126.8185732143545
 20
593.7387484954795
 30
0.0
 11
127.919923997738
 21
583.799582209923
 31
0.0
  0
LINE
  5
3FF
330
39D
100
AcDbEntity
  8
0
100
AcDbLine
 10
123.8326896067464
 20
593.4480612377305
 30
0.0
 11
124.9402750035093
 21
583.4507385899565
 31
0.0
  0
LINE
  5
400
330
39D
100
AcDbEntity
  8
0
100
AcDbLine
 10
126.8185732143545
 20
593.7387484954795
 30
0.0
 11
123.8326896067464
 21
593.4480612377305
 31
0.0
  0
LINE
  5
401
330
39D
100
AcDbEntity
  8
0
100
AcDbLine
 10
127.919923997738
 20
583.799582209923
 30
0.0
 11
124.9402750035093
 21
583.4507385899565
 31
0.0
  0
LINE
  5
402
330
39D
100
AcDbEntity
  8
0
100
AcDbLine
 10
115.7085274190444
 20
662.2879791140623
 30
0.0
 11
116.8429367302006
 21
652.9949038956869
 31
0.0
  0
LINE
  5
403
330
39D
100
AcDbEntity
  8
0
100
AcDbLine
 10
119.8243665609904
 20
653.3281848043452
 30
0.0
 11
116.8429367302006
 21
652.9949038956869
 31
0.0
  0
LINE
  5
404
330
39D
100
AcDbEntity
  8
0
100
AcDbLine
 10
118.6115698493957
 20
663.254368569335
 30
0.0
 11
119.8243665609904
 21
653.3281848043452
 31
0.0
  0
LINE
  5
405
330
39D
100
AcDbEntity
  8
0
100
AcDbLine
 10
118.6115698493957
 20
663.254368569335
 30
0.0
 11
179.2674969276143
 21
683.4460294680325
 31
0.0
  0
LINE
  5
406
330
39D
100
AcDbEntity
  8
0
100
AcDbLine
 10
442.8076792352915
 20
529.7723889611318
 30
0.0
 11
95.3636945735478
 21
549.4374942898761
 31
0.0
  0
ENDBLK
  5
408
330
39D
100
AcDbEntity
  8
0
100
AcDbBlockEnd
  0
BLOCK
  5
59C
330
57F
100
AcDbEntity
  8
0
100
AcDbBlockBegin
  2
A$C6EE750C7
 70
     0
 10
0.0
 20
0.0
 30
0.0
  3
A$C6EE750C7
  1

  0
LINE
  5
580
330
57F
100
AcDbEntity
  8
0
100
AcDbLine
 10
136.6691981922852
 20
3.006734076850931
 30
0.0
 11
156.6634105997248
 21
3.006734148290547
 31
0.0
  0
LINE
  5
581
330
57F
100
AcDbEntity
  8
0
100
AcDbLine
 10
74.67080738546838
 20
3.006733855329968
 30
0.0
 11
94.63348330986171
 21
3.006733926656806
 31
0.0
  0
LINE
  5
582
330
57F
100
AcDbEntity
  8
0
100
AcDbLine
 10
14.67142256996067
 20
3.006733640951551
 30
0.0
 11
34.66317840334183
 21
3.006733712382241
 31
0.0
  0
LINE
  5
583
330
57F
100
AcDbEntity
  8
0
100
AcDbLine
 10
14.67142256996067
 20
3.006733640951551
 30
0.0
 11
0.0000002572410267
 21
3.006733640951551
 31
0.0
  0
LINE
  5
584
330
57F
100
AcDbEntity
  8
0
100
AcDbLine
 10
156.6634105997248
 20
3.006734148290547
 30
0.0
 11
166.828540999908
 21
3.009618207075503
 31
0.0
  0
LINE
  5
585
330
57F
100
AcDbEntity
  8
0
100
AcDbLine
 10
94.63348330986171
 20
3.006733926656806
 30
0.0
 11
136.6691981922852
 21
3.006734076850931
 31
0.0
  0
LINE
  5
586
330
57F
100
AcDbEntity
  8
0
100
AcDbLine
 10
34.66317840334183
 20
3.006733712382241
 30
0.0
 11
74.67080738546838
 21
3.006733855329968
 31
0.0
  0
LINE
  5
587
330
57F
100
AcDbEntity
  8
0
100
AcDbLine
 10
115.3353417828987
 20
54.42592467053817
 30
0.0
 11
173.9378663727425
 21
66.45962596676191
 31
0.0
  0
SPLINE
  5
588
330
57F
100
AcDbEntity
  8
0
100
AcDbSpline
210
0.0
220
0.0
230
1.0
 70
     8
 71
     3
 72
    10
 73
     6
 74
     0
 42
0.0000000001
 43
0.0000000001
 40
1.505691308555225
 40
1.505691308555225
 40
1.505691308555225
 40
1.505691308555225
 40
5.254381357790103
 40
18.25336091719342
 40
49.07708684588351
 40
49.07708684588351
 40
49.07708684588351
 40
49.07708684588351
 10
0.0000002572410267
 20
3.006733640951551
 30
0.0
 10
0.2870745899742815
 20
4.243399408653431
 30
0.0
 10
1.803095874788823
 20
9.631997375509511
 30
0.0
 10
16.449152664356
 20
18.9005632361027
 30
0.0
 10
30.07646795213464
 20
23.26423600678004
 30
0.0
 10
39.66155921694645
 20
26.33352741696899
 30
0.0
  0
SPLINE
  5
589
330
57F
100
AcDbEntity
  8
0
100
AcDbSpline
210
0.0
220
0.0
230
1.0
 70
     8
 71
     3
 72
    13
 73
     9
 74
     7
 42
0.0000000001
 43
0.0000000001
 44
0.0000000001
 40
0.0
 40
0.0
 40
0.0
 40
0.0
 40
6.411040704880966
 40
12.31485977529637
 40
17.49180716028266
 40
25.66832660849616
 40
42.66722248626498
 40
70.40015035178985
 40
70.40015035178985
 40
70.40015035178985
 40
70.40015035178985
 10
51.66387750012201
 20
41.35134490397127
 30
0.0
 10
52.72689645218581
 20
43.1983272580799
 30
0.0
 10
54.76883159747066
 20
46.74616445726936
 30
0.0
 10
57.76476788590819
 20
51.83864175797953
 30
0.0
 10
63.31602564164171
 20
55.53777372654544
 30
0.0
 10
73.70626484371654
 20
56.16790443343771
 30
0.0
 10
91.09111889820331
 20
53.68311928998256
 30
0.0
 10
106.0568543875156
 20
54.14164620992528
 30
0.0
 10
115.3353417830099
 20
54.42592467056101
 30
0.0
 11
51.66387750012201
 21
41.35134490397127
 31
0.0
 11
54.87117697960457
 21
46.90244145947736
 31
0.0
 11
58.25726591091916
 21
51.73870875620832
 31
0.0
 11
62.55983050551368
 21
54.61772284722247
 31
0.0
 11
70.64970581737725
 21
55.8048992138647
 31
0.0
 11
87.60272287554426
 21
54.55683123145172
 31
0.0
 11
115.3353417830099
 21
54.42592467056101
 31
0.0
  0
SPLINE
  5
58A
330
57F
100
AcDbEntity
  8
0
100
AcDbSpline
210
0.0
220
0.0
230
1.0
 70
     8
 71
     3
 72
    10
 73
     6
 74
     4
 42
0.0000000001
 43
0.0000000001
 44
0.0000000001
 40
0.0
 40
0.0
 40
0.0
 40
0.0
 40
4.281401921822974
 40
10.10055028827361
 40
19.6004519419526
 40
19.6004519419526
 40
19.6004519419526
 40
19.6004519419526
 10
39.66155921694645
 20
26.33352741696899
 30
0.0
 10
40.88802888264245
 20
27.07311274280341
 30
0.0
 10
43.78147798216775
 20
28.81791944688389
 30
0.0
 10
48.1859496226436
 20
33.80893097144306
 30
0.0
 10
50.33263783984658
 20
38.46434985550713
 30
0.0
 10
51.66387750012201
 20
41.35134490397127
 30
0.0
 11
39.66155921694645
 21
26.33352741696899
 31
0.0
 11
43.22890161920168
 21
28.70090372868231
 31
0.0
 11
47.17187300028354
 21
32.98056077086858
 31
0.0
 11
51.66387750012201
 21
41.35134490397127
 31
0.0
  0
LINE
  5
58B
330
57F
100
AcDbEntity
  8
0
100
AcDbLine
 10
166.828540999908
 20
3.009618207075503
 30
0.0
 11
174.078788675657
 21
66.42872726644394
 31
0.0
  0
LINE
  5
58C
330
57F
100
AcDbEntity
  8
0
100
AcDbLine
 10
14.67142256996067
 20
0.0026958072618868
 30
0.0
 11
14.67142256996067
 21
3.006733640951551
 31
0.0
  0
LINE
  5
58D
330
57F
100
AcDbEntity
  8
0
100
AcDbLine
 10
14.67142256996067
 20
0.0026958072618868
 30
0.0
 11
24.67142220701817
 21
0.0000015823389958
 31
0.0
  0
LINE
  5
58E
330
57F
100
AcDbEntity
  8
0
100
AcDbLine
 10
24.67142220701817
 20
0.0000015823389958
 30
0.0
 11
24.6729729336289
 21
3.006733676687247
 31
0.0
  0
LINE
  5
58F
330
57F
100
AcDbEntity
  8
0
100
AcDbLine
 10
24.67142220701817
 20
0.0000015823389958
 30
0.0
 11
14.67142256996067
 21
0.0026958072618868
 31
0.0
  0
LINE
  5
590
330
57F
100
AcDbEntity
  8
0
100
AcDbLine
 10
24.67142220701817
 20
0.0000015823389958
 30
0.0
 11
34.67142220701817
 21
0.0000015823389958
 31
0.0
  0
LINE
  5
591
330
57F
100
AcDbEntity
  8
0
100
AcDbLine
 10
34.67142220701817
 20
0.0000015823389958
 30
0.0
 11
34.66317840334183
 21
3.006733712382241
 31
0.0
  0
LINE
  5
592
330
57F
100
AcDbEntity
  8
0
100
AcDbLine
 10
136.6697535478567
 20
0.0067372230832348
 30
0.0
 11
136.6691981922852
 21
3.006734076850931
 31
0.0
  0
LINE
  5
593
330
57F
100
AcDbEntity
  8
0
100
AcDbLine
 10
146.6700459421802
 20
0.0067372288087881
 30
0.0
 11
146.6700459421806
 21
3.006734112584068
 31
0.0
  0
LINE
  5
594
330
57F
100
AcDbEntity
  8
0
100
AcDbLine
 10
156.6674984268909
 20
0.0067372345328067
 30
0.0
 11
156.6634105997248
 21
3.006734148290547
 31
0.0
  0
LINE
  5
595
330
57F
100
AcDbEntity
  8
0
100
AcDbLine
 10
84.63935069238777
 20
3.006733890947712
 30
0.0
 11
84.63555872573829
 21
0.0067371932915421
 31
0.0
  0
LINE
  5
596
330
57F
100
AcDbEntity
  8
0
100
AcDbLine
 10
74.64668561584358
 20
0.0067371875726963
 30
0.0
 11
74.67080738546838
 21
3.006733855329968
 31
0.0
  0
LINE
  5
597
330
57F
100
AcDbEntity
  8
0
100
AcDbLine
 10
94.6334833098615
 20
0.0067371990158449
 30
0.0
 11
94.63348330986171
 21
3.006733926656806
 31
0.0
  0
LINE
  5
598
330
57F
100
AcDbEntity
  8
0
100
AcDbLine
 10
14.67142256996067
 20
0.0026958072618868
 30
0.0
 11
14.67142256996067
 21
0.0026958072618868
 31
0.0
  0
LINE
  5
599
330
57F
100
AcDbEntity
  8
0
100
AcDbLine
 10
14.67142256996067
 20
0.0026958072618868
 30
0.0
 11
14.67142256996067
 21
0.0026958072618868
 31
0.0
  0
LINE
  5
59A
330
57F
100
AcDbEntity
  8
0
100
AcDbLine
 10
74.64668561584358
 20
0.0067371875726963
 30
0.0
 11
94.6334833098615
 21
0.0067371990158449
 31
0.0
  0
LINE
  5
59B
330
57F
100
AcDbEntity
  8
0
100
AcDbLine
 10
136.6697535478567
 20
0.0067372230832348
 30
0.0
 11
156.6674984268909
 21
0.0067372345328067
 31
0.0
  0
ENDBLK
  5
59D
330
57F
100
AcDbEntity
  8
0
100
AcDbBlockEnd
  0
BLOCK
  5
8D3
330
89C
100
AcDbEntity
  8
0
100
AcDbBlockBegin
  2
A$C391D3B5C
 70
     0
 10
0.0
 20
0.0
 30
0.0
  3
A$C391D3B5C
  1

  0
LINE
  5
89D
330
89C
100
AcDbEntity
  8
0
100
AcDbLine
 10
316.739089810584
 20
3.009616225020294
 30
0.0
 11
336.8975848683114
 21
3.012500319511673
 31
0.0
  0
LINE
  5
89E
330
89C
100
AcDbEntity
  8
0
100
AcDbLine
 10
254.7083945607912
 20
3.009616003383936
 30
0.0
 11
306.7382420606886
 21
3.009616189287156
 31
0.0
  0
LINE
  5
89F
330
89C
100
AcDbEntity
  8
0
100
AcDbLine
 10
194.7420168020323
 20
3.009615789123357
 30
0.0
 11
244.7398512538718
 21
3.009615967766078
 31
0.0
  0
LINE
  5
8A0
330
89C
100
AcDbEntity
  8
0
100
AcDbLine
 10
170.0690441256444
 20
3.009615753387718
 30
0.0
 11
184.740466438364
 21
3.009615753387718
 31
0.0
  0
LINE
  5
8A1
330
89C
100
AcDbEntity
  8
0
100
AcDbLine
 10
326.7324544681282
 20
3.009616260726716
 30
0.0
 11
336.8975848683114
 21
3.012500319511673
 31
0.0
  0
LINE
  5
8A2
330
89C
100
AcDbEntity
  8
0
100
AcDbLine
 10
264.7025271782652
 20
3.009616039092975
 30
0.0
 11
316.739089810584
 21
3.009616225020294
 31
0.0
  0
LINE
  5
8A3
330
89C
100
AcDbEntity
  8
0
100
AcDbLine
 10
204.7322222717455
 20
3.009615824818411
 30
0.0
 11
254.7083945607912
 21
3.009616003383936
 31
0.0
  0
LINE
  5
8A4
330
89C
100
AcDbEntity
  8
0
100
AcDbLine
 10
170.0690441256444
 20
3.009615753387718
 30
0.0
 11
194.7420168020323
 21
3.009615789123357
 31
0.0
  0
LINE
  5
8A5
330
89C
100
AcDbEntity
  8
0
100
AcDbLine
 10
244.715729484247
 20
0.0096193000089215
 30
0.0
 11
254.7046025941417
 21
0.0096193057277105
 31
0.0
  0
LINE
  5
8A6
330
89C
100
AcDbEntity
  8
0
100
AcDbLine
 10
254.7046025941415
 20
0.0096193057277105
 30
0.0
 11
264.7025271782647
 21
0.0096193114519565
 31
0.0
  0
LINE
  5
8A7
330
89C
100
AcDbEntity
  8
0
100
AcDbLine
 10
264.7025271782647
 20
0.0096193114519565
 30
0.0
 11
264.7025271782652
 21
3.009616039092975
 31
0.0
  0
LINE
  5
8A8
330
89C
100
AcDbEntity
  8
0
100
AcDbLine
 10
254.7083945607912
 20
3.009616003383936
 30
0.0
 11
254.7046025941415
 21
0.0096193057277105
 31
0.0
  0
LINE
  5
8A9
330
89C
100
AcDbEntity
  8
0
100
AcDbLine
 10
254.7083945607912
 20
3.009616003383936
 30
0.0
 11
254.7046025941417
 21
0.0096193057277105
 31
0.0
  0
LINE
  5
8AA
330
89C
100
AcDbEntity
  8
0
100
AcDbLine
 10
244.715729484247
 20
0.0096193000089215
 30
0.0
 11
244.7398512538718
 21
3.009615967766078
 31
0.0
  0
LINE
  5
8AB
330
89C
100
AcDbEntity
  8
0
100
AcDbLine
 10
149.9105490679171
 20
3.006731658896341
 30
0.0
 11
170.0690441256444
 21
3.009615753387718
 31
0.0
  0
LINE
  5
8AC
330
89C
100
AcDbEntity
  8
0
100
AcDbLine
 10
87.87985381812422
 20
3.006731437259986
 30
0.0
 11
139.9097013180216
 21
3.006731623163203
 31
0.0
  0
LINE
  5
8AD
330
89C
100
AcDbEntity
  8
0
100
AcDbLine
 10
27.91347605936534
 20
3.006731222999404
 30
0.0
 11
77.91131051120482
 21
3.006731401642126
 31
0.0
  0
LINE
  5
8AE
330
89C
100
AcDbEntity
  8
0
100
AcDbLine
 10
3.240503382977462
 20
3.006731187263766
 30
0.0
 11
17.91192569569711
 21
3.006731187263766
 31
0.0
  0
LINE
  5
8AF
330
89C
100
AcDbEntity
  8
0
100
AcDbLine
 10
159.9039137254612
 20
3.006731694602763
 30
0.0
 11
170.0690441256444
 21
3.009615753387718
 31
0.0
  0
LINE
  5
8B0
330
89C
100
AcDbEntity
  8
0
100
AcDbLine
 10
97.87398643559818
 20
3.006731472969021
 30
0.0
 11
149.9105490679171
 21
3.006731658896341
 31
0.0
  0
LINE
  5
8B1
330
89C
100
AcDbEntity
  8
0
100
AcDbLine
 10
37.90368152907849
 20
3.006731258694458
 30
0.0
 11
87.87985381812422
 21
3.006731437259986
 31
0.0
  0
LINE
  5
8B2
330
89C
100
AcDbEntity
  8
0
100
AcDbLine
 10
3.240503382977462
 20
3.006731187263766
 30
0.0
 11
27.91347605936534
 21
3.006731222999404
 31
0.0
  0
LINE
  5
8B3
330
89C
100
AcDbEntity
  8
0
100
AcDbLine
 10
139.9102566735932
 20
0.0067347693955071
 30
0.0
 11
149.9105490679166
 21
0.0067347751210036
 31
0.0
  0
LINE
  5
8B4
330
89C
100
AcDbEntity
  8
0
100
AcDbLine
 10
149.9105490679166
 20
0.0067347751210036
 30
0.0
 11
159.9080015526273
 21
0.0067347808450222
 31
0.0
  0
LINE
  5
8B5
330
89C
100
AcDbEntity
  8
0
100
AcDbLine
 10
159.9080015526273
 20
0.0067347808450222
 30
0.0
 11
159.9039137254612
 21
3.006731694602763
 31
0.0
  0
LINE
  5
8B6
330
89C
100
AcDbEntity
  8
0
100
AcDbLine
 10
149.9105490679166
 20
0.0067347751210036
 30
0.0
 11
149.9105490679171
 21
3.006731658896341
 31
0.0
  0
LINE
  5
8B7
330
89C
100
AcDbEntity
  8
0
100
AcDbLine
 10
37.91192533275461
 20
-0.0000008713487887
 30
0.0
 11
37.90368152907849
 21
3.006731258694458
 31
0.0
  0
LINE
  5
8B8
330
89C
100
AcDbEntity
  8
0
100
AcDbLine
 10
27.91192533275461
 20
-0.0000008713487887
 30
0.0
 11
37.91192533275461
 21
-0.0000008713487887
 31
0.0
  0
LINE
  5
8B9
330
89C
100
AcDbEntity
  8
0
100
AcDbLine
 10
27.91192533275461
 20
-0.0000008713487887
 30
0.0
 11
27.91347605936534
 21
3.006731222999404
 31
0.0
  0
LINE
  5
8BA
330
89C
100
AcDbEntity
  8
0
100
AcDbLine
 10
17.91192569569711
 20
0.0026933535741591
 30
0.0
 11
17.91192569569711
 21
3.006731187263766
 31
0.0
  0
LINE
  5
8BB
330
89C
100
AcDbEntity
  8
0
100
AcDbLine
 10
17.91192569569711
 20
0.0026933535741591
 30
0.0
 11
27.91192533275461
 21
-0.0000008713487887
 31
0.0
  0
LINE
  5
8BC
330
89C
100
AcDbEntity
  8
0
100
AcDbLine
 10
27.91192533275461
 20
-0.0000008713487887
 30
0.0
 11
27.91347605936534
 21
3.006731222999404
 31
0.0
  0
LINE
  5
8BD
330
89C
100
AcDbEntity
  8
0
100
AcDbLine
 10
27.91192533275461
 20
-0.0000008713487887
 30
0.0
 11
17.91192569569711
 21
0.0026933535741591
 31
0.0
  0
LINE
  5
8BE
330
89C
100
AcDbEntity
  8
0
100
AcDbLine
 10
139.9102566735932
 20
0.0067347693955071
 30
0.0
 11
139.9097013180216
 21
3.006731623163203
 31
0.0
  0
LINE
  5
8BF
330
89C
100
AcDbEntity
  8
0
100
AcDbLine
 10
149.9105490679166
 20
0.0067347751210036
 30
0.0
 11
149.9105490679171
 21
3.006731658896341
 31
0.0
  0
LINE
  5
8C0
330
89C
100
AcDbEntity
  8
0
100
AcDbLine
 10
17.91192569569711
 20
0.0026933535741591
 30
0.0
 11
17.91192569569711
 21
0.0026933535741591
 31
0.0
  0
LINE
  5
8C1
330
89C
100
AcDbEntity
  8
0
100
AcDbLine
 10
17.91192569569711
 20
0.0026933535741591
 30
0.0
 11
17.91192569569711
 21
0.0026933535741591
 31
0.0
  0
LINE
  5
8C2
330
89C
100
AcDbEntity
  8
0
100
AcDbLine
 10
351.5690071810311
 20
0.008462485822065
 30
0.0
 11
351.5690071810311
 21
0.008462485822065
 31
0.0
  0
LINE
  5
8C3
330
89C
100
AcDbEntity
  8
0
100
AcDbLine
 10
351.5690071810311
 20
0.008462485822065
 30
0.0
 11
351.5690071810311
 21
0.008462485822065
 31
0.0
  0
LINE
  5
8C4
330
89C
100
AcDbEntity
  8
0
100
AcDbLine
 10
361.5690068180886
 20
0.0057682608991172
 30
0.0
 11
351.5690071810311
 21
0.008462485822065
 31
0.0
  0
LINE
  5
8C5
330
89C
100
AcDbEntity
  8
0
100
AcDbLine
 10
361.5690068180886
 20
0.0057682608991172
 30
0.0
 11
361.5705575446993
 21
3.012500355247308
 31
0.0
  0
LINE
  5
8C6
330
89C
100
AcDbEntity
  8
0
100
AcDbLine
 10
351.5690071810311
 20
0.008462485822065
 30
0.0
 11
361.5690068180886
 21
0.0057682608991172
 31
0.0
  0
LINE
  5
8C7
330
89C
100
AcDbEntity
  8
0
100
AcDbLine
 10
351.5690071810311
 20
0.008462485822065
 30
0.0
 11
351.5690071810311
 21
3.012500319511673
 31
0.0
  0
LINE
  5
8C8
330
89C
100
AcDbEntity
  8
0
100
AcDbLine
 10
361.5690068180886
 20
0.0057682608991172
 30
0.0
 11
361.5705575446993
 21
3.012500355247308
 31
0.0
  0
LINE
  5
8C9
330
89C
100
AcDbEntity
  8
0
100
AcDbLine
 10
361.5690068180886
 20
0.0057682608991172
 30
0.0
 11
371.5690068180886
 21
0.0057682608991172
 31
0.0
  0
LINE
  5
8CA
330
89C
100
AcDbEntity
  8
0
100
AcDbLine
 10
371.5690068180886
 20
0.0057682608991172
 30
0.0
 11
371.5607630144124
 21
3.012500390942363
 31
0.0
  0
LINE
  5
8CB
330
89C
100
AcDbEntity
  8
0
100
AcDbLine
 10
336.8975848683114
 20
3.012500319511673
 30
0.0
 11
361.5705575446993
 21
3.012500355247308
 31
0.0
  0
LINE
  5
8CC
330
89C
100
AcDbEntity
  8
0
100
AcDbLine
 10
336.8975848683114
 20
3.012500319511673
 30
0.0
 11
351.5690071810311
 21
3.012500319511673
 31
0.0
  0
LINE
  5
8CD
330
89C
100
AcDbEntity
  8
0
100
AcDbLine
 10
361.5705575446993
 20
3.012500355247308
 30
0.0
 11
411.5683919965388
 21
3.012500533890033
 31
0.0
  0
LINE
  5
8CE
330
89C
100
AcDbEntity
  8
0
100
AcDbLine
 10
398.2504625199222
 20
1.506733547047133
 30
0.0
 11
401.2782840084898
 21
27.61624443588744
 31
0.0
  0
LINE
  5
8CF
330
89C
100
AcDbEntity
  8
0
100
AcDbLine
 10
0.2933350237294689
 20
56.99566385807385
 30
0.0
 11
95.29331244750892
 21
56.93016972592227
 31
0.0
  0
LINE
  5
8D0
330
89C
100
AcDbEntity
  8
0
100
AcDbLine
 10
109.8333976940155
 20
43.75024421090528
 30
0.0
 11
401.2782840084898
 21
27.61624443588744
 31
0.0
  0
SPLINE
  5
8D1
330
89C
100
AcDbEntity
  8
0
100
AcDbSpline
210
0.0
220
0.0
230
1.0
 70
     8
 71
     3
 72
     9
 73
     5
 74
     3
 42
0.0000000001
 43
0.0000000001
 44
0.0000000001
 40
0.0
 40
0.0
 40
0.0
 40
0.0
 40
10.09044278898072
 40
20.40444509774424
 40
20.40444509774424
 40
20.40444509774424
 40
20.40444509774424
 10
95.29331244750892
 20
56.93016972592227
 30
0.0
 10
96.75564674462975
 20
53.73312573633885
 30
0.0
 10
99.71271418994891
 20
47.2682054226568
 30
0.0
 10
106.4352847735984
 20
44.93143216549083
 30
0.0
 10
109.8333976940155
 20
43.75024421090484
 30
0.0
 11
95.29331244750892
 21
56.93016972592227
 31
0.0
 11
100.6011759259525
 21
48.3485835688125
 31
0.0
 11
109.8333976940155
 21
43.75024421090484
 31
0.0
  0
LINE
  5
8D2
330
89C
100
AcDbEntity
  8
0
100
AcDbLine
 10
-0.0000012519556094
 20
56.97890113644735
 30
0.0
 11
3.325928423339746
 21
1.583935877346448
 31
0.0
  0
ENDBLK
  5
8D4
330
89C
100
AcDbEntity
  8
0
100
AcDbBlockEnd
  0
BLOCK
  5
B2C
330
B2A
100
AcDbEntity
  8
0
100
AcDbBlockBegin
  2
A$C4A9A5EBE
 70
     0
 10
0.0
 20
0.0
 30
0.0
  3
A$C4A9A5EBE
  1

  0
LINE
  5
B2B
330
B2A
100
AcDbEntity
  8
0
100
AcDbLine
 10
133.4936113374611
 20
0.0000003520643759
 30
0.0
 11
-0.0000023846073418
 21
13.87867628957804
 31
0.0
  0
ENDBLK
  5
B2D
330
B2A
100
AcDbEntity
  8
0
100
AcDbBlockEnd
  0
BLOCK
  5
14FF
330
14F5
100
AcDbEntity
  8
0
100
AcDbBlockBegin
  2
*D5
 70
     1
 10
0.0
 20
0.0
 30
0.0
  3
*D5
  1

  0
LINE
  5
1502
330
14F5
100
AcDbEntity
  8
0
 62
     0
370
    -2
100
AcDbLine
 10
229.3795337604609
 20
1086.6887166792
 30
0.0
 11
219.5147900651995
 21
1085.489917383989
 31
0.0
  0
LINE
  5
1503
330
14F5
100
AcDbEntity
  8
0
 62
     0
370
    -2
100
AcDbLine
 10
238.7603925361531
 20
1009.495004743164
 30
0.0
 11
228.8956488408917
 21
1008.296205447953
 31
0.0
  0
LINE
  5
1504
330
14F5
100
AcDbEntity
  8
0
 62
     0
370
    -2
100
AcDbLine
 10
221.0572513151293
 20
1083.158970517914
 30
0.0
 11
229.8349295837939
 21
1010.928742567542
 31
0.0
  0
SOLID
  5
1505
330
14F5
100
AcDbEntity
  8
0
 62
     0
100
AcDbTrace
 10
221.4708749806014
 20
1083.209235560166
 30
0.0
 11
220.6436276496573
 21
1083.108705475662
 31
0.0
 12
220.7556610616155
 22
1085.640712510746
 32
0.0
 13
220.7556610616155
 23
1085.640712510746
 33
0.0
  0
SOLID
  5
1506
330
14F5
100
AcDbEntity
  8
0
 62
     0
100
AcDbTrace
 10
230.2485532492659
 20
1010.979007609794
 30
0.0
 11
229.4213059183218
 21
1010.878477525289
 31
0.0
 12
230.1365198373077
 22
1008.44700057471
 32
0.0
 13
230.1365198373077
 23
1008.44700057471
 33
0.0
  0
MTEXT
  5
1507
330
14F5
100
AcDbEntity
  8
0
 62
     0
100
AcDbMText
 10
227.5142087768216
 20
1047.295181753989
 30
0.0
 40
2.5
 41
0.0
 71
     5
 72
     1
  1
77,76
 11
0.120636101405525
 21
-0.992696797132778
 31
0.0
 73
     1
 44
1.0
  0
POINT
  5
1508
330
14F5
100
AcDbEntity
  8
Defpoints
 62
     0
100
AcDbPoint
 10
229.9999692586689
 20
1086.764114242579
 30
0.0
  0
POINT
  5
1509
330
14F5
100
AcDbEntity
  8
Defpoints
 62
     0
100
AcDbPoint
 10
239.380828034361
 20
1009.570402306542
 30
0.0
  0
POINT
  5
150A
330
14F5
100
AcDbEntity
  8
Defpoints
 62
     0
100
AcDbPoint
 10
230.1365198373077
 20
1008.44700057471
 30
0.0
  0
ENDBLK
  5
1500
330
14F5
100
AcDbEntity
  8
0
100
AcDbBlockEnd
  0
ENDSEC
  0
SECTION
  2
ENTITIES
  0
LINE
  5
1EA
330
1F
100
AcDbEntity
  8
0
100
AcDbLine
 10
-1011.994206034678
 20
420.942569334726
 30
0.0
 11
-1011.980298135307
 21
470.9425674004296
 31
0.0
  0
LINE
  5
1EB
330
1F
100
AcDbEntity
  8
0
100
AcDbLine
 10
-1011.994206034678
 20
420.942569334726
 30
0.0
 11
-901.9944051531011
 21
421.1518681962176
 31
0.0
  0
LINE
  5
1EC
330
1F
100
AcDbEntity
  8
0
100
AcDbLine
 10
-901.9944051531011
 20
421.1518681962176
 30
0.0
 11
-886.3554616500955
 21
457.9679441157093
 31
0.0
  0
ARC
  5
1ED
330
1F
100
AcDbEntity
  8
0
100
AcDbCircle
 10
-917.3702787211977
 20
356.4901176953027
 30
0.0
 40
106.111583406168
100
AcDbArc
 50
4.013337835212497
 51
73.00519873102301
  0
LINE
  5
1EE
330
1F
100
AcDbEntity
  8
0
100
AcDbLine
 10
-1011.980298135307
 20
470.9425674004296
 30
0.0
 11
-904.3276348181956
 21
458.4584941184433
 31
0.0
  0
SPLINE
  5
1EF
330
1F
100
AcDbEntity
  8
0
100
AcDbSpline
210
0.0
220
0.0
230
1.0
 70
     8
 71
     3
 72
     9
 73
     5
 74
     0
 42
0.0000000001
 43
0.0000000001
 40
0.0
 40
0.0
 40
0.0
 40
0.0
 40
10.23121498274914
 40
17.00270563096023
 40
17.00270563096023
 40
17.00270563096023
 40
17.00270563096023
 10
-904.3276348181956
 20
458.4584941184433
 30
0.0
 10
-900.9396852180172
 20
457.9614364007057
 30
0.0
 10
-895.309434085429
 20
457.1354029266231
 30
0.0
 10
-889.9752910266879
 20
455.2299973692822
 30
0.0
 10
-887.8692754385095
 20
454.4042325803665
 30
0.0
  0
LINE
  5
1F0
330
1F
100
AcDbEntity
  8
0
100
AcDbLine
 10
-1011.994206034678
 20
420.942569334726
 30
0.0
 11
-1011.872794645018
 21
357.9426863247202
 31
0.0
  0
LINE
  5
1F1
330
1F
100
AcDbEntity
  8
0
100
AcDbLine
 10
-1011.872794645018
 20
357.9426863247202
 30
0.0
 11
-979.6994935026654
 21
336.2308883468153
 31
0.0
  0
LINE
  5
1F2
330
1F
100
AcDbEntity
  8
0
100
AcDbLine
 10
-811.5189037653731
 20
363.9167288286226
 30
0.0
 11
-979.6994935026654
 21
336.2308883468153
 31
0.0
  0
LINE
  5
1F3
330
1F
100
AcDbEntity
  8
0
100
AcDbLine
 10
-1212.237689762333
 20
363.5355012759101
 30
0.0
 11
-1044.004726142873
 21
336.1697109642648
 31
0.0
  0
LINE
  5
1F4
330
1F
100
AcDbEntity
  8
0
100
AcDbLine
 10
-1011.872794645018
 20
357.9426863247202
 30
0.0
 11
-1044.004726142873
 21
336.1697109642648
 31
0.0
  0
LINE
  5
1F5
330
1F
100
AcDbEntity
  8
0
100
AcDbLine
 10
-1011.87125441866
 20
420.9426863058925
 30
0.0
 11
-1011.872794645018
 21
357.9426863247202
 31
0.0
  0
SPLINE
  5
1F6
330
1F
100
AcDbEntity
  8
0
100
AcDbSpline
210
0.0
220
0.0
230
1.0
 70
     8
 71
     3
 72
     9
 73
     5
 74
     0
 42
0.0000000001
 43
0.0000000001
 40
0.0
 40
0.0
 40
0.0
 40
0.0
 40
10.23121498274914
 40
17.00270563096023
 40
17.00270563096023
 40
17.00270563096023
 40
17.00270563096023
 10
-1119.609012925571
 20
458.2536841724452
 30
0.0
 10
-1122.996010632863
 20
457.7501810454282
 30
0.0
 10
-1128.624679865882
 20
456.9134362924956
 30
0.0
 10
-1133.955187821533
 20
454.9978848199923
 30
0.0
 10
-1136.059628400833
 20
454.1681143743502
 30
0.0
  0
LINE
  5
1F7
330
1F
100
AcDbEntity
  8
0
100
AcDbLine
 10
-1011.980298135307
 20
470.9425674004296
 30
0.0
 11
-1119.609012925571
 21
458.2536841724452
 31
0.0
  0
ARC
  5
1F8
330
1F
100
AcDbEntity
  8
0
100
AcDbCircle
 10
-1106.372375676544
 20
356.3103087884142
 30
0.0
 40
106.111583406168
100
AcDbArc
 50
107.1038189840326
 51
176.095679879843
  0
LINE
  5
1F9
330
1F
100
AcDbEntity
  8
0
100
AcDbLine
 10
-1121.87125441866
 20
420.9426863058925
 30
0.0
 11
-1137.580220183237
 21
457.7289390996653
 31
0.0
  0
LINE
  5
1FA
330
1F
100
AcDbEntity
  8
0
100
AcDbLine
 10
-1011.87125441866
 20
420.9426863058925
 30
0.0
 11
-1121.87125441866
 21
420.9426863058925
 31
0.0
  0
LINE
  5
1FB
330
1F
100
AcDbEntity
  8
0
100
AcDbLine
 10
-1011.87125441866
 20
420.9426863058925
 30
0.0
 11
-1011.980298135307
 21
470.9425674004296
 31
0.0
  0
LINE
  5
86F
330
1F
100
AcDbEntity
  8
0
100
AcDbLine
 10
-407.5839253631169
 20
416.8767383782311
 30
0.0
 11
-397.5860007789937
 21
416.8767383839552
 31
0.0
  0
LINE
  5
870
330
1F
100
AcDbEntity
  8
0
100
AcDbLine
 10
-397.5860007789937
 20
416.8767383839552
 30
0.0
 11
-397.5860007789933
 21
419.8767351115963
 31
0.0
  0
LINE
  5
871
330
1F
100
AcDbEntity
  8
0
100
AcDbLine
 10
-407.5801333964673
 20
419.8767350758873
 30
0.0
 11
-407.5839253631169
 21
416.8767383782311
 31
0.0
  0
LINE
  5
872
330
1F
100
AcDbEntity
  8
0
100
AcDbLine
 10
-407.5801333964673
 20
419.8767350758873
 30
0.0
 11
-407.5839253631166
 21
416.8767383782311
 31
0.0
  0
LINE
  5
87D
330
1F
100
AcDbEntity
  8
0
100
AcDbLine
 10
-512.3779788893416
 20
416.8738538476242
 30
0.0
 11
-502.3805264046313
 21
416.8738538533482
 31
0.0
  0
LINE
  5
87E
330
1F
100
AcDbEntity
  8
0
100
AcDbLine
 10
-502.3805264046313
 20
416.8738538533482
 30
0.0
 11
-502.384614231797
 21
419.8738507671061
 31
0.0
  0
LINE
  5
87F
330
1F
100
AcDbEntity
  8
0
100
AcDbLine
 10
-512.3779788893416
 20
416.8738538476242
 30
0.0
 11
-512.3779788893416
 21
419.8738507313995
 31
0.0
  0
LINE
  5
880
330
1F
100
AcDbEntity
  8
0
100
AcDbLine
 10
-624.3766026245038
 20
416.8671182011546
 30
0.0
 11
-624.38484642818
 21
419.8738503311976
 31
0.0
  0
LINE
  5
881
330
1F
100
AcDbEntity
  8
0
100
AcDbLine
 10
-634.3766026245039
 20
416.8671182011546
 30
0.0
 11
-624.3766026245038
 21
416.8671182011546
 31
0.0
  0
LINE
  5
882
330
1F
100
AcDbEntity
  8
0
100
AcDbLine
 10
-634.3766026245039
 20
416.8671182011546
 30
0.0
 11
-634.3750518978931
 21
419.8738502955028
 31
0.0
  0
LINE
  5
885
330
1F
100
AcDbEntity
  8
0
100
AcDbLine
 10
-634.3766026245039
 20
416.8671182011546
 30
0.0
 11
-634.3750518978931
 21
419.8738502955028
 31
0.0
  0
LINE
  5
888
330
1F
100
AcDbEntity
  8
0
100
AcDbLine
 10
-512.3779788893416
 20
416.8738538476242
 30
0.0
 11
-512.3779788893416
 21
419.8738507313995
 31
0.0
  0
LINE
  5
88E
330
1F
100
AcDbEntity
  8
0
100
AcDbLine
 10
-300.7195211391701
 20
416.8728873334025
 30
0.0
 11
-300.7179704125592
 21
419.8796194277506
 31
0.0
  0
LINE
  5
891
330
1F
100
AcDbEntity
  8
0
100
AcDbLine
 10
-300.7195211391701
 20
416.8728873334025
 30
0.0
 11
-300.7179704125592
 21
419.8796194277506
 31
0.0
  0
LINE
  5
892
330
1F
100
AcDbEntity
  8
0
100
AcDbLine
 10
-300.7195211391701
 20
416.8728873334025
 30
0.0
 11
-290.7195211391698
 21
416.8728873334025
 31
0.0
  0
LINE
  5
893
330
1F
100
AcDbEntity
  8
0
100
AcDbLine
 10
-290.7195211391698
 20
416.8728873334025
 30
0.0
 11
-290.727764942846
 21
419.8796194634454
 31
0.0
  0
LINE
  5
897
330
1F
100
AcDbEntity
  8
0
100
AcDbLine
 10
-263.8634473253096
 20
419.8796195594322
 30
0.0
 11
-261.0102439487687
 21
444.4833635083908
 31
0.0
  0
LINE
  5
898
330
1F
100
AcDbEntity
  8
0
100
AcDbLine
 10
-661.9951929335293
 20
473.8627829305769
 30
0.0
 11
-566.9952155097497
 21
473.7972887984255
 31
0.0
  0
LINE
  5
899
330
1F
100
AcDbEntity
  8
0
100
AcDbLine
 10
-552.455130263243
 20
460.6173632834086
 30
0.0
 11
-261.0102439487687
 21
444.4833635083908
 31
0.0
  0
SPLINE
  5
89A
330
1F
100
AcDbEntity
  8
0
100
AcDbSpline
210
0.0
220
0.0
230
1.0
 70
     8
 71
     3
 72
     9
 73
     5
 74
     3
 42
0.0000000001
 43
0.0000000001
 44
0.0000000001
 40
0.0
 40
0.0
 40
0.0
 40
0.0
 40
10.09044278898066
 40
20.40444509774427
 40
20.40444509774427
 40
20.40444509774427
 40
20.40444509774427
 10
-566.9952155097497
 20
473.7972887984255
 30
0.0
 10
-565.5328812126287
 20
470.6002448088421
 30
0.0
 10
-562.5758137673098
 20
464.13532449516
 30
0.0
 10
-555.8532431836602
 20
461.7985512379942
 30
0.0
 10
-552.455130263243
 20
460.6173632834082
 30
0.0
 11
-566.9952155097497
 21
473.7972887984255
 31
0.0
 11
-561.6873520313061
 21
465.2157026413158
 31
0.0
 11
-552.455130263243
 21
460.6173632834082
 31
0.0
  0
LINE
  5
89B
330
1F
100
AcDbEntity
  8
0
100
AcDbLine
 10
-662.288529209214
 20
473.8460202089506
 30
0.0
 11
-659.048024574281
 21
419.8738502597668
 31
0.0
  0
LINE
  5
9C4
330
1F
100
AcDbEntity
  8
0
100
AcDbLine
 10
-659.048024574281
 20
419.8738502597668
 30
0.0
 11
-634.3750518978931
 21
419.8738502955028
 31
0.0
  0
LINE
  5
9C5
330
1F
100
AcDbEntity
  8
0
100
AcDbLine
 10
-624.38484642818
 20
419.8738503311976
 30
0.0
 11
-512.3779788893416
 21
419.8738507313995
 31
0.0
  0
LINE
  5
9C6
330
1F
100
AcDbEntity
  8
0
100
AcDbLine
 10
-502.384614231797
 20
419.8738507671061
 30
0.0
 11
-407.5801333964673
 21
419.8767350758873
 31
0.0
  0
LINE
  5
9C7
330
1F
100
AcDbEntity
  8
0
100
AcDbLine
 10
-397.5860007789933
 20
419.8767351115963
 30
0.0
 11
-300.7179704125592
 21
419.8796194277506
 31
0.0
  0
LINE
  5
9C8
330
1F
100
AcDbEntity
  8
0
100
AcDbLine
 10
-290.727764942846
 20
419.8796194634454
 30
0.0
 11
-263.8634473253096
 21
419.8796195594322
 31
0.0
  0
LINE
  5
A35
330
1F
100
AcDbEntity
  8
0
100
AcDbLine
 10
-300.706541839565
 20
398.7977381696109
 30
0.0
 11
-273.842224222029
 21
398.7977380736245
 31
0.0
  0
LINE
  5
A36
330
1F
100
AcDbEntity
  8
0
100
AcDbLine
 10
-407.5647776757121
 20
398.8006225214602
 30
0.0
 11
-310.6967473092782
 21
398.7977382053058
 31
0.0
  0
LINE
  5
A37
330
1F
100
AcDbEntity
  8
0
100
AcDbLine
 10
-512.3633911285163
 20
398.8035068659504
 30
0.0
 11
-417.5589102931862
 21
398.8006225571692
 31
0.0
  0
LINE
  5
A38
330
1F
100
AcDbEntity
  8
0
100
AcDbLine
 10
-634.3636233248989
 20
398.8035073018589
 30
0.0
 11
-522.3567557860604
 21
398.8035069016569
 31
0.0
  0
LINE
  5
A39
330
1F
100
AcDbEntity
  8
0
100
AcDbLine
 10
-659.0497060055968
 20
398.8028576078405
 30
0.0
 11
-644.3538287946124
 21
398.8035073375539
 31
0.0
  0
LINE
  5
A3A
330
1F
100
AcDbEntity
  8
0
100
AcDbLine
 10
-662.2902106405298
 20
344.8306876586567
 30
0.0
 11
-659.0497060055968
 21
398.8028576078405
 31
0.0
  0
SPLINE
  5
A3B
330
1F
100
AcDbEntity
  8
0
100
AcDbSpline
210
0.0
220
0.0
230
1.0
 70
     8
 71
     3
 72
     9
 73
     5
 74
     3
 42
0.0000000001
 43
0.0000000001
 44
0.0000000001
 40
0.0
 40
0.0
 40
0.0
 40
0.0
 40
10.09044278898064
 40
20.4044450977442
 40
20.4044450977442
 40
20.4044450977442
 40
20.4044450977442
 10
-566.9968969410656
 20
344.8794190691817
 30
0.0
 10
-565.5345626439448
 20
348.0764630587651
 30
0.0
 10
-562.5774951986257
 20
354.5413833724472
 30
0.0
 10
-555.8549246149764
 20
356.8781566296132
 30
0.0
 10
-552.4568116945593
 20
358.0593445841992
 30
0.0
 11
-566.9968969410656
 21
344.8794190691817
 31
0.0
 11
-561.6890334626223
 21
353.4610052262915
 31
0.0
 11
-552.4568116945593
 21
358.0593445841992
 31
0.0
  0
LINE
  5
A3C
330
1F
100
AcDbEntity
  8
0
100
AcDbLine
 10
-552.4568116945593
 20
358.0593445841987
 30
0.0
 11
-261.0119253800847
 21
374.1933443592167
 31
0.0
  0
LINE
  5
A3D
330
1F
100
AcDbEntity
  8
0
100
AcDbLine
 10
-661.9968743648455
 20
344.8139249370302
 30
0.0
 11
-566.9968969410656
 21
344.8794190691817
 31
0.0
  0
LINE
  5
A3E
330
1F
100
AcDbEntity
  8
0
100
AcDbLine
 10
-263.8651287566258
 20
398.7970883081754
 30
0.0
 11
-261.0119253800847
 21
374.1933443592167
 31
0.0
  0
LINE
  5
A3F
330
1F
100
AcDbEntity
  8
0
100
AcDbLine
 10
-300.6982980358889
 20
401.8044702996543
 30
0.0
 11
-300.706541839565
 21
398.7977381696109
 31
0.0
  0
LINE
  5
A40
330
1F
100
AcDbEntity
  8
0
100
AcDbLine
 10
-310.6982980358889
 20
401.8044702996543
 30
0.0
 11
-300.6982980358889
 21
401.8044702996543
 31
0.0
  0
LINE
  5
A41
330
1F
100
AcDbEntity
  8
0
100
AcDbLine
 10
-310.6982980358889
 20
401.8044702996543
 30
0.0
 11
-310.6967473092782
 21
398.7977382053058
 31
0.0
  0
LINE
  5
A42
330
1F
100
AcDbEntity
  8
0
100
AcDbLine
 10
-310.6982980358889
 20
401.8044702996543
 30
0.0
 11
-310.6967473092782
 21
398.7977382053058
 31
0.0
  0
LINE
  5
A43
330
1F
100
AcDbEntity
  8
0
100
AcDbLine
 10
-522.3567557860611
 20
401.8035037854322
 30
0.0
 11
-522.3567557860604
 21
398.8035069016569
 31
0.0
  0
LINE
  5
A44
330
1F
100
AcDbEntity
  8
0
100
AcDbLine
 10
-644.3553795212229
 20
401.8102394319018
 30
0.0
 11
-644.3538287946124
 21
398.8035073375539
 31
0.0
  0
LINE
  5
A45
330
1F
100
AcDbEntity
  8
0
100
AcDbLine
 10
-644.3553795212229
 20
401.8102394319018
 30
0.0
 11
-644.3538287946124
 21
398.8035073375539
 31
0.0
  0
LINE
  5
A46
330
1F
100
AcDbEntity
  8
0
100
AcDbLine
 10
-644.3553795212229
 20
401.8102394319018
 30
0.0
 11
-634.3553795212227
 21
401.8102394319018
 31
0.0
  0
LINE
  5
A47
330
1F
100
AcDbEntity
  8
0
100
AcDbLine
 10
-634.3553795212227
 20
401.8102394319018
 30
0.0
 11
-634.3636233248989
 21
398.8035073018589
 31
0.0
  0
LINE
  5
A48
330
1F
100
AcDbEntity
  8
0
100
AcDbLine
 10
-522.3567557860611
 20
401.8035037854322
 30
0.0
 11
-522.3567557860604
 21
398.8035069016569
 31
0.0
  0
LINE
  5
A49
330
1F
100
AcDbEntity
  8
0
100
AcDbLine
 10
-512.3593033013503
 20
401.8035037797083
 30
0.0
 11
-512.3633911285163
 21
398.8035068659504
 31
0.0
  0
LINE
  5
A4A
330
1F
100
AcDbEntity
  8
0
100
AcDbLine
 10
-522.3567557860611
 20
401.8035037854322
 30
0.0
 11
-512.3593033013503
 21
401.8035037797083
 31
0.0
  0
LINE
  5
A4B
330
1F
100
AcDbEntity
  8
0
100
AcDbLine
 10
-417.5589102931862
 20
398.8006225571692
 30
0.0
 11
-417.562702259836
 21
401.8006192548255
 31
0.0
  0
LINE
  5
A4C
330
1F
100
AcDbEntity
  8
0
100
AcDbLine
 10
-417.5589102931862
 20
398.8006225571692
 30
0.0
 11
-417.5627022598363
 21
401.8006192548255
 31
0.0
  0
LINE
  5
A4D
330
1F
100
AcDbEntity
  8
0
100
AcDbLine
 10
-407.5647776757131
 20
401.8006192491013
 30
0.0
 11
-407.5647776757121
 21
398.8006225214602
 31
0.0
  0
LINE
  5
A4E
330
1F
100
AcDbEntity
  8
0
100
AcDbLine
 10
-417.5627022598363
 20
401.8006192548255
 30
0.0
 11
-407.5647776757131
 21
401.8006192491013
 31
0.0
  0
LINE
  5
A52
330
1F
100
AcDbEntity
  8
0
100
AcDbLine
 10
-273.842224222029
 20
398.7977380736245
 30
0.0
 11
-263.8651287566258
 21
398.7970883081754
 31
0.0
  0
LINE
  5
AAE
330
1F
100
AcDbEntity
  8
0
100
AcDbLine
 10
-524.243584978466
 20
1077.851553129475
 30
0.0
 11
-504.2518291450841
 21
1077.851553200906
 31
0.0
  0
LINE
  5
AAF
330
1F
100
AcDbEntity
  8
0
100
AcDbLine
 10
-631.0727409056251
 20
1077.848668777729
 30
0.0
 11
-611.1100649812314
 21
1077.848668849056
 31
0.0
  0
LINE
  5
AB0
330
1F
100
AcDbEntity
  8
0
100
AcDbLine
 10
-735.9028908414749
 20
1077.845784433127
 30
0.0
 11
-715.9086784340352
 21
1077.845784504566
 31
0.0
  0
LINE
  5
AB1
330
1F
100
AcDbEntity
  8
0
100
AcDbLine
 10
-857.9006664637999
 20
1077.845783997227
 30
0.0
 11
-837.908910630418
 21
1077.845784068658
 31
0.0
  0
LINE
  5
AB2
330
1F
100
AcDbEntity
  8
0
100
AcDbLine
 10
-631.09686267525
 20
1074.848672109972
 30
0.0
 11
-621.1079895653552
 21
1074.848672115691
 31
0.0
  0
LINE
  5
AB3
330
1F
100
AcDbEntity
  8
0
100
AcDbLine
 10
-621.1079895653555
 20
1074.848672115691
 30
0.0
 11
-611.1100649812321
 21
1074.848672121415
 31
0.0
  0
LINE
  5
AB4
330
1F
100
AcDbEntity
  8
0
100
AcDbLine
 10
-611.1100649812321
 20
1074.848672121415
 30
0.0
 11
-611.1100649812314
 21
1077.848668849056
 31
0.0
  0
LINE
  5
AB5
330
1F
100
AcDbEntity
  8
0
100
AcDbLine
 10
-631.09686267525
 20
1074.848672109972
 30
0.0
 11
-631.0727409056251
 21
1077.848668777729
 31
0.0
  0
LINE
  5
AB6
330
1F
100
AcDbEntity
  8
0
100
AcDbLine
 10
-735.9023354859033
 20
1074.845787579359
 30
0.0
 11
-725.9020430915803
 21
1074.845787585084
 31
0.0
  0
LINE
  5
AB7
330
1F
100
AcDbEntity
  8
0
100
AcDbLine
 10
-725.9020430915803
 20
1074.845787585084
 30
0.0
 11
-715.9045906068691
 21
1074.845787590808
 31
0.0
  0
LINE
  5
AB8
330
1F
100
AcDbEntity
  8
0
100
AcDbLine
 10
-715.9045906068691
 20
1074.845787590808
 30
0.0
 11
-715.9086784340352
 21
1077.845784504566
 31
0.0
  0
LINE
  5
AB9
330
1F
100
AcDbEntity
  8
0
100
AcDbLine
 10
-837.9006668267418
 20
1074.839051938615
 30
0.0
 11
-837.908910630418
 21
1077.845784068658
 31
0.0
  0
LINE
  5
ABA
330
1F
100
AcDbEntity
  8
0
100
AcDbLine
 10
-847.900666826742
 20
1074.839051938615
 30
0.0
 11
-837.9006668267418
 21
1074.839051938615
 31
0.0
  0
LINE
  5
ABB
330
1F
100
AcDbEntity
  8
0
100
AcDbLine
 10
-857.9006664637999
 20
1074.841746163537
 30
0.0
 11
-857.9006664637999
 21
1077.845783997227
 31
0.0
  0
LINE
  5
ABC
330
1F
100
AcDbEntity
  8
0
100
AcDbLine
 10
-857.9006664637999
 20
1074.841746163537
 30
0.0
 11
-847.900666826742
 21
1074.839051938615
 31
0.0
  0
LINE
  5
ABD
330
1F
100
AcDbEntity
  8
0
100
AcDbLine
 10
-847.900666826742
 20
1074.839051938615
 30
0.0
 11
-857.9006664637999
 21
1074.841746163537
 31
0.0
  0
LINE
  5
ABE
330
1F
100
AcDbEntity
  8
0
100
AcDbLine
 10
-735.9023354859033
 20
1074.845787579359
 30
0.0
 11
-735.9028908414749
 21
1077.845784433127
 31
0.0
  0
LINE
  5
ABF
330
1F
100
AcDbEntity
  8
0
100
AcDbLine
 10
-857.9006664637999
 20
1074.841746163537
 30
0.0
 11
-857.9006664637999
 21
1074.841746163537
 31
0.0
  0
LINE
  5
AC0
330
1F
100
AcDbEntity
  8
0
100
AcDbLine
 10
-857.9006664637999
 20
1074.841746163537
 30
0.0
 11
-857.9006664637999
 21
1074.841746163537
 31
0.0
  0
LINE
  5
AC1
330
1F
100
AcDbEntity
  8
0
100
AcDbLine
 10
-524.243584978466
 20
1074.847515295785
 30
0.0
 11
-524.243584978466
 21
1074.847515295785
 31
0.0
  0
LINE
  5
AC2
330
1F
100
AcDbEntity
  8
0
100
AcDbLine
 10
-524.243584978466
 20
1074.847515295785
 30
0.0
 11
-524.243584978466
 21
1074.847515295785
 31
0.0
  0
LINE
  5
AC3
330
1F
100
AcDbEntity
  8
0
100
AcDbLine
 10
-514.2435853414077
 20
1074.844821070862
 30
0.0
 11
-524.243584978466
 21
1074.847515295785
 31
0.0
  0
LINE
  5
AC4
330
1F
100
AcDbEntity
  8
0
100
AcDbLine
 10
-524.243584978466
 20
1074.847515295785
 30
0.0
 11
-514.2435853414077
 21
1074.844821070862
 31
0.0
  0
LINE
  5
AC5
330
1F
100
AcDbEntity
  8
0
100
AcDbLine
 10
-524.243584978466
 20
1074.847515295785
 30
0.0
 11
-524.243584978466
 21
1077.851553129475
 31
0.0
  0
LINE
  5
AC6
330
1F
100
AcDbEntity
  8
0
100
AcDbLine
 10
-514.2435853414077
 20
1074.844821070862
 30
0.0
 11
-504.243585341408
 21
1074.844821070862
 31
0.0
  0
LINE
  5
AC7
330
1F
100
AcDbEntity
  8
0
100
AcDbLine
 10
-504.243585341408
 20
1074.844821070862
 30
0.0
 11
-504.2518291450841
 21
1077.851553200906
 31
0.0
  0
LINE
  5
AC8
330
1F
100
AcDbEntity
  8
0
100
AcDbLine
 10
-1029.800028132809
 20
1077.845784147776
 30
0.0
 11
-1029.800404564241
 21
1074.848721936987
 31
0.0
  0
LINE
  5
AC9
330
1F
100
AcDbEntity
  8
0
100
AcDbLine
 10
-1050.215450904303
 20
1077.845784167324
 30
0.0
 11
-1050.223049318585
 21
1074.854708540198
 31
0.0
  0
LINE
  5
ACA
330
1F
100
AcDbEntity
  8
0
100
AcDbLine
 10
-1091.678894874318
 20
1077.854654236417
 30
0.0
 11
-1091.676531211787
 21
1074.861618578776
 31
0.0
  0
LINE
  5
ACB
330
1F
100
AcDbEntity
  8
0
100
AcDbLine
 10
-1111.723604579365
 20
1077.85894230183
 30
0.0
 11
-1111.722016964065
 21
1074.864960037047
 31
0.0
  0
LINE
  5
ACC
330
1F
100
AcDbEntity
  8
0
100
AcDbLine
 10
-1151.992223160147
 20
1077.840767641527
 30
0.0
 11
-1151.995929008812
 21
1074.844837357989
 31
0.0
  0
LINE
  5
ACD
330
1F
100
AcDbEntity
  8
0
100
AcDbLine
 10
-1171.691937874725
 20
1077.83187645937
 30
0.0
 11
-1171.69047198188
 21
1074.834997068152
 31
0.0
  0
LINE
  5
ACE
330
1F
100
AcDbEntity
  8
0
100
AcDbLine
 10
-1151.995929008812
 20
1074.844837357989
 30
0.0
 11
-1171.69047198188
 21
1074.834997068152
 31
0.0
  0
LINE
  5
ACF
330
1F
100
AcDbEntity
  8
0
100
AcDbLine
 10
-1151.992223160147
 20
1077.840767641527
 30
0.0
 11
-1171.691937874725
 21
1077.83187645937
 31
0.0
  0
LINE
  5
AD0
330
1F
100
AcDbEntity
  8
0
100
AcDbLine
 10
-1091.676531211787
 20
1074.861618578776
 30
0.0
 11
-1111.722016964065
 21
1074.864960037047
 31
0.0
  0
LINE
  5
AD1
330
1F
100
AcDbEntity
  8
0
100
AcDbLine
 10
-1091.678894874318
 20
1077.854654236417
 30
0.0
 11
-1111.723604579365
 21
1077.85894230183
 31
0.0
  0
LINE
  5
AD2
330
1F
100
AcDbEntity
  8
0
100
AcDbLine
 10
-1029.800404564241
 20
1074.848721936987
 30
0.0
 11
-1050.223049318585
 21
1074.854708540198
 31
0.0
  0
LINE
  5
AD3
330
1F
100
AcDbEntity
  8
0
100
AcDbLine
 10
-1029.800028132809
 20
1077.845784147776
 30
0.0
 11
-1050.215450904303
 21
1077.845784167324
 31
0.0
  0
SPLINE
  5
AD4
330
1F
100
AcDbEntity
  8
0
100
AcDbSpline
210
0.0
220
0.0
230
1.0
 70
     8
 71
     3
 72
    16
 73
    12
 74
    10
 42
0.0000000001
 43
0.0000000001
 44
0.0000000001
 40
0.0
 40
0.0
 40
0.0
 40
0.0
 40
72.86768594444282
 40
93.81306618447402
 40
114.1558063434283
 40
137.519707887504
 40
188.8157429815965
 40
247.8400248518668
 40
304.5000084647128
 40
329.699218048273
 40
343.3628088556951
 40
343.3628088556951
 40
343.3628088556951
 40
343.3628088556951
 10
-1058.544579889824
 20
1131.902157695773
 30
0.0
 10
-1035.534464113236
 20
1124.058422118188
 30
0.0
 10
-1005.910228263241
 20
1113.960051690527
 30
0.0
 10
-968.6562223779842
 20
1105.798990976833
 30
0.0
 10
-947.0569596174126
 20
1104.556709214829
 30
0.0
 10
-915.3379933830143
 20
1108.007355820315
 30
0.0
 10
-873.9341382715634
 20
1125.037994109853
 30
0.0
 10
-820.0443523617757
 20
1141.687267875314
 30
0.0
 10
-776.372231875886
 20
1151.190955434811
 30
0.0
 10
-742.0412502315611
 20
1160.851388169692
 30
0.0
 10
-738.0636188371336
 20
1173.794976801878
 30
0.0
 10
-736.6651419592598
 20
1178.345752784836
 30
0.0
 11
-1058.544579889824
 21
1131.902157695773
 31
0.0
 11
-988.9163190197512
 21
1110.417164256001
 31
0.0
 11
-968.3772983727022
 21
1106.311365398339
 31
0.0
 11
-948.0682763461699
 21
1105.14059577943
 31
0.0
 11
-924.840467820837
 21
1107.658691582161
 31
0.0
 11
-876.0171981168641
 21
1123.393098205466
 31
0.0
 11
-819.6651044357691
 21
1140.951782326385
 31
0.0
 11
-764.6818878414241
 21
1154.633874123596
 31
0.0
 11
-742.0954215058117
 21
1165.807579959461
 31
0.0
 11
-736.6651419592598
 21
1178.345752784836
 31
0.0
  0
ARC
  5
AD5
330
1F
100
AcDbEntity
  8
0
100
AcDbCircle
 10
-430.4148514315464
 20
1076.34578413818
 30
0.0
 40
27.58196450091766
100
AcDbArc
 50
301.256475416629
 51
58.74352458337104
  0
LINE
  5
AD6
330
1F
100
AcDbEntity
  8
0
100
AcDbLine
 10
-427.8310774442831
 20
1074.84578522172
 30
0.0
 11
-416.1034009666113
 21
1052.767252561349
 31
0.0
  0
LINE
  5
AD7
330
1F
100
AcDbEntity
  8
0
100
AcDbLine
 10
-427.8310774442831
 20
1077.845783054639
 30
0.0
 11
-416.1034009666113
 21
1099.92431571501
 31
0.0
  0
LINE
  5
AD8
330
1F
100
AcDbEntity
  8
0
100
AcDbLine
 10
-477.6599333035718
 20
1076.34578413818
 30
0.0
 11
-477.6504760422921
 21
1077.84575432462
 31
0.0
  0
LINE
  5
AD9
330
1F
100
AcDbEntity
  8
0
100
AcDbLine
 10
-427.8310774442831
 20
1077.845783054639
 30
0.0
 11
-477.6504760422921
 21
1077.84575432462
 31
0.0
  0
LINE
  5
ADA
330
1F
100
AcDbEntity
  8
0
100
AcDbLine
 10
-872.5727390520695
 20
1076.34578413818
 30
0.0
 11
-872.572088776519
 21
1077.845783997227
 31
0.0
  0
LINE
  5
ADB
330
1F
100
AcDbEntity
  8
0
100
AcDbLine
 10
-1019.77842393707
 20
1076.34578413818
 30
0.0
 11
-1019.77842393707
 21
1077.84578413818
 31
0.0
  0
LINE
  5
ADC
330
1F
100
AcDbEntity
  8
0
100
AcDbLine
 10
-1019.77842393707
 20
1077.84578413818
 30
0.0
 11
-872.572088776519
 21
1077.845783997227
 31
0.0
  0
SPLINE
  5
ADD
330
1F
100
AcDbEntity
  8
0
100
AcDbSpline
210
0.0
220
0.0
230
1.0
 70
     8
 71
     3
 72
    10
 73
     6
 74
     4
 42
0.0000000001
 43
0.0000000001
 44
0.0000000001
 40
0.0
 40
0.0
 40
0.0
 40
0.0
 40
78.44126241266727
 40
238.5873252375261
 40
398.7832629056139
 40
398.7832629056139
 40
398.7832629056139
 40
398.7832629056139
 10
-856.7720731638742
 20
970.9583909044008
 30
0.0
 10
-830.9436877820889
 20
975.1287509287939
 30
0.0
 10
-752.3839451937414
 20
987.8133382606876
 30
0.0
 10
-619.2142826719198
 20
992.1359300558442
 30
0.0
 10
-512.5016721713099
 20
994.1760209249771
 30
0.0
 10
-459.137059745063
 20
995.1962251729556
 30
0.0
 11
-856.7720731638742
 21
970.9583909044008
 31
0.0
 11
-779.1664918439399
 21
982.3779091467779
 31
0.0
 11
-619.2965126614478
 21
991.7774407570862
 31
0.0
 11
-459.137059745063
 21
995.1962251729556
 31
0.0
  0
ARC
  5
ADE
330
1F
100
AcDbEntity
  8
0
100
AcDbCircle
 10
-928.0135753598944
 20
971.3696464160516
 30
0.0
 40
38.63390724354596
100
AcDbArc
 50
232.7087877648597
 51
310.9231846210014
  0
SPLINE
  5
ADF
330
1F
100
AcDbEntity
  8
0
100
AcDbSpline
210
0.0
220
0.0
230
1.0
 70
     8
 71
     3
 72
    11
 73
     7
 74
     0
 42
0.0000000001
 43
0.0000000001
 40
0.0
 40
0.0
 40
0.0
 40
0.0
 40
15.6346741321671
 40
31.54863207672407
 40
52.29788956027629
 40
55.03175631028324
 40
55.03175631028324
 40
55.03175631028324
 40
55.03175631028324
 10
-902.7065652081917
 20
942.1783116386803
 30
0.0
 10
-898.8467789136437
 20
945.6631454931756
 30
0.0
 10
-891.0582585599662
 20
952.6950631522582
 30
0.0
 10
-878.04689913364
 20
964.5839170740773
 30
0.0
 10
-865.318025063987
 20
968.9050383084005
 30
0.0
 10
-857.6639446098329
 20
970.7520388216163
 30
0.0
 10
-856.7720731638742
 20
970.9583909044008
 30
0.0
  0
SPLINE
  5
AE0
330
1F
100
AcDbEntity
  8
0
100
AcDbSpline
210
0.0
220
0.0
230
1.0
 70
     8
 71
     3
 72
    11
 73
     7
 74
     5
 42
0.0000000001
 43
0.0000000001
 44
0.0000000001
 40
0.0
 40
0.0
 40
0.0
 40
0.0
 40
12.01889051930462
 40
22.24372975945432
 40
34.63758169949934
 40
44.45661790559936
 40
44.45661790559936
 40
44.45661790559936
 40
44.45661790559936
 10
-951.4205611591943
 20
940.6338073239707
 30
0.0
 10
-954.6206615647204
 20
943.0640960201698
 30
0.0
 10
-960.5431856537206
 20
947.5619059393862
 30
0.0
 10
-968.6827186554488
 20
955.6439703892634
 30
0.0
 10
-976.3598550732757
 20
963.799389054192
 30
0.0
 10
-983.6945627844947
 20
965.565330396584
 30
0.0
 10
-986.9368138643082
 20
966.3459511724466
 30
0.0
 11
-951.4205611591943
 21
940.6338073239707
 31
0.0
 11
-960.8178264738215
 21
948.1268129906933
 31
0.0
 11
-968.1807924263036
 21
955.2214637833325
 31
0.0
 11
-977.6160100262982
 21
963.257895500986
 31
0.0
 11
-986.9368138643082
 21
966.3459511724466
 31
0.0
  0
ARC
  5
AE1
330
1F
100
AcDbEntity
  8
0
100
AcDbCircle
 10
-928.0135753598939
 20
1181.321921860309
 30
0.0
 40
20.01343277061876
100
AcDbArc
 50
149.0514695398098
 51
180.0109154961073
  0
SPLINE
  5
AE2
330
1F
100
AcDbEntity
  8
0
100
AcDbSpline
210
0.0
220
0.0
230
1.0
 70
     8
 71
     3
 72
     9
 73
     5
 74
     0
 42
0.0000000001
 43
0.0000000001
 40
13.72571915878599
 40
13.72571915878599
 40
13.72571915878599
 40
13.72571915878599
 40
30.70213110003841
 40
46.23660318263307
 40
46.23660318263307
 40
46.23660318263307
 40
46.23660318263307
 10
-945.1776881048907
 20
1191.614187157176
 30
0.0
 10
-939.6066184637412
 20
1192.658319147523
 30
0.0
 10
-928.9108040555808
 20
1194.320810225356
 30
0.0
 10
-918.0998883042047
 20
1194.539332697388
 30
0.0
 10
-912.9198570306424
 20
1194.464111870398
 30
0.0
  0
ARC
  5
AE3
330
1F
100
AcDbEntity
  8
0
100
AcDbCircle
 10
-928.0135753598939
 20
971.3696464160516
 30
0.0
 40
20.01343277061876
100
AcDbArc
 50
179.9890845038926
 51
359.9615439998851
  0
LINE
  5
AE4
330
1F
100
AcDbEntity
  8
0
100
AcDbLine
 10
-948.0153579266735
 20
970.6868686957315
 30
0.0
 11
-948.0881006314527
 21
1076.34578413818
 31
0.0
  0
LINE
  5
AE5
330
1F
100
AcDbEntity
  8
0
100
AcDbLine
 10
-907.920290269827
 20
1076.356177573376
 30
0.0
 11
-908.000149817413
 21
971.3526370172528
 31
0.0
  0
LINE
  5
AE6
330
1F
100
AcDbEntity
  8
0
100
AcDbLine
 10
-427.8310774442831
 20
1074.84578522172
 30
0.0
 11
-477.6504760422921
 21
1074.84581395174
 31
0.0
  0
LINE
  5
AE7
330
1F
100
AcDbEntity
  8
0
100
AcDbLine
 10
-477.6599333035718
 20
1076.34578413818
 30
0.0
 11
-477.6504760422921
 21
1074.84581395174
 31
0.0
  0
LINE
  5
AE8
330
1F
100
AcDbEntity
  8
0
100
AcDbLine
 10
-1019.77842393707
 20
1074.845784138179
 30
0.0
 11
-872.572088776519
 21
1074.845784279133
 31
0.0
  0
LINE
  5
AE9
330
1F
100
AcDbEntity
  8
0
100
AcDbLine
 10
-1019.77842393707
 20
1076.34578413818
 30
0.0
 11
-1019.77842393707
 21
1074.845784138179
 31
0.0
  0
LINE
  5
AEA
330
1F
100
AcDbEntity
  8
0
100
AcDbLine
 10
-872.5727390520695
 20
1076.34578413818
 30
0.0
 11
-872.572088776519
 21
1074.845784279133
 31
0.0
  0
LINE
  5
AEB
330
1F
100
AcDbEntity
  8
0
100
AcDbLine
 10
-907.920290269827
 20
1076.335390702984
 30
0.0
 11
-908.000149817413
 21
1181.338931259106
 31
0.0
  0
LINE
  5
AEC
330
1F
100
AcDbEntity
  8
0
100
AcDbLine
 10
-948.0153579266735
 20
1182.004699580627
 30
0.0
 11
-948.0881006314527
 21
1076.34578413818
 31
0.0
  0
ARC
  5
AED
330
1F
100
AcDbEntity
  8
0
100
AcDbCircle
 10
-928.0135753598939
 20
1181.321921860309
 30
0.0
 40
20.01343277061876
100
AcDbArc
 50
0.038456000114891
 51
41.04628257319154
  0
SPLINE
  5
AEE
330
1F
100
AcDbEntity
  8
0
100
AcDbSpline
210
0.0
220
0.0
230
1.0
 70
     8
 71
     3
 72
    14
 73
    10
 74
     8
 42
0.0000000001
 43
0.0000000001
 44
0.0000000001
 40
0.0
 40
0.0
 40
0.0
 40
0.0
 40
11.40916467526677
 40
36.67904096982801
 40
66.81806860580633
 40
77.3182683010255
 40
86.17316467128462
 40
92.90351355237921
 40
98.10436499010402
 40
98.10436499010402
 40
98.10436499010402
 40
98.10436499010402
 10
-459.137059745063
 20
995.1962251729556
 30
0.0
 10
-455.3310655620272
 20
995.2465062786027
 30
0.0
 10
-443.0952691173387
 20
995.4081537599506
 30
0.0
 10
-420.988169586774
 20
990.1775385119558
 30
0.0
 10
-401.5300437184981
 20
980.714060128712
 30
0.0
 10
-385.3177780062284
 20
975.2924735691689
 30
0.0
 10
-376.7250840939215
 20
978.043811845767
 30
0.0
 10
-370.4509699136757
 20
980.8989804883195
 30
0.0
 10
-366.5913655579587
 20
981.9067245574807
 30
0.0
 10
-364.9089506855156
 20
982.3460036786844
 30
0.0
 11
-459.137059745063
 21
995.1962251729556
 31
0.0
 11
-447.7287863546006
 21
995.0536178946608
 31
0.0
 11
-423.0097573799254
 21
989.8061180622072
 31
0.0
 11
-395.0094422645724
 21
978.6551835595211
 31
0.0
 11
-384.7683262843801
 21
976.3370513114104
 31
0.0
 11
-376.163919342779
 21
978.4283119148156
 31
0.0
 11
-369.9071212145379
 21
980.9082460356522
 31
0.0
 11
-364.9089506855156
 21
982.3460036786844
 31
0.0
  0
SPLINE
  5
AEF
330
1F
100
AcDbEntity
  8
0
100
AcDbSpline
210
0.0
220
0.0
230
1.0
 70
     8
 71
     3
 72
    12
 73
     8
 74
     6
 42
0.0000000001
 43
0.0000000001
 44
0.0000000001
 40
0.0
 40
0.0
 40
0.0
 40
0.0
 40
2.911042981042002
 40
5.119243248455164
 40
7.131497050297699
 40
71.73317995088725
 40
126.5395048888032
 40
126.5395048888032
 40
126.5395048888032
 40
126.5395048888032
 10
-245.0713774667805
 20
1006.274369804523
 30
0.0
 10
-244.818446676347
 20
1005.370638799853
 30
0.0
 10
-244.373652748643
 20
1003.781373758353
 30
0.0
 10
-244.6803013731482
 20
1000.927177416781
 30
0.0
 10
-270.4331893284408
 20
998.7357803037692
 30
0.0
 10
-307.1698153515011
 20
994.5540131527465
 30
0.0
 10
-346.7447172248196
 20
986.1865380561818
 30
0.0
 10
-364.9089506855156
 20
982.3460036786844
 30
0.0
 11
-245.0713774667805
 21
1006.274369804523
 31
0.0
 11
-244.527592447347
 21
1003.414567522876
 31
0.0
 11
-245.0713774667805
 21
1001.274369804523
 31
0.0
 11
-247.0081939379078
 21
1000.728560936695
 31
0.0
 11
-311.1424367861845
 21
992.9712206794546
 31
0.0
 11
-364.9089506855156
 21
982.3460036786844
 31
0.0
  0
SPLINE
  5
AF2
330
1F
100
AcDbEntity
  8
0
100
AcDbSpline
210
0.0
220
0.0
230
1.0
 70
     8
 71
     3
 72
     9
 73
     5
 74
     3
 42
0.0000000001
 43
0.0000000001
 44
0.0000000001
 40
0.0
 40
0.0
 40
0.0
 40
0.0
 40
68.56666778313654
 40
144.1105125301846
 40
144.1105125301846
 40
144.1105125301846
 40
144.1105125301846
 10
-422.2145020201955
 20
1186.980862544883
 30
0.0
 10
-403.8898897640849
 20
1201.747626419472
 30
0.0
 10
-365.3759973798545
 20
1232.783784062569
 30
0.0
 10
-315.74188886587
 20
1233.184398394627
 30
0.0
 10
-289.7233054752015
 20
1233.394403524531
 30
0.0
 11
-422.2145020201955
 21
1186.980862544883
 31
0.0
 11
-364.7232898122392
 21
1224.345932459748
 31
0.0
 11
-289.7233054752015
 21
1233.394403524531
 31
0.0
  0
LINE
  5
AF3
330
1F
100
AcDbEntity
  8
0
100
AcDbLine
 10
-289.7233054752015
 20
1233.394403524531
 30
0.0
 11
-245.0713774667805
 21
1006.274369804523
 31
0.0
  0
LINE
  5
AF4
330
1F
100
AcDbEntity
  8
0
100
AcDbLine
 10
-364.9248479707356
 20
1000.345996658581
 30
0.0
 11
-364.9089506855156
 21
982.3460036786844
 31
0.0
  0
ARC
  5
AF5
330
1F
100
AcDbEntity
  8
0
100
AcDbCircle
 10
-1171.745135267157
 20
1076.333100509083
 30
0.0
 40
14.99998755725375
100
AcDbArc
 50
127.3487146916075
 51
238.0701417135724
  0
SPLINE
  5
AF6
330
1F
100
AcDbEntity
  8
0
100
AcDbSpline
210
0.0
220
0.0
230
1.0
 70
     8
 71
     3
 72
     9
 73
     5
 74
     3
 42
0.0000000001
 43
0.0000000001
 44
0.0000000001
 40
0.0
 40
0.0
 40
0.0
 40
0.0
 40
19.93414964285406
 40
46.4846876081492
 40
46.4846876081492
 40
46.4846876081492
 40
46.4846876081492
 10
-1136.608252621704
 20
1046.346096339545
 30
0.0
 10
-1142.998392721572
 20
1048.214851494586
 30
0.0
 10
-1157.899638655638
 20
1052.572624520001
 30
0.0
 10
-1171.761115379316
 20
1059.592910030589
 30
0.0
 10
-1179.678338941394
 20
1063.60266822338
 30
0.0
 11
-1136.608252621704
 21
1046.346096339545
 31
0.0
 11
-1155.587462064387
 21
1052.441990934637
 31
0.0
 11
-1179.678338941394
 21
1063.60266822338
 31
0.0
  0
SPLINE
  5
AF7
330
1F
100
AcDbEntity
  8
0
100
AcDbSpline
210
0.0
220
0.0
230
1.0
 70
     8
 71
     3
 72
     9
 73
     5
 74
     3
 42
0.0000000001
 43
0.0000000001
 44
0.0000000001
 40
0.0
 40
0.0
 40
0.0
 40
0.0
 40
19.12204811656248
 40
49.87585303501179
 40
49.87585303501179
 40
49.87585303501179
 40
49.87585303501179
 10
-1136.745117461924
 20
1111.34578413818
 30
0.0
 10
-1142.679395190446
 20
1108.986575831611
 30
0.0
 10
-1158.157714356496
 20
1102.833075638529
 30
0.0
 10
-1172.191663101821
 20
1093.816898726049
 30
0.0
 10
-1180.845095488156
 20
1088.257460059768
 30
0.0
 11
-1136.745117461924
 21
1111.34578413818
 31
0.0
 11
-1154.335642468103
 21
1103.847374028089
 31
0.0
 11
-1180.845095488156
 21
1088.257460059768
 31
0.0
  0
LINE
  5
AF8
330
1F
100
AcDbEntity
  8
0
100
AcDbLine
 10
-736.6651419592598
 20
1178.345752784836
 30
0.0
 11
-524.967937324828
 21
1147.274207850656
 31
0.0
  0
SPLINE
  5
AF9
330
1F
100
AcDbEntity
  8
0
100
AcDbSpline
210
0.0
220
0.0
230
1.0
 70
     8
 71
     3
 72
    10
 73
     6
 74
     4
 42
0.0000000001
 43
0.0000000001
 44
0.0000000001
 40
0.0
 40
0.0
 40
0.0
 40
0.0
 40
24.06625202617368
 40
47.80429976470633
 40
84.77521156057219
 40
84.77521156057219
 40
84.77521156057219
 40
84.77521156057219
 10
-524.967937324828
 20
1147.274207850656
 30
0.0
 10
-517.014438299313
 20
1146.757737921385
 30
0.0
 10
-501.2159063475776
 20
1145.731841438148
 30
0.0
 10
-472.0366007953572
 20
1145.095844316713
 30
0.0
 10
-455.3888853858847
 20
1157.939863463354
 30
0.0
 10
-445.2506582983731
 20
1165.761692442416
 30
0.0
 11
-524.967937324828
 21
1147.274207850656
 31
0.0
 11
-500.9413006634359
 21
1145.893911748816
 31
0.0
 11
-477.2407988793355
 21
1147.228499932005
 31
0.0
 11
-445.2506582983731
 21
1165.761692442416
 31
0.0
  0
LINE
  5
AFA
330
1F
100
AcDbEntity
  8
0
100
AcDbLine
 10
-445.2506582983732
 20
1165.761692442416
 30
0.0
 11
-422.2145020201955
 21
1186.980862544883
 31
0.0
  0
LINE
  5
AFB
330
1F
100
AcDbEntity
  8
0
100
AcDbLine
 10
-364.8476363406912
 20
1158.34563399328
 30
0.0
 11
-422.2145020201955
 21
1186.980862544883
 31
0.0
  0
LINE
  5
AFC
330
1F
100
AcDbEntity
  8
0
100
AcDbLine
 10
-364.7451174619245
 20
1123.345784138179
 30
0.0
 11
-364.8476363406912
 21
1158.34563399328
 31
0.0
  0
SPLINE
  5
AFD
330
1F
100
AcDbEntity
  8
0
100
AcDbSpline
210
0.0
220
0.0
230
1.0
 70
     8
 71
     3
 72
    12
 73
     8
 74
     6
 42
0.0000000001
 43
0.0000000001
 44
0.0000000001
 40
0.0
 40
0.0
 40
0.0
 40
0.0
 40
9.525674788125327
 40
22.71852256555951
 40
33.99789002588059
 40
44.4818613964815
 40
54.43657068700248
 40
54.43657068700248
 40
54.43657068700248
 40
54.43657068700248
 10
-1136.608252621704
 20
1046.346096339545
 30
0.0
 10
-1133.7293508441
 20
1045.043062076834
 30
0.0
 10
-1126.863234117121
 20
1041.935354333336
 30
0.0
 10
-1119.419400955773
 20
1030.833808606277
 30
0.0
 10
-1124.774145902251
 20
1019.812621207593
 30
0.0
 10
-1127.968087849498
 20
1008.934687050432
 30
0.0
 10
-1123.734351218047
 20
1003.120720975916
 30
0.0
 10
-1121.672299460524
 20
1000.289014612068
 30
0.0
 11
-1136.608252621704
 21
1046.346096339545
 31
0.0
 11
-1128.304152756355
 21
1041.679148129479
 31
0.0
 11
-1121.647137617631
 21
1030.289004060094
 31
0.0
 11
-1124.589162430197
 21
1019.400082152614
 31
0.0
 11
-1126.365896934012
 21
1009.067760525674
 31
0.0
 11
-1121.672299460524
 21
1000.289014612068
 31
0.0
  0
SPLINE
  5
AFE
330
1F
100
AcDbEntity
  8
0
100
AcDbSpline
210
0.0
220
0.0
230
1.0
 70
     8
 71
     3
 72
    12
 73
     8
 74
     6
 42
0.0000000001
 43
0.0000000001
 44
0.0000000001
 40
0.0
 40
0.0
 40
0.0
 40
0.0
 40
50.7005011734823
 40
75.55136348727214
 40
101.2358050452452
 40
121.7542954338734
 40
142.0367993747277
 40
142.0367993747277
 40
142.0367993747277
 40
142.0367993747277
 10
-986.9368138643082
 20
966.3459511724466
 30
0.0
 10
-1003.566526433739
 20
969.2987792421982
 30
0.0
 10
-1028.347296444729
 20
973.6989366696342
 30
0.0
 10
-1062.076818492064
 20
977.0410656120553
 30
0.0
 10
-1085.007406989251
 20
981.3186843168235
 30
0.0
 10
-1108.175985967456
 20
984.0014553772745
 30
0.0
 10
-1117.190908588006
 20
994.8808030046617
 30
0.0
 10
-1121.672299460524
 20
1000.289014612068
 30
0.0
 11
-986.9368138643082
 21
966.3459511724466
 31
0.0
 11
-1037.002154270222
 21
974.3461080010508
 31
0.0
 11
-1061.671307797278
 21
977.3458116526615
 31
0.0
 11
-1087.042295943821
 21
981.3462489553698
 31
0.0
 11
-1106.942319492606
 21
986.3460000077761
 31
0.0
 11
-1121.672299460524
 21
1000.289014612068
 31
0.0
  0
LINE
  5
AFF
330
1F
100
AcDbEntity
  8
0
100
AcDbLine
 10
-364.7451174619245
 20
1076.34578413818
 30
0.0
 11
-364.9248479707356
 21
1000.345996658581
 31
0.0
  0
SPLINE
  5
B00
330
1F
100
AcDbEntity
  8
0
100
AcDbSpline
210
0.0
220
0.0
230
1.0
 70
     8
 71
     3
 72
     9
 73
     5
 74
     3
 42
0.0000000001
 43
0.0000000001
 44
0.0000000001
 40
0.0
 40
0.0
 40
0.0
 40
0.0
 40
6.746438222263801
 40
11.75877316303773
 40
11.75877316303773
 40
11.75877316303773
 40
11.75877316303773
 10
-1069.413504644449
 20
1127.48891303926
 30
0.0
 10
-1067.248544684263
 20
1128.126456545801
 30
0.0
 10
-1063.475105687241
 20
1129.237669489284
 30
0.0
 10
-1060.018152570759
 20
1131.105829435648
 30
0.0
 10
-1058.544579889824
 20
1131.902157695773
 30
0.0
 11
-1069.413504644449
 21
1127.48891303926
 31
0.0
 11
-1063.022803578161
 21
1129.650710570984
 31
0.0
 11
-1058.544579889824
 21
1131.902157695773
 31
0.0
  0
SPLINE
  5
B01
330
1F
100
AcDbEntity
  8
0
100
AcDbSpline
210
0.0
220
0.0
230
1.0
 70
     8
 71
     3
 72
    12
 73
     8
 74
     6
 42
0.0000000001
 43
0.0000000001
 44
0.0000000001
 40
0.0
 40
0.0
 40
0.0
 40
0.0
 40
101.0977681450192
 40
151.7109957644527
 40
201.7109957644528
 40
311.7319331484107
 40
343.0595576270636
 40
343.0595576270636
 40
343.0595576270636
 40
343.0595576270636
 10
-736.6651419592598
 20
1178.345752784836
 30
0.0
 10
-769.9016729700181
 20
1183.947172625235
 30
0.0
 10
-819.7776228343641
 20
1192.35286740242
 30
0.0
 10
-886.4329677579778
 20
1201.120103264694
 30
0.0
 10
-956.9429228802043
 20
1203.64884175018
 30
0.0
 10
-1019.701806977019
 20
1174.316007088344
 30
0.0
 10
-1051.497564147207
 20
1139.59705283226
 30
0.0
 10
-1058.544579889824
 20
1131.902157695773
 30
0.0
 11
-736.6651419592598
 21
1178.345752784836
 31
0.0
 11
-836.4888196488298
 21
1194.345505796458
 31
0.0
 11
-886.7451174619244
 21
1200.345784138179
 31
0.0
 11
-936.7451174619244
 21
1200.345784138179
 31
0.0
 11
-1036.688124957552
 21
1154.34576331673
 31
0.0
 11
-1058.544579889824
 21
1131.902157695773
 31
0.0
  0
SPLINE
  5
B02
330
1F
100
AcDbEntity
  8
0
100
AcDbSpline
210
0.0
220
0.0
230
1.0
 70
     8
 71
     3
 72
     9
 73
     5
 74
     3
 42
0.0000000001
 43
0.0000000001
 44
0.0000000001
 40
0.0
 40
0.0
 40
0.0
 40
0.0
 40
31.63717541852384
 40
69.43737587151779
 40
69.43737587151779
 40
69.43737587151779
 40
69.43737587151779
 10
-1136.745117461924
 20
1111.34578413818
 30
0.0
 10
-1126.814668054243
 20
1114.994246179618
 30
0.0
 10
-1105.01928528153
 20
1123.001902576654
 30
0.0
 10
-1081.964195283838
 20
1125.907285584272
 30
0.0
 10
-1069.413504644446
 20
1127.48891303926
 30
0.0
 11
-1136.745117461924
 21
1111.34578413818
 31
0.0
 11
-1106.692265185175
 21
1121.231983534023
 31
0.0
 11
-1069.413504644446
 21
1127.48891303926
 31
0.0
  0
LINE
  5
B03
330
1F
100
AcDbEntity
  8
0
100
AcDbLine
 10
-364.7451174619245
 20
1076.34578413818
 30
0.0
 11
-364.7451174619245
 21
1123.345784138179
 31
0.0
  0
LINE
  5
B92
330
1F
100
AcDbEntity
  8
0
100
AcDbLine
 10
-748.3010155410807
 20
847.4839860230982
 30
0.0
 11
-748.4491358601071
 21
700.4853906957017
 31
0.0
  0
LINE
  5
BB9
330
1F
100
AcDbEntity
  8
0
100
AcDbLine
 10
-748.4263870409385
 20
700.4840874157062
 30
0.0
 11
-400.9600425164512
 21
719.7500747511845
 31
0.0
  0
LINE
  5
BBA
330
1F
100
AcDbEntity
  8
0
100
AcDbLine
 10
-424.0771622841212
 20
833.5935785150569
 30
0.0
 11
-484.7098554099538
 21
853.854900877498
 31
0.0
  0
LINE
  5
BBB
330
1F
100
AcDbEntity
  8
0
100
AcDbLine
 10
-424.0771622841212
 20
833.5935785150569
 30
0.0
 11
-425.3013602918572
 21
823.6687944248185
 31
0.0
  0
LINE
  5
BBC
330
1F
100
AcDbEntity
  8
0
100
AcDbLine
 10
-425.3013602918572
 20
823.6687944248185
 30
0.0
 11
-422.3203152640976
 21
823.3320890009368
 31
0.0
  0
LINE
  5
BBD
330
1F
100
AcDbEntity
  8
0
100
AcDbLine
 10
-421.1752318497913
 20
832.6238550049811
 30
0.0
 11
-422.3203152640976
 21
823.3320890009368
 31
0.0
  0
LINE
  5
BBE
330
1F
100
AcDbEntity
  8
0
100
AcDbLine
 10
-433.4767791158038
 20
754.1495369777057
 30
0.0
 11
-430.4975328001432
 21
753.7972708984117
 31
0.0
  0
LINE
  5
BBF
330
1F
100
AcDbEntity
  8
0
100
AcDbLine
 10
-432.3640120498771
 20
764.0874315966375
 30
0.0
 11
-429.3784643213874
 21
763.7933146795622
 31
0.0
  0
LINE
  5
BC0
330
1F
100
AcDbEntity
  8
0
100
AcDbLine
 10
-429.3784643213874
 20
763.7933146795622
 30
0.0
 11
-430.4975328001432
 21
753.7972708984117
 31
0.0
  0
LINE
  5
BC1
330
1F
100
AcDbEntity
  8
0
100
AcDbLine
 10
-432.3640120498771
 20
764.0874315966375
 30
0.0
 11
-433.4767791158038
 21
754.1495369777057
 31
0.0
  0
LINE
  5
BC2
330
1F
100
AcDbEntity
  8
0
100
AcDbLine
 10
-495.8986356100389
 20
785.3184774691547
 30
0.0
 11
-497.011402675966
 21
775.3805828502237
 31
0.0
  0
LINE
  5
BC3
330
1F
100
AcDbEntity
  8
0
100
AcDbLine
 10
-492.9130878815499
 20
785.0243605520796
 30
0.0
 11
-494.0321563603052
 21
775.0283167709282
 31
0.0
  0
LINE
  5
BC4
330
1F
100
AcDbEntity
  8
0
100
AcDbLine
 10
-495.8986356100389
 20
785.3184774691547
 30
0.0
 11
-492.9130878815499
 21
785.0243605520796
 31
0.0
  0
LINE
  5
BC5
330
1F
100
AcDbEntity
  8
0
100
AcDbLine
 10
-497.011402675966
 20
775.3805828502237
 30
0.0
 11
-494.0321563603052
 21
775.0283167709282
 31
0.0
  0
LINE
  5
BC6
330
1F
100
AcDbEntity
  8
0
100
AcDbLine
 10
-484.7098554099538
 20
853.854900877498
 30
0.0
 11
-485.8549388242604
 21
844.5631348734542
 31
0.0
  0
LINE
  5
BC7
330
1F
100
AcDbEntity
  8
0
100
AcDbLine
 10
-488.8359838520194
 20
844.8998402973352
 30
0.0
 11
-485.8549388242604
 21
844.5631348734542
 31
0.0
  0
LINE
  5
BC8
330
1F
100
AcDbEntity
  8
0
100
AcDbLine
 10
-487.6117858442835
 20
854.8246243875748
 30
0.0
 11
-488.8359838520194
 21
844.8998402973352
 31
0.0
  0
LINE
  5
BC9
330
1F
100
AcDbEntity
  8
0
100
AcDbLine
 10
-393.3892670343389
 20
772.8736231969127
 30
0.0
 11
-370.88470310395
 21
788.7979892143404
 31
0.0
  0
LINE
  5
BCA
330
1F
100
AcDbEntity
  8
0
100
AcDbLine
 10
-400.9600425164512
 20
719.7500747511845
 30
0.0
 11
-393.3892670343389
 21
772.8736231969127
 31
0.0
  0
LINE
  5
BCB
330
1F
100
AcDbEntity
  8
0
100
AcDbLine
 10
-532.2056657245196
 20
809.2966136138961
 30
0.0
 11
-665.6992794465883
 21
823.1752895514096
 31
0.0
  0
LINE
  5
BCC
330
1F
100
AcDbEntity
  8
0
100
AcDbLine
 10
-487.6117858442835
 20
854.8246243875748
 30
0.0
 11
-515.817553719792
 21
818.3991757316917
 31
0.0
  0
SPLINE
  5
BCD
330
1F
100
AcDbEntity
  8
0
100
AcDbSpline
210
0.0
220
0.0
230
1.0
 70
     8
 71
     3
 72
     9
 73
     5
 74
     3
 42
0.0000000001
 43
0.0000000001
 44
0.0000000001
 40
0.0
 40
0.0
 40
0.0
 40
0.0
 40
10.63719514428014
 40
18.96283925976971
 40
18.96283925976971
 40
18.96283925976971
 40
18.96283925976971
 10
-515.817553719792
 20
818.3991757316917
 30
0.0
 10
-518.5185098691544
 20
816.0131330084853
 30
0.0
 10
-523.3334819189608
 20
811.7595545027416
 30
0.0
 10
-529.4987859072534
 20
810.0480503660246
 30
0.0
 10
-532.2056657245196
 20
809.2966136138961
 30
0.0
 11
-515.817553719792
 21
818.3991757316917
 31
0.0
 11
-524.345323473618
 21
812.0409477109907
 31
0.0
 11
-532.2056657245196
 21
809.2966136138961
 31
0.0
  0
SPLINE
  5
BCE
330
1F
100
AcDbEntity
  8
0
100
AcDbSpline
210
0.0
220
0.0
230
1.0
 70
     8
 71
     3
 72
     9
 73
     5
 74
     3
 42
0.0000000001
 43
0.0000000001
 44
0.0000000001
 40
0.0
 40
0.0
 40
0.0
 40
0.0
 40
13.37328677782929
 40
25.41006956619079
 40
25.41006956619079
 40
25.41006956619079
 40
25.41006956619079
 10
-665.6992794465883
 20
823.1752895514096
 30
0.0
 10
-670.0256921690123
 20
824.9001898761767
 30
0.0
 10
-678.2461431378123
 20
828.1776068623837
 30
0.0
 10
-681.8076527014044
 20
836.2307121086992
 30
0.0
 10
-683.4947443838557
 20
840.0454784700901
 30
0.0
 11
-665.6992794465883
 21
823.1752895514096
 31
0.0
 11
-677.3880358973574
 21
829.6728099920597
 31
0.0
 11
-683.4947443838557
 21
840.0454784700901
 31
0.0
  0
LINE
  5
BCF
330
1F
100
AcDbEntity
  8
0
100
AcDbLine
 10
-748.2968262844138
 20
847.4839840990684
 30
0.0
 11
-683.4947443838557
 21
840.0454784700901
 31
0.0
  0
SPLINE
  5
BD0
330
1F
100
AcDbEntity
  8
0
100
AcDbSpline
210
0.0
220
0.0
230
1.0
 70
     8
 71
     3
 72
    10
 73
     6
 74
     4
 42
0.0000000001
 43
0.0000000001
 44
0.0000000001
 40
0.0
 40
0.0
 40
0.0
 40
0.0
 40
74.20342106590282
 40
156.5840591129158
 40
207.9899280379629
 40
207.9899280379629
 40
207.9899280379629
 40
207.9899280379629
 10
-305.6727083874144
 20
653.218026009657
 30
0.0
 10
-312.4131781128543
 20
677.0179888717372
 30
0.0
 10
-326.6369173256292
 20
727.2406704967712
 30
0.0
 10
-364.285942469607
 20
788.154036255583
 30
0.0
 10
-400.4331566356734
 20
814.6396449051273
 30
0.0
 10
-414.3222923600592
 20
824.8164239948369
 30
0.0
 11
-305.6727083874144
 21
653.218026009657
 31
0.0
 11
-329.0650803226971
 21
723.6378004563638
 31
0.0
 11
-374.4162207731497
 21
792.4116587520585
 31
0.0
 11
-414.3222923600592
 21
824.8164239948369
 31
0.0
  0
LINE
  5
BD1
330
1F
100
AcDbEntity
  8
0
100
AcDbLine
 10
-421.1752318497913
 20
832.6238550049811
 30
0.0
 11
-414.3222923600592
 21
824.8164239948369
 31
0.0
  0
LINE
  5
BD2
330
1F
100
AcDbEntity
  8
0
100
AcDbLine
 10
-693.0996463661862
 20
608.4925553202078
 30
0.0
 11
-305.6727083874144
 21
653.218026009657
 31
0.0
  0
LINE
  5
BD3
330
1F
100
AcDbEntity
  8
0
100
AcDbLine
 10
-333.4840952751697
 20
650.0074145442527
 30
0.0
 11
-693.0996463661862
 21
608.4925553202078
 31
0.0
  0
LINE
  5
BD4
330
1F
100
AcDbEntity
  8
0
100
AcDbLine
 10
-692.9905209286721
 20
703.4924926446019
 30
0.0
 11
-693.0996463661862
 21
608.4925553202078
 31
0.0
  0
LINE
  5
BD5
330
1F
100
AcDbEntity
  8
0
100
AcDbLine
 10
-748.3861829323805
 20
735.4840643246937
 30
0.0
 11
-398.702737321612
 21
735.5894114424041
 31
0.0
  0
LINE
  5
BD6
330
1F
100
AcDbEntity
  8
0
100
AcDbLine
 10
-748.3861829323805
 20
735.4840643246937
 30
0.0
 11
-623.3861886048887
 21
735.5217223530662
 31
0.0
  0
LINE
  5
BD7
330
1F
100
AcDbEntity
  8
0
100
AcDbLine
 10
-642.6984704538254
 20
775.5305962611347
 30
0.0
 11
-748.357341343611
 21
775.6518656764455
 31
0.0
  0
ARC
  5
BD8
330
1F
100
AcDbEntity
  8
0
100
AcDbCircle
 10
-643.3904344624347
 20
755.5291293880562
 30
0.0
 40
20.01343277061876
100
AcDbArc
 50
270.012141360855
 51
89.98460085684552
  0
LINE
  5
C60
330
1F
100
AcDbEntity
  8
0
100
AcDbLine
 10
-693.1765036838172
 20
798.8611368372582
 30
0.0
 11
-696.1759475086688
 21
798.9189013727699
 31
0.0
  0
LINE
  5
D22
330
1F
100
AcDbEntity
  8
0
100
AcDbLine
 10
65.13895463071571
 20
625.1867802842988
 30
0.0
 11
68.11999965847485
 21
624.8500748604177
 31
0.0
  0
LINE
  5
D2D
330
1F
100
AcDbEntity
  8
0
100
AcDbLine
 10
-139.2015652010823
 20
579.1480768242222
 30
0.0
 11
-142.2010090259332
 21
579.2058413597337
 31
0.0
  0
LINE
  5
D30
330
1F
100
AcDbEntity
  8
0
100
AcDbLine
 10
-121.0396582906726
 20
629.5375526082851
 30
0.0
 11
18.20603491678571
 21
615.0608611933364
 31
0.0
  0
SPLINE
  5
D32
330
1F
100
AcDbEntity
  8
0
100
AcDbSpline
210
0.0
220
0.0
230
1.0
 70
     8
 71
     3
 72
    11
 73
     7
 74
     5
 42
0.0000000001
 43
0.0000000001
 44
0.0000000001
 40
0.0
 40
0.0
 40
0.0
 40
0.0
 40
5.713554845348645
 40
11.07171000729983
 40
25.4062462514254
 40
53.59334613365989
 40
53.59334613365989
 40
53.59334613365989
 40
53.59334613365989
 10
18.20603491678571
 20
615.0608611933364
 30
0.0
 10
20.10334879294838
 20
614.8890580508505
 30
0.0
 10
23.77995811906699
 20
614.5561384196517
 30
0.0
 10
32.29234485751199
 20
614.9357327437662
 30
0.0
 10
47.4278891611537
 20
621.0393793330645
 30
0.0
 10
58.81486096956727
 20
629.5018744307513
 30
0.0
 10
66.36315263845175
 20
635.1115643745384
 30
0.0
 11
18.20603491678571
 21
615.0608611933364
 31
0.0
 11
23.90675871177041
 21
614.6781639447152
 31
0.0
 11
29.25719408625696
 21
614.9656844535265
 31
0.0
 11
42.81536555330854
 21
619.619168718481
 31
0.0
 11
66.36315263845175
 21
635.1115643745384
 31
0.0
  0
SPLINE
  5
D34
330
1F
100
AcDbEntity
  8
0
100
AcDbSpline
210
0.0
220
0.0
230
1.0
 70
     8
 71
     3
 72
    12
 73
     8
 74
     6
 42
0.0000000001
 43
0.0000000001
 44
0.0000000001
 40
0.0
 40
0.0
 40
0.0
 40
0.0
 40
6.400609840753928
 40
13.89888168789954
 40
22.85902303952287
 40
32.99461513190273
 40
44.88767472432808
 40
44.88767472432808
 40
44.88767472432808
 40
44.88767472432808
 10
24.08680806279927
 20
574.2868400407616
 30
0.0
 10
26.22051851570825
 20
574.1411793261557
 30
0.0
 10
30.85385656927775
 20
573.8248780534251
 30
0.0
 10
38.20399925534406
 20
571.5605902130422
 30
0.0
 10
45.96720962328308
 20
567.0342287806135
 30
0.0
 10
52.63361768796494
 20
558.7640642180356
 30
0.0
 10
54.84906865455061
 20
551.7126378986762
 30
0.0
 10
56.04516956652219
 20
547.9056398750258
 30
0.0
 11
24.08680806279927
 21
574.2868400407616
 31
0.0
 11
30.45310455196841
 21
573.6249674355357
 31
0.0
 11
37.63273843280583
 21
571.4623444839262
 31
0.0
 11
45.30121804668191
 21
566.8278484538667
 31
0.0
 11
51.72133512714822
 21
558.9848691898231
 31
0.0
 11
56.04516956652219
 21
547.9056398750258
 31
0.0
  0
SPLINE
  5
D35
330
1F
100
AcDbEntity
  8
0
100
AcDbSpline
210
0.0
220
0.0
230
1.0
 70
     8
 71
     3
 72
    11
 73
     7
 74
     5
 42
0.0000000001
 43
0.0000000001
 44
0.0000000001
 40
0.0
 40
0.0
 40
0.0
 40
0.0
 40
8.43488635622743
 40
15.15440574749324
 40
22.53252079039461
 40
28.86342651650171
 40
28.86342651650171
 40
28.86342651650171
 40
28.86342651650171
 10
-121.0396582906726
 20
629.5375526082851
 30
0.0
 10
-123.7899732547343
 20
630.070766013989
 30
0.0
 10
-128.7312833256189
 20
631.0287554828184
 30
0.0
 10
-135.6495806047482
 20
634.9969079478665
 30
0.0
 10
-137.7486606337134
 20
641.8623954932977
 30
0.0
 10
-138.742571409499
 20
646.2785496811328
 30
0.0
 10
-139.2015652010823
 20
648.3179554349224
 30
0.0
 11
-121.0396582906726
 21
629.5375526082851
 31
0.0
 11
-129.2012692723303
 21
631.6672037596609
 31
0.0
 11
-134.7930873591551
 21
635.3932621775411
 31
0.0
 11
-137.7361380805425
 21
642.1589871230017
 31
0.0
 11
-139.2015652010823
 21
648.3179554349224
 31
0.0
  0
SPLINE
  5
D36
330
1F
100
AcDbEntity
  8
0
100
AcDbSpline
210
0.0
220
0.0
230
1.0
 70
     8
 71
     3
 72
    10
 73
     6
 74
     4
 42
0.0000000001
 43
0.0000000001
 44
0.0000000001
 40
0.0
 40
0.0
 40
0.0
 40
0.0
 40
4.653672875444314
 40
9.538639330901634
 40
19.39964022681708
 40
19.39964022681708
 40
19.39964022681708
 40
19.39964022681708
 10
-125.8501625454196
 20
589.8750511027265
 30
0.0
 10
-127.3951917547126
 20
589.983642913769
 30
0.0
 10
-130.5620401296636
 20
590.2062236897598
 30
0.0
 10
-137.1615638852618
 20
587.8753080557197
 30
0.0
 10
-138.3840547056481
 20
582.6454290428216
 30
0.0
 10
-139.2015652010823
 20
579.1480768242222
 30
0.0
 11
-125.8501625454196
 21
589.8750511027265
 31
0.0
 11
-130.5038354208639
 21
589.8750511027265
 31
0.0
 11
-135.0524221235112
 21
588.093687501593
 31
0.0
 11
-139.2015652010823
 21
579.1480768242222
 31
0.0
  0
LINE
  5
D38
330
1F
100
AcDbEntity
  8
0
100
AcDbLine
 10
-139.2015652010823
 20
648.3179554347222
 30
0.0
 11
-142.2014767559565
 21
648.3179554347222
 31
0.0
  0
LINE
  5
D6B
330
1F
100
AcDbEntity
  8
0
100
AcDbLine
 10
-269.2311522288874
 20
800.5692248369612
 30
0.0
 11
-272.2310637837615
 21
800.5692248369612
 31
0.0
  0
LINE
  5
D76
330
1F
100
AcDbEntity
  8
0
100
AcDbLine
 10
-269.2311522288874
 20
731.3993462264614
 30
0.0
 11
-272.2305960537383
 21
731.4571107619728
 31
0.0
  0
LINE
  5
D89
330
1F
100
AcDbEntity
  8
0
100
AcDbLine
 10
-287.2310630778031
 20
800.5646227990283
 30
0.0
 11
-290.2310630778032
 21
800.5646227990283
 31
0.0
  0
LINE
  5
D8C
330
1F
100
AcDbEntity
  8
0
100
AcDbLine
 10
-287.2305960537383
 20
731.4571107619728
 30
0.0
 11
-290.2305960537383
 21
731.4571107619728
 31
0.0
  0
LINE
  5
D8D
330
1F
100
AcDbEntity
  8
0
100
AcDbLine
 10
-272.2305960537383
 20
708.1301841443545
 30
0.0
 11
-290.2305960537383
 21
731.4571107619728
 31
0.0
  0
LINE
  5
D8E
330
1F
100
AcDbEntity
  8
0
100
AcDbLine
 10
-272.2311522288874
 20
813.6379382449911
 30
0.0
 11
-290.2310630778032
 21
800.5646227990283
 31
0.0
  0
LINE
  5
D90
330
1F
100
AcDbEntity
  8
0
100
AcDbLine
 10
-272.2307190196473
 20
721.4571107619727
 30
0.0
 11
-269.2311522288874
 21
721.4571107619727
 31
0.0
  0
LINE
  5
D96
330
1F
100
AcDbEntity
  8
0
100
AcDbLine
 10
-290.2307962535251
 20
761.0815138999255
 30
0.0
 11
-287.2307962535251
 21
761.0815138999255
 31
0.0
  0
LINE
  5
D97
330
1F
100
AcDbEntity
  8
0
100
AcDbLine
 10
-290.2308638328737
 20
771.0815138999255
 30
0.0
 11
-287.2308638328736
 21
771.0815138999255
 31
0.0
  0
LINE
  5
D99
330
1F
100
AcDbEntity
  8
0
100
AcDbLine
 10
-269.2311522288874
 20
731.3993462264614
 30
0.0
 11
-269.2311522288874
 21
721.4571107619727
 31
0.0
  0
LINE
  5
D9B
330
1F
100
AcDbEntity
  8
0
100
AcDbLine
 10
-290.2308638328737
 20
771.0815138999255
 30
0.0
 11
-290.2307962535251
 21
761.0815138999255
 31
0.0
  0
LINE
  5
DA0
330
1F
100
AcDbEntity
  8
0
100
AcDbLine
 10
-272.2305960537383
 20
708.1301841443545
 30
0.0
 11
-272.2305960537383
 21
721.4571107619727
 31
0.0
  0
LINE
  5
DA1
330
1F
100
AcDbEntity
  8
0
100
AcDbLine
 10
-287.2310630778031
 20
800.5646227990283
 30
0.0
 11
-287.2308638328736
 21
771.0815138999255
 31
0.0
  0
LINE
  5
DA2
330
1F
100
AcDbEntity
  8
0
100
AcDbLine
 10
-287.2307962535251
 20
761.0815138999255
 30
0.0
 11
-287.2305960537383
 21
731.4571107619728
 31
0.0
  0
LINE
  5
DC6
330
1F
100
AcDbEntity
  8
0
100
AcDbLine
 10
-693.1765036838172
 20
798.8611368374588
 30
0.0
 11
-693.1765036838172
 21
788.9189013729702
 31
0.0
  0
LINE
  5
DCA
330
1F
100
AcDbEntity
  8
0
100
AcDbLine
 10
-696.1760704745775
 20
788.9189013729702
 30
0.0
 11
-693.1765036838172
 21
788.9189013729702
 31
0.0
  0
LINE
  5
DCF
330
1F
100
AcDbEntity
  8
0
100
AcDbLine
 10
-693.1765036838172
 20
798.8611368374588
 30
0.0
 11
-696.1759475086688
 21
798.9189013729705
 31
0.0
  0
LINE
  5
DF8
330
1F
100
AcDbEntity
  8
0
100
AcDbLine
 10
-142.2012775110272
 20
618.8348465356191
 30
0.0
 11
-139.201277511027
 21
618.8348465356192
 31
0.0
  0
LINE
  5
DF9
330
1F
100
AcDbEntity
  8
0
100
AcDbLine
 10
-142.2012099316785
 20
608.8348465356191
 30
0.0
 11
-139.2012099316785
 21
608.8348465356191
 31
0.0
  0
LINE
  5
DFD
330
1F
100
AcDbEntity
  8
0
100
AcDbLine
 10
-139.2010097318916
 20
579.2104433976665
 30
0.0
 11
-142.2010097318915
 21
579.2104433976665
 31
0.0
  0
LINE
  5
DFE
330
1F
100
AcDbEntity
  8
0
100
AcDbLine
 10
-139.2014767559565
 20
648.3179554347222
 30
0.0
 11
-142.2014767559565
 21
648.3179554347222
 31
0.0
  0
LINE
  5
E02
330
1F
100
AcDbEntity
  8
0
100
AcDbLine
 10
-139.201277511027
 20
618.8348465356192
 30
0.0
 11
-139.2012099316785
 21
608.8348465356191
 31
0.0
  0
LINE
  5
E03
330
1F
100
AcDbEntity
  8
0
100
AcDbLine
 10
-142.2014767559565
 20
648.3179554347222
 30
0.0
 11
-142.2012775110272
 21
618.8348465356191
 31
0.0
  0
LINE
  5
E04
330
1F
100
AcDbEntity
  8
0
100
AcDbLine
 10
-142.2012099316785
 20
608.8348465356191
 30
0.0
 11
-142.2010090259332
 21
579.2058413597337
 31
0.0
  0
LINE
  5
E07
330
1F
100
AcDbEntity
  8
0
100
AcDbLine
 10
-696.1759475086688
 20
798.9189013727699
 30
0.0
 11
-696.1760704745775
 21
788.9189013729702
 31
0.0
  0
LINE
  5
E08
330
1F
100
AcDbEntity
  8
0
100
AcDbLine
 10
66.36315263844926
 20
635.1115643745172
 30
0.0
 11
69.33554195764623
 21
634.7376200871457
 31
0.0
  0
LINE
  5
E09
330
1F
100
AcDbEntity
  8
0
100
AcDbLine
 10
57.22014842612338
 20
557.8363712015437
 30
0.0
 11
60.34257904705849
 21
557.4977580214881
 31
0.0
  0
LINE
  5
E0B
330
1F
100
AcDbEntity
  8
0
100
AcDbLine
 10
58.39512728572457
 20
567.7671025280623
 30
0.0
 11
61.36930021719582
 21
567.3742980299929
 31
0.0
  0
LINE
  5
E0C
330
1F
100
AcDbEntity
  8
0
100
AcDbLine
 10
61.36930021719582
 20
567.3742980299929
 30
0.0
 11
60.34257904705849
 21
557.4977580214881
 31
0.0
  0
LINE
  5
E0D
330
1F
100
AcDbEntity
  8
0
100
AcDbLine
 10
69.33554195764623
 20
634.7376200871457
 30
0.0
 11
68.11999965847485
 21
624.8500748604177
 31
0.0
  0
LINE
  5
E56
330
1F
100
AcDbEntity
  8
0
100
AcDbLine
 10
-37.00828897097494
 20
564.112403303693
 30
0.0
 11
-35.50828897097495
 21
564.112403303693
 31
0.0
  0
LINE
  5
E57
330
1F
100
AcDbEntity
  8
0
100
AcDbLine
 10
-37.00828897097494
 20
564.112403303693
 30
0.0
 11
-38.50828897097495
 21
564.112403303693
 31
0.0
  0
SPLINE
  5
E5C
330
1F
100
AcDbEntity
  8
0
100
AcDbSpline
210
0.0
220
0.0
230
1.0
 70
     8
 71
     3
 72
    10
 73
     6
 74
     4
 42
0.0000000001
 43
0.0000000001
 44
0.0000000001
 40
0.0
 40
0.0
 40
0.0
 40
0.0
 40
9.201689611511064
 40
14.55465964176875
 40
22.80617987534393
 40
22.80617987534393
 40
22.80617987534393
 40
22.80617987534393
 10
-35.50828897097495
 20
564.112403303693
 30
0.0
 10
-35.21196276249675
 20
567.2077484404622
 30
0.0
 10
-34.74325241804645
 20
572.103772631837
 30
0.0
 10
-29.79023364344565
 20
578.6126810407322
 30
0.0
 10
-25.00094596502461
 20
578.9087040883048
 30
0.0
 10
-22.09610326849497
 20
579.0882507026415
 30
0.0
 11
-35.50828897097495
 21
564.112403303693
 31
0.0
 11
-33.54322442731541
 21
573.1018200281441
 31
0.0
 11
-30.13569331488293
 21
577.2301392821072
 31
0.0
 11
-22.09610326849497
 21
579.0882507026415
 31
0.0
  0
SPLINE
  5
E5D
330
1F
100
AcDbEntity
  8
0
100
AcDbSpline
210
0.0
220
0.0
230
1.0
 70
     8
 71
     3
 72
    11
 73
     7
 74
     5
 42
0.0000000001
 43
0.0000000001
 44
0.0000000001
 40
0.0
 40
0.0
 40
0.0
 40
0.0
 40
8.522258594681002
 40
14.27366372860995
 40
19.00714788199202
 40
25.14329987187964
 40
25.14329987187964
 40
25.14329987187964
 40
25.14329987187964
 10
-38.50828897097495
 20
564.112403303693
 30
0.0
 10
-38.87918535081809
 20
566.8722807882747
 30
0.0
 10
-39.50038806899701
 20
571.4947130589483
 30
0.0
 10
-41.15053070271615
 20
578.1645434433691
 30
0.0
 10
-46.58150924382553
 20
580.5231234930719
 30
0.0
 10
-50.01021031893102
 20
581.5219347315888
 30
0.0
 10
-51.94578853400911
 20
582.0857859486822
 30
0.0
 11
-38.50828897097495
 21
564.112403303693
 31
0.0
 11
-39.84128203152181
 21
572.5297675618885
 31
0.0
 11
-41.99587573277424
 21
577.862345456032
 31
0.0
 11
-46.09985959874872
 21
580.2209867297615
 31
0.0
 11
-51.94578853400911
 21
582.0857859486822
 31
0.0
  0
LINE
  5
E5E
330
1F
100
AcDbEntity
  8
0
100
AcDbLine
 10
-125.8501625454196
 20
589.8750511027265
 30
0.0
 11
-51.94578853400889
 21
582.0857859486822
 31
0.0
  0
LINE
  5
E5F
330
1F
100
AcDbEntity
  8
0
100
AcDbLine
 10
-22.0961032684952
 20
579.0882507026415
 30
0.0
 11
24.08680806279927
 21
574.2868400407616
 31
0.0
  0
LINE
  5
E92
330
1F
100
AcDbEntity
  8
0
100
AcDbLine
 10
-693.1759482146267
 20
798.9235034107028
 30
0.0
 11
-696.1759482146267
 21
798.9235034107028
 31
0.0
  0
LINE
  5
E9B
330
1F
100
AcDbEntity
  8
0
100
AcDbLine
 10
-693.1765036838172
 20
798.8611368372582
 30
0.0
 11
-696.1759475086688
 21
798.9189013727699
 31
0.0
  0
LINE
  5
E9C
330
1F
100
AcDbEntity
  8
0
100
AcDbLine
 10
-488.8359838520194
 20
844.8998402973352
 30
0.0
 11
-485.8549388242604
 21
844.5631348734542
 31
0.0
  0
LINE
  5
E9E
330
1F
100
AcDbEntity
  8
0
100
AcDbLine
 10
-592.4347057291798
 20
748.8254969504277
 30
0.0
 11
-589.4351460716491
 21
748.8768959865759
 31
0.0
  0
LINE
  5
EA0
330
1F
100
AcDbEntity
  8
0
100
AcDbLine
 10
-592.4347057291798
 20
748.8254969504277
 30
0.0
 11
-592.4485690790456
 21
758.8254873407995
 31
0.0
  0
LINE
  5
EA1
330
1F
100
AcDbEntity
  8
0
100
AcDbLine
 10
-592.4485690790456
 20
758.8254873407995
 30
0.0
 11
-589.4488330997139
 21
758.8254873407995
 31
0.0
  0
LINE
  5
F20
330
1F
100
AcDbEntity
  8
0
100
AcDbLine
 10
-592.4821636596442
 20
810.5633329638672
 30
0.0
 11
-592.4825615200866
 21
800.5633329717817
 31
0.0
  0
LINE
  5
F21
330
1F
100
AcDbEntity
  8
0
100
AcDbLine
 10
-592.4825615200866
 20
800.5633329717817
 30
0.0
 11
-589.482571046557
 21
800.5708933111835
 31
0.0
  0
LINE
  5
F22
330
1F
100
AcDbEntity
  8
0
100
AcDbLine
 10
-592.4821636596442
 20
810.5633329638672
 30
0.0
 11
-589.4821903316717
 21
810.5506826098951
 31
0.0
  0
LINE
  5
F23
330
1F
100
AcDbEntity
  8
0
100
AcDbLine
 10
-589.4821903316717
 20
810.5506826098951
 30
0.0
 11
-589.482571046557
 21
800.5708933111835
 31
0.0
  0
LINE
  5
F24
330
1F
100
AcDbEntity
  8
0
100
AcDbLine
 10
-589.4488330997139
 20
758.8254873407995
 30
0.0
 11
-589.4351460716491
 21
748.8768959865759
 31
0.0
  0
LINE
  5
F48
330
1F
100
AcDbEntity
  8
0
100
AcDbLine
 10
-242.8447090310609
 20
563.6526783292711
 30
0.0
 11
-224.8308707274286
 21
528.6404532201633
 31
0.0
  0
LINE
  5
F49
330
1F
100
AcDbEntity
  8
0
100
AcDbLine
 10
-239.8447340772946
 20
563.6404195864652
 30
0.0
 11
-242.8447090310609
 21
563.6526783292711
 31
0.0
  0
LINE
  5
F4A
330
1F
100
AcDbEntity
  8
0
100
AcDbLine
 10
-239.8447340772946
 20
620.4815841604945
 30
0.0
 11
-224.8447340772945
 21
595.3747289208357
 31
0.0
  0
LINE
  5
F4B
330
1F
100
AcDbEntity
  8
0
100
AcDbLine
 10
-239.8447340772946
 20
563.6404195864652
 30
0.0
 11
-239.8447340772946
 21
620.4815841604945
 31
0.0
  0
LINE
  5
F50
330
1F
100
AcDbEntity
  8
0
100
AcDbLine
 10
-221.8449980979631
 20
538.6404436105354
 30
0.0
 11
-221.8313110698983
 21
528.6918522563113
 31
0.0
  0
LINE
  5
F51
330
1F
100
AcDbEntity
  8
0
100
AcDbLine
 10
-221.8783553299211
 20
590.3656388796307
 30
0.0
 11
-221.8787360448063
 21
580.3858495809192
 31
0.0
  0
LINE
  5
F52
330
1F
100
AcDbEntity
  8
0
100
AcDbLine
 10
-224.8783286578933
 20
590.3782892336027
 30
0.0
 11
-221.8783553299211
 21
590.3656388796307
 31
0.0
  0
LINE
  5
F53
330
1F
100
AcDbEntity
  8
0
100
AcDbLine
 10
-224.8787265183358
 20
580.3782892415174
 30
0.0
 11
-221.8787360448063
 21
580.3858495809192
 31
0.0
  0
LINE
  5
F55
330
1F
100
AcDbEntity
  8
0
100
AcDbLine
 10
-224.8447340772945
 20
538.6404436105354
 30
0.0
 11
-221.8449980979631
 21
538.6404436105354
 31
0.0
  0
LINE
  5
F57
330
1F
100
AcDbEntity
  8
0
100
AcDbLine
 10
-224.8308707274286
 20
528.6404532201633
 30
0.0
 11
-221.8313110698983
 21
528.6918522563113
 31
0.0
  0
LINE
  5
F5C
330
1F
100
AcDbEntity
  8
0
100
AcDbLine
 10
-224.8447340772945
 20
595.3747289208357
 30
0.0
 11
-224.8783286578933
 21
590.3782892336027
 31
0.0
  0
LINE
  5
F5D
330
1F
100
AcDbEntity
  8
0
100
AcDbLine
 10
-224.8787265183358
 20
580.3782892415174
 30
0.0
 11
-224.8803871021106
 21
538.6404436105354
 31
0.0
  0
LINE
  5
F5E
330
1F
100
AcDbEntity
  8
0
100
AcDbLine
 10
-224.8793924519592
 20
563.6404195864652
 30
0.0
 11
-224.8793924519592
 21
563.6404195864652
 31
0.0
  0
LINE
  5
F79
330
1F
100
AcDbEntity
  8
0
100
AcDbLine
 10
63.4337988448135
 20
942.3022386318272
 30
0.0
 11
73.42561114327009
 21
942.2897642721506
 31
0.0
  0
LINE
  5
F7A
330
1F
100
AcDbEntity
  8
0
100
AcDbLine
 10
63.42560337674263
 20
945.3022274375232
 30
0.0
 11
63.4337988448135
 21
942.3022386318272
 31
0.0
  0
LINE
  5
F7B
330
1F
100
AcDbEntity
  8
0
100
AcDbLine
 10
73.42560337674261
 20
945.3022274375232
 30
0.0
 11
63.42560337674263
 21
945.3022274375232
 31
0.0
  0
LINE
  5
F7C
330
1F
100
AcDbEntity
  8
0
100
AcDbLine
 10
73.42560337674261
 20
945.3022274375232
 30
0.0
 11
73.42561114327009
 21
942.2897642721506
 31
0.0
  0
LINE
  5
F7D
330
1F
100
AcDbEntity
  8
0
100
AcDbLine
 10
5.425603376742626
 20
945.3022274375232
 30
0.0
 11
5.426035508079394
 21
942.3022274686459
 31
0.0
  0
LINE
  5
F7E
330
1F
100
AcDbEntity
  8
0
100
AcDbLine
 10
-4.57438885672991
 20
945.2897642721508
 30
0.0
 11
5.425603376742626
 21
945.3022274375232
 31
0.0
  0
LINE
  5
F7F
330
1F
100
AcDbEntity
  8
0
100
AcDbLine
 10
-4.57438885672991
 20
942.2897642721506
 30
0.0
 11
-4.57438885672991
 21
945.2897642721508
 31
0.0
  0
LINE
  5
F80
330
1F
100
AcDbEntity
  8
0
100
AcDbLine
 10
-4.57438885672991
 20
942.2897642721506
 30
0.0
 11
5.425611143270088
 21
942.2897642721506
 31
0.0
  0
LINE
  5
F81
330
1F
100
AcDbEntity
  8
0
100
AcDbLine
 10
75.42561114327009
 20
927.289764272151
 30
0.0
 11
75.42561114327009
 21
924.2897642721507
 31
0.0
  0
LINE
  5
F82
330
1F
100
AcDbEntity
  8
0
100
AcDbLine
 10
65.42561114327009
 20
924.2897642721507
 30
0.0
 11
65.42561114327009
 21
927.289764272151
 31
0.0
  0
LINE
  5
F83
330
1F
100
AcDbEntity
  8
0
100
AcDbLine
 10
5.425611143270088
 20
927.289764272151
 30
0.0
 11
5.425611143270088
 21
924.2897642721507
 31
0.0
  0
LINE
  5
F84
330
1F
100
AcDbEntity
  8
0
100
AcDbLine
 10
90.51400305607513
 20
962.2236814265177
 30
0.0
 11
75.42561114327009
 21
927.289764272151
 31
0.0
  0
SPLINE
  5
F85
330
1F
100
AcDbEntity
  8
0
100
AcDbSpline
210
0.0
220
0.0
230
1.0
 70
     8
 71
     3
 72
    11
 73
     7
 74
     5
 42
0.0000000001
 43
0.0000000001
 44
0.0000000001
 40
0.0
 40
0.0
 40
0.0
 40
0.0
 40
13.65464550034539
 40
40.17035788178311
 40
87.26752758297397
 40
137.7850323927163
 40
137.7850323927163
 40
137.7850323927163
 40
137.7850323927163
 10
-35.74411692954118
 20
925.7949874603564
 30
0.0
 10
-33.46747525343466
 20
929.808775271511
 30
0.0
 10
-26.76986374125969
 20
941.6168659928361
 30
0.0
 10
0.5528659959482374
 20
955.2932386667796
 30
0.0
 10
40.87435031460704
 20
964.7616016495897
 30
0.0
 10
73.58539640476499
 20
963.0891881493898
 30
0.0
 10
90.51400305607513
 20
962.2236814265177
 30
0.0
 11
-35.74411692954118
 21
925.7949874603564
 31
0.0
 11
-28.23486043509865
 21
937.1993905854996
 31
0.0
 11
-5.778884682381884
 21
951.2994670423323
 31
0.0
 11
39.9967342546629
 21
962.3780998457624
 31
0.0
 11
90.51400305607513
 21
962.2236814265177
 31
0.0
  0
SPLINE
  5
F86
330
1F
100
AcDbEntity
  8
0
100
AcDbSpline
210
0.0
220
0.0
230
1.0
 70
     8
 71
     3
 72
    11
 73
     7
 74
     5
 42
0.0000000001
 43
0.0000000001
 44
0.0000000001
 40
0.0
 40
0.0
 40
0.0
 40
0.0
 40
13.65464550034548
 40
40.17035788178335
 40
87.26752758297417
 40
137.7850323927162
 40
137.7850323927162
 40
137.7850323927162
 40
137.7850323927162
 10
-35.74411692954118
 20
925.7949874603564
 30
0.0
 10
-33.46713861751315
 20
921.7813906095363
 30
0.0
 10
-26.76853676212916
 20
909.9738616710109
 30
0.0
 10
0.5553399420637773
 20
896.2997806538762
 30
0.0
 10
40.87761824830422
 20
886.8347995430566
 30
0.0
 10
73.58852395494512
 20
888.509956574301
 30
0.0
 10
90.51705795503721
 20
889.3768831281922
 30
0.0
 11
-35.74411692954118
 21
925.7949874603564
 31
0.0
 11
-28.23390395278193
 21
914.3912141907836
 31
0.0
 11
-5.776745679129817
 21
900.2930212084445
 31
0.0
 11
39.99980228267009
 21
889.2182277311919
 31
0.0
 11
90.51705795503721
 21
889.3768831281922
 31
0.0
  0
LINE
  5
F87
330
1F
100
AcDbEntity
  8
0
100
AcDbLine
 10
90.51705795503721
 20
889.3768831281922
 30
0.0
 11
75.42573612199999
 21
924.309534667894
 31
0.0
  0
LINE
  5
F88
330
1F
100
AcDbEntity
  8
0
100
AcDbLine
 10
5.425736368207251
 20
924.3036636363054
 30
0.0
 11
5.425484752567625
 21
927.3036636257536
 31
0.0
  0
LINE
  5
F89
330
1F
100
AcDbEntity
  8
0
100
AcDbLine
 10
65.42548454153302
 20
927.3086959385439
 30
0.0
 11
65.42573615717265
 21
924.3086959490961
 31
0.0
  0
LINE
  5
F8A
330
1F
100
AcDbEntity
  8
0
100
AcDbLine
 10
75.42573612199999
 20
924.309534667894
 30
0.0
 11
75.4254845063606
 21
927.3095346573427
 31
0.0
  0
LINE
  5
F8B
330
1F
100
AcDbEntity
  8
0
100
AcDbLine
 10
5.425611143270088
 20
927.289764272151
 30
0.0
 11
65.42548454153302
 21
927.3086959385439
 31
0.0
  0
LINE
  5
F8C
330
1F
100
AcDbEntity
  8
0
100
AcDbLine
 10
5.425611143270088
 20
924.2897642721507
 30
0.0
 11
65.42561114327009
 21
924.2897642721507
 31
0.0
  0
LINE
  5
F8D
330
1F
100
AcDbEntity
  8
0
100
AcDbLine
 10
65.42561114327009
 20
925.7992301082953
 30
0.0
 11
75.42561114327009
 21
925.7996494666659
 31
0.0
  0
LINE
  5
FA0
330
1F
100
AcDbEntity
  8
0
100
AcDbLine
 10
66.59612579934583
 20
1015.27578374522
 30
0.0
 11
76.59612579934583
 21
1015.276203103591
 31
0.0
  0
LINE
  5
FA1
330
1F
100
AcDbEntity
  8
0
100
AcDbLine
 10
6.596125799345827
 20
1013.766317909076
 30
0.0
 11
66.59612579934583
 21
1013.766317909076
 31
0.0
  0
LINE
  5
FA2
330
1F
100
AcDbEntity
  8
0
100
AcDbLine
 10
6.596125799345827
 20
1016.766317909076
 30
0.0
 11
66.59599919760876
 21
1016.785249575469
 31
0.0
  0
LINE
  5
FA3
330
1F
100
AcDbEntity
  8
0
100
AcDbLine
 10
76.5962507780755
 20
1013.786088304819
 30
0.0
 11
76.5959991624361
 21
1016.786088294268
 31
0.0
  0
LINE
  5
FA4
330
1F
100
AcDbEntity
  8
0
100
AcDbLine
 10
66.59599919760876
 20
1016.785249575469
 30
0.0
 11
66.59625081324816
 21
1013.785249586021
 31
0.0
  0
LINE
  5
FA5
330
1F
100
AcDbEntity
  8
0
100
AcDbLine
 10
6.596251024282992
 20
1013.78021727323
 30
0.0
 11
6.595999408643365
 21
1016.780217262678
 31
0.0
  0
LINE
  5
FA6
330
1F
100
AcDbEntity
  8
0
100
AcDbLine
 10
91.68757261111295
 20
978.8534367651172
 30
0.0
 11
76.5962507780755
 21
1013.786088304819
 31
0.0
  0
SPLINE
  5
FA7
330
1F
100
AcDbEntity
  8
0
100
AcDbSpline
210
0.0
220
0.0
230
1.0
 70
     8
 71
     3
 72
    11
 73
     7
 74
     5
 42
0.0000000001
 43
0.0000000001
 44
0.0000000001
 40
0.0
 40
0.0
 40
0.0
 40
0.0
 40
13.65464550034567
 40
40.17035788178299
 40
87.2675275829737
 40
137.7850323927159
 40
137.7850323927159
 40
137.7850323927159
 40
137.7850323927159
 10
-34.57360227346544
 20
1015.271541097281
 30
0.0
 10
-32.29662396143743
 20
1011.257944246461
 30
0.0
 10
-25.59802210605366
 20
999.4504153079352
 30
0.0
 10
1.725854598139611
 20
985.7763342908013
 30
0.0
 10
42.04813290437979
 20
976.311353179982
 30
0.0
 10
74.75903861102079
 20
977.9865102112262
 30
0.0
 10
91.68757261111295
 20
978.8534367651172
 30
0.0
 11
-34.57360227346544
 21
1015.271541097281
 31
0.0
 11
-27.06338929670619
 21
1003.867767827708
 31
0.0
 11
-4.606231023054306
 21
989.7695748453696
 31
0.0
 11
41.1703169387456
 21
978.6947813681171
 31
0.0
 11
91.68757261111295
 21
978.8534367651172
 31
0.0
  0
SPLINE
  5
FA8
330
1F
100
AcDbEntity
  8
0
100
AcDbSpline
210
0.0
220
0.0
230
1.0
 70
     8
 71
     3
 72
    11
 73
     7
 74
     5
 42
0.0000000001
 43
0.0000000001
 44
0.0000000001
 40
0.0
 40
0.0
 40
0.0
 40
0.0
 40
13.65464550034529
 40
40.1703578817832
 40
87.26752758297406
 40
137.7850323927164
 40
137.7850323927164
 40
137.7850323927164
 40
137.7850323927164
 10
-34.57360227346544
 20
1015.271541097281
 30
0.0
 10
-32.29696059735891
 20
1019.285328908435
 30
0.0
 10
-25.59934908518385
 20
1031.09341962976
 30
0.0
 10
1.723380652023806
 20
1044.769792303705
 30
0.0
 10
42.04486497068281
 20
1054.238155286514
 30
0.0
 10
74.75591106084076
 20
1052.565741786314
 30
0.0
 10
91.68451771215087
 20
1051.700235063442
 30
0.0
 11
-34.57360227346544
 21
1015.271541097281
 31
0.0
 11
-27.06434577902292
 21
1026.675944222424
 31
0.0
 11
-4.608370026306146
 21
1040.776020679257
 31
0.0
 11
41.16724891073864
 21
1051.854653482687
 31
0.0
 11
91.68451771215087
 21
1051.700235063442
 31
0.0
  0
LINE
  5
FA9
330
1F
100
AcDbEntity
  8
0
100
AcDbLine
 10
91.68451771215087
 20
1051.700235063442
 30
0.0
 11
76.59612579934583
 21
1016.766317909076
 31
0.0
  0
LINE
  5
FAA
330
1F
100
AcDbEntity
  8
0
100
AcDbLine
 10
6.596125799345827
 20
1016.766317909076
 30
0.0
 11
6.596125799345827
 21
1013.766317909076
 31
0.0
  0
LINE
  5
FAB
330
1F
100
AcDbEntity
  8
0
100
AcDbLine
 10
66.59612579934583
 20
1013.766317909076
 30
0.0
 11
66.59612579934583
 21
1016.766317909076
 31
0.0
  0
LINE
  5
FAC
330
1F
100
AcDbEntity
  8
0
100
AcDbLine
 10
76.59612579934583
 20
1016.766317909076
 30
0.0
 11
76.59612579934583
 21
1013.766317909076
 31
0.0
  0
LINE
  5
1005
330
1F
100
AcDbEntity
  8
0
100
AcDbLine
 10
-907.3315453059283
 20
759.1457957671496
 30
0.0
 11
-907.3652813008973
 21
749.1972521978269
 31
0.0
  0
LINE
  5
1006
330
1F
100
AcDbEntity
  8
0
100
AcDbLine
 10
-907.1939484429671
 20
810.8708187776255
 30
0.0
 11
-907.2136795955106
 21
800.8910489770121
 31
0.0
  0
LINE
  5
1007
330
1F
100
AcDbEntity
  8
0
100
AcDbLine
 10
-904.1939557131067
 20
810.8774233807206
 30
0.0
 11
-907.1939484429671
 21
810.8708187776255
 31
0.0
  0
LINE
  5
1008
330
1F
100
AcDbEntity
  8
0
100
AcDbLine
 10
-904.213710449922
 20
800.8774428932211
 30
0.0
 11
-907.2136795955106
 21
800.8910489770121
 31
0.0
  0
LINE
  5
1009
330
1F
100
AcDbEntity
  8
0
100
AcDbLine
 10
-904.1939557131067
 20
810.8774233807206
 30
0.0
 11
-904.213710449922
 21
800.8774428932211
 31
0.0
  0
LINE
  5
100A
330
1F
100
AcDbEntity
  8
0
100
AcDbLine
 10
-904.3318154179747
 20
759.13975052028
 30
0.0
 11
-907.3315453059283
 21
759.1457957671496
 31
0.0
  0
LINE
  5
100B
330
1F
100
AcDbEntity
  8
0
100
AcDbLine
 10
-904.3658313167894
 20
749.1398083745158
 30
0.0
 11
-904.3318154179747
 21
759.13975052028
 31
0.0
  0
LINE
  5
100C
330
1F
100
AcDbEntity
  8
0
100
AcDbLine
 10
-904.3658313167894
 20
749.1398083745158
 30
0.0
 11
-907.3652813008973
 21
749.1972521978269
 31
0.0
  0
LINE
  5
100D
330
1F
100
AcDbEntity
  8
0
100
AcDbLine
 10
-1007.770728075247
 20
845.4227349528732
 30
0.0
 11
-1010.752445598437
 21
845.0920377924681
 31
0.0
  0
ARC
  5
1016
330
1F
100
AcDbEntity
  8
0
100
AcDbCircle
 10
-853.3966964962246
 20
755.7407381756145
 30
0.0
 40
20.01343277061876
100
AcDbArc
 50
89.89993319262319
 51
269.8723926886137
  0
LINE
  5
1017
330
1F
100
AcDbEntity
  8
0
100
AcDbLine
 10
-854.0483509506435
 20
775.7435589201019
 30
0.0
 11
-748.3894502263937
 21
775.6518980303463
 31
0.0
  0
LINE
  5
1018
330
1F
100
AcDbEntity
  8
0
100
AcDbLine
 10
-748.4415572453492
 20
735.4841201215596
 30
0.0
 11
-873.4412218524242
 21
735.7736855178592
 31
0.0
  0
LINE
  5
1019
330
1F
100
AcDbEntity
  8
0
100
AcDbLine
 10
-748.4415572453492
 20
735.4841201215596
 30
0.0
 11
-1098.124080473906
 21
736.294169962381
 31
0.0
  0
LINE
  5
101A
330
1F
100
AcDbEntity
  8
0
100
AcDbLine
 10
-803.9015780839724
 20
703.6042500469963
 30
0.0
 11
-803.9839024081741
 21
608.6042857169737
 31
0.0
  0
LINE
  5
101B
330
1F
100
AcDbEntity
  8
0
100
AcDbLine
 10
-1163.515060029736
 20
650.8437793477902
 30
0.0
 11
-803.9839024081741
 21
608.6042857169737
 31
0.0
  0
LINE
  5
101C
330
1F
100
AcDbEntity
  8
0
100
AcDbLine
 10
-803.9839024081741
 20
608.6042857169737
 30
0.0
 11
-1191.319920226911
 21
654.110431459317
 31
0.0
  0
LINE
  5
101D
330
1F
100
AcDbEntity
  8
0
100
AcDbLine
 10
-1075.456081980778
 20
833.2831285717691
 30
0.0
 11
-1082.324741555331
 21
825.4895238681038
 31
0.0
  0
SPLINE
  5
101E
330
1F
100
AcDbEntity
  8
0
100
AcDbSpline
210
0.0
220
0.0
230
1.0
 70
     8
 71
     3
 72
    10
 73
     6
 74
     4
 42
0.0000000001
 43
0.0000000001
 44
0.0000000001
 40
0.0
 40
0.0
 40
0.0
 40
0.0
 40
74.20342106590331
 40
156.5840591129162
 40
207.9899280379629
 40
207.9899280379629
 40
207.9899280379629
 40
207.9899280379629
 10
-1191.319920226911
 20
654.110431459317
 30
0.0
 10
-1184.531501084176
 20
677.8967621956565
 30
0.0
 10
-1170.206579011039
 20
728.0906773089558
 30
0.0
 10
-1132.434874070639
 20
788.9280468136779
 30
0.0
 10
-1096.234357928145
 20
815.3407556584978
 30
0.0
 10
-1082.324741555331
 20
825.4895238681038
 30
0.0
 11
-1191.319920226911
 21
654.110431459317
 31
0.0
 11
-1167.785681663295
 21
724.4829212057695
 31
0.0
 11
-1122.296036123215
 21
793.1652455233902
 31
0.0
 11
-1082.324741555331
 21
825.4895238681038
 31
0.0
  0
LINE
  5
101F
330
1F
100
AcDbEntity
  8
0
100
AcDbLine
 10
-748.3052047931182
 20
847.4839925415123
 30
0.0
 11
-813.122145624345
 21
840.1760950381163
 31
0.0
  0
SPLINE
  5
1020
330
1F
100
AcDbEntity
  8
0
100
AcDbSpline
210
0.0
220
0.0
230
1.0
 70
     8
 71
     3
 72
     9
 73
     5
 74
     3
 42
0.0000000001
 43
0.0000000001
 44
0.0000000001
 40
0.0
 40
0.0
 40
0.0
 40
0.0
 40
13.37328677782902
 40
25.41006956619128
 40
25.41006956619128
 40
25.41006956619128
 40
25.41006956619128
 10
-830.9515722364285
 20
823.34180285906
 30
0.0
 10
-826.6216921773629
 20
825.0579808362051
 30
0.0
 10
-818.3946530551233
 20
828.3188248240508
 30
0.0
 10
-814.8169216256338
 20
836.3647363509215
 30
0.0
 10
-813.122145624345
 20
840.1760950381163
 30
0.0
 11
-830.9515722364285
 21
823.34180285906
 31
0.0
 11
-819.2497453305428
 21
829.8157542264046
 31
0.0
 11
-813.122145624345
 21
840.1760950381163
 31
0.0
  0
SPLINE
  5
1021
330
1F
100
AcDbEntity
  8
0
100
AcDbSpline
210
0.0
220
0.0
230
1.0
 70
     8
 71
     3
 72
     9
 73
     5
 74
     3
 42
0.0000000001
 43
0.0000000001
 44
0.0000000001
 40
0.0
 40
0.0
 40
0.0
 40
0.0
 40
10.63719514428028
 40
18.96283925976981
 40
18.96283925976981
 40
18.96283925976981
 40
18.96283925976981
 10
-980.8426187171775
 20
818.8677493315234
 30
0.0
 10
-978.1464765480942
 20
816.47626832557
 30
0.0
 10
-973.3400863408686
 20
812.2129950384316
 30
0.0
 10
-967.1782439972966
 20
810.4890696888229
 30
0.0
 10
-964.4728840168864
 20
809.7321793969266
 30
0.0
 11
-980.8426187171775
 21
818.8677493315234
 31
0.0
 11
-972.3276797605175
 21
812.4923485518193
 31
0.0
 11
-964.4728840168864
 21
809.7321793969266
 31
0.0
  0
LINE
  5
1022
330
1F
100
AcDbEntity
  8
0
100
AcDbLine
 10
-964.4728840168864
 20
809.7321793969266
 30
0.0
 11
-830.9515722364285
 21
823.34180285906
 31
0.0
  0
LINE
  5
1023
330
1F
100
AcDbEntity
  8
0
100
AcDbLine
 10
-1095.898700238899
 20
720.4503163790477
 30
0.0
 11
-1103.36240260404
 21
773.5890140284143
 31
0.0
  0
LINE
  5
1024
330
1F
100
AcDbEntity
  8
0
100
AcDbLine
 10
-1103.36240260404
 20
773.5890140284143
 30
0.0
 11
-1125.834829103578
 21
789.5587002487764
 31
0.0
  0
LINE
  5
1025
330
1F
100
AcDbEntity
  8
0
100
AcDbLine
 10
-1007.770728075247
 20
845.4227349528732
 30
0.0
 11
-1010.752445598437
 21
845.0920377924681
 31
0.0
  0
LINE
  5
1026
330
1F
100
AcDbEntity
  8
0
100
AcDbLine
 10
-999.7354252068117
 20
775.8871430825421
 30
0.0
 11
-1002.715375380317
 21
775.5408816734489
 31
0.0
  0
LINE
  5
1027
330
1F
100
AcDbEntity
  8
0
100
AcDbLine
 10
-1000.828162575114
 20
785.8272600357732
 30
0.0
 11
-1003.814296962991
 21
785.5391603698032
 31
0.0
  0
LINE
  5
1028
330
1F
100
AcDbEntity
  8
0
100
AcDbLine
 10
-1003.814296962991
 20
785.5391603698032
 30
0.0
 11
-1002.715375380317
 21
775.5408816734489
 31
0.0
  0
LINE
  5
1029
330
1F
100
AcDbEntity
  8
0
100
AcDbLine
 10
-1000.828162575114
 20
785.8272600357732
 30
0.0
 11
-999.7354252068117
 21
775.8871430825421
 31
0.0
  0
LINE
  5
102A
330
1F
100
AcDbEntity
  8
0
100
AcDbLine
 10
-1064.405443189471
 20
764.7242960388442
 30
0.0
 11
-1063.312705821169
 21
754.7841790856128
 31
0.0
  0
LINE
  5
102B
330
1F
100
AcDbEntity
  8
0
100
AcDbLine
 10
-1067.391577577349
 20
764.4361963728742
 30
0.0
 11
-1066.292655994674
 21
754.4379176765207
 31
0.0
  0
LINE
  5
102C
330
1F
100
AcDbEntity
  8
0
100
AcDbLine
 10
-1064.405443189471
 20
764.7242960388442
 30
0.0
 11
-1067.391577577349
 21
764.4361963728742
 31
0.0
  0
LINE
  5
102D
330
1F
100
AcDbEntity
  8
0
100
AcDbLine
 10
-1063.312705821169
 20
754.7841790856128
 30
0.0
 11
-1066.292655994674
 21
754.4379176765207
 31
0.0
  0
LINE
  5
102E
330
1F
100
AcDbEntity
  8
0
100
AcDbLine
 10
-1075.456081980778
 20
833.2831285717691
 30
0.0
 11
-1074.329726212795
 21
823.989073795539
 31
0.0
  0
LINE
  5
102F
330
1F
100
AcDbEntity
  8
0
100
AcDbLine
 10
-1071.348008689605
 20
824.3197709559447
 30
0.0
 11
-1074.329726212795
 21
823.989073795539
 31
0.0
  0
LINE
  5
1030
330
1F
100
AcDbEntity
  8
0
100
AcDbLine
 10
-1072.55220319456
 20
834.2470019693861
 30
0.0
 11
-1071.348008689605
 21
824.3197709559447
 31
0.0
  0
LINE
  5
1031
330
1F
100
AcDbEntity
  8
0
100
AcDbLine
 10
-748.471887259529
 20
700.4841332631301
 30
0.0
 11
-1095.898700238899
 21
720.4503163790477
 31
0.0
  0
LINE
  5
1032
330
1F
100
AcDbEntity
  8
0
100
AcDbLine
 10
-748.3010155410807
 20
847.4839860230982
 30
0.0
 11
-748.4491358601071
 21
700.4853906957017
 31
0.0
  0
LINE
  5
1033
330
1F
100
AcDbEntity
  8
0
100
AcDbLine
 10
-1008.974922580199
 20
855.3499659662943
 30
0.0
 11
-1011.948059458383
 21
854.9820125745171
 31
0.0
  0
LINE
  5
1034
330
1F
100
AcDbEntity
  8
0
100
AcDbLine
 10
-1011.948059458383
 20
854.9820125745171
 30
0.0
 11
-1010.752445598437
 21
845.0920377924681
 31
0.0
  0
LINE
  5
1035
330
1F
100
AcDbEntity
  8
0
100
AcDbLine
 10
-1008.974922580202
 20
855.3499659663152
 30
0.0
 11
-980.8426187171775
 21
818.8677493315234
 31
0.0
  0
LINE
  5
1036
330
1F
100
AcDbEntity
  8
0
100
AcDbLine
 10
-1008.974922580202
 20
855.3499659663152
 30
0.0
 11
-1007.770728075247
 21
845.4227349528732
 31
0.0
  0
LINE
  5
1037
330
1F
100
AcDbEntity
  8
0
100
AcDbLine
 10
-1011.87880136642
 20
854.3860925686976
 30
0.0
 11
-1010.752445598437
 21
845.0920377924681
 31
0.0
  0
LINE
  5
1038
330
1F
100
AcDbEntity
  8
0
100
AcDbLine
 10
-1072.55220319456
 20
834.2470019693861
 30
0.0
 11
-1011.87880136642
 21
854.3860925686976
 31
0.0
  0
LINE
  5
1045
330
1F
100
AcDbEntity
  8
0
100
AcDbLine
 10
-269.2311522288874
 20
800.5692248369612
 30
0.0
 11
-269.2311522288874
 21
790.5692248369612
 31
0.0
  0
LINE
  5
1046
330
1F
100
AcDbEntity
  8
0
100
AcDbLine
 10
-269.2311522288874
 20
790.5692248369612
 30
0.0
 11
-272.231017701024
 21
790.5692248369612
 31
0.0
  0
LINE
  5
1047
330
1F
100
AcDbEntity
  8
0
100
AcDbLine
 10
-272.2310637837615
 20
800.5692248369612
 30
0.0
 11
-272.2311522288874
 21
813.6379382449911
 31
0.0
  0
LINE
  5
1049
330
1F
100
AcDbEntity
  8
0
100
AcDbLine
 10
-272.231017701024
 20
790.5692248369612
 30
0.0
 11
-272.2305960537383
 21
731.4571107619728
 31
0.0
  0
LINE
  5
1067
330
1F
100
AcDbEntity
  8
0
100
AcDbLine
 10
-803.5816239889367
 20
798.9104918673547
 30
0.0
 11
-800.5821297173
 21
798.9655746633827
 31
0.0
  0
LINE
  5
1069
330
1F
100
AcDbEntity
  8
0
100
AcDbLine
 10
-803.5821236977472
 20
798.9728589125014
 30
0.0
 11
-800.5821248967928
 21
798.970176698845
 31
0.0
  0
LINE
  5
106B
330
1F
100
AcDbEntity
  8
0
100
AcDbLine
 10
-800.5821297173
 20
798.9655746633827
 30
0.0
 11
-800.5909474636277
 21
788.9655785504602
 31
0.0
  0
LINE
  5
106D
330
1F
100
AcDbEntity
  8
0
100
AcDbLine
 10
-803.5816239889367
 20
798.9104918675549
 30
0.0
 11
-800.5821297173
 21
798.9655746635832
 31
0.0
  0
LINE
  5
106E
330
1F
100
AcDbEntity
  8
0
100
AcDbLine
 10
-800.5909474636277
 20
788.9655785504602
 30
0.0
 11
-803.5905130555153
 21
788.9682603767965
 31
0.0
  0
LINE
  5
106F
330
1F
100
AcDbEntity
  8
0
100
AcDbLine
 10
-803.5816239889367
 20
798.9104918675549
 30
0.0
 11
-803.5905130555153
 21
788.9682603767965
 31
0.0
  0
LINE
  5
1071
330
1F
100
AcDbEntity
  8
0
100
AcDbLine
 10
-803.5816239889367
 20
798.9104918673547
 30
0.0
 11
-800.5821297173
 21
798.9655746633827
 31
0.0
  0
LINE
  5
10C4
330
1F
100
AcDbEntity
  8
0
100
AcDbLine
 10
2.859613103594823
 20
1227.92307188104
 30
0.0
 11
2.8592818357032
 21
1230.92307186275
 31
0.0
  0
LINE
  5
10C5
330
1F
100
AcDbEntity
  8
0
100
AcDbLine
 10
15.92799516405864
 20
1230.924514944462
 30
0.0
 11
15.92832642218388
 21
1227.924603407877
 31
0.0
  0
LINE
  5
10C6
330
1F
100
AcDbEntity
  8
0
100
AcDbLine
 10
2.859281835502656
 20
1230.92307186275
 30
0.0
 11
15.9279951638581
 21
1230.924514944462
 31
0.0
  0
LINE
  5
10C7
330
1F
100
AcDbEntity
  8
0
100
AcDbLine
 10
2.859613103394281
 20
1227.92307188104
 30
0.0
 11
2.859281835502656
 21
1230.92307186275
 31
0.0
  0
LINE
  5
10C8
330
1F
100
AcDbEntity
  8
0
100
AcDbLine
 10
15.9279951638581
 20
1230.924514944462
 30
0.0
 11
15.92832642198334
 21
1227.924603407877
 31
0.0
  0
LINE
  5
10C9
330
1F
100
AcDbEntity
  8
0
100
AcDbLine
 10
2.859613103594823
 20
1227.92307188104
 30
0.0
 11
15.92832642218388
 21
1227.924603407877
 31
0.0
  0
LINE
  5
10CA
330
1F
100
AcDbEntity
  8
0
100
AcDbLine
 10
15.92799515429226
 20
1230.924603389587
 30
0.0
 11
15.92832642218388
 21
1227.924603407877
 31
0.0
  0
LINE
  5
10CB
330
1F
100
AcDbEntity
  8
0
100
AcDbLine
 10
15.92799516405864
 20
1230.924514944462
 30
0.0
 11
15.92832642218388
 21
1227.924603407877
 31
0.0
  0
LINE
  5
10D3
330
1F
100
AcDbEntity
  8
0
100
AcDbLine
 10
3.221232160418137
 20
1177.24832617806
 30
0.0
 11
13.21868458417816
 21
1177.249430128786
 31
0.0
  0
LINE
  5
10D7
330
1F
100
AcDbEntity
  8
0
100
AcDbLine
 10
3.221232343270116
 20
1177.247222230039
 30
0.0
 11
13.21868458417839
 21
1177.249430128786
 31
0.0
  0
LINE
  5
10E0
330
1F
100
AcDbEntity
  8
0
100
AcDbLine
 10
2.859281845269038
 20
1230.922983417624
 30
0.0
 11
2.859613103394281
 21
1227.92307188104
 31
0.0
  0
LINE
  5
10E1
330
1F
100
AcDbEntity
  8
0
100
AcDbLine
 10
2.859281835502656
 20
1230.92307186275
 30
0.0
 11
2.859613103394281
 21
1227.92307188104
 31
0.0
  0
LINE
  5
10E2
330
1F
100
AcDbEntity
  8
0
100
AcDbLine
 10
2.85928184506872
 20
1230.922983417624
 30
0.0
 11
2.859613103193963
 21
1227.92307188104
 31
0.0
  0
LINE
  5
10E3
330
1F
100
AcDbEntity
  8
0
100
AcDbLine
 10
2.859281845269038
 20
1230.922983417625
 30
0.0
 11
2.859613103394281
 21
1227.92307188104
 31
0.0
  0
LINE
  5
10E4
330
1F
100
AcDbEntity
  8
0
100
AcDbLine
 10
-128.7807561415111
 20
1174.395975807164
 30
0.0
 11
-128.7807561415111
 21
1174.395975807164
 31
0.0
  0
LINE
  5
10E5
330
1F
100
AcDbEntity
  8
0
100
AcDbLine
 10
-128.7807561415111
 20
1174.395975807164
 30
0.0
 11
-128.7807561415111
 21
1174.395975807164
 31
0.0
  0
LINE
  5
10E6
330
1F
100
AcDbEntity
  8
0
100
AcDbLine
 10
-68.80552805139632
 20
1174.331096732638
 30
0.0
 11
-68.7779588575986
 21
1177.331063700101
 31
0.0
  0
LINE
  5
10E7
330
1F
100
AcDbEntity
  8
0
100
AcDbLine
 10
-58.80942213257572
 20
1177.31960840435
 30
0.0
 11
-58.81666153685593
 21
1174.319618045035
 31
0.0
  0
LINE
  5
10E8
330
1F
100
AcDbEntity
  8
0
100
AcDbLine
 10
3.217784720069173
 20
1174.248331275095
 30
0.0
 11
3.221232160418137
 21
1177.24832617806
 31
0.0
  0
LINE
  5
10E9
330
1F
100
AcDbEntity
  8
0
100
AcDbLine
 10
-6.782501071360227
 20
1174.259823085139
 30
0.0
 11
-6.779608986251446
 21
1177.259818596282
 31
0.0
  0
LINE
  5
10EA
330
1F
100
AcDbEntity
  8
0
100
AcDbLine
 10
-118.7807662032246
 20
1174.381790104672
 30
0.0
 11
-128.7807561415111
 21
1174.395975807164
 31
0.0
  0
LINE
  5
10EB
330
1F
100
AcDbEntity
  8
0
100
AcDbLine
 10
-118.7807662032246
 20
1174.381790104672
 30
0.0
 11
-118.7757602975355
 21
1177.388518431749
 31
0.0
  0
LINE
  5
10EC
330
1F
100
AcDbEntity
  8
0
100
AcDbLine
 10
-128.7807561415111
 20
1174.395975807164
 30
0.0
 11
-118.7807662032246
 21
1174.381790104672
 31
0.0
  0
LINE
  5
10ED
330
1F
100
AcDbEntity
  8
0
100
AcDbLine
 10
-128.7807561415111
 20
1174.395975807164
 30
0.0
 11
-128.7773040575137
 21
1177.400011657375
 31
0.0
  0
SPLINE
  5
10EE
330
1F
100
AcDbEntity
  8
0
100
AcDbSpline
210
0.0
220
0.0
230
1.0
 70
     8
 71
     3
 72
    10
 73
     6
 74
     4
 42
0.0000000001
 43
0.0000000001
 44
0.0000000001
 40
0.0
 40
0.0
 40
0.0
 40
0.0
 40
4.281401921823
 40
10.10055028827375
 40
19.60045194195224
 40
19.60045194195224
 40
19.60045194195224
 40
19.60045194195224
 10
-103.7603779729183
 20
1200.698072666433
 30
0.0
 10
-102.5330592240437
 20
1201.436248108806
 30
0.0
 10
-99.63760699388483
 20
1203.177728659664
 30
0.0
 10
-95.22740285075872
 20
1208.163675499131
 30
0.0
 10
-93.07536628576087
 20
1212.816624446937
 30
0.0
 10
-91.74080991994605
 20
1215.702087797841
 30
0.0
 11
-103.7603779729183
 21
1200.698072666433
 31
0.0
 11
-100.1903174603767
 21
1203.061348010734
 31
0.0
 11
-96.24243072349329
 21
1207.336471169604
 31
0.0
 11
-91.74080991994605
 21
1215.702087797841
 31
0.0
  0
SPLINE
  5
10EF
330
1F
100
AcDbEntity
  8
0
100
AcDbSpline
210
0.0
220
0.0
230
1.0
 70
     8
 71
     3
 72
    13
 73
     9
 74
     7
 42
0.0000000001
 43
0.0000000001
 44
0.0000000001
 40
0.0
 40
0.0
 40
0.0
 40
0.0
 40
6.411040704881427
 40
12.31485977529641
 40
17.49180716028253
 40
25.6683266084962
 40
42.6672224862651
 40
70.40015035179016
 40
70.40015035179016
 40
70.40015035179016
 40
70.40015035179016
 10
-91.74080991994605
 20
1215.702087797841
 30
0.0
 10
-90.67566921372781
 20
1217.547847366363
 30
0.0
 10
-88.62965842673499
 20
1221.09333573738
 30
0.0
 10
-85.62787210644041
 20
1226.182366901552
 30
0.0
 10
-80.07236716602426
 20
1229.875117211073
 30
0.0
 10
-69.6814107108935
 20
1230.493307579554
 30
0.0
 10
-52.29942352093697
 20
1227.988546306871
 30
0.0
 10
-37.33317099777983
 20
1228.429875079408
 30
0.0
 10
-28.05436305058151
 20
1228.703490997328
 30
0.0
 11
-91.74080991994605
 21
1215.702087797841
 31
0.0
 11
-88.52713352677552
 21
1221.249495026414
 31
0.0
 11
-85.13548924441852
 21
1226.081868012655
 31
0.0
 11
-80.82961907746494
 21
1228.955935919343
 31
0.0
 11
-72.73838486578984
 21
1230.133815038283
 31
0.0
 11
-55.7868132160006
 21
1228.866266354685
 31
0.0
 11
-28.05436305058151
 21
1228.703490997328
 31
0.0
  0
SPLINE
  5
10F0
330
1F
100
AcDbEntity
  8
0
100
AcDbSpline
210
0.0
220
0.0
230
1.0
 70
     8
 71
     3
 72
    10
 73
     6
 74
     0
 42
0.0000000001
 43
0.0000000001
 40
1.505691308555225
 40
1.505691308555225
 40
1.505691308555225
 40
1.505691308555225
 40
5.254381357790103
 40
18.25336091719342
 40
49.07708684588351
 40
49.07708684588351
 40
49.07708684588351
 40
49.07708684588351
 10
-143.448716683122
 20
1177.416871292638
 30
0.0
 10
-143.1602214279714
 20
1178.653206352917
 30
0.0
 10
-141.6380088476908
 20
1184.040058629048
 30
0.0
 10
-126.9813107747832
 20
1193.291787883355
 30
0.0
 10
-113.3489899789879
 20
1197.639797971039
 30
0.0
 10
-103.7603779729183
 20
1200.698072666433
 30
0.0
  0
LINE
  5
10F1
330
1F
100
AcDbEntity
  8
0
100
AcDbLine
 10
-28.05436305069293
 20
1228.703490997305
 30
0.0
 11
30.84374956699128
 21
1240.607832895171
 31
0.0
  0
LINE
  5
10F2
330
1F
100
AcDbEntity
  8
0
100
AcDbLine
 10
-68.80552805139632
 20
1174.331096732638
 30
0.0
 11
-58.81666153685593
 21
1174.319618045035
 31
0.0
  0
LINE
  5
10F3
330
1F
100
AcDbEntity
  8
0
100
AcDbLine
 10
-6.782501071360227
 20
1174.259823085139
 30
0.0
 11
3.217784720069173
 21
1174.248331275095
 31
0.0
  0
LINE
  5
10F4
330
1F
100
AcDbEntity
  8
0
100
AcDbLine
 10
-143.448716683122
 20
1177.416871292638
 30
0.0
 11
-128.7773040575137
 21
1177.400011657375
 31
0.0
  0
LINE
  5
10F5
330
1F
100
AcDbEntity
  8
0
100
AcDbLine
 10
-118.7757602975355
 20
1177.388518431749
 30
0.0
 11
-68.7779588575986
 21
1177.331063700101
 31
0.0
  0
LINE
  5
10F6
330
1F
100
AcDbEntity
  8
0
100
AcDbLine
 10
-58.80942213257572
 20
1177.31960840435
 30
0.0
 11
-6.779608986251446
 21
1177.259818596282
 31
0.0
  0
LINE
  5
10F7
330
1F
100
AcDbEntity
  8
0
100
AcDbLine
 10
3.221232160418137
 20
1177.24832617806
 30
0.0
 11
23.57557442747282
 21
1177.227848129286
 31
0.0
  0
LINE
  5
10F8
330
1F
100
AcDbEntity
  8
0
100
AcDbLine
 10
23.57557442747282
 20
1177.227848129286
 30
0.0
 11
30.84374956699128
 21
1240.607832895171
 31
0.0
  0
LINE
  5
1158
330
1F
100
AcDbEntity
  8
0
100
AcDbLine
 10
-115.9371783128338
 20
1151.533252395624
 30
0.0
 11
-115.934963559376
 21
1148.526520717073
 31
0.0
  0
LINE
  5
1159
330
1F
100
AcDbEntity
  8
0
100
AcDbLine
 10
-115.9371783128338
 20
1151.533252395624
 30
0.0
 11
-105.9371785567
 21
1151.535460862705
 31
0.0
  0
LINE
  5
115A
330
1F
100
AcDbEntity
  8
0
100
AcDbLine
 10
-105.9371785567
 20
1151.535460862705
 30
0.0
 11
-105.9447583332824
 21
1148.528726985369
 31
0.0
  0
LINE
  5
115B
330
1F
100
AcDbEntity
  8
0
100
AcDbLine
 10
6.061443934737326
 20
1151.553459743762
 30
0.0
 11
6.062106474174468
 21
1148.553462933146
 31
0.0
  0
LINE
  5
115C
330
1F
100
AcDbEntity
  8
0
100
AcDbLine
 10
16.05889617564571
 20
1151.555667642508
 30
0.0
 11
16.05547088802143
 21
1148.555669899127
 31
0.0
  0
LINE
  5
115D
330
1F
100
AcDbEntity
  8
0
100
AcDbLine
 10
-55.96858726294795
 20
1148.539763879937
 30
0.0
 11
-55.9730417689002
 21
1151.53975966699
 31
0.0
  0
LINE
  5
115E
330
1F
100
AcDbEntity
  8
0
100
AcDbLine
 10
-45.97511742859135
 20
1151.541967669997
 30
0.0
 11
-45.97445488918936
 21
1148.541971015516
 31
0.0
  0
LINE
  5
115F
330
1F
100
AcDbEntity
  8
0
100
AcDbLine
 10
-55.9730417689002
 20
1151.53975966699
 30
0.0
 11
-45.97511742859135
 21
1151.541967669997
 31
0.0
  0
LINE
  5
1160
330
1F
100
AcDbEntity
  8
0
100
AcDbLine
 10
6.061443934737326
 20
1151.553459743762
 30
0.0
 11
16.05889617564571
 21
1151.555667642508
 31
0.0
  0
LINE
  5
1161
330
1F
100
AcDbEntity
  8
0
100
AcDbLine
 10
-140.524108270883
 20
1148.521090320891
 30
0.0
 11
-115.934963559376
 21
1148.526520717073
 31
0.0
  0
LINE
  5
1162
330
1F
100
AcDbEntity
  8
0
100
AcDbLine
 10
-105.9447583332824
 20
1148.528726985369
 30
0.0
 11
-55.96858726294795
 21
1148.539763879937
 31
0.0
  0
LINE
  5
1163
330
1F
100
AcDbEntity
  8
0
100
AcDbLine
 10
-45.97445488918936
 20
1148.541971015516
 30
0.0
 11
6.062106474174468
 21
1148.553462933146
 31
0.0
  0
LINE
  5
1164
330
1F
100
AcDbEntity
  8
0
100
AcDbLine
 10
6.061443751885347
 20
1151.554563691782
 30
0.0
 11
16.05889617564548
 21
1151.555667642509
 31
0.0
  0
LINE
  5
1166
330
1F
100
AcDbEntity
  8
0
100
AcDbLine
 10
-115.9371784957343
 20
1151.5343566364
 30
0.0
 11
-105.9371785567
 21
1151.535460862705
 31
0.0
  0
LINE
  5
1167
330
1F
100
AcDbEntity
  8
0
100
AcDbLine
 10
26.42708003853568
 20
1148.5568151595
 30
0.0
 11
33.56765838986223
 21
1085.286655535662
 31
0.0
  0
SPLINE
  5
1168
330
1F
100
AcDbEntity
  8
0
100
AcDbSpline
210
0.0
220
0.0
230
1.0
 70
     8
 71
     3
 72
    10
 73
     6
 74
     0
 42
0.0000000001
 43
0.0000000001
 40
1.882077460637054
 40
1.882077460637054
 40
1.882077460637054
 40
1.882077460637054
 40
5.254381357790103
 40
18.25336091719342
 40
49.07708684588351
 40
49.07708684588351
 40
49.07708684588351
 40
49.07708684588351
 10
-140.524108270883
 20
1148.521090320891
 30
0.0
 10
-140.2565741538656
 20
1147.414469208245
 30
0.0
 10
-138.7009659941934
 20
1142.191786196015
 30
0.0
 10
-124.1819159905706
 20
1132.978994571309
 30
0.0
 10
-110.5598859326615
 20
1128.598850840392
 30
0.0
 10
-100.9785121580216
 20
1125.517974194683
 30
0.0
  0
SPLINE
  5
1169
330
1F
100
AcDbEntity
  8
0
100
AcDbSpline
210
0.0
220
0.0
230
1.0
 70
     8
 71
     3
 72
    10
 73
     6
 74
     4
 42
0.0000000001
 43
0.0000000001
 44
0.0000000001
 40
0.0
 40
0.0
 40
0.0
 40
0.0
 40
4.281401921823458
 40
10.10055028827417
 40
19.60045194195244
 40
19.60045194195244
 40
19.60045194195244
 40
19.60045194195244
 10
-100.9785121580216
 20
1125.517974194683
 30
0.0
 10
-99.75293747798716
 20
1124.776906722235
 30
0.0
 10
-96.86159980080615
 20
1123.028603383949
 30
0.0
 10
-92.46316504465776
 20
1118.032270912431
 30
0.0
 10
-90.32210636186121
 20
1113.374260285049
 30
0.0
 10
-88.99435778119892
 20
1110.485658002025
 30
0.0
 11
-100.9785121580216
 21
1125.517974194683
 31
0.0
 11
-97.41403429893649
 21
1123.146287029755
 31
0.0
 11
-93.47623950395293
 21
1118.861866431428
 31
0.0
 11
-88.99435778119892
 21
1110.485658002025
 31
0.0
  0
SPLINE
  5
116A
330
1F
100
AcDbEntity
  8
0
100
AcDbSpline
210
0.0
220
0.0
230
1.0
 70
     8
 71
     3
 72
    13
 73
     9
 74
     7
 42
0.0000000001
 43
0.0000000001
 44
0.0000000001
 40
0.0
 40
0.0
 40
0.0
 40
0.0
 40
6.411040704880814
 40
12.31485977529695
 40
17.49180716028313
 40
25.66832660849665
 40
42.66722248626559
 40
70.40015035179028
 40
70.40015035179028
 40
70.40015035179028
 40
70.40015035179028
 10
-88.99435778119892
 20
1110.485658002025
 30
0.0
 10
-87.93357243473211
 20
1108.637391907125
 30
0.0
 10
-85.89592778470159
 20
1105.087088791938
 30
0.0
 10
-82.90615001396528
 20
1099.990993405837
 30
0.0
 10
-77.35936821906197
 20
1096.285153189207
 30
0.0
 10
-66.96989837847741
 20
1095.642462115924
 30
0.0
 10
-49.58205315487908
 20
1098.106228782055
 30
0.0
 10
-34.61688291757911
 20
1097.629610023505
 30
0.0
 10
-25.33874596818725
 20
1097.334114947648
 30
0.0
 11
-88.99435778119892
 21
1110.485658002025
 31
0.0
 11
-85.79377140162547
 21
1104.930688177937
 31
0.0
 11
-82.41353153918863
 21
1100.090330950562
 31
0.0
 11
-78.11445054720571
 21
1097.206117565376
 31
0.0
 11
-70.02601633196514
 21
1096.00916216406
 31
0.0
 11
-53.07150286444334
 21
1097.236734623368
 31
0.0
 11
-25.33874596818725
 21
1097.334114947648
 31
0.0
  0
LINE
  5
116B
330
1F
100
AcDbEntity
  8
0
100
AcDbLine
 10
-25.33874596829821
 20
1097.334114947671
 30
0.0
 11
33.53113183403458
 21
1085.29092128963
 31
0.0
  0
LINE
  5
1174
330
1F
100
AcDbEntity
  8
0
100
AcDbLine
 10
5.664701324613927
 20
1097.885849283497
 30
0.0
 11
5.662350378733205
 21
1094.885850204655
 31
0.0
  0
LINE
  5
1175
330
1F
100
AcDbEntity
  8
0
100
AcDbLine
 10
18.73105977398006
 20
1094.875608925338
 30
0.0
 11
18.73341065055092
 21
1097.875519559081
 31
0.0
  0
LINE
  5
1176
330
1F
100
AcDbEntity
  8
0
100
AcDbLine
 10
5.662350378532892
 20
1094.885850204656
 30
0.0
 11
18.73105977377974
 21
1094.875608925338
 31
0.0
  0
LINE
  5
1177
330
1F
100
AcDbEntity
  8
0
100
AcDbLine
 10
5.664701324413384
 20
1097.885849283497
 30
0.0
 11
5.662350378532892
 21
1094.885850204656
 31
0.0
  0
LINE
  5
1178
330
1F
100
AcDbEntity
  8
0
100
AcDbLine
 10
18.73105977377974
 20
1094.875608925338
 30
0.0
 11
18.7334106503506
 21
1097.875519559082
 31
0.0
  0
LINE
  5
1179
330
1F
100
AcDbEntity
  8
0
100
AcDbLine
 10
5.664701324613927
 20
1097.885849283497
 30
0.0
 11
18.73341065055092
 21
1097.875519559081
 31
0.0
  0
LINE
  5
117A
330
1F
100
AcDbEntity
  8
0
100
AcDbLine
 10
18.73105970467043
 20
1094.875520480239
 30
0.0
 11
18.73341065055092
 21
1097.875519559081
 31
0.0
  0
LINE
  5
117B
330
1F
100
AcDbEntity
  8
0
100
AcDbLine
 10
18.73105977398006
 20
1094.875608925338
 30
0.0
 11
18.73341065055092
 21
1097.875519559081
 31
0.0
  0
LINE
  5
117C
330
1F
100
AcDbEntity
  8
0
100
AcDbLine
 10
5.662350447842642
 20
1094.885938649754
 30
0.0
 11
5.664701324413384
 21
1097.885849283497
 31
0.0
  0
LINE
  5
117D
330
1F
100
AcDbEntity
  8
0
100
AcDbLine
 10
5.662350378532892
 20
1094.885850204656
 30
0.0
 11
5.664701324413384
 21
1097.885849283497
 31
0.0
  0
LINE
  5
117E
330
1F
100
AcDbEntity
  8
0
100
AcDbLine
 10
5.662350447642324
 20
1094.885938649754
 30
0.0
 11
5.664701324213067
 21
1097.885849283498
 31
0.0
  0
LINE
  5
117F
330
1F
100
AcDbEntity
  8
0
100
AcDbLine
 10
5.662350447842642
 20
1094.885938649754
 30
0.0
 11
5.664701324413384
 21
1097.885849283497
 31
0.0
  0
LINE
  5
1181
330
1F
100
AcDbEntity
  8
0
100
AcDbLine
 10
16.05547088802143
 20
1148.555669899127
 30
0.0
 11
26.42708003853591
 21
1148.5568151595
 31
0.0
  0
LINE
  5
1213
330
1F
100
AcDbEntity
  8
0
100
AcDbLine
 10
-153.1808999655034
 20
1017.212143020823
 30
0.0
 11
-153.171037304902
 21
1014.212159232879
 31
0.0
  0
LINE
  5
1214
330
1F
100
AcDbEntity
  8
0
100
AcDbLine
 10
-143.1710913450893
 20
1014.245034768217
 30
0.0
 11
-143.1809540056907
 21
1017.245018556161
 31
0.0
  0
LINE
  5
1215
330
1F
100
AcDbEntity
  8
0
100
AcDbLine
 10
-83.18127824681395
 20
1017.44227176819
 30
0.0
 11
-83.17141558621264
 21
1014.442287980246
 31
0.0
  0
LINE
  5
1216
330
1F
100
AcDbEntity
  8
0
100
AcDbLine
 10
-168.3840574631467
 20
1052.096267495495
 30
0.0
 11
-153.1808999655034
 21
1017.212143020823
 31
0.0
  0
SPLINE
  5
1217
330
1F
100
AcDbEntity
  8
0
100
AcDbSpline
210
0.0
220
0.0
230
1.0
 70
     8
 71
     3
 72
    11
 73
     7
 74
     5
 42
0.0000000001
 43
0.0000000001
 44
0.0000000001
 40
0.0
 40
0.0
 40
0.0
 40
0.0
 40
13.65464550034572
 40
40.17035788178314
 40
87.2675275829742
 40
137.7850323927164
 40
137.7850323927164
 40
137.7850323927164
 40
137.7850323927164
 10
-42.00685849719405
 20
1016.082850719209
 30
0.0
 10
-44.29668341258883
 20
1020.089132258391
 30
0.0
 10
-51.03307846112406
 20
1031.875140412179
 30
0.0
 10
-78.40062235310352
 20
1045.461614242046
 30
0.0
 10
-118.753016523889
 20
1054.797367019387
 30
0.0
 10
-151.4583876940291
 20
1053.017423241772
 30
0.0
 10
-168.3840574631467
 20
1052.096267495495
 30
0.0
 11
-42.00685849719405
 21
1016.082850719209
 31
0.0
 11
-49.553566997269
 21
1027.46250513202
 31
0.0
 11
-72.05577615365502
 21
1041.488680169334
 31
0.0
 11
-117.8675693168208
 21
1052.416763305827
 31
0.0
 11
-168.3840574631467
 21
1052.096267495495
 31
0.0
  0
SPLINE
  5
1218
330
1F
100
AcDbEntity
  8
0
100
AcDbSpline
210
0.0
220
0.0
230
1.0
 70
     8
 71
     3
 72
    11
 73
     7
 74
     5
 42
0.0000000001
 43
0.0000000001
 44
0.0000000001
 40
0.0
 40
0.0
 40
0.0
 40
0.0
 40
13.6546455003454
 40
40.17035788178287
 40
87.26752758297379
 40
137.785032392716
 40
137.785032392716
 40
137.785032392716
 40
137.785032392716
 10
-42.00685849719405
 20
1016.082850719209
 30
0.0
 10
-44.27062958987838
 20
1012.061789869845
 30
0.0
 10
-50.93037736240489
 20
1000.232302727226
 30
0.0
 10
-78.20915213448755
 20
986.4684668976657
 30
0.0
 10
-118.5000959062824
 20
976.8709752872435
 30
0.0
 10
-151.2163320109945
 20
978.4385844122581
 30
0.0
 10
-168.1476245964279
 20
979.2498528194878
 30
0.0
 11
-42.00685849719405
 21
1016.082850719209
 31
0.0
 11
-49.47954037351046
 21
1004.654448848629
 31
0.0
 11
-71.89022872409934
 21
990.4825029431474
 31
0.0
 11
-117.6301203321448
 21
979.2572764622683
 31
0.0
 11
-168.1476245964279
 21
979.2498528194878
 31
0.0
  0
LINE
  5
1219
330
1F
100
AcDbEntity
  8
0
100
AcDbLine
 10
-168.1476245964279
 20
979.2498528194878
 30
0.0
 11
-153.1712272791908
 21
1014.231929110909
 31
0.0
  0
LINE
  5
121A
330
1F
100
AcDbEntity
  8
0
100
AcDbLine
 10
-83.17158650537662
 20
1014.456186857604
 30
0.0
 11
-83.18119755166362
 21
1017.456171462197
 31
0.0
  0
LINE
  5
121B
330
1F
100
AcDbEntity
  8
0
100
AcDbLine
 10
-143.1808896435043
 20
1017.263950536458
 30
0.0
 11
-143.1712785972175
 21
1014.263965931866
 31
0.0
  0
LINE
  5
121C
330
1F
100
AcDbEntity
  8
0
100
AcDbLine
 10
-153.1712272791908
 20
1014.231929110909
 30
0.0
 11
-153.1808383254777
 21
1017.231913715501
 31
0.0
  0
LINE
  5
121D
330
1F
100
AcDbEntity
  8
0
100
AcDbLine
 10
-83.18127824681395
 20
1017.44227176819
 30
0.0
 11
-143.1808896435043
 21
1017.263950536458
 31
0.0
  0
LINE
  5
121E
330
1F
100
AcDbEntity
  8
0
100
AcDbLine
 10
-83.17141558621264
 20
1014.442287980246
 30
0.0
 11
-143.1710913450893
 21
1014.245034768217
 31
0.0
  0
LINE
  5
121F
330
1F
100
AcDbEntity
  8
0
100
AcDbLine
 10
-143.1760537948331
 20
1015.75449244718
 30
0.0
 11
-153.1760011333089
 21
1015.722036267947
 31
0.0
  0
LINE
  5
1220
330
1F
100
AcDbEntity
  8
0
100
AcDbLine
 10
-142.428644561565
 20
925.9688819401073
 30
0.0
 11
-152.4285919000407
 21
925.9364257608735
 31
0.0
  0
LINE
  5
1221
330
1F
100
AcDbEntity
  8
0
100
AcDbLine
 10
-82.42400635294433
 20
924.6566774731732
 30
0.0
 11
-142.4236821118212
 21
924.4594242611446
 31
0.0
  0
LINE
  5
1222
330
1F
100
AcDbEntity
  8
0
100
AcDbLine
 10
-82.43386901354581
 20
927.6566612611173
 30
0.0
 11
-142.4334804102363
 21
927.4783400293843
 31
0.0
  0
LINE
  5
1223
330
1F
100
AcDbEntity
  8
0
100
AcDbLine
 10
-152.4238180459228
 20
924.4463186038355
 30
0.0
 11
-152.4334290922096
 21
927.4463032084282
 31
0.0
  0
LINE
  5
1224
330
1F
100
AcDbEntity
  8
0
100
AcDbLine
 10
-142.4334804102363
 20
927.4783400293843
 30
0.0
 11
-142.4238693639494
 21
924.4783554247927
 31
0.0
  0
LINE
  5
1225
330
1F
100
AcDbEntity
  8
0
100
AcDbLine
 10
-82.42417727210847
 20
924.6705763505316
 30
0.0
 11
-82.43378831839542
 21
927.6705609551235
 31
0.0
  0
LINE
  5
1226
330
1F
100
AcDbEntity
  8
0
100
AcDbLine
 10
-167.4002153631597
 20
889.4642423124148
 30
0.0
 11
-152.4238180459228
 21
924.4463186038355
 31
0.0
  0
SPLINE
  5
1227
330
1F
100
AcDbEntity
  8
0
100
AcDbSpline
210
0.0
220
0.0
230
1.0
 70
     8
 71
     3
 72
    11
 73
     7
 74
     5
 42
0.0000000001
 43
0.0000000001
 44
0.0000000001
 40
0.0
 40
0.0
 40
0.0
 40
0.0
 40
13.65464550034556
 40
40.17035788178312
 40
87.26752758297406
 40
137.7850323927161
 40
137.7850323927161
 40
137.7850323927161
 40
137.7850323927161
 10
-41.25944926392588
 20
926.2972402121359
 30
0.0
 10
-43.52322035661026
 20
922.2761793627723
 30
0.0
 10
-50.18296812913686
 20
910.4466922201529
 30
0.0
 10
-77.46174290121922
 20
896.6828563905918
 30
0.0
 10
-117.7526866730145
 20
887.0853647801709
 30
0.0
 10
-150.4689227777264
 20
888.6529739051852
 30
0.0
 10
-167.4002153631597
 20
889.4642423124148
 30
0.0
 11
-41.25944926392588
 21
926.2972402121359
 31
0.0
 11
-48.73213114024242
 21
914.8688383415558
 31
0.0
 11
-71.14281949083118
 21
900.6968924360739
 31
0.0
 11
-116.8827110988768
 21
889.4716659551953
 31
0.0
 11
-167.4002153631597
 21
889.4642423124148
 31
0.0
  0
SPLINE
  5
1228
330
1F
100
AcDbEntity
  8
0
100
AcDbSpline
210
0.0
220
0.0
230
1.0
 70
     8
 71
     3
 72
    11
 73
     7
 74
     5
 42
0.0000000001
 43
0.0000000001
 44
0.0000000001
 40
0.0
 40
0.0
 40
0.0
 40
0.0
 40
13.6546455003459
 40
40.17035788178349
 40
87.26752758297424
 40
137.7850323927165
 40
137.7850323927165
 40
137.7850323927165
 40
137.7850323927165
 10
-41.25944926392588
 20
926.2972402121359
 30
0.0
 10
-43.54927417932066
 20
930.3035217513185
 30
0.0
 10
-50.2856692278558
 20
942.0895299051059
 30
0.0
 10
-77.65321311983531
 20
955.6760037349746
 30
0.0
 10
-118.0056072906212
 20
965.011756512313
 30
0.0
 10
-150.7109784607611
 20
963.2318127346987
 30
0.0
 10
-167.6366482298787
 20
962.3106569884219
 30
0.0
 11
-41.25944926392588
 21
926.2972402121359
 31
0.0
 11
-48.80615776400081
 21
937.676894624947
 31
0.0
 11
-71.30836692038696
 21
951.7030696622612
 31
0.0
 11
-117.1201600835527
 21
962.6311527987532
 31
0.0
 11
-167.6366482298787
 21
962.3106569884219
 31
0.0
  0
LINE
  5
1229
330
1F
100
AcDbEntity
  8
0
100
AcDbLine
 10
-167.6366482298787
 20
962.3106569884219
 30
0.0
 11
-152.4334907322353
 21
927.4265325137504
 31
0.0
  0
LINE
  5
122A
330
1F
100
AcDbEntity
  8
0
100
AcDbLine
 10
-82.43386901354581
 20
927.6566612611173
 30
0.0
 11
-82.42400635294433
 21
924.6566774731732
 31
0.0
  0
LINE
  5
122B
330
1F
100
AcDbEntity
  8
0
100
AcDbLine
 10
-142.4236821118212
 20
924.4594242611446
 30
0.0
 11
-142.4335447724226
 21
927.4594080490883
 31
0.0
  0
LINE
  5
122C
330
1F
100
AcDbEntity
  8
0
100
AcDbLine
 10
-152.4334907322353
 20
927.4265325137504
 30
0.0
 11
-152.4236280716339
 21
924.4265487258065
 31
0.0
  0
LINE
  5
122D
330
1F
100
AcDbEntity
  8
0
100
AcDbLine
 10
-72.48323635674019
 20
942.6894557361743
 30
0.0
 11
-82.48318231655295
 21
942.656580200836
 31
0.0
  0
LINE
  5
122E
330
1F
100
AcDbEntity
  8
0
100
AcDbLine
 10
-72.48323635674019
 20
942.6894557361743
 30
0.0
 11
-72.49309901734155
 21
945.6894395241182
 31
0.0
  0
LINE
  5
122F
330
1F
100
AcDbEntity
  8
0
100
AcDbLine
 10
-72.49309901734155
 20
945.6894395241182
 30
0.0
 11
-82.49307818399215
 21
945.669027112334
 31
0.0
  0
LINE
  5
1230
330
1F
100
AcDbEntity
  8
0
100
AcDbLine
 10
-82.49307818399215
 20
945.669027112334
 30
0.0
 11
-82.48364765249453
 21
942.6690419348579
 31
0.0
  0
LINE
  5
1231
330
1F
100
AcDbEntity
  8
0
100
AcDbLine
 10
-150.4927107107191
 20
945.445473472035
 30
0.0
 11
-150.48281484328
 21
942.433026560537
 31
0.0
  0
LINE
  5
1232
330
1F
100
AcDbEntity
  8
0
100
AcDbLine
 10
-150.4927107107191
 20
945.445473472035
 30
0.0
 11
-140.4927647509064
 21
945.4783490073726
 31
0.0
  0
LINE
  5
1233
330
1F
100
AcDbEntity
  8
0
100
AcDbLine
 10
-140.4927647509064
 20
945.4783490073726
 30
0.0
 11
-140.4910975508893
 21
942.4783494706323
 31
0.0
  0
LINE
  5
1234
330
1F
100
AcDbEntity
  8
0
100
AcDbLine
 10
-140.4910975508893
 20
942.4783494706323
 30
0.0
 11
-150.48281484328
 21
942.433026560537
 31
0.0
  0
LINE
  5
1269
330
1F
100
AcDbEntity
  8
0
100
AcDbLine
 10
-231.4563771774901
 20
791.6921547896762
 30
0.0
 11
-231.4559555302044
 21
732.5800407146878
 31
0.0
  0
LINE
  5
126A
330
1F
100
AcDbEntity
  8
0
100
AcDbLine
 10
-231.4564232602277
 20
801.6921547896764
 30
0.0
 11
-231.4565117053535
 21
814.7608681977057
 31
0.0
  0
LINE
  5
126B
330
1F
100
AcDbEntity
  8
0
100
AcDbLine
 10
-228.4565117053535
 20
791.6921547896762
 30
0.0
 11
-231.4563771774901
 21
791.6921547896762
 31
0.0
  0
LINE
  5
126C
330
1F
100
AcDbEntity
  8
0
100
AcDbLine
 10
-228.4565117053535
 20
801.6921547896764
 30
0.0
 11
-228.4565117053535
 21
791.6921547896762
 31
0.0
  0
LINE
  5
126D
330
1F
100
AcDbEntity
  8
0
100
AcDbLine
 10
-246.4561557299912
 20
762.2044438526402
 30
0.0
 11
-246.4559555302044
 21
732.5800407146878
 31
0.0
  0
LINE
  5
126E
330
1F
100
AcDbEntity
  8
0
100
AcDbLine
 10
-246.4564225542692
 20
801.6875527517431
 30
0.0
 11
-246.4562233093396
 21
772.2044438526402
 31
0.0
  0
LINE
  5
126F
330
1F
100
AcDbEntity
  8
0
100
AcDbLine
 10
-231.4559555302044
 20
709.2531140970695
 30
0.0
 11
-231.4559555302044
 21
722.5800407146878
 31
0.0
  0
LINE
  5
1270
330
1F
100
AcDbEntity
  8
0
100
AcDbLine
 10
-249.4562233093398
 20
772.2044438526402
 30
0.0
 11
-249.4561557299912
 21
762.2044438526402
 31
0.0
  0
LINE
  5
1271
330
1F
100
AcDbEntity
  8
0
100
AcDbLine
 10
-228.4565117053535
 20
732.5222761791762
 30
0.0
 11
-228.4565117053535
 21
722.5800407146878
 31
0.0
  0
LINE
  5
1272
330
1F
100
AcDbEntity
  8
0
100
AcDbLine
 10
-249.4562233093398
 20
772.2044438526402
 30
0.0
 11
-246.4562233093396
 21
772.2044438526402
 31
0.0
  0
LINE
  5
1273
330
1F
100
AcDbEntity
  8
0
100
AcDbLine
 10
-249.4561557299912
 20
762.2044438526402
 30
0.0
 11
-246.4561557299912
 21
762.2044438526402
 31
0.0
  0
LINE
  5
1274
330
1F
100
AcDbEntity
  8
0
100
AcDbLine
 10
-231.4560784961134
 20
722.5800407146878
 30
0.0
 11
-228.4565117053535
 21
722.5800407146878
 31
0.0
  0
LINE
  5
1275
330
1F
100
AcDbEntity
  8
0
100
AcDbLine
 10
-231.4565117053535
 20
814.7608681977057
 30
0.0
 11
-249.4564225542692
 21
801.6875527517431
 31
0.0
  0
LINE
  5
1276
330
1F
100
AcDbEntity
  8
0
100
AcDbLine
 10
-231.4559555302044
 20
709.2531140970695
 30
0.0
 11
-249.4559555302044
 21
732.5800407146878
 31
0.0
  0
LINE
  5
1277
330
1F
100
AcDbEntity
  8
0
100
AcDbLine
 10
-246.4559555302044
 20
732.5800407146878
 30
0.0
 11
-249.4559555302044
 21
732.5800407146878
 31
0.0
  0
LINE
  5
1278
330
1F
100
AcDbEntity
  8
0
100
AcDbLine
 10
-246.4564225542692
 20
801.6875527517431
 30
0.0
 11
-249.4564225542692
 21
801.6875527517431
 31
0.0
  0
LINE
  5
1279
330
1F
100
AcDbEntity
  8
0
100
AcDbLine
 10
-228.4565117053535
 20
732.5222761791762
 30
0.0
 11
-231.4559555302044
 21
732.5800407146878
 31
0.0
  0
LINE
  5
127A
330
1F
100
AcDbEntity
  8
0
100
AcDbLine
 10
-228.4565117053535
 20
801.6921547896764
 30
0.0
 11
-231.4564232602277
 21
801.6921547896764
 31
0.0
  0
LINE
  5
128D
330
1F
100
AcDbEntity
  8
0
100
AcDbLine
 10
-267.3780959324609
 20
562.9910656879363
 30
0.0
 11
-267.3780959324609
 21
562.9910656879363
 31
0.0
  0
LINE
  5
128E
330
1F
100
AcDbEntity
  8
0
100
AcDbLine
 10
-267.3774299988376
 20
579.7289353429887
 30
0.0
 11
-267.3790905826124
 21
537.9910897120065
 31
0.0
  0
LINE
  5
128F
330
1F
100
AcDbEntity
  8
0
100
AcDbLine
 10
-267.3434375577963
 20
594.7253750223072
 30
0.0
 11
-267.3770321383949
 21
589.7289353350742
 31
0.0
  0
LINE
  5
1290
330
1F
100
AcDbEntity
  8
0
100
AcDbLine
 10
-267.3295742079304
 20
527.9910993216344
 30
0.0
 11
-264.3300145504
 21
528.0424983577826
 31
0.0
  0
LINE
  5
1291
330
1F
100
AcDbEntity
  8
0
100
AcDbLine
 10
-267.3434375577963
 20
537.9910897120065
 30
0.0
 11
-264.3437015784648
 21
537.9910897120065
 31
0.0
  0
LINE
  5
1292
330
1F
100
AcDbEntity
  8
0
100
AcDbLine
 10
-267.3774299988376
 20
579.7289353429887
 30
0.0
 11
-264.377439525308
 21
579.7364956823905
 31
0.0
  0
LINE
  5
1293
330
1F
100
AcDbEntity
  8
0
100
AcDbLine
 10
-267.3770321383949
 20
589.7289353350742
 30
0.0
 11
-264.3770588104228
 21
589.716284981102
 31
0.0
  0
LINE
  5
1294
330
1F
100
AcDbEntity
  8
0
100
AcDbLine
 10
-264.3770588104228
 20
589.716284981102
 30
0.0
 11
-264.377439525308
 21
579.7364956823905
 31
0.0
  0
LINE
  5
1295
330
1F
100
AcDbEntity
  8
0
100
AcDbLine
 10
-264.3437015784648
 20
537.9910897120065
 30
0.0
 11
-264.3300145504
 21
528.0424983577826
 31
0.0
  0
LINE
  5
1296
330
1F
100
AcDbEntity
  8
0
100
AcDbLine
 10
-282.3434375577964
 20
562.9910656879363
 30
0.0
 11
-282.3434375577964
 21
619.8322302619657
 31
0.0
  0
LINE
  5
1297
330
1F
100
AcDbEntity
  8
0
100
AcDbLine
 10
-282.3434375577964
 20
619.8322302619657
 30
0.0
 11
-267.3434375577963
 21
594.7253750223072
 31
0.0
  0
LINE
  5
1298
330
1F
100
AcDbEntity
  8
0
100
AcDbLine
 10
-282.3434375577964
 20
562.9910656879363
 30
0.0
 11
-285.3434125115625
 21
563.0033244307424
 31
0.0
  0
LINE
  5
1299
330
1F
100
AcDbEntity
  8
0
100
AcDbLine
 10
-285.3434125115625
 20
563.0033244307424
 30
0.0
 11
-267.3295742079304
 21
527.9910993216344
 31
0.0
  0
MTEXT
  5
129B
330
1F
100
AcDbEntity
  8
0
100
AcDbMText
 10
-267.0956450142238
 20
623.0079833508189
 30
0.0
 40
2.5
 41
53.61222530905251
 71
     1
 72
     5
  1
{\H1.6x;AVANT}
 73
     1
 44
1.0
  0
MTEXT
  5
12A2
330
1F
100
AcDbEntity
  8
0
100
AcDbMText
 10
-265.9638978301737
 20
821.3237027334194
 30
0.0
 40
2.5
 41
53.61222530905251
 71
     1
 72
     5
  1
{\H1.6x;AVANT}
 73
     1
 44
1.0
  0
MTEXT
  5
12D5
330
1F
100
AcDbEntity
  8
0
100
AcDbMText
 10
-143.2296856076391
 20
440.5191829142077
 30
0.0
 40
8.0
 41
444.9146667154416
 71
     1
 72
     5
  1
{\H2.5x;MORBACK 4D\H0.6x;\P\PEnvergure:  88.5  cm   \P\Plongueur:  94 cm}\P 
 73
     1
 44
1.0
  0
MTEXT
  5
1323
330
1F
100
AcDbEntity
  8
0
100
AcDbMText
 10
-634.1680743699567
 20
723.7234525548323
 30
0.0
 40
2.5
 41
612.2093182843817
 71
     1
 72
     5
  1
Emplacement plat carbone 3x1 mm
 73
     1
 44
1.0
  0
LINE
  5
1324
330
1F
100
AcDbEntity
  8
0
100
AcDbLine
 10
-634.2229294708397
 20
724.1774754650236
 30
0.0
 11
-653.4767368997331
 21
732.7594469456855
 31
0.0
  0
LINE
  5
134D
330
1F
100
AcDbEntity
  8
0
 62
     1
100
AcDbLine
 10
-983.6084382615823
 20
491.1249695298353
 30
0.0
 11
-983.6084382615823
 21
301.1250431310872
 31
0.0
  0
LINE
  5
1354
330
1F
100
AcDbEntity
  8
0
 62
     1
100
AcDbLine
 10
-1253.608438261582
 20
491.1249695298353
 30
0.0
 11
-1253.608438261582
 21
301.1250431310872
 31
0.0
  0
LINE
  5
1355
330
1F
100
AcDbEntity
  8
0
 62
     1
100
AcDbLine
 10
-1253.608438261582
 20
301.1250431310872
 30
0.0
 11
-983.6084382615823
 21
301.1250431310872
 31
0.0
  0
LINE
  5
1356
330
1F
100
AcDbEntity
  8
0
 62
     1
100
AcDbLine
 10
-1253.608438261582
 20
491.1249695298353
 30
0.0
 11
-983.6084382615823
 21
491.1249695298353
 31
0.0
  0
LINE
  5
1360
330
1F
100
AcDbEntity
  8
0
 62
     1
100
AcDbLine
 10
-983.6084420837892
 20
491.1249727331932
 30
0.0
 11
-713.6084420837891
 21
491.1249727331932
 31
0.0
  0
LINE
  5
1361
330
1F
100
AcDbEntity
  8
0
 62
     1
100
AcDbLine
 10
-983.6084420837892
 20
301.1250463344449
 30
0.0
 11
-713.6084420837891
 21
301.1250463344449
 31
0.0
  0
LINE
  5
1362
330
1F
100
AcDbEntity
  8
0
 62
     1
100
AcDbLine
 10
-983.6084420837892
 20
491.1249727331932
 30
0.0
 11
-983.6084420837892
 21
301.1250463344449
 31
0.0
  0
LINE
  5
1363
330
1F
100
AcDbEntity
  8
0
 62
     1
100
AcDbLine
 10
-713.6084420837891
 20
491.1249727331932
 30
0.0
 11
-713.6084420837891
 21
301.1250463344449
 31
0.0
  0
LINE
  5
1371
330
1F
100
AcDbEntity
  8
0
 62
     1
100
AcDbLine
 10
-173.6084497282027
 20
491.1249791399085
 30
0.0
 11
-173.6084497282027
 21
301.1250527411602
 31
0.0
  0
LINE
  5
1372
330
1F
100
AcDbEntity
  8
0
 62
     1
100
AcDbLine
 10
-443.6084497282027
 20
491.1249791399085
 30
0.0
 11
-443.6084497282027
 21
301.1250527411602
 31
0.0
  0
LINE
  5
1373
330
1F
100
AcDbEntity
  8
0
 62
     1
100
AcDbLine
 10
-443.6084497282027
 20
301.1250527411602
 30
0.0
 11
-173.6084497282027
 21
301.1250527411602
 31
0.0
  0
LINE
  5
1374
330
1F
100
AcDbEntity
  8
0
 62
     1
100
AcDbLine
 10
-443.6084497282027
 20
491.1249791399085
 30
0.0
 11
-173.6084497282027
 21
491.1249791399085
 31
0.0
  0
LINE
  5
1375
330
1F
100
AcDbEntity
  8
0
 62
     1
100
AcDbLine
 10
-713.6084459059959
 20
491.1249759365508
 30
0.0
 11
-443.6084459059959
 21
491.1249759365508
 31
0.0
  0
LINE
  5
1376
330
1F
100
AcDbEntity
  8
0
 62
     1
100
AcDbLine
 10
-713.6084459059959
 20
301.1250495378025
 30
0.0
 11
-443.6084459059959
 21
301.1250495378025
 31
0.0
  0
LINE
  5
1377
330
1F
100
AcDbEntity
  8
0
 62
     1
100
AcDbLine
 10
-713.6084459059959
 20
491.1249759365508
 30
0.0
 11
-713.6084459059959
 21
301.1250495378025
 31
0.0
  0
LINE
  5
1378
330
1F
100
AcDbEntity
  8
0
 62
     1
100
AcDbLine
 10
-443.6084459059959
 20
491.1249759365508
 30
0.0
 11
-443.6084459059959
 21
301.1250495378025
 31
0.0
  0
LINE
  5
138E
330
1F
100
AcDbEntity
  8
0
 62
     1
100
AcDbLine
 10
-443.6084497282027
 20
681.1249055386569
 30
0.0
 11
-443.6084497282027
 21
491.1249791399085
 31
0.0
  0
LINE
  5
138F
330
1F
100
AcDbEntity
  8
0
 62
     1
100
AcDbLine
 10
-713.6084497282028
 20
681.1249055386569
 30
0.0
 11
-713.6084497282028
 21
491.1249791399085
 31
0.0
  0
LINE
  5
1390
330
1F
100
AcDbEntity
  8
0
 62
     1
100
AcDbLine
 10
-713.6084497282028
 20
491.1249791399085
 30
0.0
 11
-443.6084497282027
 21
491.1249791399085
 31
0.0
  0
LINE
  5
1392
330
1F
100
AcDbEntity
  8
0
 62
     1
100
AcDbLine
 10
-443.6084535504092
 20
681.1249087420144
 30
0.0
 11
-173.6084535504094
 21
681.1249087420144
 31
0.0
  0
LINE
  5
1393
330
1F
100
AcDbEntity
  8
0
 62
     1
100
AcDbLine
 10
-443.6084535504092
 20
491.1249823432662
 30
0.0
 11
-173.6084535504094
 21
491.1249823432662
 31
0.0
  0
LINE
  5
1394
330
1F
100
AcDbEntity
  8
0
 62
     1
100
AcDbLine
 10
-443.6084535504092
 20
681.1249087420144
 30
0.0
 11
-443.6084535504092
 21
491.1249823432662
 31
0.0
  0
LINE
  5
1395
330
1F
100
AcDbEntity
  8
0
 62
     1
100
AcDbLine
 10
-173.6084535504094
 20
681.1249087420144
 30
0.0
 11
-173.6084535504094
 21
491.1249823432662
 31
0.0
  0
LINE
  5
1396
330
1F
100
AcDbEntity
  8
0
 62
     1
100
AcDbLine
 10
-713.6084459059959
 20
681.1249023352992
 30
0.0
 11
-713.6084459059959
 21
491.1249759365508
 31
0.0
  0
LINE
  5
1397
330
1F
100
AcDbEntity
  8
0
 62
     1
100
AcDbLine
 10
-983.6084459059959
 20
681.1249023352992
 30
0.0
 11
-983.6084459059959
 21
491.1249759365508
 31
0.0
  0
LINE
  5
1398
330
1F
100
AcDbEntity
  8
0
 62
     1
100
AcDbLine
 10
-983.6084459059959
 20
491.1249759365508
 30
0.0
 11
-713.6084459059959
 21
491.1249759365508
 31
0.0
  0
LINE
  5
139A
330
1F
100
AcDbEntity
  8
0
 62
     1
100
AcDbLine
 10
-1253.608442083789
 20
681.1248991319415
 30
0.0
 11
-983.6084420837892
 21
681.1248991319415
 31
0.0
  0
LINE
  5
139B
330
1F
100
AcDbEntity
  8
0
 62
     1
100
AcDbLine
 10
-1253.608442083789
 20
491.1249727331932
 30
0.0
 11
-983.6084420837892
 21
491.1249727331932
 31
0.0
  0
LINE
  5
139C
330
1F
100
AcDbEntity
  8
0
 62
     1
100
AcDbLine
 10
-1253.608442083789
 20
681.1248991319415
 30
0.0
 11
-1253.608442083789
 21
491.1249727331932
 31
0.0
  0
LINE
  5
139D
330
1F
100
AcDbEntity
  8
0
 62
     1
100
AcDbLine
 10
-983.6084420837892
 20
681.1248991319415
 30
0.0
 11
-983.6084420837892
 21
491.1249727331932
 31
0.0
  0
LINE
  5
13C4
330
1F
100
AcDbEntity
  8
0
 62
     1
100
AcDbLine
 10
-1253.608435250742
 20
1061.124758336154
 30
0.0
 11
-1253.608435250742
 21
871.1248319374051
 31
0.0
  0
LINE
  5
13C5
330
1F
100
AcDbEntity
  8
0
 62
     1
100
AcDbLine
 10
-1253.608435250742
 20
871.1248319374051
 30
0.0
 11
-983.6084352507423
 21
871.1248319374051
 31
0.0
  0
LINE
  5
13C6
330
1F
100
AcDbEntity
  8
0
 62
     1
100
AcDbLine
 10
-1253.608435250742
 20
1061.124758336154
 30
0.0
 11
-983.6084352507423
 21
1061.124758336154
 31
0.0
  0
LINE
  5
13D3
330
1F
100
AcDbEntity
  8
0
 62
     1
100
AcDbLine
 10
-443.6084390729488
 20
871.1248351407629
 30
0.0
 11
-443.6084390729488
 21
681.1249087420144
 31
0.0
  0
LINE
  5
13D4
330
1F
100
AcDbEntity
  8
0
 62
     1
100
AcDbLine
 10
-713.608439072949
 20
871.1248351407629
 30
0.0
 11
-713.608439072949
 21
681.1249087420144
 31
0.0
  0
LINE
  5
13D5
330
1F
100
AcDbEntity
  8
0
 62
     1
100
AcDbLine
 10
-713.6084535504094
 20
681.1249087420144
 30
0.0
 11
-443.6084535504092
 21
681.1249087420144
 31
0.0
  0
LINE
  5
13D8
330
1F
100
AcDbEntity
  8
0
 62
     1
100
AcDbLine
 10
-443.6084428951557
 20
681.1249119453722
 30
0.0
 11
-173.6084428951558
 21
681.1249119453722
 31
0.0
  0
LINE
  5
13D9
330
1F
100
AcDbEntity
  8
0
 62
     1
100
AcDbLine
 10
-443.6084428951557
 20
871.1248383441205
 30
0.0
 11
-443.6084428951557
 21
681.1249119453722
 31
0.0
  0
LINE
  5
13DA
330
1F
100
AcDbEntity
  8
0
 62
     1
100
AcDbLine
 10
-173.6084428951558
 20
871.1248383441205
 30
0.0
 11
-173.6084428951558
 21
681.1249119453722
 31
0.0
  0
LINE
  5
13DB
330
1F
100
AcDbEntity
  8
0
 62
     1
100
AcDbLine
 10
-713.6084352507422
 20
871.1248319374051
 30
0.0
 11
-713.6084352507422
 21
681.1249055386569
 31
0.0
  0
LINE
  5
13DC
330
1F
100
AcDbEntity
  8
0
 62
     1
100
AcDbLine
 10
-983.6084352507423
 20
871.1248319374051
 30
0.0
 11
-983.6084352507423
 21
681.1249055386569
 31
0.0
  0
LINE
  5
13DD
330
1F
100
AcDbEntity
  8
0
 62
     1
100
AcDbLine
 10
-983.6084207732822
 20
681.1249055386569
 30
0.0
 11
-713.6084207732823
 21
681.1249055386569
 31
0.0
  0
LINE
  5
13DF
330
1F
100
AcDbEntity
  8
0
 62
     1
100
AcDbLine
 10
-1253.608431428535
 20
871.1248287340477
 30
0.0
 11
-983.6084314285356
 21
871.1248287340477
 31
0.0
  0
LINE
  5
13E0
330
1F
100
AcDbEntity
  8
0
 62
     1
100
AcDbLine
 10
-1253.608431428535
 20
681.1249023352992
 30
0.0
 11
-983.6084314285356
 21
681.1249023352992
 31
0.0
  0
LINE
  5
13E1
330
1F
100
AcDbEntity
  8
0
 62
     1
100
AcDbLine
 10
-1253.608431428535
 20
871.1248287340477
 30
0.0
 11
-1253.608431428535
 21
681.1249023352992
 31
0.0
  0
LINE
  5
13E2
330
1F
100
AcDbEntity
  8
0
 62
     1
100
AcDbLine
 10
-983.6084314285356
 20
871.1248287340477
 30
0.0
 11
-983.6084314285356
 21
681.1249023352992
 31
0.0
  0
LINE
  5
13FC
330
1F
100
AcDbEntity
  8
0
 62
     1
100
AcDbLine
 10
96.39156550923008
 20
871.1248439258795
 30
0.0
 11
96.39156550923008
 21
681.1249175271313
 31
0.0
  0
LINE
  5
13FD
330
1F
100
AcDbEntity
  8
0
 62
     1
100
AcDbLine
 10
-173.6084344907699
 20
871.1248439258795
 30
0.0
 11
-173.6084344907699
 21
681.1249175271313
 31
0.0
  0
LINE
  5
13FE
330
1F
100
AcDbEntity
  8
0
 62
     1
100
AcDbLine
 10
-173.6084344907699
 20
681.1249175271313
 30
0.0
 11
96.39156550923008
 21
681.1249175271313
 31
0.0
  0
LINE
  5
13FF
330
1F
100
AcDbEntity
  8
0
 62
     1
100
AcDbLine
 10
-173.6084344907699
 20
871.1248439258795
 30
0.0
 11
96.39156550923008
 21
871.1248439258795
 31
0.0
  0
LINE
  5
1400
330
1F
100
AcDbEntity
  8
0
 62
     1
100
AcDbLine
 10
-173.6084306685632
 20
871.1248407225218
 30
0.0
 11
-173.6084306685632
 21
681.1249143237735
 31
0.0
  0
LINE
  5
1402
330
1F
100
AcDbEntity
  8
0
 62
     1
100
AcDbLine
 10
-173.6084383129766
 20
1061.124773527986
 30
0.0
 11
96.39156168702335
 21
1061.124773527986
 31
0.0
  0
LINE
  5
1403
330
1F
100
AcDbEntity
  8
0
 62
     1
100
AcDbLine
 10
-173.6084383129766
 20
871.1248471292371
 30
0.0
 11
96.39156168702335
 21
871.1248471292371
 31
0.0
  0
LINE
  5
1405
330
1F
100
AcDbEntity
  8
0
 62
     1
100
AcDbLine
 10
96.39156168702335
 20
1061.124773527986
 30
0.0
 11
96.39156168702335
 21
871.1248471292371
 31
0.0
  0
LINE
  5
1406
330
1F
100
AcDbEntity
  8
0
 62
     1
100
AcDbLine
 10
96.39155485397646
 20
681.1249143237735
 30
0.0
 11
96.39155485397646
 21
491.1249879250251
 31
0.0
  0
LINE
  5
1407
330
1F
100
AcDbEntity
  8
0
 62
     1
100
AcDbLine
 10
-173.6084451460235
 20
681.1249143237735
 30
0.0
 11
-173.6084451460235
 21
491.1249879250251
 31
0.0
  0
LINE
  5
1409
330
1F
100
AcDbEntity
  8
0
 62
     1
100
AcDbLine
 10
-173.6084451460235
 20
681.1249143237735
 30
0.0
 11
96.39155485397646
 21
681.1249143237735
 31
0.0
  0
LINE
  5
140A
330
1F
100
AcDbEntity
  8
0
 62
     1
100
AcDbLine
 10
-173.6084413238168
 20
681.1249111204157
 30
0.0
 11
-173.6084413238168
 21
491.1249847216675
 31
0.0
  0
LINE
  5
140B
330
1F
100
AcDbEntity
  8
0
 62
     1
100
AcDbLine
 10
-173.60843750161
 20
491.1249815183096
 30
0.0
 11
-173.60843750161
 21
301.1250551195615
 31
0.0
  0
LINE
  5
140C
330
1F
100
AcDbEntity
  8
0
 62
     1
100
AcDbLine
 10
-173.6084535504094
 20
491.1249791399085
 30
0.0
 11
96.39154644959059
 21
491.1249791399085
 31
0.0
  0
LINE
  5
140D
330
1F
100
AcDbEntity
  8
0
 62
     1
100
AcDbLine
 10
-173.6084413238168
 20
301.1250583229192
 30
0.0
 11
96.3915586761832
 21
301.1250583229192
 31
0.0
  0
LINE
  5
140E
330
1F
100
AcDbEntity
  8
0
 62
     1
100
AcDbLine
 10
-173.6084413238168
 20
491.1249847216675
 30
0.0
 11
-173.6084413238168
 21
301.1250583229192
 31
0.0
  0
LINE
  5
140F
330
1F
100
AcDbEntity
  8
0
 62
     1
100
AcDbLine
 10
96.3915586761832
 20
491.1249847216675
 30
0.0
 11
96.3915586761832
 21
301.1250583229192
 31
0.0
  0
LINE
  5
142F
330
1F
100
AcDbEntity
  8
0
 62
     1
100
AcDbLine
 10
96.39157082233213
 20
1251.12469589842
 30
0.0
 11
96.39157082233213
 21
1061.124769499671
 31
0.0
  0
LINE
  5
1430
330
1F
100
AcDbEntity
  8
0
 62
     1
100
AcDbLine
 10
-173.6084291776678
 20
1251.12469589842
 30
0.0
 11
-173.6084291776678
 21
1061.124769499671
 31
0.0
  0
LINE
  5
1431
330
1F
100
AcDbEntity
  8
0
 62
     1
100
AcDbLine
 10
-173.6084291776678
 20
1061.124769499671
 30
0.0
 11
96.39157082233213
 21
1061.124769499671
 31
0.0
  0
LINE
  5
1432
330
1F
100
AcDbEntity
  8
0
 62
     1
100
AcDbLine
 10
-173.6084291776678
 20
1251.12469589842
 30
0.0
 11
96.39157082233213
 21
1251.12469589842
 31
0.0
  0
LINE
  5
1433
330
1F
100
AcDbEntity
  8
0
 62
     1
100
AcDbLine
 10
-173.6084253554611
 20
1251.124692695062
 30
0.0
 11
-173.6084253554611
 21
1061.124766296314
 31
0.0
  0
LINE
  5
1434
330
1F
100
AcDbEntity
  8
0
 62
     1
100
AcDbLine
 10
-173.6084329998746
 20
1251.124699101777
 30
0.0
 11
96.39156700012541
 21
1251.124699101777
 31
0.0
  0
LINE
  5
1435
330
1F
100
AcDbEntity
  8
0
 62
     1
100
AcDbLine
 10
-1253.60842993764
 20
1251.124683909946
 30
0.0
 11
-983.6084299376402
 21
1251.124683909946
 31
0.0
  0
LINE
  5
1436
330
1F
100
AcDbEntity
  8
0
 62
     1
100
AcDbLine
 10
-983.6084337598467
 20
1251.124687113303
 30
0.0
 11
-713.608433759847
 21
1251.124687113303
 31
0.0
  0
LINE
  5
1437
330
1F
100
AcDbEntity
  8
0
 62
     1
100
AcDbLine
 10
-443.6084414042603
 20
1251.124693520019
 30
0.0
 11
-173.6084414042605
 21
1251.124693520019
 31
0.0
  0
LINE
  5
1438
330
1F
100
AcDbEntity
  8
0
 62
     1
100
AcDbLine
 10
-713.6084375820536
 20
1251.124690316661
 30
0.0
 11
-443.6084375820536
 21
1251.124690316661
 31
0.0
  0
LINE
  5
1439
330
1F
100
AcDbEntity
  8
0
 62
     1
100
AcDbLine
 10
-443.608433759847
 20
1251.124687113303
 30
0.0
 11
-443.608433759847
 21
1061.124760714555
 31
0.0
  0
LINE
  5
143A
330
1F
100
AcDbEntity
  8
0
 62
     1
100
AcDbLine
 10
-713.608433759847
 20
1251.124687113303
 30
0.0
 11
-713.608433759847
 21
1061.124760714555
 31
0.0
  0
LINE
  5
143C
330
1F
100
AcDbEntity
  8
0
 62
     1
100
AcDbLine
 10
-713.608433759847
 20
1251.124687113303
 30
0.0
 11
-443.608433759847
 21
1251.124687113303
 31
0.0
  0
LINE
  5
143D
330
1F
100
AcDbEntity
  8
0
 62
     1
100
AcDbLine
 10
-443.6084375820536
 20
1251.124690316661
 30
0.0
 11
-173.6084375820537
 21
1251.124690316661
 31
0.0
  0
LINE
  5
143F
330
1F
100
AcDbEntity
  8
0
 62
     1
100
AcDbLine
 10
-443.6084375820536
 20
1251.124690316661
 30
0.0
 11
-443.6084375820536
 21
1061.124763917913
 31
0.0
  0
LINE
  5
1440
330
1F
100
AcDbEntity
  8
0
 62
     1
100
AcDbLine
 10
-173.6084375820537
 20
1251.124690316661
 30
0.0
 11
-173.6084375820537
 21
1061.124763917913
 31
0.0
  0
LINE
  5
1441
330
1F
100
AcDbEntity
  8
0
 62
     1
100
AcDbLine
 10
-713.6084299376403
 20
1251.124683909946
 30
0.0
 11
-713.6084299376403
 21
1061.124757511197
 31
0.0
  0
LINE
  5
1442
330
1F
100
AcDbEntity
  8
0
 62
     1
100
AcDbLine
 10
-983.6084299376402
 20
1251.124683909946
 30
0.0
 11
-983.6084299376402
 21
1061.124757511197
 31
0.0
  0
LINE
  5
1444
330
1F
100
AcDbEntity
  8
0
 62
     1
100
AcDbLine
 10
-983.6084299376402
 20
1251.124683909946
 30
0.0
 11
-713.6084299376403
 21
1251.124683909946
 31
0.0
  0
LINE
  5
1445
330
1F
100
AcDbEntity
  8
0
 62
     1
100
AcDbLine
 10
-1253.608426115433
 20
1251.124680706588
 30
0.0
 11
-983.6084261154336
 21
1251.124680706588
 31
0.0
  0
LINE
  5
1446
330
1F
100
AcDbEntity
  8
0
 62
     1
100
AcDbLine
 10
-1253.608426115433
 20
1061.12475430784
 30
0.0
 11
-983.6084261154336
 21
1061.12475430784
 31
0.0
  0
LINE
  5
1447
330
1F
100
AcDbEntity
  8
0
 62
     1
100
AcDbLine
 10
-1253.608426115433
 20
1251.124680706588
 30
0.0
 11
-1253.608426115433
 21
1061.12475430784
 31
0.0
  0
LINE
  5
1448
330
1F
100
AcDbEntity
  8
0
 62
     1
100
AcDbLine
 10
-983.6084261154336
 20
1251.124680706588
 30
0.0
 11
-983.6084261154336
 21
1061.12475430784
 31
0.0
  0
LINE
  5
144A
330
1F
100
AcDbEntity
  8
0
 62
     1
100
AcDbLine
 10
-983.6084352507423
 20
1061.124758336154
 30
0.0
 11
-173.6084383129766
 21
1061.124773527986
 31
0.0
  0
LINE
  5
144B
330
1F
100
AcDbEntity
  8
0
 62
     1
100
AcDbLine
 10
-173.6084383129766
 20
1061.124773527986
 30
0.0
 11
-173.6084383129767
 21
871.1248471292371
 31
0.0
  0
LINE
  5
144C
330
1F
100
AcDbEntity
  8
0
 62
     1
100
AcDbLine
 10
-173.6084383129767
 20
871.1248471292371
 30
0.0
 11
-983.6084314285356
 21
871.1248287340477
 31
0.0
  0
LINE
  5
144D
330
1F
100
AcDbEntity
  8
0
 62
     1
100
AcDbLine
 10
-983.6084314285356
 20
871.1248287340477
 30
0.0
 11
-983.6084352507423
 21
1061.12475430784
 31
0.0
  0
LINE
  5
144E
330
1F
100
AcDbEntity
  8
0
 62
     1
100
AcDbLine
 10
-713.6084299376403
 20
1061.124763400098
 30
0.0
 11
-713.6084352507422
 21
871.1248348657774
 31
0.0
  0
LINE
  5
144F
330
1F
100
AcDbEntity
  8
0
 62
     1
100
AcDbLine
 10
-443.6084375820536
 20
1061.124768464042
 30
0.0
 11
-443.6084375820536
 21
871.1248409975071
 31
0.0
  0
LWPOLYLINE
  5
1450
330
1F
100
AcDbEntity
  8
0
100
AcDbPolyline
 90
        4
 70
     1
 43
0.0
 10
-154.7110652504871
 20
454.2531071601422
 10
83.36153481238033
 20
454.2531071601422
 10
83.36153481238033
 20
328.6649580072153
 10
-154.7110652504871
 20
328.6649580072153
  0
MTEXT
  5
1451
330
1F
100
AcDbEntity
  8
0
100
AcDbMText
 10
-656.1341154991987
 20
658.5263514207654
 30
0.0
 40
12.0
 41
643.236313066187
 71
     1
 72
     5
  1
X-TAZI DESIGN
 73
     1
 44
1.0
  0
LINE
  5
145D
330
1F
100
AcDbEntity
  8
0
100
AcDbLine
 10
65.13895463071571
 20
625.1867802842988
 30
0.0
 11
58.39512728572457
 21
567.7671025280623
 31
0.0
  0
LINE
  5
145E
330
1F
100
AcDbEntity
  8
0
100
AcDbLine
 10
57.22014842612338
 20
557.8363712015437
 30
0.0
 11
56.04516956652219
 21
547.9056398750258
 31
0.0
  0
LINE
  5
1460
330
1F
100
AcDbEntity
  8
0
100
AcDbLine
 10
-133.5165784494491
 20
735.7182850936895
 30
0.0
 11
-132.291728043739
 21
725.7935814969251
 31
0.0
  0
LINE
  5
1461
330
1F
100
AcDbEntity
  8
0
100
AcDbLine
 10
-141.7736150599377
 20
803.0280647823305
 30
0.0
 11
-134.7414288551592
 21
745.6429886904545
 31
0.0
  0
LINE
  5
1462
330
1F
100
AcDbEntity
  8
0
100
AcDbLine
 10
-54.30808493933369
 20
757.3683363885773
 30
0.0
 11
-100.4662939880537
 21
752.3349895107156
 31
0.0
  0
LINE
  5
1463
330
1F
100
AcDbEntity
  8
0
100
AcDbLine
 10
49.39047844058848
 20
768.6762023345051
 30
0.0
 11
-24.47383422279597
 21
760.5157817311127
 31
0.0
  0
SPLINE
  5
1464
330
1F
100
AcDbEntity
  8
0
100
AcDbSpline
210
0.0
220
0.0
230
1.0
 70
     8
 71
     3
 72
    11
 73
     7
 74
     5
 42
0.0000000001
 43
0.0000000001
 44
0.0000000001
 40
0.0
 40
0.0
 40
0.0
 40
0.0
 40
8.522258594680989
 40
14.27366372860996
 40
19.00714788199209
 40
25.14329987187974
 40
25.14329987187974
 40
25.14329987187974
 40
25.14329987187974
 10
-37.82087613993849
 20
742.4751234761657
 30
0.0
 10
-37.46384850173659
 20
745.2368293113408
 30
0.0
 10
-36.86587410411689
 20
749.862323829101
 30
0.0
 10
-35.24925774252261
 20
756.5403594390686
 30
0.0
 10
-29.83019589765918
 20
758.9261918905179
 30
0.0
 10
-26.40655554640715
 20
759.9422143793913
 30
0.0
 10
-24.47383422279575
 20
760.5157817311127
 30
0.0
 11
-37.82087613993849
 21
742.4751234761657
 31
0.0
 11
-36.53018397060737
 21
750.8990777304718
 31
0.0
 11
-34.40240530704034
 21
756.2424117995202
 31
0.0
 11
-30.31032170148052
 21
758.6216394043173
 31
0.0
 11
-24.47383422279575
 21
760.5157817311127
 31
0.0
  0
SPLINE
  5
1465
330
1F
100
AcDbEntity
  8
0
100
AcDbSpline
210
0.0
220
0.0
230
1.0
 70
     8
 71
     3
 72
    10
 73
     6
 74
     4
 42
0.0000000001
 43
0.0000000001
 44
0.0000000001
 40
0.0
 40
0.0
 40
0.0
 40
0.0
 40
9.201689611511051
 40
14.5546596417688
 40
22.80617987534403
 40
22.80617987534403
 40
22.80617987534403
 40
22.80617987534403
 10
-40.82083828736893
 20
742.4600531747573
 30
0.0
 10
-41.13271001833564
 20
745.5538706808452
 30
0.0
 10
-41.62600930224448
 20
750.4474785611335
 30
0.0
 10
-46.61166265253643
 20
756.9314236817878
 30
0.0
 10
-51.40237695419274
 20
757.2033843246676
 30
0.0
 10
-54.30808493933398
 20
757.3683363885773
 30
0.0
 11
-40.82083828736893
 21
742.4600531747573
 31
0.0
 11
-42.83103577662187
 21
751.4394851033813
 31
0.0
 11
-46.25926223294055
 21
755.5506347612062
 31
0.0
 11
-54.30808493933398
 21
757.3683363885773
 31
0.0
  0
LINE
  5
1466
330
1F
100
AcDbEntity
  8
0
100
AcDbLine
 10
-39.32085721365371
 20
742.4675883254617
 30
0.0
 11
-37.82087613993849
 21
742.4751234761657
 31
0.0
  0
LINE
  5
1467
330
1F
100
AcDbEntity
  8
0
100
AcDbLine
 10
-39.32085721365371
 20
742.4675883254617
 30
0.0
 11
-40.82083828736893
 21
742.4600531747573
 31
0.0
  0
LINE
  5
1468
330
1F
100
AcDbEntity
  8
0
100
AcDbLine
 10
-146.0181274478409
 20
812.5577027986002
 30
0.0
 11
-144.7529310568842
 21
802.6763885244777
 31
0.0
  0
LINE
  5
1469
330
1F
100
AcDbEntity
  8
0
100
AcDbLine
 10
-137.7135910325411
 20
745.2352485877656
 30
0.0
 11
-136.6372686721487
 21
735.3639908625656
 31
0.0
  0
LINE
  5
146A
330
1F
100
AcDbEntity
  8
0
100
AcDbLine
 10
-134.7414288551592
 20
745.6429886904545
 30
0.0
 11
-137.7135910325411
 21
745.2352485877656
 31
0.0
  0
LINE
  5
146B
330
1F
100
AcDbEntity
  8
0
100
AcDbLine
 10
-133.5165784494491
 20
735.7182850936895
 30
0.0
 11
-136.6372686721487
 21
735.3639908625656
 31
0.0
  0
LINE
  5
146C
330
1F
100
AcDbEntity
  8
0
100
AcDbLine
 10
-143.0476541172086
 20
812.9465739687024
 30
0.0
 11
-146.0181274478409
 21
812.5577027986002
 31
0.0
  0
LINE
  5
146D
330
1F
100
AcDbEntity
  8
0
100
AcDbLine
 10
65.64607623985654
 20
787.7178969458904
 30
0.0
 11
65.79471468278939
 21
758.0892646054279
 31
0.0
  0
LINE
  5
146E
330
1F
100
AcDbEntity
  8
0
100
AcDbLine
 10
65.44800227688535
 20
827.2005090063256
 30
0.0
 11
65.59590948032472
 21
797.7177711101387
 31
0.0
  0
LINE
  5
146F
330
1F
100
AcDbEntity
  8
0
100
AcDbLine
 10
62.59594733289407
 20
797.7027008087304
 30
0.0
 11
62.64611409242604
 21
787.702826644482
 31
0.0
  0
LINE
  5
1470
330
1F
100
AcDbEntity
  8
0
100
AcDbLine
 10
62.44804012945491
 20
827.1854387049172
 30
0.0
 11
65.44800227688535
 21
827.2005090063256
 31
0.0
  0
LINE
  5
1471
330
1F
100
AcDbEntity
  8
0
100
AcDbLine
 10
62.79473012327549
 20
758.0787962874324
 30
0.0
 11
65.79469227070593
 21
758.0938665888408
 31
0.0
  0
LINE
  5
1472
330
1F
100
AcDbEntity
  8
0
100
AcDbLine
 10
65.64607623985654
 20
787.7178969458904
 30
0.0
 11
62.64611409242604
 21
787.702826644482
 31
0.0
  0
LINE
  5
1473
330
1F
100
AcDbEntity
  8
0
100
AcDbLine
 10
65.59590948032472
 20
797.7177711101387
 30
0.0
 11
62.59594733289407
 21
797.7027008087304
 31
0.0
  0
LINE
  5
1474
330
1F
100
AcDbEntity
  8
0
100
AcDbLine
 10
62.4481285734647
 20
827.1854391492151
 30
0.0
 11
65.44800227688535
 21
827.2005090063256
 31
0.0
  0
SPLINE
  5
1475
330
1F
100
AcDbEntity
  8
0
100
AcDbSpline
210
0.0
220
0.0
230
1.0
 70
     8
 71
     3
 72
    10
 73
     6
 74
     4
 42
0.0000000001
 43
0.0000000001
 44
0.0000000001
 40
0.0
 40
0.0
 40
0.0
 40
0.0
 40
4.653672875444311
 40
9.538639330901572
 40
19.399640226817
 40
19.399640226817
 40
19.399640226817
 40
19.399640226817
 10
49.39047844058848
 20
768.6762023345051
 30
0.0
 10
50.93494265166535
 20
768.7925541273442
 30
0.0
 10
54.10063294903958
 20
769.0310405480919
 30
0.0
 10
60.71178263538116
 20
766.7333065951497
 30
0.0
 10
61.96052998197902
 20
761.5096346720823
 30
0.0
 10
62.79559887981077
 20
758.0164332912626
 30
0.0
 11
49.39047844058848
 21
768.6762023345051
 31
0.0
 11
54.04409259820738
 21
768.6995797521347
 31
0.0
 11
58.60157047108543
 21
766.9410881515947
 31
0.0
 11
62.79559887981077
 21
758.0164332912626
 31
0.0
  0
SPLINE
  5
1476
330
1F
100
AcDbEntity
  8
0
100
AcDbSpline
210
0.0
220
0.0
230
1.0
 70
     8
 71
     3
 72
    11
 73
     7
 74
     5
 42
0.0000000001
 43
0.0000000001
 44
0.0000000001
 40
0.0
 40
0.0
 40
0.0
 40
0.0
 40
8.434886356227455
 40
15.15440574749326
 40
22.53252079039461
 40
28.86342651650151
 40
28.86342651650151
 40
28.86342651650151
 40
28.86342651650151
 10
44.38079293172473
 20
808.3140381478497
 30
0.0
 10
47.1283946313773
 20
808.8610608508799
 30
0.0
 10
52.06482995848704
 20
809.843860576295
 30
0.0
 10
58.96310619461266
 20
813.846716581497
 30
0.0
 10
61.02767141617851
 20
820.7226620910523
 30
0.0
 10
61.99938539304644
 20
825.1437534029472
 30
0.0
 10
62.44812857346374
 20
827.1854391494153
 30
0.0
 11
44.38079293172473
 21
808.3140381478497
 31
0.0
 11
52.53160277248468
 21
810.4846617407931
 31
0.0
 11
58.10463269660761
 21
814.2387632730413
 31
0.0
 11
61.01365911259296
 21
821.0191870722876
 31
0.0
 11
62.44812857346374
 21
827.1854391494153
 31
0.0
  0
SPLINE
  5
1477
330
1F
100
AcDbEntity
  8
0
100
AcDbSpline
210
0.0
220
0.0
230
1.0
 70
     8
 71
     3
 72
    12
 73
     8
 74
     6
 42
0.0000000001
 43
0.0000000001
 44
0.0000000001
 40
0.0
 40
0.0
 40
0.0
 40
0.0
 40
6.400609840753984
 40
13.8988816878996
 40
22.85902303952298
 40
32.99461513190272
 40
44.88767472432817
 40
44.88767472432817
 40
44.88767472432817
 40
44.88767472432817
 10
-100.4662939880537
 20
752.3349895107156
 30
0.0
 10
-102.5992458018641
 20
752.1786120807726
 30
0.0
 10
-107.2309364756779
 20
751.8390395319824
 30
0.0
 10
-114.569611921072
 20
749.5378573060799
 30
0.0
 10
-122.3099864595008
 20
744.9725550117406
 30
0.0
 10
-128.9347657864064
 20
736.669006538541
 30
0.0
 10
-131.1147664261575
 20
729.6065400194426
 30
0.0
 10
-132.291728043739
 20
725.7935814969251
 30
0.0
 11
-100.4662939880537
 21
752.3349895107156
 31
0.0
 11
-106.8291852771111
 21
751.6411445877001
 31
0.0
 11
-113.9978647755138
 21
749.4424825075075
 31
0.0
 11
-121.6429665481543
 21
744.7695228536007
 31
0.0
 11
-128.023603935495
 21
736.8943915153701
 31
0.0
 11
-132.291728043739
 21
725.7935814969251
 31
0.0
  0
SPLINE
  5
1478
330
1F
100
AcDbEntity
  8
0
100
AcDbSpline
210
0.0
220
0.0
230
1.0
 70
     8
 71
     3
 72
    11
 73
     7
 74
     5
 42
0.0000000001
 43
0.0000000001
 44
0.0000000001
 40
0.0
 40
0.0
 40
0.0
 40
0.0
 40
5.7135548453486
 40
11.07171000729977
 40
25.40624625142534
 40
53.59334613365978
 40
53.59334613365978
 40
53.59334613365978
 40
53.59334613365978
 10
-94.79042063896477
 20
793.1380378707411
 30
0.0
 10
-96.68684753401223
 20
792.9567058653254
 30
0.0
 10
-100.3617380706984
 20
792.6053212311793
 30
0.0
 10
-108.8759242708654
 20
792.942149354469
 30
0.0
 10
-124.0419388660228
 20
798.9696865259871
 30
0.0
 10
-135.4712777829851
 20
807.3748731488517
 30
0.0
 10
-143.0476541172112
 20
812.9465739687233
 30
0.0
 11
-94.79042063896477
 21
793.1380378707411
 31
0.0
 11
-100.4891500506398
 21
792.7267082421994
 31
0.0
 11
-105.8409622561269
 21
792.9873475652941
 31
0.0
 11
-119.4223391227929
 21
797.5726645379515
 31
0.0
 11
-143.0476541172112
 21
812.9465739687233
 31
0.0
  0
LINE
  5
1479
330
1F
100
AcDbEntity
  8
0
100
AcDbLine
 10
44.38079293172473
 20
808.3140381478497
 30
0.0
 11
-94.79042063896477
 21
793.1380378707411
 31
0.0
  0
LINE
  5
147A
330
1F
100
AcDbEntity
  8
0
100
AcDbLine
 10
62.79559887981077
 20
758.0164332912626
 30
0.0
 11
65.79471468278939
 21
758.0892646054279
 31
0.0
  0
LINE
  5
147B
330
1F
100
AcDbEntity
  8
0
100
AcDbLine
 10
-141.7736150599377
 20
803.0280647823305
 30
0.0
 11
-144.7529310568842
 21
802.6763885244777
 31
0.0
  0
VIEWPORT
  5
1328
330
50
100
AcDbEntity
 67
     1
  8
0
100
AcDbViewport
 10
133.3499908447265
 20
101.5999970436096
 30
0.0
 40
362.9475170121626
 41
228.4221935424805
 68
     1
 69
     1
 12
133.3499908447265
 22
101.5999970436096
 13
0.0
 23
0.0
 14
10.0
 24
10.0
 15
10.0
 25
10.0
 16
0.0
 26
0.0
 36
1.0
 17
0.0
 27
0.0
 37
0.0
 42
50.0
 43
0.0
 44
0.0
 45
228.4221935424805
 50
0.0
 51
0.0
 72
  1000
 90
    32800
  1

281
     0
 71
     1
 74
     0
110
0.0
120
0.0
130
0.0
111
1.0
121
0.0
131
0.0
112
0.0
122
1.0
132
0.0
 79
     0
146
0.0
170
     0
  0
VIEWPORT
  5
132A
330
50
100
AcDbEntity
 67
     1
  8
0
100
AcDbViewport
 10
133.3499939441681
 20
101.5999939441681
 30
0.0
 40
213.3599903106689
 41
162.5599903106689
 68
     2
 69
     2
 12
81.7409586772128
 22
631.8749379201342
 13
0.0
 23
0.0
 14
10.0
 24
10.0
 15
10.0
 25
10.0
 16
0.0
 26
0.0
 36
1.0
 17
0.0
 27
0.0
 37
0.0
 42
50.0
 43
0.0
 44
0.0
 45
1885.666043063796
 50
0.0
 51
0.0
 72
  1000
 90
    32864
  1

281
     0
 71
     1
 74
     0
110
0.0
120
0.0
130
0.0
111
1.0
121
0.0
131
0.0
112
0.0
122
1.0
132
0.0
 79
     0
146
0.0
170
     0
  0
ENDSEC
  0
SECTION
  2
OBJECTS
  0
DICTIONARY
  5
C
330
0
100
AcDbDictionary
281
     1
  3
ACAD_COLOR
350
6B
  3
ACAD_GROUP
350
D
  3
ACAD_LAYOUT
350
1A
  3
ACAD_MATERIAL
350
6A
  3
ACAD_MLINESTYLE
350
17
  3
ACAD_PLOTSETTINGS
350
19
  3
ACAD_PLOTSTYLENAME
350
E
  3
AcDbVariableDictionary
350
5E
  0
DICTIONARY
  5
6B
102
{ACAD_REACTORS
330
C
102
}
330
C
100
AcDbDictionary
281
     1
  0
DICTIONARY
  5
D
102
{ACAD_REACTORS
330
C
102
}
330
C
100
AcDbDictionary
281
     1
  0
DICTIONARY
  5
1A
102
{ACAD_REACTORS
330
C
102
}
330
C
100
AcDbDictionary
281
     1
  3
Model
350
22
  3
Présentation1
350
51
  3
Présentation2
350
56
  0
DICTIONARY
  5
6A
102
{ACAD_REACTORS
330
C
102
}
330
C
100
AcDbDictionary
281
     1
  0
DICTIONARY
  5
17
102
{ACAD_REACTORS
330
C
102
}
330
C
100
AcDbDictionary
281
     1
  3
Standard
350
18
  0
DICTIONARY
  5
19
102
{ACAD_REACTORS
330
C
102
}
330
C
100
AcDbDictionary
281
     1
  0
ACDBDICTIONARYWDFLT
  5
E
102
{ACAD_REACTORS
330
C
102
}
330
C
100
AcDbDictionary
281
     1
  3
Normal
350
F
100
AcDbDictionaryWithDefault
340
F
  0
DICTIONARY
  5
5E
102
{ACAD_REACTORS
330
C
102
}
330
C
100
AcDbDictionary
281
     1
  3
DIMASSOC
350
5F
  3
HIDETEXT
350
63
  0
LAYOUT
  5
22
102
{ACAD_REACTORS
330
1A
102
}
330
1A
100
AcDbPlotSettings
  1

  2
none_device
  4
ANSI_A_(8.50_x_11.00_Inches)
  6

 40
6.349999904632567
 41
19.04999923706055
 42
6.350006103515625
 43
19.04998779296875
 44
215.8999938964844
 45
279.3999938964844
 46
0.0
 47
0.0
 48
0.0
 49
0.0
140
0.0
141
0.0
142
1.0
143
78.436453180766
 70
 11952
 72
     0
 73
     1
 74
     0
  7

 75
     0
147
0.0127491741332998
 76
     0
 77
     2
 78
   300
148
0.0
149
0.0
100
AcDbLayout
  1
Model
 70
     1
 71
     0
 10
0.0
 20
0.0
 11
12.0
 21
9.0
 12
0.0
 22
0.0
 32
0.0
 14
0.0
 24
0.0
 34
0.0
 15
0.0
 25
0.0
 35
0.0
146
0.0
 13
0.0
 23
0.0
 33
0.0
 16
1.0
 26
0.0
 36
0.0
 17
0.0
 27
1.0
 37
0.0
 76
     0
330
1F
  0
LAYOUT
  5
51
102
{ACAD_REACTORS
330
1A
102
}
330
1A
100
AcDbPlotSettings
  1

  2
none_device
  4
Letter_(8.50_x_11.00_Inches)
  6

 40
6.349999904632567
 41
6.349999904632567
 42
6.350006103515625
 43
6.350006103515625
 44
215.8999938964844
 45
279.3999938964844
 46
0.0
 47
0.0
 48
0.0
 49
0.0
140
0.0
141
0.0
142
1.0
143
1.0
 70
   688
 72
     1
 73
     1
 74
     5
  7

 75
    16
147
1.0
 76
     0
 77
     2
 78
   300
148
0.0
149
0.0
100
AcDbLayout
  1
Présentation1
 70
     1
 71
     1
 10
-6.350006103515625
 20
-6.349999904632567
 11
273.0499877929688
 21
209.5499939918518
 12
0.0
 22
0.0
 32
0.0
 14
26.66999878883363
 24
20.31999878883363
 34
0.0
 15
240.0299890995026
 25
182.8799890995025
 35
0.0
146
0.0
 13
0.0
 23
0.0
 33
0.0
 16
1.0
 26
0.0
 36
0.0
 17
0.0
 27
1.0
 37
0.0
 76
     0
330
50
331
1328
  0
LAYOUT
  5
56
102
{ACAD_REACTORS
330
1A
102
}
330
1A
100
AcDbPlotSettings
  1

  2
None
  4

  6

 40
0.0
 41
0.0
 42
0.0
 43
0.0
 44
0.0
 45
0.0
 46
0.0
 47
0.0
 48
0.0
 49
0.0
140
0.0
141
0.0
142
1.0
143
1.0
 70
   688
 72
     0
 73
     0
 74
     5
  7

 75
    16
147
1.0
 76
     0
 77
     2
 78
   300
148
0.0
149
0.0
100
AcDbLayout
  1
Présentation2
 70
     1
 71
     2
 10
0.0
 20
0.0
 11
12.0
 21
9.0
 12
0.0
 22
0.0
 32
0.0
 14
0.0
 24
0.0
 34
0.0
 15
0.0
 25
0.0
 35
0.0
146
0.0
 13
0.0
 23
0.0
 33
0.0
 16
1.0
 26
0.0
 36
0.0
 17
0.0
 27
1.0
 37
0.0
 76
     0
330
55
  0
MLINESTYLE
  5
18
102
{ACAD_REACTORS
330
17
102
}
330
17
100
AcDbMlineStyle
  2
STANDARD
 70
     0
  3

 62
   256
 51
90.0
 52
90.0
 71
     2
 49
0.5
 62
   256
  6
BYLAYER
 49
-0.5
 62
   256
  6
BYLAYER
  0
ACDBPLACEHOLDER
  5
F
102
{ACAD_REACTORS
330
E
102
}
330
E
  0
DICTIONARYVAR
  5
5F
102
{ACAD_REACTORS
330
5E
102
}
330
5E
100
DictionaryVariables
280
     0
  1
2
  0
DICTIONARYVAR
  5
63
102
{ACAD_REACTORS
330
5E
102
}
330
5E
100
DictionaryVariables
280
     0
  1
1
  0
ENDSEC
  0
EOF
