  0
SECTION
  2
HEADER
  9
$ACADVER
  1
AC1009
  9
$INSBASE
 10
0.0
 20
0.0
 30
0.0
  9
$EXTMIN
 10
-73.379179304909115
 20
-12.5
 30
0.0
  9
$EXTMAX
 10
341.83212395412158
 20
274.45920374192877
 30
0.0
  9
$LIMMIN
 10
0.0
 20
0.0
  9
$LIMMAX
 10
420.0
 20
297.0
  9
$ORTHOMODE
 70
     0
  9
$REGENMODE
 70
     1
  9
$FILLMODE
 70
     1
  9
$QTEXTMODE
 70
     0
  9
$MIRRTEXT
 70
     0
  9
$DRAGMODE
 70
     2
  9
$LTSCALE
 40
1.0
  9
$OSMODE
 70
    37
  9
$ATTMODE
 70
     1
  9
$TEXTSIZE
 40
2.5
  9
$TRACEWID
 40
1.0
  9
$TEXTSTYLE
  7
STANDARD
  9
$CLAYER
  8
0
  9
$CELTYPE
  6
BYLAYER
  9
$CECOLOR
 62
   256
  9
$DIMSCALE
 40
1.0
  9
$DIMASZ
 40
2.5
  9
$DIMEXO
 40
0.625
  9
$DIMDLI
 40
3.75
  9
$DIMRND
 40
0.0
  9
$DIMDLE
 40
0.0
  9
$DIMEXE
 40
1.25
  9
$DIMTP
 40
0.0
  9
$DIMTM
 40
0.0
  9
$DIMTXT
 40
2.5
  9
$DIMCEN
 40
2.5
  9
$DIMTSZ
 40
0.0
  9
$DIMTOL
 70
     0
  9
$DIMLIM
 70
     0
  9
$DIMTIH
 70
     0
  9
$DIMTOH
 70
     0
  9
$DIMSE1
 70
     0
  9
$DIMSE2
 70
     0
  9
$DIMTAD
 70
     1
  9
$DIMZIN
 70
     8
  9
$DIMBLK
  1

  9
$DIMASO
 70
     1
  9
$DIMSHO
 70
     1
  9
$DIMPOST
  1

  9
$DIMAPOST
  1

  9
$DIMALT
 70
     0
  9
$DIMALTD
 70
     3
  9
$DIMALTF
 40
0.03937007874016
  9
$DIMLFAC
 40
1.0
  9
$DIMTOFL
 70
     1
  9
$DIMTVP
 40
0.0
  9
$DIMTIX
 70
     0
  9
$DIMSOXD
 70
     0
  9
$DIMSAH
 70
     0
  9
$DIMBLK1
  1

  9
$DIMBLK2
  1

  9
$DIMSTYLE
  2
ISO-25
  9
$DIMCLRD
 70
     0
  9
$DIMCLRE
 70
     0
  9
$DIMCLRT
 70
     0
  9
$DIMTFAC
 40
1.0
  9
$DIMGAP
 40
0.625
  9
$LUNITS
 70
     2
  9
$LUPREC
 70
     4
  9
$SKETCHINC
 40
1.0
  9
$FILLETRAD
 40
0.0
  9
$AUNITS
 70
     0
  9
$AUPREC
 70
     0
  9
$MENU
  1
.
  9
$ELEVATION
 40
0.0
  9
$PELEVATION
 40
0.0
  9
$THICKNESS
 40
0.0
  9
$LIMCHECK
 70
     0
  9
$BLIPMODE
 70
     0
  9
$CHAMFERA
 40
0.0
  9
$CHAMFERB
 40
0.0
  9
$SKPOLY
 70
     0
  9
$TDCREATE
 40
2454712.6398154749
  9
$TDUPDATE
 40
2454712.651784745
  9
$TDINDWG
 40
0.0119746875
  9
$TDUSRTIMER
 40
0.0119699884
  9
$USRTIMER
 70
     1
  9
$ANGBASE
 50
0.0
  9
$ANGDIR
 70
     0
  9
$PDMODE
 70
     0
  9
$PDSIZE
 40
0.0
  9
$PLINEWID
 40
0.0
  9
$COORDS
 70
     2
  9
$SPLFRAME
 70
     0
  9
$SPLINETYPE
 70
     6
  9
$SPLINESEGS
 70
     8
  9
$ATTDIA
 70
     0
  9
$ATTREQ
 70
     1
  9
$HANDLING
 70
     1
  9
$HANDSEED
  5
144
  9
$SURFTAB1
 70
     6
  9
$SURFTAB2
 70
     6
  9
$SURFTYPE
 70
     6
  9
$SURFU
 70
     6
  9
$SURFV
 70
     6
  9
$UCSNAME
  2

  9
$UCSORG
 10
0.0
 20
0.0
 30
0.0
  9
$UCSXDIR
 10
1.0
 20
0.0
 30
0.0
  9
$UCSYDIR
 10
0.0
 20
1.0
 30
0.0
  9
$PUCSNAME
  2

  9
$PUCSORG
 10
0.0
 20
0.0
 30
0.0
  9
$PUCSXDIR
 10
1.0
 20
0.0
 30
0.0
  9
$PUCSYDIR
 10
0.0
 20
1.0
 30
0.0
  9
$USERI1
 70
     0
  9
$USERI2
 70
     0
  9
$USERI3
 70
     0
  9
$USERI4
 70
     0
  9
$USERI5
 70
     0
  9
$USERR1
 40
0.0
  9
$USERR2
 40
0.0
  9
$USERR3
 40
0.0
  9
$USERR4
 40
0.0
  9
$USERR5
 40
0.0
  9
$WORLDVIEW
 70
     1
  9
$SHADEDGE
 70
     3
  9
$SHADEDIF
 70
    70
  9
$TILEMODE
 70
     1
  9
$MAXACTVP
 70
    64
  9
$PLIMCHECK
 70
     0
  9
$PEXTMIN
 10
0.0
 20
0.0
 30
0.0
  9
$PEXTMAX
 10
0.0
 20
0.0
 30
0.0
  9
$PLIMMIN
 10
0.0
 20
0.0
  9
$PLIMMAX
 10
12.0
 20
9.0
  9
$UNITMODE
 70
     0
  9
$VISRETAIN
 70
     1
  9
$PLINEGEN
 70
     0
  9
$PSLTSCALE
 70
     1
  0
ENDSEC
  0
SECTION
  2
TABLES
  0
TABLE
  2
VPORT
 70
     4
  0
VPORT
  2
*ACTIVE
 70
     0
 10
0.0
 20
0.0
 11
1.0
 21
1.0
 12
103.93504007011541
 22
170.80136673247421
 13
0.0
 23
0.0
 14
10.0
 24
10.0
 15
10.0
 25
10.0
 16
0.0
 26
0.0
 36
1.0
 17
0.0
 27
0.0
 37
0.0
 40
491.53013465237348
 41
1.5481386392811289
 42
50.0
 43
0.0
 44
0.0
 50
0.0
 51
0.0
 71
     0
 72
  1000
 73
     1
 74
     3
 75
     0
 76
     0
 77
     0
 78
     0
  0
ENDTAB
  0
TABLE
  2
LTYPE
 70
     1
  0
LTYPE
  2
CONTINUOUS
 70
     0
  3
Solid line
 72
    65
 73
     0
 40
0.0
  0
ENDTAB
  0
TABLE
  2
LAYER
 70
     1
  0
LAYER
  2
0
 70
     0
 62
     7
  6
CONTINUOUS
  0
ENDTAB
  0
TABLE
  2
STYLE
 70
     1
  0
STYLE
  2
STANDARD
 70
     0
 40
0.0
 41
1.0
 50
0.0
 71
     0
 42
2.5
  3
txt
  4

  0
ENDTAB
  0
TABLE
  2
VIEW
 70
     0
  0
ENDTAB
  0
TABLE
  2
UCS
 70
     0
  0
ENDTAB
  0
TABLE
  2
APPID
 70
     2
  0
APPID
  2
ACAD
 70
     0
  0
APPID
  2
ACAD_PSEXT
 70
     0
  0
ENDTAB
  0
TABLE
  2
DIMSTYLE
 70
     1
  0
DIMSTYLE
  2
ISO-25
 70
     0
  3

  4

  5

  6

  7

 40
1.0
 41
2.5
 42
0.625
 43
3.75
 44
1.25
 45
0.0
 46
0.0
 47
0.0
 48
0.0
140
2.5
141
2.5
142
0.0
143
0.03937007874016
144
1.0
145
0.0
146
1.0
147
0.625
 71
     0
 72
     0
 73
     0
 74
     0
 75
     0
 76
     0
 77
     1
 78
     8
170
     0
171
     3
172
     1
173
     0
174
     0
175
     0
176
     0
177
     0
178
     0
  0
ENDTAB
  0
ENDSEC
  0
SECTION
  2
BLOCKS
  0
BLOCK
  8
0
  2
$MODEL_SPACE
 70
     0
 10
0.0
 20
0.0
 30
0.0
  3
$MODEL_SPACE
  1

  0
ENDBLK
  5
21
  8
0
  0
BLOCK
 67
     1
  8
0
  2
$PAPER_SPACE
 70
     0
 10
0.0
 20
0.0
 30
0.0
  3
$PAPER_SPACE
  1

  0
ENDBLK
  5
D5
 67
     1
  8
0
  0
ENDSEC
  0
SECTION
  2
ENTITIES
  0
LINE
  5
107
  8
0
 10
229.33212395412161
 20
192.86090317942359
 30
0.0
 11
329.33212395412158
 21
192.86090317942359
 31
0.0
  0
LINE
  5
108
  8
0
 10
39.120820695090877
 20
192.8609031794235
 30
0.0
 11
-60.879179304909108
 21
192.8609031794235
 31
0.0
  0
LINE
  5
109
  8
0
 10
-60.879179304909108
 20
192.8609031794235
 30
0.0
 11
-60.879179304909108
 21
142.8609031794235
 31
0.0
  0
LINE
  5
10A
  8
0
 10
329.33212395412158
 20
192.86090317942359
 30
0.0
 11
329.33212395412158
 21
142.8609031794235
 31
0.0
  0
LINE
  5
10C
  8
0
 10
-60.879179304909108
 20
142.8609031794235
 30
0.0
 11
36.067137997074212
 21
142.8609031794235
 31
0.0
  0
LINE
  5
10D
  8
0
 10
329.33212395412158
 20
142.8609031794235
 30
0.0
 11
232.3858066521382
 21
142.8609031794235
 31
0.0
  0
LINE
  5
117
  8
0
 10
-73.379179304909115
 20
205.3609031794235
 30
0.0
 11
-73.379179304909115
 21
130.3609031794235
 31
0.0
  0
LINE
  5
119
  8
0
 10
341.83212395412158
 20
130.3609031794235
 30
0.0
 11
341.83212395412158
 21
205.3609031794235
 31
0.0
  0
LINE
  5
11A
  8
0
 10
-73.379179304909115
 20
205.3609031794235
 30
0.0
 11
30.435612968218919
 21
205.3609031794235
 31
0.0
  0
LINE
  5
11B
  8
0
 10
341.83212395412158
 20
205.3609031794235
 30
0.0
 11
238.01733168099361
 21
205.36090317942359
 31
0.0
  0
LINE
  5
11C
  8
0
 10
-60.879179304909108
 20
192.8609031794235
 30
0.0
 11
39.120820695090877
 21
192.86090317942359
 31
0.0
  0
LINE
  5
11D
  8
0
 10
329.33212395412158
 20
192.86090317942359
 30
0.0
 11
229.33212395412161
 21
192.86090317942359
 31
0.0
  0
LINE
  5
11F
  8
0
 10
-73.379179304909115
 20
130.3609031794235
 30
0.0
 11
26.255191876694632
 21
130.3609031794235
 31
0.0
  0
LINE
  5
120
  8
0
 10
341.83212395412158
 20
130.3609031794235
 30
0.0
 11
242.19775277251779
 21
130.3609031794235
 31
0.0
  0
LINE
  5
121
  8
0
 10
39.120820695091041
 20
192.8609031794235
 30
0.0
 11
97.899345924338192
 21
150.15580486693929
 31
0.0
  0
LINE
  5
122
  8
0
 10
97.899345924338192
 20
150.15580486693929
 30
0.0
 11
75.447947095358927
 21
81.05750430443409
 31
0.0
  0
LINE
  5
123
  8
0
 10
75.447947095358927
 20
81.05750430443409
 30
0.0
 11
134.22647232460619
 21
123.7626026169183
 31
0.0
  0
LINE
  5
124
  8
0
 10
134.22647232460619
 20
123.7626026169183
 30
0.0
 11
193.00499755385351
 21
81.057504304434076
 31
0.0
  0
LINE
  5
125
  8
0
 10
193.00499755385351
 20
81.057504304434076
 30
0.0
 11
170.55359872487421
 21
150.15580486693929
 31
0.0
  0
LINE
  5
126
  8
0
 10
170.55359872487421
 20
150.15580486693929
 30
0.0
 11
229.3321239541215
 21
192.8609031794235
 31
0.0
  0
LINE
  5
127
  8
0
 10
229.3321239541215
 20
192.8609031794235
 30
0.0
 11
156.6778711535855
 21
192.86090317942359
 31
0.0
  0
LINE
  5
128
  8
0
 10
156.6778711535855
 20
192.86090317942359
 30
0.0
 11
134.22647232460619
 21
261.95920374192877
 31
0.0
  0
LINE
  5
129
  8
0
 10
134.22647232460619
 20
261.95920374192877
 30
0.0
 11
111.7750734956269
 21
192.86090317942359
 31
0.0
  0
LINE
  5
12A
  8
0
 10
111.7750734956269
 20
192.86090317942359
 30
0.0
 11
39.120820695091041
 21
192.8609031794235
 31
0.0
  0
ARC
  5
12C
  8
0
 10
134.22647232460619
 20
161.9592037419288
 30
0.0
 40
112.5
 50
196.31236170765649
 51
343.68763829234348
  0
ARC
  5
12D
  8
0
 10
134.22647232460619
 20
161.9592037419288
 30
0.0
 40
112.5
 50
22.6929722853348
 51
157.3070277146652
  0
ARC
  5
132
  8
0
 10
134.22647232460619
 20
161.9592037419288
 30
0.0
 40
100.0
 50
162.0
 51
191.01015683431351
  0
ARC
  5
133
  8
0
 10
134.22647232460619
 20
161.9592037419288
 30
0.0
 40
100.0
 50
348.98984316568652
 51
17.999999999999972
  0
ENDSEC
  0
EOF
