  0
SECTION
  2
HEADER
  9
$ACADVER
  1
AC1009
  9
$INSBASE
 10
0.0
 20
0.0
 30
0.0
  9
$EXTMIN
 10
-0.9258398737684217
 20
9.8219317717426193
 30
0.0
  9
$EXTMAX
 10
99.584886796821024
 20
42.760932629167471
 30
0.0
  9
$LIMMIN
 10
0.0
 20
0.0
  9
$LIMMAX
 10
420.0
 20
297.0
  9
$ORTHOMODE
 70
     0
  9
$REGENMODE
 70
     1
  9
$FILLMODE
 70
     1
  9
$QTEXTMODE
 70
     0
  9
$MIRRTEXT
 70
     0
  9
$DRAGMODE
 70
     2
  9
$LTSCALE
 40
1.0
  9
$OSMODE
 70
    63
  9
$ATTMODE
 70
     1
  9
$TEXTSIZE
 40
2.5
  9
$TRACEWID
 40
1.0
  9
$TEXTSTYLE
  7
STANDARD
  9
$CLAYER
  8
0
  9
$CELTYPE
  6
BYLAYER
  9
$CECOLOR
 62
   256
  9
$DIMSCALE
 40
1.0
  9
$DIMASZ
 40
2.5
  9
$DIMEXO
 40
0.625
  9
$DIMDLI
 40
3.75
  9
$DIMRND
 40
0.0
  9
$DIMDLE
 40
0.0
  9
$DIMEXE
 40
1.25
  9
$DIMTP
 40
0.0
  9
$DIMTM
 40
0.0
  9
$DIMTXT
 40
2.5
  9
$DIMCEN
 40
2.5
  9
$DIMTSZ
 40
0.0
  9
$DIMTOL
 70
     0
  9
$DIMLIM
 70
     0
  9
$DIMTIH
 70
     0
  9
$DIMTOH
 70
     0
  9
$DIMSE1
 70
     0
  9
$DIMSE2
 70
     0
  9
$DIMTAD
 70
     1
  9
$DIMZIN
 70
     8
  9
$DIMBLK
  1

  9
$DIMASO
 70
     1
  9
$DIMSHO
 70
     1
  9
$DIMPOST
  1

  9
$DIMAPOST
  1

  9
$DIMALT
 70
     0
  9
$DIMALTD
 70
     3
  9
$DIMALTF
 40
0.03937007874016
  9
$DIMLFAC
 40
1.0
  9
$DIMTOFL
 70
     1
  9
$DIMTVP
 40
0.0
  9
$DIMTIX
 70
     0
  9
$DIMSOXD
 70
     0
  9
$DIMSAH
 70
     0
  9
$DIMBLK1
  1

  9
$DIMBLK2
  1

  9
$DIMSTYLE
  2
ISO-25
  9
$DIMCLRD
 70
     0
  9
$DIMCLRE
 70
     0
  9
$DIMCLRT
 70
     0
  9
$DIMTFAC
 40
1.0
  9
$DIMGAP
 40
0.625
  9
$LUNITS
 70
     2
  9
$LUPREC
 70
     4
  9
$SKETCHINC
 40
1.0
  9
$FILLETRAD
 40
0.0
  9
$AUNITS
 70
     0
  9
$AUPREC
 70
     0
  9
$MENU
  1
.
  9
$ELEVATION
 40
0.0
  9
$PELEVATION
 40
0.0
  9
$THICKNESS
 40
0.0
  9
$LIMCHECK
 70
     0
  9
$BLIPMODE
 70
     0
  9
$CHAMFERA
 40
0.0
  9
$CHAMFERB
 40
0.0
  9
$SKPOLY
 70
     0
  9
$TDCREATE
 40
2454615.5577622228
  9
$TDUPDATE
 40
2454615.8667885531
  9
$TDINDWG
 40
0.04117875
  9
$TDUSRTIMER
 40
0.04117875
  9
$USRTIMER
 70
     1
  9
$ANGBASE
 50
0.0
  9
$ANGDIR
 70
     0
  9
$PDMODE
 70
     0
  9
$PDSIZE
 40
0.0
  9
$PLINEWID
 40
0.0
  9
$COORDS
 70
     1
  9
$SPLFRAME
 70
     0
  9
$SPLINETYPE
 70
     6
  9
$SPLINESEGS
 70
     8
  9
$ATTDIA
 70
     0
  9
$ATTREQ
 70
     1
  9
$HANDLING
 70
     1
  9
$HANDSEED
  5
30C
  9
$SURFTAB1
 70
     6
  9
$SURFTAB2
 70
     6
  9
$SURFTYPE
 70
     6
  9
$SURFU
 70
     6
  9
$SURFV
 70
     6
  9
$UCSNAME
  2

  9
$UCSORG
 10
0.0
 20
0.0
 30
0.0
  9
$UCSXDIR
 10
1.0
 20
0.0
 30
0.0
  9
$UCSYDIR
 10
0.0
 20
1.0
 30
0.0
  9
$PUCSNAME
  2

  9
$PUCSORG
 10
0.0
 20
0.0
 30
0.0
  9
$PUCSXDIR
 10
1.0
 20
0.0
 30
0.0
  9
$PUCSYDIR
 10
0.0
 20
1.0
 30
0.0
  9
$USERI1
 70
     0
  9
$USERI2
 70
     0
  9
$USERI3
 70
     0
  9
$USERI4
 70
     0
  9
$USERI5
 70
     0
  9
$USERR1
 40
0.0
  9
$USERR2
 40
0.0
  9
$USERR3
 40
0.0
  9
$USERR4
 40
0.0
  9
$USERR5
 40
0.0
  9
$WORLDVIEW
 70
     1
  9
$SHADEDGE
 70
     3
  9
$SHADEDIF
 70
    70
  9
$TILEMODE
 70
     1
  9
$MAXACTVP
 70
    64
  9
$PLIMCHECK
 70
     0
  9
$PEXTMIN
 10
0.0
 20
0.0
 30
0.0
  9
$PEXTMAX
 10
0.0
 20
0.0
 30
0.0
  9
$PLIMMIN
 10
0.0
 20
0.0
  9
$PLIMMAX
 10
12.0
 20
9.0
  9
$UNITMODE
 70
     0
  9
$VISRETAIN
 70
     1
  9
$PLINEGEN
 70
     0
  9
$PSLTSCALE
 70
     1
  0
ENDSEC
  0
SECTION
  2
TABLES
  0
TABLE
  2
VPORT
 70
     4
  0
VPORT
  2
*ACTIVE
 70
     0
 10
0.0
 20
0.0
 11
1.0
 21
1.0
 12
54.038164611829771
 22
23.826675342630331
 13
0.0
 23
0.0
 14
10.0
 24
10.0
 15
10.0
 25
10.0
 16
0.0
 26
0.0
 36
1.0
 17
0.0
 27
0.0
 37
0.0
 40
72.546693461723407
 41
1.8875739644970411
 42
50.0
 43
0.0
 44
0.0
 50
0.0
 51
0.0
 71
     0
 72
  1000
 73
     1
 74
     3
 75
     0
 76
     0
 77
     0
 78
     0
  0
ENDTAB
  0
TABLE
  2
LTYPE
 70
     1
  0
LTYPE
  2
CONTINUOUS
 70
     0
  3
Solid line
 72
    65
 73
     0
 40
0.0
  0
ENDTAB
  0
TABLE
  2
LAYER
 70
     2
  0
LAYER
  2
0
 70
     0
 62
     7
  6
CONTINUOUS
  0
LAYER
  2
DEFPOINTS
 70
     0
 62
     7
  6
CONTINUOUS
  0
ENDTAB
  0
TABLE
  2
STYLE
 70
     1
  0
STYLE
  2
STANDARD
 70
     0
 40
0.0
 41
1.0
 50
0.0
 71
     0
 42
2.5
  3
txt
  4

  0
ENDTAB
  0
TABLE
  2
VIEW
 70
     0
  0
ENDTAB
  0
TABLE
  2
UCS
 70
     0
  0
ENDTAB
  0
TABLE
  2
APPID
 70
     1
  0
APPID
  2
ACAD
 70
     0
  0
ENDTAB
  0
TABLE
  2
DIMSTYLE
 70
     1
  0
DIMSTYLE
  2
ISO-25
 70
     0
  3

  4

  5

  6

  7

 40
1.0
 41
2.5
 42
0.625
 43
3.75
 44
1.25
 45
0.0
 46
0.0
 47
0.0
 48
0.0
140
2.5
141
2.5
142
0.0
143
0.03937007874016
144
1.0
145
0.0
146
1.0
147
0.625
 71
     0
 72
     0
 73
     0
 74
     0
 75
     0
 76
     0
 77
     1
 78
     8
170
     0
171
     3
172
     1
173
     0
174
     0
175
     0
176
     0
177
     0
178
     0
  0
ENDTAB
  0
ENDSEC
  0
SECTION
  2
BLOCKS
  0
BLOCK
  8
0
  2
$MODEL_SPACE
 70
     0
 10
0.0
 20
0.0
 30
0.0
  3
$MODEL_SPACE
  1

  0
ENDBLK
  5
21
  8
0
  0
BLOCK
 67
     1
  8
0
  2
$PAPER_SPACE
 70
     0
 10
0.0
 20
0.0
 30
0.0
  3
$PAPER_SPACE
  1

  0
ENDBLK
  5
53
 67
     1
  8
0
  0
BLOCK
  8
0
  2
*D1
 70
     1
 10
0.0
 20
0.0
 30
0.0
  3
*D1
  1

  0
LINE
  5
214
  8
0
 62
     0
 10
18.30234716357608
 20
28.353418638478281
 30
0.0
 11
18.30234716357608
 21
40.469265962500799
 31
0.0
  0
LINE
  5
215
  8
0
 62
     0
 10
37.006808936924017
 20
28.353418638478281
 30
0.0
 11
37.006808936924017
 21
40.469265962500799
 31
0.0
  0
LINE
  5
216
  8
0
 62
     0
 10
20.802347163576091
 20
39.219265962500799
 30
0.0
 11
34.506808936924017
 21
39.219265962500799
 31
0.0
  0
SOLID
  5
217
  8
0
 62
     0
 10
20.802347163576091
 20
39.635932629167471
 30
0.0
 11
20.802347163576091
 21
38.802599295834128
 31
0.0
 12
18.30234716357608
 22
39.219265962500799
 32
0.0
 13
18.30234716357608
 23
39.219265962500799
 33
0.0
  0
SOLID
  5
218
  8
0
 62
     0
 10
34.506808936924017
 20
39.635932629167471
 30
0.0
 11
34.506808936924017
 21
38.802599295834128
 31
0.0
 12
37.006808936924017
 22
39.219265962500799
 32
0.0
 13
37.006808936924017
 23
39.219265962500799
 33
0.0
  0
INSERT
  5
219
  8
0
  2
*U2
 10
0.0
 20
0.0
 30
0.0
  0
POINT
  5
21A
  8
DEFPOINTS
 62
     0
 10
18.30234716357608
 20
27.728418638478281
 30
0.0
  0
POINT
  5
21B
  8
DEFPOINTS
 62
     0
 10
37.006808936924017
 20
27.728418638478281
 30
0.0
  0
POINT
  5
21C
  8
DEFPOINTS
 62
     0
 10
37.006808936924017
 20
39.219265962500799
 30
0.0
  0
ENDBLK
  5
21E
  8
0
  0
BLOCK
  8
0
  2
*U2
 70
     1
 10
0.0
 20
0.0
 30
0.0
  3
*U2
  1

  0
TEXT
  5
301
  8
0
 62
     0
 10
24.112911383583391
 20
40.260932629167471
 30
0.0
 40
2.5
  1
18,7
  0
ENDBLK
  5
303
  8
0
  0
BLOCK
  8
0
  2
*U3
 70
     1
 10
0.0
 20
0.0
 30
0.0
  3
*U3
  1

  0
TEXT
  5
305
  8
0
 10
23.666833135162008
 20
27.849145134204761
 30
0.0
 40
2.5
  1
NACA5-H-10
  0
ENDBLK
  5
307
  8
0
  0
BLOCK
  8
0
  2
*U4
 70
     1
 10
0.0
 20
0.0
 30
0.0
  3
*U4
  1

  0
TEXT
  5
309
  8
0
 10
27.519411682599859
 20
13.231381171427881
 30
0.0
 40
2.5
  1
64-409
  0
ENDBLK
  5
30B
  8
0
  0
ENDSEC
  0
SECTION
  2
ENTITIES
  0
POLYLINE
  5
1C7
  8
0
 66
     1
 10
0.0
 20
0.0
 30
0.0
  0
VERTEX
  5
237
  8
0
 10
99.584886796821024
 20
12.66690577174262
 30
0.0
  0
VERTEX
  5
238
  8
0
 10
99.580420796821016
 20
12.807282771742621
 30
0.0
  0
VERTEX
  5
239
  8
0
 10
98.557820796821019
 20
12.850131771742619
 30
0.0
  0
VERTEX
  5
23A
  8
0
 10
97.535449796821041
 20
12.89811477174262
 30
0.0
  0
VERTEX
  5
23B
  8
0
 10
96.513331796821035
 20
12.951230771742621
 30
0.0
  0
VERTEX
  5
23C
  8
0
 10
95.491493796821018
 20
13.00947877174262
 30
0.0
  0
VERTEX
  5
23D
  8
0
 10
94.469960796821027
 20
13.07285677174262
 30
0.0
  0
VERTEX
  5
23E
  8
0
 10
93.448885796821017
 20
13.14315177174262
 30
0.0
  0
VERTEX
  5
23F
  8
0
 10
92.429125796821026
 20
13.230386771742619
 30
0.0
  0
VERTEX
  5
240
  8
0
 10
91.411115796821008
 20
13.33609677174262
 30
0.0
  0
VERTEX
  5
241
  8
0
 10
90.395176796821033
 20
13.46014877174262
 30
0.0
  0
VERTEX
  5
242
  8
0
 10
89.380182796821018
 20
13.59181177174262
 30
0.0
  0
VERTEX
  5
243
  8
0
 10
88.365237796821006
 20
13.72385877174262
 30
0.0
  0
VERTEX
  5
244
  8
0
 10
87.350343796821036
 20
13.85629077174262
 30
0.0
  0
VERTEX
  5
245
  8
0
 10
86.335499796821026
 20
13.98910577174262
 30
0.0
  0
VERTEX
  5
246
  8
0
 10
85.320705796821045
 20
14.12230477174262
 30
0.0
  0
VERTEX
  5
247
  8
0
 10
84.305962796821021
 20
14.25588677174262
 30
0.0
  0
VERTEX
  5
248
  8
0
 10
83.291269796821013
 20
14.38985377174262
 30
0.0
  0
VERTEX
  5
249
  8
0
 10
82.276627796821018
 20
14.52420377174262
 30
0.0
  0
VERTEX
  5
24A
  8
0
 10
81.262036796821022
 20
14.65893777174262
 30
0.0
  0
VERTEX
  5
24B
  8
0
 10
80.250691796821044
 20
14.815649771742621
 30
0.0
  0
VERTEX
  5
24C
  8
0
 10
79.242823796821028
 20
14.993823771742621
 30
0.0
  0
VERTEX
  5
24D
  8
0
 10
78.236200796821024
 20
15.17890577174262
 30
0.0
  0
VERTEX
  5
24E
  8
0
 10
77.23087179682102
 20
15.37088977174262
 30
0.0
  0
VERTEX
  5
24F
  8
0
 10
76.226883796821014
 20
15.569764771742619
 30
0.0
  0
VERTEX
  5
250
  8
0
 10
75.224256796821024
 20
15.775398771742619
 30
0.0
  0
VERTEX
  5
251
  8
0
 10
74.221286796821033
 20
15.97934577174262
 30
0.0
  0
VERTEX
  5
252
  8
0
 10
73.216951796821022
 20
16.176462771742621
 30
0.0
  0
VERTEX
  5
253
  8
0
 10
72.211297796821029
 20
16.366739771742619
 30
0.0
  0
VERTEX
  5
254
  8
0
 10
71.204372796821019
 20
16.55016977174262
 30
0.0
  0
VERTEX
  5
255
  8
0
 10
70.196226796821023
 20
16.726764771742619
 30
0.0
  0
VERTEX
  5
256
  8
0
 10
69.187344796821023
 20
16.89911777174262
 30
0.0
  0
VERTEX
  5
257
  8
0
 10
68.178044796821027
 20
17.069003771742619
 30
0.0
  0
VERTEX
  5
258
  8
0
 10
67.168332796821034
 20
17.23642477174262
 30
0.0
  0
VERTEX
  5
259
  8
0
 10
66.158214796821028
 20
17.40137777174262
 30
0.0
  0
VERTEX
  5
25A
  8
0
 10
65.147697796821021
 20
17.563863771742621
 30
0.0
  0
VERTEX
  5
25B
  8
0
 10
64.136802796821016
 20
17.723984771742622
 30
0.0
  0
VERTEX
  5
25C
  8
0
 10
63.125542796821023
 20
17.881789771742621
 30
0.0
  0
VERTEX
  5
25D
  8
0
 10
62.113924796821017
 20
18.03727777174262
 30
0.0
  0
VERTEX
  5
25E
  8
0
 10
61.101952796821017
 20
18.19044877174262
 30
0.0
  0
VERTEX
  5
25F
  8
0
 10
60.089629796821022
 20
18.34127977174262
 30
0.0
  0
VERTEX
  5
260
  8
0
 10
59.076628796821034
 20
18.48747277174261
 30
0.0
  0
VERTEX
  5
261
  8
0
 10
58.062751796821019
 20
18.627472771742621
 30
0.0
  0
VERTEX
  5
262
  8
0
 10
57.048038796821018
 20
18.76127477174262
 30
0.0
  0
VERTEX
  5
263
  8
0
 10
56.032527796821029
 20
18.888872771742619
 30
0.0
  0
VERTEX
  5
264
  8
0
 10
55.016294796821029
 20
19.010595771742619
 30
0.0
  0
VERTEX
  5
265
  8
0
 10
53.999536796821019
 20
19.127854771742619
 30
0.0
  0
VERTEX
  5
266
  8
0
 10
52.982290796821019
 20
19.240808771742621
 30
0.0
  0
VERTEX
  5
267
  8
0
 10
51.964576796821028
 20
19.34945677174262
 30
0.0
  0
VERTEX
  5
268
  8
0
 10
50.946411796821032
 20
19.453796771742621
 30
0.0
  0
VERTEX
  5
269
  8
0
 10
49.927807796821021
 20
19.55375677174262
 30
0.0
  0
VERTEX
  5
26A
  8
0
 10
48.908476796821027
 20
19.645979771742621
 30
0.0
  0
VERTEX
  5
26B
  8
0
 10
47.88832379682102
 20
19.72861477174262
 30
0.0
  0
VERTEX
  5
26C
  8
0
 10
46.867438796821027
 20
19.801653771742622
 30
0.0
  0
VERTEX
  5
26D
  8
0
 10
45.845911796821021
 20
19.865089771742621
 30
0.0
  0
VERTEX
  5
26E
  8
0
 10
44.823834796821018
 20
19.918918771742621
 30
0.0
  0
VERTEX
  5
26F
  8
0
 10
43.801294796821033
 20
19.96311777174262
 30
0.0
  0
VERTEX
  5
270
  8
0
 10
42.778383796821018
 20
19.997675771742621
 30
0.0
  0
VERTEX
  5
271
  8
0
 10
41.755192796821021
 20
20.022591771742619
 30
0.0
  0
VERTEX
  5
272
  8
0
 10
40.731812796821018
 20
20.037860771742618
 30
0.0
  0
VERTEX
  5
273
  8
0
 10
39.70833379682103
 20
20.04354377174262
 30
0.0
  0
VERTEX
  5
274
  8
0
 10
38.68484279682103
 20
20.040745771742621
 30
0.0
  0
VERTEX
  5
275
  8
0
 10
37.661404796821017
 20
20.02987877174262
 30
0.0
  0
VERTEX
  5
276
  8
0
 10
36.638084796821019
 20
20.010943771742621
 30
0.0
  0
VERTEX
  5
277
  8
0
 10
35.614944796821021
 20
19.98394377174262
 30
0.0
  0
VERTEX
  5
278
  8
0
 10
34.591984796821031
 20
19.950786771742621
 30
0.0
  0
VERTEX
  5
279
  8
0
 10
33.569182796821032
 20
19.913084771742621
 30
0.0
  0
VERTEX
  5
27A
  8
0
 10
32.54655779682102
 20
19.870838771742619
 30
0.0
  0
VERTEX
  5
27B
  8
0
 10
31.524129796821018
 20
19.82405077174262
 30
0.0
  0
VERTEX
  5
27C
  8
0
 10
30.501920796821022
 20
19.77272077174262
 30
0.0
  0
VERTEX
  5
27D
  8
0
 10
29.479945796821031
 20
19.71692277174262
 30
0.0
  0
VERTEX
  5
27E
  8
0
 10
28.458183796821022
 20
19.657333771742611
 30
0.0
  0
VERTEX
  5
27F
  8
0
 10
27.436640796821031
 20
19.59411677174262
 30
0.0
  0
VERTEX
  5
280
  8
0
 10
26.415327796821028
 20
19.52727277174262
 30
0.0
  0
VERTEX
  5
281
  8
0
 10
25.394259796821029
 20
19.45680277174262
 30
0.0
  0
VERTEX
  5
282
  8
0
 10
24.373447796821029
 20
19.382706771742619
 30
0.0
  0
VERTEX
  5
283
  8
0
 10
23.352904796821019
 20
19.30498677174262
 30
0.0
  0
VERTEX
  5
284
  8
0
 10
22.332772796821018
 20
19.222118771742618
 30
0.0
  0
VERTEX
  5
285
  8
0
 10
21.314251796821029
 20
19.12147877174262
 30
0.0
  0
VERTEX
  5
286
  8
0
 10
20.29797179682102
 20
19.000288771742621
 30
0.0
  0
VERTEX
  5
287
  8
0
 10
19.284103796821022
 20
18.860276771742619
 30
0.0
  0
VERTEX
  5
288
  8
0
 10
18.271458796821019
 20
18.71163477174262
 30
0.0
  0
VERTEX
  5
289
  8
0
 10
17.259851796821021
 20
18.556081771742619
 30
0.0
  0
VERTEX
  5
28A
  8
0
 10
16.249515796821019
 20
18.392503771742621
 30
0.0
  0
VERTEX
  5
28B
  8
0
 10
15.241276796821021
 20
18.216467771742622
 30
0.0
  0
VERTEX
  5
28C
  8
0
 10
14.235114796821019
 20
18.028898771742622
 30
0.0
  0
VERTEX
  5
28D
  8
0
 10
13.229584796821021
 20
17.837963771742618
 30
0.0
  0
VERTEX
  5
28E
  8
0
 10
12.224436796821021
 20
17.645023771742618
 30
0.0
  0
VERTEX
  5
28F
  8
0
 10
11.21973379682102
 20
17.449780771742621
 30
0.0
  0
VERTEX
  5
290
  8
0
 10
10.215824796821019
 20
17.250499771742611
 30
0.0
  0
VERTEX
  5
291
  8
0
 10
9.2128287968210252
 20
17.04667177174262
 30
0.0
  0
VERTEX
  5
292
  8
0
 10
8.2111017968210245
 20
16.836702771742619
 30
0.0
  0
VERTEX
  5
293
  8
0
 10
7.2109647968210231
 20
16.619291771742621
 30
0.0
  0
VERTEX
  5
294
  8
0
 10
6.2173667968210244
 20
16.374176771742619
 30
0.0
  0
VERTEX
  5
295
  8
0
 10
5.2345727968210243
 20
16.088510771742619
 30
0.0
  0
VERTEX
  5
296
  8
0
 10
4.2602827968210244
 20
15.77519077174262
 30
0.0
  0
VERTEX
  5
297
  8
0
 10
3.303691796821024
 20
15.41144677174262
 30
0.0
  0
VERTEX
  5
298
  8
0
 10
2.356072796821024
 20
15.024743771742621
 30
0.0
  0
VERTEX
  5
299
  8
0
 10
1.429538796821024
 20
14.59104477174262
 30
0.0
  0
VERTEX
  5
29A
  8
0
 10
0.5341097968210243
 20
14.09640377174262
 30
0.0
  0
VERTEX
  5
29B
  8
0
 10
-0.2295522031789757
 20
13.41966577174262
 30
0.0
  0
VERTEX
  5
29C
  8
0
 10
-0.2895652031789757
 20
12.47761877174262
 30
0.0
  0
VERTEX
  5
29D
  8
0
 10
0.5535817968210243
 20
11.92125577174262
 30
0.0
  0
VERTEX
  5
29E
  8
0
 10
1.5441087968210241
 20
11.66641677174262
 30
0.0
  0
VERTEX
  5
29F
  8
0
 10
2.552792796821024
 20
11.496102771742621
 30
0.0
  0
VERTEX
  5
2A0
  8
0
 10
3.5677067968210241
 20
11.36386477174262
 30
0.0
  0
VERTEX
  5
2A1
  8
0
 10
4.585468796821023
 20
11.25743177174262
 30
0.0
  0
VERTEX
  5
2A2
  8
0
 10
5.6071227968210238
 20
11.196015771742619
 30
0.0
  0
VERTEX
  5
2A3
  8
0
 10
6.6287837968210237
 20
11.134716771742619
 30
0.0
  0
VERTEX
  5
2A4
  8
0
 10
7.6504447968210254
 20
11.07341677174262
 30
0.0
  0
VERTEX
  5
2A5
  8
0
 10
8.6721047968210243
 20
11.012116771742621
 30
0.0
  0
VERTEX
  5
2A6
  8
0
 10
9.6937657968210242
 20
10.950817771742621
 30
0.0
  0
VERTEX
  5
2A7
  8
0
 10
10.715426796821021
 20
10.88951777174262
 30
0.0
  0
VERTEX
  5
2A8
  8
0
 10
11.737087796821021
 20
10.82821777174262
 30
0.0
  0
VERTEX
  5
2A9
  8
0
 10
12.758747796821019
 20
10.76691877174262
 30
0.0
  0
VERTEX
  5
2AA
  8
0
 10
13.780408796821019
 20
10.705618771742619
 30
0.0
  0
VERTEX
  5
2AB
  8
0
 10
14.80207079682102
 20
10.64433577174262
 30
0.0
  0
VERTEX
  5
2AC
  8
0
 10
15.823996796821019
 20
10.58767977174262
 30
0.0
  0
VERTEX
  5
2AD
  8
0
 10
16.84634679682102
 20
10.539274771742621
 30
0.0
  0
VERTEX
  5
2AE
  8
0
 10
17.869053796821021
 20
10.49912777174262
 30
0.0
  0
VERTEX
  5
2AF
  8
0
 10
18.89205379682102
 20
10.46726077174262
 30
0.0
  0
VERTEX
  5
2B0
  8
0
 10
19.915275796821021
 20
10.443613771742619
 30
0.0
  0
VERTEX
  5
2B1
  8
0
 10
20.93856879682102
 20
10.423148771742619
 30
0.0
  0
VERTEX
  5
2B2
  8
0
 10
21.96186279682103
 20
10.40268277174262
 30
0.0
  0
VERTEX
  5
2B3
  8
0
 10
22.985155796821029
 20
10.38221677174262
 30
0.0
  0
VERTEX
  5
2B4
  8
0
 10
24.008449796821029
 20
10.361750771742621
 30
0.0
  0
VERTEX
  5
2B5
  8
0
 10
25.031742796821032
 20
10.34128477174262
 30
0.0
  0
VERTEX
  5
2B6
  8
0
 10
26.055036796821021
 20
10.320818771742619
 30
0.0
  0
VERTEX
  5
2B7
  8
0
 10
27.07832979682102
 20
10.30035277174262
 30
0.0
  0
VERTEX
  5
2B8
  8
0
 10
28.101623796821031
 20
10.279886771742619
 30
0.0
  0
VERTEX
  5
2B9
  8
0
 10
29.124916796821029
 20
10.25942177174262
 30
0.0
  0
VERTEX
  5
2BA
  8
0
 10
30.148209796821021
 20
10.238955771742621
 30
0.0
  0
VERTEX
  5
2BB
  8
0
 10
31.171503796821028
 20
10.21848977174262
 30
0.0
  0
VERTEX
  5
2BC
  8
0
 10
32.194796796821016
 20
10.198023771742619
 30
0.0
  0
VERTEX
  5
2BD
  8
0
 10
33.218090796821031
 20
10.17755777174262
 30
0.0
  0
VERTEX
  5
2BE
  8
0
 10
34.241383796821033
 20
10.157091771742619
 30
0.0
  0
VERTEX
  5
2BF
  8
0
 10
35.264677796821033
 20
10.13662577174262
 30
0.0
  0
VERTEX
  5
2C0
  8
0
 10
36.287970796821028
 20
10.11615977174262
 30
0.0
  0
VERTEX
  5
2C1
  8
0
 10
37.311264796821021
 20
10.09569477174262
 30
0.0
  0
VERTEX
  5
2C2
  8
0
 10
38.334557796821031
 20
10.075228771742619
 30
0.0
  0
VERTEX
  5
2C3
  8
0
 10
39.357851796821031
 20
10.05476277174262
 30
0.0
  0
VERTEX
  5
2C4
  8
0
 10
40.381202796821022
 20
10.03818577174262
 30
0.0
  0
VERTEX
  5
2C5
  8
0
 10
41.404649796821033
 20
10.027950771742621
 30
0.0
  0
VERTEX
  5
2C6
  8
0
 10
42.428096796821023
 20
10.01771677174262
 30
0.0
  0
VERTEX
  5
2C7
  8
0
 10
43.451543796821021
 20
10.00748177174262
 30
0.0
  0
VERTEX
  5
2C8
  8
0
 10
44.474990796821018
 20
9.9972477717426198
 30
0.0
  0
VERTEX
  5
2C9
  8
0
 10
45.498437796821023
 20
9.98701277174262
 30
0.0
  0
VERTEX
  5
2CA
  8
0
 10
46.52188479682102
 20
9.9767787717426195
 30
0.0
  0
VERTEX
  5
2CB
  8
0
 10
47.545331796821017
 20
9.9665437717426197
 30
0.0
  0
VERTEX
  5
2CC
  8
0
 10
48.568778796821029
 20
9.9563097717426192
 30
0.0
  0
VERTEX
  5
2CD
  8
0
 10
49.592225796821012
 20
9.9460747717426194
 30
0.0
  0
VERTEX
  5
2CE
  8
0
 10
50.615672796821009
 20
9.9358407717426207
 30
0.0
  0
VERTEX
  5
2CF
  8
0
 10
51.639119796821028
 20
9.9256067717426202
 30
0.0
  0
VERTEX
  5
2D0
  8
0
 10
52.662565796821028
 20
9.9153717717426204
 30
0.0
  0
VERTEX
  5
2D1
  8
0
 10
53.686012796821032
 20
9.9051377717426181
 30
0.0
  0
VERTEX
  5
2D2
  8
0
 10
54.709459796821022
 20
9.8949027717426183
 30
0.0
  0
VERTEX
  5
2D3
  8
0
 10
55.73290679682102
 20
9.8846687717426196
 30
0.0
  0
VERTEX
  5
2D4
  8
0
 10
56.756353796821017
 20
9.8744337717426198
 30
0.0
  0
VERTEX
  5
2D5
  8
0
 10
57.779800796821021
 20
9.8641997717426211
 30
0.0
  0
VERTEX
  5
2D6
  8
0
 10
58.803247796821012
 20
9.8539647717426213
 30
0.0
  0
VERTEX
  5
2D7
  8
0
 10
59.826694796821023
 20
9.8437307717426208
 30
0.0
  0
VERTEX
  5
2D8
  8
0
 10
60.850146796821022
 20
9.8340867717426192
 30
0.0
  0
VERTEX
  5
2D9
  8
0
 10
61.87362179682102
 20
9.8271467717426191
 30
0.0
  0
VERTEX
  5
2DA
  8
0
 10
62.897110796821018
 20
9.8230977717426171
 30
0.0
  0
VERTEX
  5
2DB
  8
0
 10
63.920608796821021
 20
9.8219317717426193
 30
0.0
  0
VERTEX
  5
2DC
  8
0
 10
64.94410579682102
 20
9.8224737717426205
 30
0.0
  0
VERTEX
  5
2DD
  8
0
 10
65.967602796821026
 20
9.8239197717426201
 30
0.0
  0
VERTEX
  5
2DE
  8
0
 10
66.991098796821021
 20
9.8262697717426182
 30
0.0
  0
VERTEX
  5
2DF
  8
0
 10
68.014591796821023
 20
9.82952377174262
 30
0.0
  0
VERTEX
  5
2E0
  8
0
 10
69.038080796821021
 20
9.8336807717426193
 30
0.0
  0
VERTEX
  5
2E1
  8
0
 10
70.061566796821026
 20
9.8387427717426181
 30
0.0
  0
VERTEX
  5
2E2
  8
0
 10
71.08503079682103
 20
9.8468617717426206
 30
0.0
  0
VERTEX
  5
2E3
  8
0
 10
72.108398796821021
 20
9.8629707717426172
 30
0.0
  0
VERTEX
  5
2E4
  8
0
 10
73.131605796821034
 20
9.8872617717426188
 30
0.0
  0
VERTEX
  5
2E5
  8
0
 10
74.154585796821024
 20
9.9197337717426191
 30
0.0
  0
VERTEX
  5
2E6
  8
0
 10
75.177273796821027
 20
9.9603847717426195
 30
0.0
  0
VERTEX
  5
2E7
  8
0
 10
76.199597796821024
 20
10.00933877174262
 30
0.0
  0
VERTEX
  5
2E8
  8
0
 10
77.221283796821027
 20
10.070085771742621
 30
0.0
  0
VERTEX
  5
2E9
  8
0
 10
78.242087796821025
 20
10.14419577174262
 30
0.0
  0
VERTEX
  5
2EA
  8
0
 10
79.261834796821034
 20
10.231656771742619
 30
0.0
  0
VERTEX
  5
2EB
  8
0
 10
80.280350796821025
 20
10.33245277174262
 30
0.0
  0
VERTEX
  5
2EC
  8
0
 10
81.297415796821014
 20
10.446946771742621
 30
0.0
  0
VERTEX
  5
2ED
  8
0
 10
82.312773796821034
 20
10.57570677174262
 30
0.0
  0
VERTEX
  5
2EE
  8
0
 10
83.327023796821024
 20
10.712986771742621
 30
0.0
  0
VERTEX
  5
2EF
  8
0
 10
84.341379796821045
 20
10.84948077174262
 30
0.0
  0
VERTEX
  5
2F0
  8
0
 10
85.355857796821027
 20
10.98505877174262
 30
0.0
  0
VERTEX
  5
2F1
  8
0
 10
86.370458796821026
 20
11.11971977174262
 30
0.0
  0
VERTEX
  5
2F2
  8
0
 10
87.385180796821032
 20
11.253464771742619
 30
0.0
  0
VERTEX
  5
2F3
  8
0
 10
88.400022796821005
 20
11.386292771742619
 30
0.0
  0
VERTEX
  5
2F4
  8
0
 10
89.414984796821031
 20
11.518204771742621
 30
0.0
  0
VERTEX
  5
2F5
  8
0
 10
90.430065796821026
 20
11.649199771742619
 30
0.0
  0
VERTEX
  5
2F6
  8
0
 10
91.445505796821024
 20
11.777368771742619
 30
0.0
  0
VERTEX
  5
2F7
  8
0
 10
92.461603796821024
 20
11.900215771742619
 30
0.0
  0
VERTEX
  5
2F8
  8
0
 10
93.478332796821022
 20
12.01772377174262
 30
0.0
  0
VERTEX
  5
2F9
  8
0
 10
94.495622796821024
 20
12.13027777174262
 30
0.0
  0
VERTEX
  5
2FA
  8
0
 10
95.513144796821024
 20
12.240709771742621
 30
0.0
  0
VERTEX
  5
2FB
  8
0
 10
96.530835796821023
 20
12.349588771742621
 30
0.0
  0
VERTEX
  5
2FC
  8
0
 10
97.54869079682102
 20
12.456914771742619
 30
0.0
  0
VERTEX
  5
2FD
  8
0
 10
98.566708796821018
 20
12.562686771742619
 30
0.0
  0
VERTEX
  5
2FE
  8
0
 10
99.584886796821024
 20
12.66690577174262
 30
0.0
  0
SEQEND
  5
2FF
  8
0
  0
POLYLINE
  5
1CF
  8
0
 66
     1
 10
0.0
 20
0.0
 30
0.0
 70
     3
  0
VERTEX
  5
1D1
  8
0
 10
99.075797796821035
 20
26.983221250068571
 30
0.0
 42
0.003280861849715
  0
VERTEX
  5
20F
  8
0
 10
98.917834253626737
 20
26.994925497574819
 30
0.0
 42
0.0001349547915058
 70
     1
  0
VERTEX
  5
1D2
  8
0
 10
95.075797796821007
 20
27.25322125006857
 30
0.0
 42
0.0001448903908469
  0
VERTEX
  5
210
  8
0
 10
92.075797796821021
 20
27.45322125006857
 30
0.0
 42
-0.000289665376993
 70
     1
  0
VERTEX
  5
1D3
  8
0
 10
89.075797796821035
 20
27.653221250068569
 30
0.0
 42
-0.016270563691338
  0
VERTEX
  5
1F4
  8
0
 10
85.351203270438475
 20
28.02574502393179
 30
0.0
 42
-0.0095924405899364
 70
     1
  0
VERTEX
  5
1D4
  8
0
 10
79.075797796821035
 20
28.983221250068571
 30
0.0
 42
-0.0085848878253226
  0
VERTEX
  5
1F5
  8
0
 10
74.075797796821035
 20
29.93322125006857
 30
0.0
 42
0.0085465502447064
 70
     1
  0
VERTEX
  5
1D5
  8
0
 10
69.075797796821035
 20
30.883221250068569
 30
0.0
 42
0.0030035090314859
  0
VERTEX
  5
1F6
  8
0
 10
64.16136393443108
 20
31.699836902421829
 30
0.0
 42
0.0029079366044972
 70
     1
  0
VERTEX
  5
1D6
  8
0
 10
59.075797796821028
 20
32.483221250068567
 30
0.0
 42
0.0068987650751763
  0
VERTEX
  5
1F7
  8
0
 10
54.541219675791588
 20
33.090945840471861
 30
0.0
 42
0.0057412786538279
 70
     1
  0
VERTEX
  5
1D7
  8
0
 10
49.075797796821028
 20
33.68322125006857
 30
0.0
 42
0.0116269408906708
  0
VERTEX
  5
1F8
  8
0
 10
43.624073027944057
 20
34.083063349016818
 30
0.0
 42
0.0139713495528214
 70
     1
  0
VERTEX
  5
1D8
  8
0
 10
39.075797796821028
 20
34.18322125006857
 30
0.0
 42
0.006016982159605
  0
VERTEX
  5
1F9
  8
0
 10
34.084370716723143
 20
34.093579631278807
 30
0.0
 42
0.0059920667782851
 70
     1
  0
VERTEX
  5
1D9
  8
0
 10
29.075797796821028
 20
33.883221250068573
 30
0.0
 42
0.0014922936087839
  0
VERTEX
  5
1FA
  8
0
 10
25.619734773558321
 20
33.68620769349301
 30
0.0
 42
0.0033384947870632
 70
     1
  0
VERTEX
  5
1DA
  8
0
 10
24.075797796821028
 20
33.583221250068569
 30
0.0
 42
0.0065967376459309
  0
VERTEX
  5
1FB
  8
0
 10
21.187879506247899
 20
33.33286308156945
 30
0.0
 42
0.0089915133394041
 70
     1
  0
VERTEX
  5
1DB
  8
0
 10
19.075797796821028
 20
33.083221250068569
 30
0.0
 42
0.0057554449346084
  0
VERTEX
  5
1FC
  8
0
 10
17.101754429348802
 20
32.790636942569641
 30
0.0
 42
0.0037433591325636
 70
     1
  0
VERTEX
  5
1DC
  8
0
 10
14.07579779682102
 20
32.283221250068571
 30
0.0
 42
0.0025674735956106
  0
VERTEX
  5
1FD
  8
0
 10
10.74753716493508
 20
31.681829720723499
 30
0.0
 42
0.0050969160041863
 70
     1
  0
VERTEX
  5
1DD
  8
0
 10
9.0757977968210284
 20
31.353221250068572
 30
0.0
 42
0.0049705550223305
  0
VERTEX
  5
1FE
  8
0
 10
8.0758221588471883
 20
31.135661046365609
 30
0.0
 42
0.0033011439815187
 70
     1
  0
VERTEX
  5
1DE
  8
0
 10
6.5757977968210284
 20
30.783221250068571
 30
0.0
 42
0.0089092683902539
  0
VERTEX
  5
1FF
  8
0
 10
5.1824578664555681
 20
30.419728995178829
 30
0.0
 42
0.0110916986682843
 70
     1
  0
VERTEX
  5
1DF
  8
0
 10
4.0757977968210284
 20
30.083221250068569
 30
0.0
 42
0.0157844853649634
  0
VERTEX
  5
200
  8
0
 10
3.413478799742673
 20
29.84225121963259
 30
0.0
 42
0.0055940076385035
 70
     1
  0
VERTEX
  5
1E0
  8
0
 10
1.5757977968210279
 20
29.083221250068569
 30
0.0
 42
0.0111599134868181
  0
VERTEX
  5
201
  8
0
 10
1.199105538302045
 20
28.912645414007098
 30
0.0
 42
0.0047414863336267
 70
     1
  0
VERTEX
  5
1E1
  8
0
 10
0.3257977968210277
 20
28.483221250068571
 30
0.0
 42
0.1027524164053835
  0
VERTEX
  5
202
  8
0
 10
-0.7797502716607206
 20
27.605055103543211
 30
0.0
 42
0.2375671119732213
 70
     1
  0
VERTEX
  5
1E2
  8
0
 10
-0.924202203178973
 20
26.983221250068571
 30
0.0
 42
0.1749816001753426
  0
VERTEX
  5
203
  8
0
 10
-0.5969199285760692
 20
26.488757434134719
 30
0.0
 42
0.0996480667971242
 70
     1
  0
VERTEX
  5
1E3
  8
0
 10
0.3257977968210267
 20
26.053221250068571
 30
0.0
 42
0.0074095079433925
  0
VERTEX
  5
204
  8
0
 10
1.2227013774558131
 20
25.845533292074141
 30
0.0
 42
0.0190308392760415
 70
     1
  0
VERTEX
  5
1E4
  8
0
 10
1.5757977968210271
 20
25.783221250068561
 30
0.0
 42
0.004297197827791
  0
VERTEX
  5
205
  8
0
 10
3.3897620719895079
 20
25.549714496096112
 30
0.0
 42
0.0114039207280458
 70
     1
  0
VERTEX
  5
1E5
  8
0
 10
4.0757977968210266
 20
25.483221250068571
 30
0.0
 42
0.0004848127445587
  0
VERTEX
  5
206
  8
0
 10
5.5718344190911457
 20
25.374048395992261
 30
0.0
 42
0.0007225597456537
 70
     1
  0
VERTEX
  5
1E6
  8
0
 10
6.5757977968210257
 20
25.30322125006856
 30
0.0
 42
0.0002725629850778
  0
VERTEX
  5
207
  8
0
 10
8.4069018102770752
 20
25.177703341958161
 30
0.0
 42
0.0007462447086504
 70
     1
  0
VERTEX
  5
1E7
  8
0
 10
9.0757977968210284
 20
25.133221250068569
 30
0.0
 42
0.0037380437004339
  0
VERTEX
  5
208
  8
0
 10
10.275385970642899
 20
25.064247707058339
 30
0.0
 42
0.0011804972818041
 70
     1
  0
VERTEX
  5
1E8
  8
0
 10
14.07579779682102
 20
24.883221250068569
 30
0.0
 42
0.0013144311732191
  0
VERTEX
  5
209
  8
0
 10
18.033823408556461
 20
24.71447735891584
 30
0.0
 42
0.004995379838175
 70
     1
  0
VERTEX
  5
1E9
  8
0
 10
19.075797796821028
 20
24.68322125006857
 30
0.0
  0
VERTEX
  5
1EA
  8
0
 10
24.075797796821028
 20
24.583221250068569
 30
0.0
  0
VERTEX
  5
1EB
  8
0
 10
29.075797796821028
 20
24.48322125006856
 30
0.0
  0
VERTEX
  5
1EC
  8
0
 10
39.075797796821028
 20
24.283221250068561
 30
0.0
  0
VERTEX
  5
1ED
  8
0
 10
49.075797796821028
 20
24.183221250068559
 30
0.0
  0
VERTEX
  5
1EE
  8
0
 10
59.075797796821028
 20
24.083221250068561
 30
0.0
 42
0.0024999218794917
  0
VERTEX
  5
20A
  8
0
 10
62.661724074687839
 20
24.065292066897602
 30
0.0
 42
0.0013976412592681
 70
     1
  0
VERTEX
  5
1EF
  8
0
 10
69.075797796821035
 20
24.083221250068561
 30
0.0
 42
0.0110924134905899
  0
VERTEX
  5
20B
  8
0
 10
74.524371264672368
 20
24.234591462452791
 30
0.0
 42
0.0132458943001923
 70
     1
  0
VERTEX
  5
1F0
  8
0
 10
79.075797796821035
 20
24.583221250068569
 30
0.0
 42
0.0131688259183965
  0
VERTEX
  5
20C
  8
0
 10
84.075797796821035
 20
25.233221250068571
 30
0.0
 42
-0.011278351328874
 70
     1
  0
VERTEX
  5
1F1
  8
0
 10
89.075797796821035
 20
25.883221250068569
 30
0.0
 42
-0.0010513004363948
  0
VERTEX
  5
20D
  8
0
 10
92.075797796821021
 20
26.19822125006856
 30
0.0
 42
0.0010351940432555
 70
     1
  0
VERTEX
  5
1F2
  8
0
 10
95.075797796821007
 20
26.513221250068568
 30
0.0
 42
0.0025691671323145
  0
VERTEX
  5
20E
  8
0
 10
99.076176515551353
 20
26.962439111803789
 30
0.0
 42
0.9058303181952319
 70
     1
  0
SEQEND
  5
1F3
  8
0
  0
INSERT
  5
224
  8
0
  2
*U3
 10
0.0
 20
0.0
 30
0.0
  0
INSERT
  5
226
  8
0
  2
*U4
 10
0.0
 20
0.0
 30
0.0
  0
ENDSEC
  0
EOF
