  0
SECTION
  2
HEADER
  9
$ACADVER
  1
AC1014
  9
$ACADMAINTVER
 70
     0
  9
$DWGCODEPAGE
  3
ANSI_1252
  9
$INSBASE
 10
0.0
 20
0.0
 30
0.0
  9
$EXTMIN
 10
-297.288158
 20
-45.432597
 30
0.0
  9
$EXTMAX
 10
494.759552
 20
513.893973
 30
0.0
  9
$LIMMIN
 10
-2.117357
 20
212.888801
  9
$LIMMAX
 10
82.777124
 20
277.268681
  9
$ORTHOMODE
 70
     0
  9
$REGENMODE
 70
     1
  9
$FILLMODE
 70
     0
  9
$QTEXTMODE
 70
     0
  9
$MIRRTEXT
 70
     1
  9
$DRAGMODE
 70
     2
  9
$LTSCALE
 40
1.0
  9
$OSMODE
 70
     0
  9
$ATTMODE
 70
     1
  9
$TEXTSIZE
 40
0.2
  9
$TRACEWID
 40
0.05
  9
$TEXTSTYLE
  7
TXT
  9
$CLAYER
  8
0
  9
$CELTYPE
  6
CONTINUOUS
  9
$CECOLOR
 62
   256
  9
$CELTSCALE
 40
1.0
  9
$DELOBJ
 70
     1
  9
$DISPSILH
 70
     0
  9
$DIMSCALE
 40
1.0
  9
$DIMASZ
 40
0.18
  9
$DIMEXO
 40
0.0625
  9
$DIMDLI
 40
0.38
  9
$DIMRND
 40
0.0
  9
$DIMDLE
 40
0.0
  9
$DIMEXE
 40
0.18
  9
$DIMTP
 40
0.0
  9
$DIMTM
 40
0.0
  9
$DIMTXT
 40
0.18
  9
$DIMCEN
 40
0.09
  9
$DIMTSZ
 40
0.0
  9
$DIMTOL
 70
     0
  9
$DIMLIM
 70
     0
  9
$DIMTIH
 70
     1
  9
$DIMTOH
 70
     1
  9
$DIMSE1
 70
     0
  9
$DIMSE2
 70
     0
  9
$DIMTAD
 70
     0
  9
$DIMZIN
 70
     0
  9
$DIMBLK
  1

  9
$DIMASO
 70
     1
  9
$DIMSHO
 70
     1
  9
$DIMPOST
  1

  9
$DIMAPOST
  1

  9
$DIMALT
 70
     0
  9
$DIMALTD
 70
     2
  9
$DIMALTF
 40
25.4
  9
$DIMLFAC
 40
1.0
  9
$DIMTOFL
 70
     0
  9
$DIMTVP
 40
0.0
  9
$DIMTIX
 70
     0
  9
$DIMSOXD
 70
     0
  9
$DIMSAH
 70
     0
  9
$DIMBLK1
  1

  9
$DIMBLK2
  1

  9
$DIMSTYLE
  2
STANDARD
  9
$DIMCLRD
 70
     0
  9
$DIMCLRE
 70
     0
  9
$DIMCLRT
 70
     0
  9
$DIMTFAC
 40
1.0
  9
$DIMGAP
 40
0.09
  9
$DIMJUST
 70
     0
  9
$DIMSD1
 70
     0
  9
$DIMSD2
 70
     0
  9
$DIMTOLJ
 70
     1
  9
$DIMTZIN
 70
     0
  9
$DIMALTZ
 70
     0
  9
$DIMALTTZ
 70
     0
  9
$DIMFIT
 70
     3
  9
$DIMUPT
 70
     0
  9
$DIMUNIT
 70
     2
  9
$DIMDEC
 70
     4
  9
$DIMTDEC
 70
     4
  9
$DIMALTU
 70
     2
  9
$DIMALTTD
 70
     2
  9
$DIMTXSTY
  7
STANDARD
  9
$DIMAUNIT
 70
     0
  9
$LUNITS
 70
     2
  9
$LUPREC
 70
     2
  9
$SKETCHINC
 40
0.1
  9
$FILLETRAD
 40
0.0
  9
$AUNITS
 70
     0
  9
$AUPREC
 70
     0
  9
$MENU
  1
acad
  9
$ELEVATION
 40
0.0
  9
$PELEVATION
 40
0.0
  9
$THICKNESS
 40
0.0
  9
$LIMCHECK
 70
     0
  9
$BLIPMODE
 70
     0
  9
$CHAMFERA
 40
0.0
  9
$CHAMFERB
 40
0.0
  9
$CHAMFERC
 40
0.0
  9
$CHAMFERD
 40
0.0
  9
$SKPOLY
 70
     0
  9
$TDCREATE
 40
2451295.782463472
  9
$TDUPDATE
 40
2452407.743832870
  9
$TDINDWG
 40
0.0484138889
  9
$TDUSRTIMER
 40
0.0484138889
  9
$USRTIMER
 70
     1
  9
$ANGBASE
 50
0.0
  9
$ANGDIR
 70
     0
  9
$PDMODE
 70
     0
  9
$PDSIZE
 40
0.0
  9
$PLINEWID
 40
3.0
  9
$COORDS
 70
     1
  9
$SPLFRAME
 70
     0
  9
$SPLINETYPE
 70
     6
  9
$SPLINESEGS
 70
     8
  9
$ATTDIA
 70
     0
  9
$ATTREQ
 70
     1
  9
$HANDLING
 70
     1
  9
$HANDSEED
  5
F57
  9
$SURFTAB1
 70
     6
  9
$SURFTAB2
 70
     6
  9
$SURFTYPE
 70
     6
  9
$SURFU
 70
     6
  9
$SURFV
 70
     6
  9
$UCSNAME
  2

  9
$UCSORG
 10
0.0
 20
0.0
 30
0.0
  9
$UCSXDIR
 10
1.0
 20
0.0
 30
0.0
  9
$UCSYDIR
 10
0.0
 20
1.0
 30
0.0
  9
$PUCSNAME
  2

  9
$PUCSORG
 10
0.0
 20
0.0
 30
0.0
  9
$PUCSXDIR
 10
1.0
 20
0.0
 30
0.0
  9
$PUCSYDIR
 10
0.0
 20
1.0
 30
0.0
  9
$USERI1
 70
     0
  9
$USERI2
 70
     0
  9
$USERI3
 70
     0
  9
$USERI4
 70
     0
  9
$USERI5
 70
     0
  9
$USERR1
 40
0.0
  9
$USERR2
 40
0.0
  9
$USERR3
 40
0.0
  9
$USERR4
 40
0.0
  9
$USERR5
 40
0.0
  9
$WORLDVIEW
 70
     1
  9
$SHADEDGE
 70
     3
  9
$SHADEDIF
 70
    70
  9
$TILEMODE
 70
     1
  9
$MAXACTVP
 70
    48
  9
$PINSBASE
 10
0.0
 20
0.0
 30
0.0
  9
$PLIMCHECK
 70
     0
  9
$PEXTMIN
 10
1.000000E+20
 20
1.000000E+20
 30
1.000000E+20
  9
$PEXTMAX
 10
-1.000000E+20
 20
-1.000000E+20
 30
-1.000000E+20
  9
$PLIMMIN
 10
0.0
 20
0.0
  9
$PLIMMAX
 10
12.0
 20
9.0
  9
$UNITMODE
 70
     0
  9
$VISRETAIN
 70
     1
  9
$PLINEGEN
 70
     0
  9
$PSLTSCALE
 70
     1
  9
$TREEDEPTH
 70
  3020
  9
$PICKSTYLE
 70
     1
  9
$CMLSTYLE
  2
STANDARD
  9
$CMLJUST
 70
     0
  9
$CMLSCALE
 40
1.0
  9
$PROXYGRAPHICS
 70
     1
  9
$MEASUREMENT
 70
     0
  0
ENDSEC
  0
SECTION
  2
CLASSES
  0
CLASS
  1
LWPOLYLINE
  2
AcDbPolyline
  3
"AutoCAD"
 90
        0
280
     0
281
     1
  0
CLASS
  1
IMAGE
  2
AcDbRasterImage
  3
ISM
 90
      127
280
     0
281
     1
  0
CLASS
  1
OLE2FRAME
  2
AcDbOle2Frame
  3
""
 90
        0
280
     0
281
     1
  0
CLASS
  1
HATCH
  2
AcDbHatch
  3
"ACAD_SEDONA"
 90
        0
280
     0
281
     1
  0
CLASS
  1
DICTIONARYVAR
  2
AcDbDictionaryVar
  3
"AutoCAD"
 90
        0
280
     0
281
     0
  0
CLASS
  1
RASTERVARIABLES
  2
AcDbRasterVariables
  3
ISM
 90
        0
280
     0
281
     0
  0
CLASS
  1
IMAGEDEF
  2
AcDbRasterImageDef
  3
ISM
 90
        0
280
     0
281
     0
  0
CLASS
  1
IMAGEDEF_REACTOR
  2
AcDbRasterImageDefReactor
  3
ISM
 90
        1
280
     0
281
     0
  0
CLASS
  1
IDBUFFER
  2
AcDbIdBuffer
  3
"Acad"
 90
        0
280
     0
281
     0
  0
CLASS
  1
SPATIAL_FILTER
  2
AcDbSpatialFilter
  3
"Acad"
 90
        0
280
     0
281
     0
  0
CLASS
  1
XRECORD
  2
AcDbXrecord
  3
"<Built In>"
 90
        0
280
     0
281
     0
  0
CLASS
  1
SORTENTSTABLE
  2
AcDbSortentsTable
  3
"AutoCAD"
 90
        0
280
     0
281
     0
  0
CLASS
  1
LAYER_INDEX
  2
AcDbLayerIndex
  3
"Acad"
 90
        0
280
     0
281
     0
  0
CLASS
  1
SPATIAL_INDEX
  2
AcDbSpatialIndex
  3
"Acad"
 90
        0
280
     0
281
     0
  0
CLASS
  1
OBJECT_PTR
  2
CAseDLPNTableRecord
  3
"ASE-LPNTableRecord"
 90
        1
280
     0
281
     0
  0
CLASS
  1
LAYOUT
  2
AcDbLayout
  3
"AutoCAD 2000"
 90
        1
280
     0
281
     0
  0
CLASS
  1
PLOTSETTINGS
  2
AcDbPlotSettings
  3
"AutoCAD 2000"
 90
        1
280
     0
281
     0
  0
CLASS
  1
ACDBDICTIONARYWDFLT
  2
AcDbDictionaryWithDefault
  3
"AutoCAD 2000"
 90
        1
280
     0
281
     0
  0
CLASS
  1
ACDBPLACEHOLDER
  2
AcDbPlaceHolder
  3
"AutoCAD 2000"
 90
        1
280
     0
281
     0
  0
CLASS
  1
VBA_PROJECT
  2
AcDbVbaProject
  3
"acadvba"
 90
        1
280
     0
281
     0
  0
CLASS
  1
WIPEOUT
  2
AcDbWipeout
  3
WipeOut|AutoCAD Express Tool|expresstools@autodesk.com
 90
      127
280
     0
281
     1
  0
CLASS
  1
WIPEOUTVARIABLES
  2
AcDbWipeoutVariables
  3
WipeOut|AutoCAD Express Tool|expresstools@autodesk.com
 90
        0
280
     0
281
     0
  0
CLASS
  1
RTEXT
  2
RText
  3
RText|AutoCAD Express Tool|expresstools@autodesk.com
 90
        0
280
     0
281
     1
  0
CLASS
  1
ARCALIGNEDTEXT
  2
AcDbArcAlignedText
  3
ATEXT|AutoCAD Express Tool|expresstools@autodesk.com
 90
        0
280
     0
281
     1
  0
ENDSEC
  0
SECTION
  2
TABLES
  0
TABLE
  2
VPORT
  5
8
100
AcDbSymbolTable
 70
     1
  0
VPORT
  5
F4F
100
AcDbSymbolTableRecord
100
AcDbViewportTableRecord
  2
*ACTIVE
 70
    64
 10
0.0
 20
0.0
 11
1.0
 21
1.0
 12
98.735697
 22
234.230688
 13
0.0
 23
0.0
 14
1.0
 24
1.0
 15
0.0
 25
0.0
 16
0.0
 26
0.0
 36
1.0
 17
0.0
 27
0.0
 37
0.0
 40
565.998458
 41
1.645418
 42
50.0
 43
0.0
 44
0.0
 50
0.0
 51
0.0
 71
     0
 72
   100
 73
     1
 74
     1
 75
     0
 76
     0
 77
     0
 78
     0
  0
ENDTAB
  0
TABLE
  2
LTYPE
  5
5
100
AcDbSymbolTable
 70
    12
  0
LTYPE
  5
12
100
AcDbSymbolTableRecord
100
AcDbLinetypeTableRecord
  2
BYBLOCK
 70
    64
  3

 72
    65
 73
     0
 40
0.0
  0
LTYPE
  5
13
100
AcDbSymbolTableRecord
100
AcDbLinetypeTableRecord
  2
BYLAYER
 70
    64
  3

 72
    65
 73
     0
 40
0.0
  0
LTYPE
  5
14
100
AcDbSymbolTableRecord
100
AcDbLinetypeTableRecord
  2
CONTINUOUS
 70
    64
  3
Solid line
 72
    65
 73
     0
 40
0.0
  0
LTYPE
  5
1F
100
AcDbSymbolTableRecord
100
AcDbLinetypeTableRecord
  2
DASHED
 70
    64
  3
__ __ __ __ __ __ __ __ __ __ __ __ __ __ __
 72
    65
 73
     2
 40
0.75
 49
0.5
 74
     0
 49
-0.25
 74
     0
  0
LTYPE
  5
20
100
AcDbSymbolTableRecord
100
AcDbLinetypeTableRecord
  2
HIDDEN
 70
    64
  3
_ _ _ _ _ _ _ _ _ _ _ _ _ _ _ _ _ _ _ _ _ _ _
 72
    65
 73
     2
 40
0.375
 49
0.25
 74
     0
 49
-0.125
 74
     0
  0
LTYPE
  5
21
100
AcDbSymbolTableRecord
100
AcDbLinetypeTableRecord
  2
CENTER
 70
    64
  3
____ _ ____ _ ____ _ ____ _ ____ _ ____ _ ____
 72
    65
 73
     4
 40
2.0
 49
1.25
 74
     0
 49
-0.25
 74
     0
 49
0.25
 74
     0
 49
-0.25
 74
     0
  0
LTYPE
  5
22
100
AcDbSymbolTableRecord
100
AcDbLinetypeTableRecord
  2
PHANTOM
 70
    64
  3
_____ _ _ _____ _ _ _____ _ _ _____ _ _ ____
 72
    65
 73
     6
 40
2.5
 49
1.25
 74
     0
 49
-0.25
 74
     0
 49
0.25
 74
     0
 49
-0.25
 74
     0
 49
0.25
 74
     0
 49
-0.25
 74
     0
  0
LTYPE
  5
23
100
AcDbSymbolTableRecord
100
AcDbLinetypeTableRecord
  2
DOT
 70
    64
  3
...............................................
 72
    65
 73
     2
 40
0.25
 49
0.0
 74
     0
 49
-0.25
 74
     0
  0
LTYPE
  5
24
100
AcDbSymbolTableRecord
100
AcDbLinetypeTableRecord
  2
DASHDOT
 70
    64
  3
__ . __ . __ . __ . __ . __ . __ . __ . __ . __
 72
    65
 73
     4
 40
1.0
 49
0.5
 74
     0
 49
-0.25
 74
     0
 49
0.0
 74
     0
 49
-0.25
 74
     0
  0
LTYPE
  5
25
100
AcDbSymbolTableRecord
100
AcDbLinetypeTableRecord
  2
BORDER
 70
    64
  3
__ __ . __ __ . __ __ . __ __ . __ __ . __ __
 72
    65
 73
     6
 40
1.75
 49
0.5
 74
     0
 49
-0.25
 74
     0
 49
0.5
 74
     0
 49
-0.25
 74
     0
 49
0.0
 74
     0
 49
-0.25
 74
     0
  0
LTYPE
  5
26
100
AcDbSymbolTableRecord
100
AcDbLinetypeTableRecord
  2
DIVIDE
 70
    64
  3
__ . . __ . . __ . . __ . . __ . . __ . . __
 72
    65
 73
     6
 40
1.25
 49
0.5
 74
     0
 49
-0.25
 74
     0
 49
0.0
 74
     0
 49
-0.25
 74
     0
 49
0.0
 74
     0
 49
-0.25
 74
     0
  0
LTYPE
  5
27
100
AcDbSymbolTableRecord
100
AcDbLinetypeTableRecord
  2
INVISIBLE
 70
    64
  3
invisible line
 72
    65
 73
     1
 40
1.0
 49
-1.0
 74
     0
  0
ENDTAB
  0
TABLE
  2
LAYER
  5
2
100
AcDbSymbolTable
 70
     3
  0
LAYER
  5
E
100
AcDbSymbolTableRecord
100
AcDbLayerTableRecord
  2
0
 70
    64
 62
     7
  6
CONTINUOUS
  0
LAYER
  5
28
100
AcDbSymbolTableRecord
100
AcDbLayerTableRecord
  2
1
 70
    64
 62
     7
  6
CONTINUOUS
  0
LAYER
  5
F03
100
AcDbSymbolTableRecord
100
AcDbLayerTableRecord
  2
DEFPOINTS
 70
    64
 62
     7
  6
CONTINUOUS
  0
ENDTAB
  0
TABLE
  2
STYLE
  5
3
100
AcDbSymbolTable
 70
     3
  0
STYLE
  5
F
100
AcDbSymbolTableRecord
100
AcDbTextStyleTableRecord
  2
STANDARD
 70
    64
 40
0.0
 41
1.0
 50
0.0
 71
     0
 42
0.2
  3
ARIAL.TTF
  4

1001
ACAD
1000
Arial
1071
       34
  0
STYLE
  5
29
100
AcDbSymbolTableRecord
100
AcDbTextStyleTableRecord
  2
TXT
 70
    64
 40
0.0
 41
1.0
 50
0.0
 71
     0
 42
0.2
  3
TXT
  4

  0
STYLE
  5
2A
100
AcDbSymbolTableRecord
100
AcDbTextStyleTableRecord
  2
COMPLEX
 70
    64
 40
0.0
 41
1.0
 50
0.0
 71
     0
 42
0.2
  3
COMPLEX
  4

  0
ENDTAB
  0
TABLE
  2
VIEW
  5
6
100
AcDbSymbolTable
 70
     0
  0
ENDTAB
  0
TABLE
  2
UCS
  5
7
100
AcDbSymbolTable
 70
     0
  0
ENDTAB
  0
TABLE
  2
APPID
  5
9
100
AcDbSymbolTable
 70
     1
  0
APPID
  5
10
100
AcDbSymbolTableRecord
100
AcDbRegAppTableRecord
  2
ACAD
 70
    64
  0
ENDTAB
  0
TABLE
  2
DIMSTYLE
  5
A
100
AcDbSymbolTable
 70
     1
  0
DIMSTYLE
105
E79
100
AcDbSymbolTableRecord
100
AcDbDimStyleTableRecord
  2
STANDARD
 70
    64
  3

  4

  5

  6

  7

 40
1.0
 41
0.18
 42
0.0625
 43
0.38
 44
0.18
 45
0.0
 46
0.0
 47
0.0
 48
0.0
 71
     0
 72
     0
 73
     1
 74
     1
 75
     0
 76
     0
 77
     0
 78
     0
140
0.18
141
0.09
142
0.0
143
25.4
144
1.0
145
0.0
146
1.0
147
0.09
170
     0
171
     2
172
     0
173
     0
174
     0
175
     0
176
     0
177
     0
178
     0
270
     2
271
     4
272
     4
273
     2
274
     2
275
     0
280
     0
281
     0
282
     0
283
     1
284
     0
285
     0
286
     0
287
     3
288
     0
340
F
  0
ENDTAB
  0
TABLE
  2
BLOCK_RECORD
  5
1
100
AcDbSymbolTable
 70
    32
  0
BLOCK_RECORD
  5
18
100
AcDbSymbolTableRecord
100
AcDbBlockTableRecord
  2
*MODEL_SPACE
  0
BLOCK_RECORD
  5
15
100
AcDbSymbolTableRecord
100
AcDbBlockTableRecord
  2
*PAPER_SPACE
  0
BLOCK_RECORD
  5
2C
100
AcDbSymbolTableRecord
100
AcDbBlockTableRecord
  2
NO_186327871
  0
BLOCK_RECORD
  5
A3
100
AcDbSymbolTableRecord
100
AcDbBlockTableRecord
  2
NO_186327866
  0
BLOCK_RECORD
  5
BE
100
AcDbSymbolTableRecord
100
AcDbBlockTableRecord
  2
NO_186327882
  0
BLOCK_RECORD
  5
135
100
AcDbSymbolTableRecord
100
AcDbBlockTableRecord
  2
NO_186327877
  0
BLOCK_RECORD
  5
15B
100
AcDbSymbolTableRecord
100
AcDbBlockTableRecord
  2
NO_186327860
  0
BLOCK_RECORD
  5
160
100
AcDbSymbolTableRecord
100
AcDbBlockTableRecord
  2
NO_186327899
  0
BLOCK_RECORD
  5
266
100
AcDbSymbolTableRecord
100
AcDbBlockTableRecord
  2
NO_186327904
  0
BLOCK_RECORD
  5
2D5
100
AcDbSymbolTableRecord
100
AcDbBlockTableRecord
  2
NO_186327893
  0
BLOCK_RECORD
  5
2E0
100
AcDbSymbolTableRecord
100
AcDbBlockTableRecord
  2
NO_186328066
  0
BLOCK_RECORD
  5
357
100
AcDbSymbolTableRecord
100
AcDbBlockTableRecord
  2
NO_186328071
  0
BLOCK_RECORD
  5
3AB
100
AcDbSymbolTableRecord
100
AcDbBlockTableRecord
  2
NO_186327888
  0
BLOCK_RECORD
  5
3B1
100
AcDbSymbolTableRecord
100
AcDbBlockTableRecord
  2
NO_186328077
  0
BLOCK_RECORD
  5
4CF
100
AcDbSymbolTableRecord
100
AcDbBlockTableRecord
  2
NO_186328088
  0
BLOCK_RECORD
  5
5D5
100
AcDbSymbolTableRecord
100
AcDbBlockTableRecord
  2
NO_186328093
  0
BLOCK_RECORD
  5
6DB
100
AcDbSymbolTableRecord
100
AcDbBlockTableRecord
  2
NO_186328082
  0
BLOCK_RECORD
  5
6E2
100
AcDbSymbolTableRecord
100
AcDbBlockTableRecord
  2
NO_186328110
  0
BLOCK_RECORD
  5
840
100
AcDbSymbolTableRecord
100
AcDbBlockTableRecord
  2
NO_186328104
  0
BLOCK_RECORD
  5
84A
100
AcDbSymbolTableRecord
100
AcDbBlockTableRecord
  2
NO_186328099
  0
BLOCK_RECORD
  5
851
100
AcDbSymbolTableRecord
100
AcDbBlockTableRecord
  2
NO_186328121
  0
BLOCK_RECORD
  5
89F
100
AcDbSymbolTableRecord
100
AcDbBlockTableRecord
  2
NO_186328126
  0
BLOCK_RECORD
  5
A5B
100
AcDbSymbolTableRecord
100
AcDbBlockTableRecord
  2
NO_186328137
  0
BLOCK_RECORD
  5
B61
100
AcDbSymbolTableRecord
100
AcDbBlockTableRecord
  2
NO_186328153
  0
BLOCK_RECORD
  5
B93
100
AcDbSymbolTableRecord
100
AcDbBlockTableRecord
  2
NO_186328159
  0
BLOCK_RECORD
  5
E7E
100
AcDbSymbolTableRecord
100
AcDbBlockTableRecord
  2
A$C1C7533D0
  0
BLOCK_RECORD
  5
E93
100
AcDbSymbolTableRecord
100
AcDbBlockTableRecord
  2
A$C129E0784
  0
BLOCK_RECORD
  5
E9A
100
AcDbSymbolTableRecord
100
AcDbBlockTableRecord
  2
A$C420C7865
  0
BLOCK_RECORD
  5
EA0
100
AcDbSymbolTableRecord
100
AcDbBlockTableRecord
  2
A$C702B0AD5
  0
BLOCK_RECORD
  5
EA6
100
AcDbSymbolTableRecord
100
AcDbBlockTableRecord
  2
A$C7D9842FC
  0
BLOCK_RECORD
  5
EAC
100
AcDbSymbolTableRecord
100
AcDbBlockTableRecord
  2
A$C27F66F06
  0
BLOCK_RECORD
  5
EB2
100
AcDbSymbolTableRecord
100
AcDbBlockTableRecord
  2
A$C378F45B2
  0
BLOCK_RECORD
  5
EBB
100
AcDbSymbolTableRecord
100
AcDbBlockTableRecord
  2
A$C6141051F
  0
BLOCK_RECORD
  5
F3A
100
AcDbSymbolTableRecord
100
AcDbBlockTableRecord
  2
*D31
  0
ENDTAB
  0
ENDSEC
  0
SECTION
  2
BLOCKS
  0
BLOCK
  5
19
100
AcDbEntity
  8
0
100
AcDbBlockBegin
  2
*MODEL_SPACE
 70
    64
 10
0.0
 20
0.0
 30
0.0
  3
*MODEL_SPACE
  1

  0
ENDBLK
  5
1A
100
AcDbEntity
  8
0
100
AcDbBlockEnd
  0
BLOCK
  5
16
100
AcDbEntity
 67
     1
  8
0
100
AcDbBlockBegin
  2
*PAPER_SPACE
 70
    64
 10
0.0
 20
0.0
 30
0.0
  3
*PAPER_SPACE
  1

  0
ENDBLK
  5
17
100
AcDbEntity
 67
     1
  8
0
100
AcDbBlockEnd
  0
BLOCK
  5
2D
100
AcDbEntity
  8
0
100
AcDbBlockBegin
  2
NO_186327871
 70
    64
 10
77.028239
 20
232.62007
 30
0.0
  3
NO_186327871
  1

  0
LWPOLYLINE
  5
2E
100
AcDbEntity
  8
1
  6
DOT
100
AcDbPolyline
 90
        4
 70
     1
 10
78.860062
 20
219.480626
 10
78.860062
 20
232.612587
 10
78.995753
 20
232.612587
 10
78.995753
 20
219.480626
  0
LWPOLYLINE
  5
34
100
AcDbEntity
  8
1
  6
DOT
100
AcDbPolyline
 90
        4
 70
     0
 10
78.249454
 20
229.065835
 10
77.571001
 20
229.065835
 10
77.028239
 20
228.639327
 10
77.028239
 20
224.890545
  0
POLYLINE
  5
3A
100
AcDbEntity
  8
1
100
AcDb2dPolyline
 66
     1
 10
0.0
 20
0.0
 30
0.0
  0
VERTEX
  5
3B
100
AcDbEntity
  8
1
100
AcDbVertex
100
AcDb2dVertex
 10
79.018368
 20
232.612587
 30
0.0
  0
VERTEX
  5
3C
100
AcDbEntity
  8
1
100
AcDbVertex
100
AcDb2dVertex
 10
79.064955
 20
232.586435
 30
0.0
  0
VERTEX
  5
3D
100
AcDbEntity
  8
1
100
AcDbVertex
100
AcDb2dVertex
 10
79.109733
 20
232.550631
 30
0.0
  0
VERTEX
  5
3E
100
AcDbEntity
  8
1
100
AcDbVertex
100
AcDb2dVertex
 10
79.152702
 20
232.505174
 30
0.0
  0
VERTEX
  5
3F
100
AcDbEntity
  8
1
100
AcDbVertex
100
AcDb2dVertex
 10
79.193861
 20
232.450065
 30
0.0
  0
VERTEX
  5
40
100
AcDbEntity
  8
1
100
AcDbVertex
100
AcDb2dVertex
 10
79.233212
 20
232.385303
 30
0.0
  0
VERTEX
  5
41
100
AcDbEntity
  8
1
100
AcDbVertex
100
AcDb2dVertex
 10
79.270753
 20
232.310889
 30
0.0
  0
VERTEX
  5
42
100
AcDbEntity
  8
1
100
AcDbVertex
100
AcDb2dVertex
 10
79.306485
 20
232.226822
 30
0.0
  0
VERTEX
  5
43
100
AcDbEntity
  8
1
100
AcDbVertex
100
AcDb2dVertex
 10
79.340407
 20
232.133102
 30
0.0
  0
VERTEX
  5
44
100
AcDbEntity
  8
1
100
AcDbVertex
100
AcDb2dVertex
 10
79.372521
 20
232.02973
 30
0.0
  0
VERTEX
  5
45
100
AcDbEntity
  8
1
100
AcDbVertex
100
AcDb2dVertex
 10
79.402825
 20
231.916705
 30
0.0
  0
VERTEX
  5
46
100
AcDbEntity
  8
1
100
AcDbVertex
100
AcDb2dVertex
 10
79.402825
 20
231.916705
 30
0.0
  0
VERTEX
  5
47
100
AcDbEntity
  8
1
100
AcDbVertex
100
AcDb2dVertex
 10
79.43132
 20
231.794028
 30
0.0
  0
VERTEX
  5
48
100
AcDbEntity
  8
1
100
AcDbVertex
100
AcDb2dVertex
 10
79.458006
 20
231.661698
 30
0.0
  0
VERTEX
  5
49
100
AcDbEntity
  8
1
100
AcDbVertex
100
AcDb2dVertex
 10
79.482882
 20
231.519716
 30
0.0
  0
VERTEX
  5
4A
100
AcDbEntity
  8
1
100
AcDbVertex
100
AcDb2dVertex
 10
79.50595
 20
231.368081
 30
0.0
  0
VERTEX
  5
4B
100
AcDbEntity
  8
1
100
AcDbVertex
100
AcDb2dVertex
 10
79.527208
 20
231.206794
 30
0.0
  0
VERTEX
  5
4C
100
AcDbEntity
  8
1
100
AcDbVertex
100
AcDb2dVertex
 10
79.546657
 20
231.035854
 30
0.0
  0
VERTEX
  5
4D
100
AcDbEntity
  8
1
100
AcDbVertex
100
AcDb2dVertex
 10
79.564297
 20
230.855261
 30
0.0
  0
VERTEX
  5
4E
100
AcDbEntity
  8
1
100
AcDbVertex
100
AcDb2dVertex
 10
79.580127
 20
230.665016
 30
0.0
  0
VERTEX
  5
4F
100
AcDbEntity
  8
1
100
AcDbVertex
100
AcDb2dVertex
 10
79.594149
 20
230.465119
 30
0.0
  0
VERTEX
  5
50
100
AcDbEntity
  8
1
100
AcDbVertex
100
AcDb2dVertex
 10
79.606361
 20
230.255568
 30
0.0
  0
SEQEND
  5
51
100
AcDbEntity
  8
1
  0
POLYLINE
  5
52
100
AcDbEntity
  8
1
100
AcDb2dPolyline
 66
     1
 10
0.0
 20
0.0
 30
0.0
  0
VERTEX
  5
53
100
AcDbEntity
  8
1
100
AcDbVertex
100
AcDb2dVertex
 10
78.852524
 20
232.612587
 30
0.0
  0
VERTEX
  5
54
100
AcDbEntity
  8
1
100
AcDbVertex
100
AcDb2dVertex
 10
78.805937
 20
232.586435
 30
0.0
  0
VERTEX
  5
55
100
AcDbEntity
  8
1
100
AcDbVertex
100
AcDb2dVertex
 10
78.761159
 20
232.550631
 30
0.0
  0
VERTEX
  5
56
100
AcDbEntity
  8
1
100
AcDbVertex
100
AcDb2dVertex
 10
78.71819
 20
232.505174
 30
0.0
  0
VERTEX
  5
57
100
AcDbEntity
  8
1
100
AcDbVertex
100
AcDb2dVertex
 10
78.677031
 20
232.450065
 30
0.0
  0
VERTEX
  5
58
100
AcDbEntity
  8
1
100
AcDbVertex
100
AcDb2dVertex
 10
78.63768
 20
232.385303
 30
0.0
  0
VERTEX
  5
59
100
AcDbEntity
  8
1
100
AcDbVertex
100
AcDb2dVertex
 10
78.600139
 20
232.310889
 30
0.0
  0
VERTEX
  5
5A
100
AcDbEntity
  8
1
100
AcDbVertex
100
AcDb2dVertex
 10
78.564407
 20
232.226822
 30
0.0
  0
VERTEX
  5
5B
100
AcDbEntity
  8
1
100
AcDbVertex
100
AcDb2dVertex
 10
78.530485
 20
232.133102
 30
0.0
  0
VERTEX
  5
5C
100
AcDbEntity
  8
1
100
AcDbVertex
100
AcDb2dVertex
 10
78.498371
 20
232.02973
 30
0.0
  0
VERTEX
  5
5D
100
AcDbEntity
  8
1
100
AcDbVertex
100
AcDb2dVertex
 10
78.468067
 20
231.916705
 30
0.0
  0
VERTEX
  5
5E
100
AcDbEntity
  8
1
100
AcDbVertex
100
AcDb2dVertex
 10
78.468067
 20
231.916705
 30
0.0
  0
VERTEX
  5
5F
100
AcDbEntity
  8
1
100
AcDbVertex
100
AcDb2dVertex
 10
78.439572
 20
231.794028
 30
0.0
  0
VERTEX
  5
60
100
AcDbEntity
  8
1
100
AcDbVertex
100
AcDb2dVertex
 10
78.412886
 20
231.661698
 30
0.0
  0
VERTEX
  5
61
100
AcDbEntity
  8
1
100
AcDbVertex
100
AcDb2dVertex
 10
78.38801
 20
231.519716
 30
0.0
  0
VERTEX
  5
62
100
AcDbEntity
  8
1
100
AcDbVertex
100
AcDb2dVertex
 10
78.364942
 20
231.368081
 30
0.0
  0
VERTEX
  5
63
100
AcDbEntity
  8
1
100
AcDbVertex
100
AcDb2dVertex
 10
78.343684
 20
231.206794
 30
0.0
  0
VERTEX
  5
64
100
AcDbEntity
  8
1
100
AcDbVertex
100
AcDb2dVertex
 10
78.324235
 20
231.035854
 30
0.0
  0
VERTEX
  5
65
100
AcDbEntity
  8
1
100
AcDbVertex
100
AcDb2dVertex
 10
78.306595
 20
230.855261
 30
0.0
  0
VERTEX
  5
66
100
AcDbEntity
  8
1
100
AcDbVertex
100
AcDb2dVertex
 10
78.290765
 20
230.665016
 30
0.0
  0
VERTEX
  5
67
100
AcDbEntity
  8
1
100
AcDbVertex
100
AcDb2dVertex
 10
78.276743
 20
230.465119
 30
0.0
  0
VERTEX
  5
68
100
AcDbEntity
  8
1
100
AcDbVertex
100
AcDb2dVertex
 10
78.264531
 20
230.255568
 30
0.0
  0
SEQEND
  5
69
100
AcDbEntity
  8
1
  0
POLYLINE
  5
6A
100
AcDbEntity
  8
1
100
AcDb2dPolyline
 66
     1
 10
0.0
 20
0.0
 30
0.0
  0
VERTEX
  5
6B
100
AcDbEntity
  8
1
100
AcDbVertex
100
AcDb2dVertex
 10
78.852524
 20
219.480626
 30
0.0
  0
VERTEX
  5
6C
100
AcDbEntity
  8
1
100
AcDbVertex
100
AcDb2dVertex
 10
78.80409
 20
219.501016
 30
0.0
  0
VERTEX
  5
6D
100
AcDbEntity
  8
1
100
AcDbVertex
100
AcDb2dVertex
 10
78.75754
 20
219.528515
 30
0.0
  0
VERTEX
  5
6E
100
AcDbEntity
  8
1
100
AcDbVertex
100
AcDb2dVertex
 10
78.712876
 20
219.563122
 30
0.0
  0
VERTEX
  5
6F
100
AcDbEntity
  8
1
100
AcDbVertex
100
AcDb2dVertex
 10
78.670095
 20
219.604837
 30
0.0
  0
VERTEX
  5
70
100
AcDbEntity
  8
1
100
AcDbVertex
100
AcDb2dVertex
 10
78.6292
 20
219.653661
 30
0.0
  0
VERTEX
  5
71
100
AcDbEntity
  8
1
100
AcDbVertex
100
AcDb2dVertex
 10
78.590189
 20
219.709594
 30
0.0
  0
VERTEX
  5
72
100
AcDbEntity
  8
1
100
AcDbVertex
100
AcDb2dVertex
 10
78.553062
 20
219.772635
 30
0.0
  0
VERTEX
  5
73
100
AcDbEntity
  8
1
100
AcDbVertex
100
AcDb2dVertex
 10
78.51782
 20
219.842784
 30
0.0
  0
VERTEX
  5
74
100
AcDbEntity
  8
1
100
AcDbVertex
100
AcDb2dVertex
 10
78.484463
 20
219.920042
 30
0.0
  0
VERTEX
  5
75
100
AcDbEntity
  8
1
100
AcDbVertex
100
AcDb2dVertex
 10
78.45299
 20
220.004408
 30
0.0
  0
VERTEX
  5
76
100
AcDbEntity
  8
1
100
AcDbVertex
100
AcDb2dVertex
 10
78.45299
 20
220.004408
 30
0.0
  0
VERTEX
  5
77
100
AcDbEntity
  8
1
100
AcDbVertex
100
AcDb2dVertex
 10
78.423402
 20
220.095883
 30
0.0
  0
VERTEX
  5
78
100
AcDbEntity
  8
1
100
AcDbVertex
100
AcDb2dVertex
 10
78.395699
 20
220.194466
 30
0.0
  0
VERTEX
  5
79
100
AcDbEntity
  8
1
100
AcDbVertex
100
AcDb2dVertex
 10
78.36988
 20
220.300158
 30
0.0
  0
VERTEX
  5
7A
100
AcDbEntity
  8
1
100
AcDbVertex
100
AcDb2dVertex
 10
78.345945
 20
220.412958
 30
0.0
  0
VERTEX
  5
7B
100
AcDbEntity
  8
1
100
AcDbVertex
100
AcDb2dVertex
 10
78.323896
 20
220.532867
 30
0.0
  0
VERTEX
  5
7C
100
AcDbEntity
  8
1
100
AcDbVertex
100
AcDb2dVertex
 10
78.303731
 20
220.659884
 30
0.0
  0
VERTEX
  5
7D
100
AcDbEntity
  8
1
100
AcDbVertex
100
AcDb2dVertex
 10
78.28545
 20
220.794009
 30
0.0
  0
VERTEX
  5
7E
100
AcDbEntity
  8
1
100
AcDbVertex
100
AcDb2dVertex
 10
78.269054
 20
220.935243
 30
0.0
  0
VERTEX
  5
7F
100
AcDbEntity
  8
1
100
AcDbVertex
100
AcDb2dVertex
 10
78.254543
 20
221.083586
 30
0.0
  0
VERTEX
  5
80
100
AcDbEntity
  8
1
100
AcDbVertex
100
AcDb2dVertex
 10
78.241916
 20
221.239037
 30
0.0
  0
SEQEND
  5
81
100
AcDbEntity
  8
1
  0
POLYLINE
  5
82
100
AcDbEntity
  8
1
100
AcDb2dPolyline
 66
     1
 10
0.0
 20
0.0
 30
0.0
  0
VERTEX
  5
83
100
AcDbEntity
  8
1
100
AcDbVertex
100
AcDb2dVertex
 10
79.01083
 20
219.503074
 30
0.0
  0
VERTEX
  5
84
100
AcDbEntity
  8
1
100
AcDbVertex
100
AcDb2dVertex
 10
79.05851
 20
219.523464
 30
0.0
  0
VERTEX
  5
85
100
AcDbEntity
  8
1
100
AcDbVertex
100
AcDb2dVertex
 10
79.104305
 20
219.550963
 30
0.0
  0
VERTEX
  5
86
100
AcDbEntity
  8
1
100
AcDbVertex
100
AcDb2dVertex
 10
79.148216
 20
219.58557
 30
0.0
  0
VERTEX
  5
87
100
AcDbEntity
  8
1
100
AcDbVertex
100
AcDb2dVertex
 10
79.190243
 20
219.627285
 30
0.0
  0
VERTEX
  5
88
100
AcDbEntity
  8
1
100
AcDbVertex
100
AcDb2dVertex
 10
79.230385
 20
219.676109
 30
0.0
  0
VERTEX
  5
89
100
AcDbEntity
  8
1
100
AcDbVertex
100
AcDb2dVertex
 10
79.268642
 20
219.732042
 30
0.0
  0
VERTEX
  5
8A
100
AcDbEntity
  8
1
100
AcDbVertex
100
AcDb2dVertex
 10
79.305015
 20
219.795082
 30
0.0
  0
VERTEX
  5
8B
100
AcDbEntity
  8
1
100
AcDbVertex
100
AcDb2dVertex
 10
79.339503
 20
219.865232
 30
0.0
  0
VERTEX
  5
8C
100
AcDbEntity
  8
1
100
AcDbVertex
100
AcDb2dVertex
 10
79.372106
 20
219.94249
 30
0.0
  0
VERTEX
  5
8D
100
AcDbEntity
  8
1
100
AcDbVertex
100
AcDb2dVertex
 10
79.402825
 20
220.026856
 30
0.0
  0
VERTEX
  5
8E
100
AcDbEntity
  8
1
100
AcDbVertex
100
AcDb2dVertex
 10
79.402825
 20
220.026856
 30
0.0
  0
VERTEX
  5
8F
100
AcDbEntity
  8
1
100
AcDbVertex
100
AcDb2dVertex
 10
79.431659
 20
220.118331
 30
0.0
  0
VERTEX
  5
90
100
AcDbEntity
  8
1
100
AcDbVertex
100
AcDb2dVertex
 10
79.458609
 20
220.216914
 30
0.0
  0
VERTEX
  5
91
100
AcDbEntity
  8
1
100
AcDbVertex
100
AcDb2dVertex
 10
79.483674
 20
220.322606
 30
0.0
  0
VERTEX
  5
92
100
AcDbEntity
  8
1
100
AcDbVertex
100
AcDb2dVertex
 10
79.506854
 20
220.435406
 30
0.0
  0
VERTEX
  5
93
100
AcDbEntity
  8
1
100
AcDbVertex
100
AcDb2dVertex
 10
79.52815
 20
220.555314
 30
0.0
  0
VERTEX
  5
94
100
AcDbEntity
  8
1
100
AcDbVertex
100
AcDb2dVertex
 10
79.547562
 20
220.682332
 30
0.0
  0
VERTEX
  5
95
100
AcDbEntity
  8
1
100
AcDbVertex
100
AcDb2dVertex
 10
79.565088
 20
220.816457
 30
0.0
  0
VERTEX
  5
96
100
AcDbEntity
  8
1
100
AcDbVertex
100
AcDb2dVertex
 10
79.58073
 20
220.957691
 30
0.0
  0
VERTEX
  5
97
100
AcDbEntity
  8
1
100
AcDbVertex
100
AcDb2dVertex
 10
79.594488
 20
221.106034
 30
0.0
  0
VERTEX
  5
98
100
AcDbEntity
  8
1
100
AcDbVertex
100
AcDb2dVertex
 10
79.606361
 20
221.261485
 30
0.0
  0
SEQEND
  5
99
100
AcDbEntity
  8
1
  0
LINE
  5
9A
100
AcDbEntity
  8
1
100
AcDbLine
 10
79.621438
 20
230.255568
 30
0.0
 11
79.621438
 21
221.27645
 31
0.0
  0
LWPOLYLINE
  5
9B
100
AcDbEntity
  8
1
  6
DOT
100
AcDbPolyline
 90
        3
 70
     0
 10
77.028239
 20
224.912993
 10
77.593616
 20
224.32935
 10
78.249454
 20
224.32935
  0
LINE
  5
A0
100
AcDbEntity
  8
1
100
AcDbLine
 10
78.249454
 20
230.255568
 30
0.0
 11
78.249454
 21
229.088283
 31
0.0
  0
LINE
  5
A1
100
AcDbEntity
  8
1
100
AcDbLine
 10
78.249454
 20
224.32935
 30
0.0
 11
78.249454
 21
221.231554
 31
0.0
  0
ENDBLK
  5
A2
100
AcDbEntity
  8
0
100
AcDbBlockEnd
  0
BLOCK
  5
A4
100
AcDbEntity
  8
0
100
AcDbBlockBegin
  2
NO_186327866
 70
    64
 10
40.911911
 20
232.65
 30
0.0
  3
NO_186327866
  1

  0
INSERT
  5
A5
100
AcDbEntity
  8
1
100
AcDbBlockReference
  2
NO_186327871
 10
77.028239
 20
232.62007
 30
0.0
  0
POLYLINE
  5
A6
100
AcDbEntity
  8
1
100
AcDb2dPolyline
 66
     1
 10
0.0
 20
0.0
 30
0.0
 70
     1
  0
VERTEX
  5
A7
100
AcDbEntity
  8
1
100
AcDbVertex
100
AcDb2dVertex
 10
40.911911
 20
232.65
 30
0.0
  0
VERTEX
  5
A8
100
AcDbEntity
  8
1
100
AcDbVertex
100
AcDb2dVertex
 10
78.234378
 20
230.210673
 30
0.0
  0
VERTEX
  5
A9
100
AcDbEntity
  8
1
100
AcDbVertex
100
AcDb2dVertex
 10
78.234378
 20
221.201624
 30
0.0
  0
VERTEX
  5
AA
100
AcDbEntity
  8
1
100
AcDbVertex
100
AcDb2dVertex
 10
40.911911
 20
216.592343
 30
0.0
  0
VERTEX
  5
AB
100
AcDbEntity
  8
1
100
AcDbVertex
100
AcDb2dVertex
 10
40.911911
 20
232.65
 30
0.0
  0
VERTEX
  5
AC
100
AcDbEntity
  8
1
100
AcDbVertex
100
AcDb2dVertex
 10
40.911911
 20
232.65
 30
0.0
  0
SEQEND
  5
AD
100
AcDbEntity
  8
1
  0
LINE
  5
AE
100
AcDbEntity
  8
1
100
AcDbLine
 10
78.211763
 20
223.453886
 30
0.0
 11
40.926988
 21
218.852088
 31
0.0
  0
LINE
  5
AF
100
AcDbEntity
  8
1
100
AcDbLine
 10
78.234378
 20
222.847796
 30
0.0
 11
40.949603
 21
218.268445
 31
0.0
  0
LINE
  5
B0
100
AcDbEntity
  8
1
100
AcDbLine
 10
45.45001
 20
218.807192
 30
0.0
 11
45.45001
 21
217.146055
 31
0.0
  0
POLYLINE
  5
B1
100
AcDbEntity
  8
1
  6
DOT
100
AcDb2dPolyline
 66
     1
 10
0.0
 20
0.0
 30
0.0
 70
     1
  0
VERTEX
  5
B2
100
AcDbEntity
  8
1
  6
DOT
100
AcDbVertex
100
AcDb2dVertex
 10
46.716456
 20
218.290893
 30
0.0
  0
VERTEX
  5
B3
100
AcDbEntity
  8
1
  6
DOT
100
AcDbVertex
100
AcDb2dVertex
 10
46.716456
 20
219.009223
 30
0.0
  0
VERTEX
  5
B4
100
AcDbEntity
  8
1
  6
DOT
100
AcDbVertex
100
AcDb2dVertex
 10
41.854207
 20
218.403132
 30
0.0
  0
VERTEX
  5
B5
100
AcDbEntity
  8
1
  6
DOT
100
AcDbVertex
100
AcDb2dVertex
 10
41.854207
 20
218.335789
 30
0.0
  0
VERTEX
  5
B6
100
AcDbEntity
  8
1
  6
DOT
100
AcDbVertex
100
AcDb2dVertex
 10
46.64861
 20
218.934397
 30
0.0
  0
VERTEX
  5
B7
100
AcDbEntity
  8
1
  6
DOT
100
AcDbVertex
100
AcDb2dVertex
 10
46.64861
 20
218.28341
 30
0.0
  0
VERTEX
  5
B8
100
AcDbEntity
  8
1
  6
DOT
100
AcDbVertex
100
AcDb2dVertex
 10
46.716456
 20
218.290893
 30
0.0
  0
VERTEX
  5
B9
100
AcDbEntity
  8
1
  6
DOT
100
AcDbVertex
100
AcDb2dVertex
 10
46.716456
 20
218.290893
 30
0.0
  0
SEQEND
  5
BA
100
AcDbEntity
  8
1
  6
DOT
  0
LINE
  5
BB
100
AcDbEntity
  8
1
100
AcDbLine
 10
75.528103
 20
222.488631
 30
0.0
 11
75.528103
 21
220.849942
 31
0.0
  0
LINE
  5
BC
100
AcDbEntity
  8
1
100
AcDbLine
 10
78.256993
 20
229.671926
 30
0.0
 11
40.957141
 21
232.096288
 31
0.0
  0
ENDBLK
  5
BD
100
AcDbEntity
  8
0
100
AcDbBlockEnd
  0
BLOCK
  5
BF
100
AcDbEntity
  8
0
100
AcDbBlockBegin
  2
NO_186327882
 70
    64
 10
2.225
 20
232.62007
 30
0.0
  3
NO_186327882
  1

  0
LWPOLYLINE
  5
C0
100
AcDbEntity
  8
1
  6
DOT
100
AcDbPolyline
 90
        4
 70
     1
 10
2.986375
 20
232.612587
 10
2.986375
 20
219.480626
 10
2.850685
 20
219.480626
 10
2.850685
 20
232.612587
  0
LWPOLYLINE
  5
C6
100
AcDbEntity
  8
1
  6
DOT
100
AcDbPolyline
 90
        4
 70
     0
 10
3.596983
 20
229.065835
 10
4.275436
 20
229.065835
 10
4.818199
 20
228.639327
 10
4.818199
 20
224.890545
  0
POLYLINE
  5
CC
100
AcDbEntity
  8
1
100
AcDb2dPolyline
 66
     1
 10
0.0
 20
0.0
 30
0.0
  0
VERTEX
  5
CD
100
AcDbEntity
  8
1
100
AcDbVertex
100
AcDb2dVertex
 10
2.82807
 20
232.612587
 30
0.0
  0
VERTEX
  5
CE
100
AcDbEntity
  8
1
100
AcDbVertex
100
AcDb2dVertex
 10
2.781482
 20
232.586435
 30
0.0
  0
VERTEX
  5
CF
100
AcDbEntity
  8
1
100
AcDbVertex
100
AcDb2dVertex
 10
2.736705
 20
232.550631
 30
0.0
  0
VERTEX
  5
D0
100
AcDbEntity
  8
1
100
AcDbVertex
100
AcDb2dVertex
 10
2.693736
 20
232.505174
 30
0.0
  0
VERTEX
  5
D1
100
AcDbEntity
  8
1
100
AcDbVertex
100
AcDb2dVertex
 10
2.652576
 20
232.450065
 30
0.0
  0
VERTEX
  5
D2
100
AcDbEntity
  8
1
100
AcDbVertex
100
AcDb2dVertex
 10
2.613226
 20
232.385303
 30
0.0
  0
VERTEX
  5
D3
100
AcDbEntity
  8
1
100
AcDbVertex
100
AcDb2dVertex
 10
2.575685
 20
232.310889
 30
0.0
  0
VERTEX
  5
D4
100
AcDbEntity
  8
1
100
AcDbVertex
100
AcDb2dVertex
 10
2.539953
 20
232.226822
 30
0.0
  0
VERTEX
  5
D5
100
AcDbEntity
  8
1
100
AcDbVertex
100
AcDb2dVertex
 10
2.50603
 20
232.133102
 30
0.0
  0
VERTEX
  5
D6
100
AcDbEntity
  8
1
100
AcDbVertex
100
AcDb2dVertex
 10
2.473917
 20
232.02973
 30
0.0
  0
VERTEX
  5
D7
100
AcDbEntity
  8
1
100
AcDbVertex
100
AcDb2dVertex
 10
2.443613
 20
231.916705
 30
0.0
  0
VERTEX
  5
D8
100
AcDbEntity
  8
1
100
AcDbVertex
100
AcDb2dVertex
 10
2.443613
 20
231.916705
 30
0.0
  0
VERTEX
  5
D9
100
AcDbEntity
  8
1
100
AcDbVertex
100
AcDb2dVertex
 10
2.415118
 20
231.794028
 30
0.0
  0
VERTEX
  5
DA
100
AcDbEntity
  8
1
100
AcDbVertex
100
AcDb2dVertex
 10
2.388432
 20
231.661698
 30
0.0
  0
VERTEX
  5
DB
100
AcDbEntity
  8
1
100
AcDbVertex
100
AcDb2dVertex
 10
2.363555
 20
231.519716
 30
0.0
  0
VERTEX
  5
DC
100
AcDbEntity
  8
1
100
AcDbVertex
100
AcDb2dVertex
 10
2.340488
 20
231.368081
 30
0.0
  0
VERTEX
  5
DD
100
AcDbEntity
  8
1
100
AcDbVertex
100
AcDb2dVertex
 10
2.31923
 20
231.206794
 30
0.0
  0
VERTEX
  5
DE
100
AcDbEntity
  8
1
100
AcDbVertex
100
AcDb2dVertex
 10
2.299781
 20
231.035854
 30
0.0
  0
VERTEX
  5
DF
100
AcDbEntity
  8
1
100
AcDbVertex
100
AcDb2dVertex
 10
2.282141
 20
230.855261
 30
0.0
  0
VERTEX
  5
E0
100
AcDbEntity
  8
1
100
AcDbVertex
100
AcDb2dVertex
 10
2.26631
 20
230.665016
 30
0.0
  0
VERTEX
  5
E1
100
AcDbEntity
  8
1
100
AcDbVertex
100
AcDb2dVertex
 10
2.252289
 20
230.465119
 30
0.0
  0
VERTEX
  5
E2
100
AcDbEntity
  8
1
100
AcDbVertex
100
AcDb2dVertex
 10
2.240077
 20
230.255568
 30
0.0
  0
SEQEND
  5
E3
100
AcDbEntity
  8
1
  0
POLYLINE
  5
E4
100
AcDbEntity
  8
1
100
AcDb2dPolyline
 66
     1
 10
0.0
 20
0.0
 30
0.0
  0
VERTEX
  5
E5
100
AcDbEntity
  8
1
100
AcDbVertex
100
AcDb2dVertex
 10
2.993914
 20
232.612587
 30
0.0
  0
VERTEX
  5
E6
100
AcDbEntity
  8
1
100
AcDbVertex
100
AcDb2dVertex
 10
3.040501
 20
232.586435
 30
0.0
  0
VERTEX
  5
E7
100
AcDbEntity
  8
1
100
AcDbVertex
100
AcDb2dVertex
 10
3.085279
 20
232.550631
 30
0.0
  0
VERTEX
  5
E8
100
AcDbEntity
  8
1
100
AcDbVertex
100
AcDb2dVertex
 10
3.128247
 20
232.505174
 30
0.0
  0
VERTEX
  5
E9
100
AcDbEntity
  8
1
100
AcDbVertex
100
AcDb2dVertex
 10
3.169407
 20
232.450065
 30
0.0
  0
VERTEX
  5
EA
100
AcDbEntity
  8
1
100
AcDbVertex
100
AcDb2dVertex
 10
3.208757
 20
232.385303
 30
0.0
  0
VERTEX
  5
EB
100
AcDbEntity
  8
1
100
AcDbVertex
100
AcDb2dVertex
 10
3.246298
 20
232.310889
 30
0.0
  0
VERTEX
  5
EC
100
AcDbEntity
  8
1
100
AcDbVertex
100
AcDb2dVertex
 10
3.28203
 20
232.226822
 30
0.0
  0
VERTEX
  5
ED
100
AcDbEntity
  8
1
100
AcDbVertex
100
AcDb2dVertex
 10
3.315953
 20
232.133102
 30
0.0
  0
VERTEX
  5
EE
100
AcDbEntity
  8
1
100
AcDbVertex
100
AcDb2dVertex
 10
3.348066
 20
232.02973
 30
0.0
  0
VERTEX
  5
EF
100
AcDbEntity
  8
1
100
AcDbVertex
100
AcDb2dVertex
 10
3.378371
 20
231.916705
 30
0.0
  0
VERTEX
  5
F0
100
AcDbEntity
  8
1
100
AcDbVertex
100
AcDb2dVertex
 10
3.378371
 20
231.916705
 30
0.0
  0
VERTEX
  5
F1
100
AcDbEntity
  8
1
100
AcDbVertex
100
AcDb2dVertex
 10
3.406866
 20
231.794028
 30
0.0
  0
VERTEX
  5
F2
100
AcDbEntity
  8
1
100
AcDbVertex
100
AcDb2dVertex
 10
3.433551
 20
231.661698
 30
0.0
  0
VERTEX
  5
F3
100
AcDbEntity
  8
1
100
AcDbVertex
100
AcDb2dVertex
 10
3.458428
 20
231.519716
 30
0.0
  0
VERTEX
  5
F4
100
AcDbEntity
  8
1
100
AcDbVertex
100
AcDb2dVertex
 10
3.481495
 20
231.368081
 30
0.0
  0
VERTEX
  5
F5
100
AcDbEntity
  8
1
100
AcDbVertex
100
AcDb2dVertex
 10
3.502754
 20
231.206794
 30
0.0
  0
VERTEX
  5
F6
100
AcDbEntity
  8
1
100
AcDbVertex
100
AcDb2dVertex
 10
3.522203
 20
231.035854
 30
0.0
  0
VERTEX
  5
F7
100
AcDbEntity
  8
1
100
AcDbVertex
100
AcDb2dVertex
 10
3.539842
 20
230.855261
 30
0.0
  0
VERTEX
  5
F8
100
AcDbEntity
  8
1
100
AcDbVertex
100
AcDb2dVertex
 10
3.555673
 20
230.665016
 30
0.0
  0
VERTEX
  5
F9
100
AcDbEntity
  8
1
100
AcDbVertex
100
AcDb2dVertex
 10
3.569694
 20
230.465119
 30
0.0
  0
VERTEX
  5
FA
100
AcDbEntity
  8
1
100
AcDbVertex
100
AcDb2dVertex
 10
3.581906
 20
230.255568
 30
0.0
  0
SEQEND
  5
FB
100
AcDbEntity
  8
1
  0
POLYLINE
  5
FC
100
AcDbEntity
  8
1
100
AcDb2dPolyline
 66
     1
 10
0.0
 20
0.0
 30
0.0
  0
VERTEX
  5
FD
100
AcDbEntity
  8
1
100
AcDbVertex
100
AcDb2dVertex
 10
2.993914
 20
219.480626
 30
0.0
  0
VERTEX
  5
FE
100
AcDbEntity
  8
1
100
AcDbVertex
100
AcDb2dVertex
 10
3.042348
 20
219.501016
 30
0.0
  0
VERTEX
  5
FF
100
AcDbEntity
  8
1
100
AcDbVertex
100
AcDb2dVertex
 10
3.088897
 20
219.528515
 30
0.0
  0
VERTEX
  5
100
100
AcDbEntity
  8
1
100
AcDbVertex
100
AcDb2dVertex
 10
3.133562
 20
219.563122
 30
0.0
  0
VERTEX
  5
101
100
AcDbEntity
  8
1
100
AcDbVertex
100
AcDb2dVertex
 10
3.176342
 20
219.604837
 30
0.0
  0
VERTEX
  5
102
100
AcDbEntity
  8
1
100
AcDbVertex
100
AcDb2dVertex
 10
3.217238
 20
219.653661
 30
0.0
  0
VERTEX
  5
103
100
AcDbEntity
  8
1
100
AcDbVertex
100
AcDb2dVertex
 10
3.256249
 20
219.709594
 30
0.0
  0
VERTEX
  5
104
100
AcDbEntity
  8
1
100
AcDbVertex
100
AcDb2dVertex
 10
3.293375
 20
219.772635
 30
0.0
  0
VERTEX
  5
105
100
AcDbEntity
  8
1
100
AcDbVertex
100
AcDb2dVertex
 10
3.328617
 20
219.842784
 30
0.0
  0
VERTEX
  5
106
100
AcDbEntity
  8
1
100
AcDbVertex
100
AcDb2dVertex
 10
3.361975
 20
219.920042
 30
0.0
  0
VERTEX
  5
107
100
AcDbEntity
  8
1
100
AcDbVertex
100
AcDb2dVertex
 10
3.393447
 20
220.004408
 30
0.0
  0
VERTEX
  5
108
100
AcDbEntity
  8
1
100
AcDbVertex
100
AcDb2dVertex
 10
3.393447
 20
220.004408
 30
0.0
  0
VERTEX
  5
109
100
AcDbEntity
  8
1
100
AcDbVertex
100
AcDb2dVertex
 10
3.423035
 20
220.095883
 30
0.0
  0
VERTEX
  5
10A
100
AcDbEntity
  8
1
100
AcDbVertex
100
AcDb2dVertex
 10
3.450739
 20
220.194466
 30
0.0
  0
VERTEX
  5
10B
100
AcDbEntity
  8
1
100
AcDbVertex
100
AcDb2dVertex
 10
3.476558
 20
220.300158
 30
0.0
  0
VERTEX
  5
10C
100
AcDbEntity
  8
1
100
AcDbVertex
100
AcDb2dVertex
 10
3.500492
 20
220.412958
 30
0.0
  0
VERTEX
  5
10D
100
AcDbEntity
  8
1
100
AcDbVertex
100
AcDb2dVertex
 10
3.522542
 20
220.532867
 30
0.0
  0
VERTEX
  5
10E
100
AcDbEntity
  8
1
100
AcDbVertex
100
AcDb2dVertex
 10
3.542707
 20
220.659884
 30
0.0
  0
VERTEX
  5
10F
100
AcDbEntity
  8
1
100
AcDbVertex
100
AcDb2dVertex
 10
3.560987
 20
220.794009
 30
0.0
  0
VERTEX
  5
110
100
AcDbEntity
  8
1
100
AcDbVertex
100
AcDb2dVertex
 10
3.577383
 20
220.935243
 30
0.0
  0
VERTEX
  5
111
100
AcDbEntity
  8
1
100
AcDbVertex
100
AcDb2dVertex
 10
3.591895
 20
221.083586
 30
0.0
  0
VERTEX
  5
112
100
AcDbEntity
  8
1
100
AcDbVertex
100
AcDb2dVertex
 10
3.604522
 20
221.239037
 30
0.0
  0
SEQEND
  5
113
100
AcDbEntity
  8
1
  0
POLYLINE
  5
114
100
AcDbEntity
  8
1
100
AcDb2dPolyline
 66
     1
 10
0.0
 20
0.0
 30
0.0
  0
VERTEX
  5
115
100
AcDbEntity
  8
1
100
AcDbVertex
100
AcDb2dVertex
 10
2.835608
 20
219.503074
 30
0.0
  0
VERTEX
  5
116
100
AcDbEntity
  8
1
100
AcDbVertex
100
AcDb2dVertex
 10
2.787928
 20
219.523464
 30
0.0
  0
VERTEX
  5
117
100
AcDbEntity
  8
1
100
AcDbVertex
100
AcDb2dVertex
 10
2.742132
 20
219.550963
 30
0.0
  0
VERTEX
  5
118
100
AcDbEntity
  8
1
100
AcDbVertex
100
AcDb2dVertex
 10
2.698221
 20
219.58557
 30
0.0
  0
VERTEX
  5
119
100
AcDbEntity
  8
1
100
AcDbVertex
100
AcDb2dVertex
 10
2.656195
 20
219.627285
 30
0.0
  0
VERTEX
  5
11A
100
AcDbEntity
  8
1
100
AcDbVertex
100
AcDb2dVertex
 10
2.616053
 20
219.676109
 30
0.0
  0
VERTEX
  5
11B
100
AcDbEntity
  8
1
100
AcDbVertex
100
AcDb2dVertex
 10
2.577796
 20
219.732042
 30
0.0
  0
VERTEX
  5
11C
100
AcDbEntity
  8
1
100
AcDbVertex
100
AcDb2dVertex
 10
2.541423
 20
219.795082
 30
0.0
  0
VERTEX
  5
11D
100
AcDbEntity
  8
1
100
AcDbVertex
100
AcDb2dVertex
 10
2.506935
 20
219.865232
 30
0.0
  0
VERTEX
  5
11E
100
AcDbEntity
  8
1
100
AcDbVertex
100
AcDb2dVertex
 10
2.474332
 20
219.94249
 30
0.0
  0
VERTEX
  5
11F
100
AcDbEntity
  8
1
100
AcDbVertex
100
AcDb2dVertex
 10
2.443613
 20
220.026856
 30
0.0
  0
VERTEX
  5
120
100
AcDbEntity
  8
1
100
AcDbVertex
100
AcDb2dVertex
 10
2.443613
 20
220.026856
 30
0.0
  0
VERTEX
  5
121
100
AcDbEntity
  8
1
100
AcDbVertex
100
AcDb2dVertex
 10
2.414778
 20
220.118331
 30
0.0
  0
VERTEX
  5
122
100
AcDbEntity
  8
1
100
AcDbVertex
100
AcDb2dVertex
 10
2.387829
 20
220.216914
 30
0.0
  0
VERTEX
  5
123
100
AcDbEntity
  8
1
100
AcDbVertex
100
AcDb2dVertex
 10
2.362764
 20
220.322606
 30
0.0
  0
VERTEX
  5
124
100
AcDbEntity
  8
1
100
AcDbVertex
100
AcDb2dVertex
 10
2.339583
 20
220.435406
 30
0.0
  0
VERTEX
  5
125
100
AcDbEntity
  8
1
100
AcDbVertex
100
AcDb2dVertex
 10
2.318287
 20
220.555314
 30
0.0
  0
VERTEX
  5
126
100
AcDbEntity
  8
1
100
AcDbVertex
100
AcDb2dVertex
 10
2.298876
 20
220.682332
 30
0.0
  0
VERTEX
  5
127
100
AcDbEntity
  8
1
100
AcDbVertex
100
AcDb2dVertex
 10
2.281349
 20
220.816457
 30
0.0
  0
VERTEX
  5
128
100
AcDbEntity
  8
1
100
AcDbVertex
100
AcDb2dVertex
 10
2.265707
 20
220.957691
 30
0.0
  0
VERTEX
  5
129
100
AcDbEntity
  8
1
100
AcDbVertex
100
AcDb2dVertex
 10
2.25195
 20
221.106034
 30
0.0
  0
VERTEX
  5
12A
100
AcDbEntity
  8
1
100
AcDbVertex
100
AcDb2dVertex
 10
2.240077
 20
221.261485
 30
0.0
  0
SEQEND
  5
12B
100
AcDbEntity
  8
1
  0
LINE
  5
12C
100
AcDbEntity
  8
1
100
AcDbLine
 10
2.225
 20
230.255568
 30
0.0
 11
2.225
 21
221.27645
 31
0.0
  0
LWPOLYLINE
  5
12D
100
AcDbEntity
  8
1
  6
DOT
100
AcDbPolyline
 90
        3
 70
     0
 10
4.818199
 20
224.912993
 10
4.252821
 20
224.32935
 10
3.596983
 20
224.32935
  0
LINE
  5
132
100
AcDbEntity
  8
1
100
AcDbLine
 10
3.596983
 20
230.255568
 30
0.0
 11
3.596983
 21
229.088283
 31
0.0
  0
LINE
  5
133
100
AcDbEntity
  8
1
100
AcDbLine
 10
3.596983
 20
224.32935
 30
0.0
 11
3.596983
 21
221.231554
 31
0.0
  0
ENDBLK
  5
134
100
AcDbEntity
  8
0
100
AcDbBlockEnd
  0
BLOCK
  5
136
100
AcDbEntity
  8
0
100
AcDbBlockBegin
  2
NO_186327877
 70
    64
 10
2.225
 20
232.65
 30
0.0
  3
NO_186327877
  1

  0
INSERT
  5
137
100
AcDbEntity
  8
1
100
AcDbBlockReference
  2
NO_186327882
 10
2.225
 20
232.62007
 30
0.0
  0
LWPOLYLINE
  5
138
100
AcDbEntity
  8
1
100
AcDbPolyline
 90
        4
 70
     1
 10
30.946187
 20
227.449594
 10
50.779637
 20
227.449594
 10
50.779637
 20
227.18022
 10
30.946187
 20
227.18022
  0
POLYLINE
  5
13E
100
AcDbEntity
  8
1
100
AcDb2dPolyline
 66
     1
 10
0.0
 20
0.0
 30
0.0
 70
     1
  0
VERTEX
  5
13F
100
AcDbEntity
  8
1
100
AcDbVertex
100
AcDb2dVertex
 10
40.934526
 20
232.65
 30
0.0
  0
VERTEX
  5
140
100
AcDbEntity
  8
1
100
AcDbVertex
100
AcDb2dVertex
 10
3.61206
 20
230.210673
 30
0.0
  0
VERTEX
  5
141
100
AcDbEntity
  8
1
100
AcDbVertex
100
AcDb2dVertex
 10
3.61206
 20
221.201624
 30
0.0
  0
VERTEX
  5
142
100
AcDbEntity
  8
1
100
AcDbVertex
100
AcDb2dVertex
 10
40.934526
 20
216.592343
 30
0.0
  0
VERTEX
  5
143
100
AcDbEntity
  8
1
100
AcDbVertex
100
AcDb2dVertex
 10
40.934526
 20
232.65
 30
0.0
  0
VERTEX
  5
144
100
AcDbEntity
  8
1
100
AcDbVertex
100
AcDb2dVertex
 10
40.934526
 20
232.65
 30
0.0
  0
SEQEND
  5
145
100
AcDbEntity
  8
1
  0
LINE
  5
146
100
AcDbEntity
  8
1
100
AcDbLine
 10
3.634675
 20
223.453886
 30
0.0
 11
40.91945
 21
218.852088
 31
0.0
  0
LINE
  5
147
100
AcDbEntity
  8
1
100
AcDbLine
 10
3.61206
 20
222.847796
 30
0.0
 11
40.896834
 21
218.268445
 31
0.0
  0
LINE
  5
148
100
AcDbEntity
  8
1
100
AcDbLine
 10
36.396428
 20
218.807192
 30
0.0
 11
36.396428
 21
217.146055
 31
0.0
  0
POLYLINE
  5
149
100
AcDbEntity
  8
1
  6
DOT
100
AcDb2dPolyline
 66
     1
 10
0.0
 20
0.0
 30
0.0
 70
     1
  0
VERTEX
  5
14A
100
AcDbEntity
  8
1
  6
DOT
100
AcDbVertex
100
AcDb2dVertex
 10
35.129982
 20
218.290893
 30
0.0
  0
VERTEX
  5
14B
100
AcDbEntity
  8
1
  6
DOT
100
AcDbVertex
100
AcDb2dVertex
 10
35.129982
 20
219.009223
 30
0.0
  0
VERTEX
  5
14C
100
AcDbEntity
  8
1
  6
DOT
100
AcDbVertex
100
AcDb2dVertex
 10
39.99223
 20
218.403132
 30
0.0
  0
VERTEX
  5
14D
100
AcDbEntity
  8
1
  6
DOT
100
AcDbVertex
100
AcDb2dVertex
 10
39.99223
 20
218.335789
 30
0.0
  0
VERTEX
  5
14E
100
AcDbEntity
  8
1
  6
DOT
100
AcDbVertex
100
AcDb2dVertex
 10
35.197827
 20
218.934397
 30
0.0
  0
VERTEX
  5
14F
100
AcDbEntity
  8
1
  6
DOT
100
AcDbVertex
100
AcDb2dVertex
 10
35.197827
 20
218.28341
 30
0.0
  0
VERTEX
  5
150
100
AcDbEntity
  8
1
  6
DOT
100
AcDbVertex
100
AcDb2dVertex
 10
35.129982
 20
218.290893
 30
0.0
  0
VERTEX
  5
151
100
AcDbEntity
  8
1
  6
DOT
100
AcDbVertex
100
AcDb2dVertex
 10
35.129982
 20
218.290893
 30
0.0
  0
SEQEND
  5
152
100
AcDbEntity
  8
1
  6
DOT
  0
LINE
  5
153
100
AcDbEntity
  8
1
100
AcDbLine
 10
6.318335
 20
222.488631
 30
0.0
 11
6.318335
 21
220.849942
 31
0.0
  0
TEXT
  5
154
100
AcDbEntity
  8
1
100
AcDbText
 10
23.392741
 20
221.386148
 30
0.0
 40
0.499342
  1
6mm TRAILING EDGE
 41
0.497244
  7
TXT
 72
     5
 11
27.365462
 21
221.386148
 31
0.0
100
AcDbText
  0
TEXT
  5
155
100
AcDbEntity
  8
1
100
AcDbText
 10
21.696608
 20
217.772053
 30
0.0
 40
0.499342
  1
6mm AILERON
 41
0.498188
  7
TXT
 72
     5
 11
24.267192
 21
217.772053
 31
0.0
100
AcDbText
  0
LINE
  5
156
100
AcDbEntity
  8
1
100
AcDbLine
 10
3.589445
 20
229.671926
 30
0.0
 11
40.889296
 21
232.096288
 31
0.0
  0
TEXT
  5
157
100
AcDbEntity
  8
1
100
AcDbText
 10
33.185083
 20
230.589744
 30
0.0
 40
0.499342
  1
6mm LEADING EDGE
 41
0.488342
  7
TXT
 72
     5
 11
36.924114
 21
230.589744
 31
0.0
100
AcDbText
  0
TEXT
  5
158
100
AcDbEntity
  8
1
100
AcDbText
 10
32.325709
 20
225.696125
 30
0.0
 40
0.499342
  1
3mm LITE PLY SPAR
 41
0.487097
  7
TXT
 72
     5
 11
36.298429
 21
225.696125
 31
0.0
100
AcDbText
  0
TEXT
  5
159
100
AcDbEntity
  8
1
100
AcDbText
 10
5.918801
 20
228.255174
 30
0.0
 40
0.499342
  1
15mm DIHEDERAL AT EACH TIP
 41
0.493292
  7
TXT
 72
     5
 11
11.994727
 21
228.255174
 31
0.0
100
AcDbText
  0
ENDBLK
  5
15A
100
AcDbEntity
  8
0
100
AcDbBlockEnd
  0
BLOCK
  5
15C
100
AcDbEntity
  8
0
100
AcDbBlockBegin
  2
NO_186327860
 70
    64
 10
2.225
 20
232.65
 30
0.0
  3
NO_186327860
  1

  0
INSERT
  5
15D
100
AcDbEntity
  8
1
100
AcDbBlockReference
  2
NO_186327866
 10
40.911911
 20
232.65
 30
0.0
  0
INSERT
  5
15E
100
AcDbEntity
  8
1
100
AcDbBlockReference
  2
NO_186327877
 10
2.225
 20
232.65
 30
0.0
  0
ENDBLK
  5
15F
100
AcDbEntity
  8
0
100
AcDbBlockEnd
  0
BLOCK
  5
161
100
AcDbEntity
  8
0
100
AcDbBlockBegin
  2
NO_186327899
 70
    64
 10
50.282862
 20
237.709695
 30
0.0
  3
NO_186327899
  1

  0
POLYLINE
  5
162
100
AcDbEntity
  8
1
  6
DOT
100
AcDb2dPolyline
 66
     1
 10
0.0
 20
0.0
 30
0.0
  0
VERTEX
  5
163
100
AcDbEntity
  8
1
  6
DOT
100
AcDbVertex
100
AcDb2dVertex
 10
77.253825
 20
238.62049
 30
0.0
  0
VERTEX
  5
164
100
AcDbEntity
  8
1
  6
DOT
100
AcDbVertex
100
AcDb2dVertex
 10
77.228645
 20
238.623614
 30
0.0
  0
VERTEX
  5
165
100
AcDbEntity
  8
1
  6
DOT
100
AcDbVertex
100
AcDb2dVertex
 10
77.199025
 20
238.627716
 30
0.0
  0
VERTEX
  5
166
100
AcDbEntity
  8
1
  6
DOT
100
AcDbVertex
100
AcDb2dVertex
 10
77.164963
 20
238.632797
 30
0.0
  0
VERTEX
  5
167
100
AcDbEntity
  8
1
  6
DOT
100
AcDbVertex
100
AcDb2dVertex
 10
77.12646
 20
238.638857
 30
0.0
  0
VERTEX
  5
168
100
AcDbEntity
  8
1
  6
DOT
100
AcDbVertex
100
AcDb2dVertex
 10
77.083515
 20
238.645895
 30
0.0
  0
VERTEX
  5
169
100
AcDbEntity
  8
1
  6
DOT
100
AcDbVertex
100
AcDb2dVertex
 10
77.03613
 20
238.653911
 30
0.0
  0
VERTEX
  5
16A
100
AcDbEntity
  8
1
  6
DOT
100
AcDbVertex
100
AcDb2dVertex
 10
76.984303
 20
238.662906
 30
0.0
  0
VERTEX
  5
16B
100
AcDbEntity
  8
1
  6
DOT
100
AcDbVertex
100
AcDb2dVertex
 10
76.928035
 20
238.67288
 30
0.0
  0
VERTEX
  5
16C
100
AcDbEntity
  8
1
  6
DOT
100
AcDbVertex
100
AcDb2dVertex
 10
76.867326
 20
238.683832
 30
0.0
  0
VERTEX
  5
16D
100
AcDbEntity
  8
1
  6
DOT
100
AcDbVertex
100
AcDb2dVertex
 10
76.802176
 20
238.695763
 30
0.0
  0
VERTEX
  5
16E
100
AcDbEntity
  8
1
  6
DOT
100
AcDbVertex
100
AcDb2dVertex
 10
76.802176
 20
238.695763
 30
0.0
  0
VERTEX
  5
16F
100
AcDbEntity
  8
1
  6
DOT
100
AcDbVertex
100
AcDb2dVertex
 10
76.730586
 20
238.709146
 30
0.0
  0
VERTEX
  5
170
100
AcDbEntity
  8
1
  6
DOT
100
AcDbVertex
100
AcDb2dVertex
 10
76.651446
 20
238.724246
 30
0.0
  0
VERTEX
  5
171
100
AcDbEntity
  8
1
  6
DOT
100
AcDbVertex
100
AcDb2dVertex
 10
76.566088
 20
238.740745
 30
0.0
  0
VERTEX
  5
172
100
AcDbEntity
  8
1
  6
DOT
100
AcDbVertex
100
AcDb2dVertex
 10
76.475845
 20
238.758329
 30
0.0
  0
VERTEX
  5
173
100
AcDbEntity
  8
1
  6
DOT
100
AcDbVertex
100
AcDb2dVertex
 10
76.382048
 20
238.77668
 30
0.0
  0
VERTEX
  5
174
100
AcDbEntity
  8
1
  6
DOT
100
AcDbVertex
100
AcDb2dVertex
 10
76.286032
 20
238.795483
 30
0.0
  0
VERTEX
  5
175
100
AcDbEntity
  8
1
  6
DOT
100
AcDbVertex
100
AcDb2dVertex
 10
76.189127
 20
238.814422
 30
0.0
  0
VERTEX
  5
176
100
AcDbEntity
  8
1
  6
DOT
100
AcDbVertex
100
AcDb2dVertex
 10
76.092666
 20
238.83318
 30
0.0
  0
VERTEX
  5
177
100
AcDbEntity
  8
1
  6
DOT
100
AcDbVertex
100
AcDb2dVertex
 10
75.997981
 20
238.851441
 30
0.0
  0
VERTEX
  5
178
100
AcDbEntity
  8
1
  6
DOT
100
AcDbVertex
100
AcDb2dVertex
 10
75.906406
 20
238.868889
 30
0.0
  0
VERTEX
  5
179
100
AcDbEntity
  8
1
  6
DOT
100
AcDbVertex
100
AcDb2dVertex
 10
75.816829
 20
238.885754
 30
0.0
  0
VERTEX
  5
17A
100
AcDbEntity
  8
1
  6
DOT
100
AcDbVertex
100
AcDb2dVertex
 10
75.727252
 20
238.90249
 30
0.0
  0
VERTEX
  5
17B
100
AcDbEntity
  8
1
  6
DOT
100
AcDbVertex
100
AcDb2dVertex
 10
75.637675
 20
238.919122
 30
0.0
  0
VERTEX
  5
17C
100
AcDbEntity
  8
1
  6
DOT
100
AcDbVertex
100
AcDb2dVertex
 10
75.548098
 20
238.93567
 30
0.0
  0
VERTEX
  5
17D
100
AcDbEntity
  8
1
  6
DOT
100
AcDbVertex
100
AcDb2dVertex
 10
75.458521
 20
238.952159
 30
0.0
  0
VERTEX
  5
17E
100
AcDbEntity
  8
1
  6
DOT
100
AcDbVertex
100
AcDb2dVertex
 10
75.368944
 20
238.96861
 30
0.0
  0
VERTEX
  5
17F
100
AcDbEntity
  8
1
  6
DOT
100
AcDbVertex
100
AcDb2dVertex
 10
75.279367
 20
238.985045
 30
0.0
  0
VERTEX
  5
180
100
AcDbEntity
  8
1
  6
DOT
100
AcDbVertex
100
AcDb2dVertex
 10
75.18979
 20
239.001489
 30
0.0
  0
VERTEX
  5
181
100
AcDbEntity
  8
1
  6
DOT
100
AcDbVertex
100
AcDb2dVertex
 10
75.100213
 20
239.017962
 30
0.0
  0
VERTEX
  5
182
100
AcDbEntity
  8
1
  6
DOT
100
AcDbVertex
100
AcDb2dVertex
 10
75.010636
 20
239.034488
 30
0.0
  0
VERTEX
  5
183
100
AcDbEntity
  8
1
  6
DOT
100
AcDbVertex
100
AcDb2dVertex
 10
74.921058
 20
239.051082
 30
0.0
  0
VERTEX
  5
184
100
AcDbEntity
  8
1
  6
DOT
100
AcDbVertex
100
AcDb2dVertex
 10
74.831481
 20
239.067728
 30
0.0
  0
VERTEX
  5
185
100
AcDbEntity
  8
1
  6
DOT
100
AcDbVertex
100
AcDb2dVertex
 10
74.741904
 20
239.084405
 30
0.0
  0
VERTEX
  5
186
100
AcDbEntity
  8
1
  6
DOT
100
AcDbVertex
100
AcDb2dVertex
 10
74.652327
 20
239.101089
 30
0.0
  0
VERTEX
  5
187
100
AcDbEntity
  8
1
  6
DOT
100
AcDbVertex
100
AcDb2dVertex
 10
74.56275
 20
239.117758
 30
0.0
  0
VERTEX
  5
188
100
AcDbEntity
  8
1
  6
DOT
100
AcDbVertex
100
AcDb2dVertex
 10
74.473173
 20
239.134389
 30
0.0
  0
VERTEX
  5
189
100
AcDbEntity
  8
1
  6
DOT
100
AcDbVertex
100
AcDb2dVertex
 10
74.383596
 20
239.150961
 30
0.0
  0
VERTEX
  5
18A
100
AcDbEntity
  8
1
  6
DOT
100
AcDbVertex
100
AcDb2dVertex
 10
74.294019
 20
239.167449
 30
0.0
  0
VERTEX
  5
18B
100
AcDbEntity
  8
1
  6
DOT
100
AcDbVertex
100
AcDb2dVertex
 10
74.204442
 20
239.183832
 30
0.0
  0
VERTEX
  5
18C
100
AcDbEntity
  8
1
  6
DOT
100
AcDbVertex
100
AcDb2dVertex
 10
74.114865
 20
239.200087
 30
0.0
  0
VERTEX
  5
18D
100
AcDbEntity
  8
1
  6
DOT
100
AcDbVertex
100
AcDb2dVertex
 10
74.025322
 20
239.216369
 30
0.0
  0
VERTEX
  5
18E
100
AcDbEntity
  8
1
  6
DOT
100
AcDbVertex
100
AcDb2dVertex
 10
73.935832
 20
239.232785
 30
0.0
  0
VERTEX
  5
18F
100
AcDbEntity
  8
1
  6
DOT
100
AcDbVertex
100
AcDb2dVertex
 10
73.846371
 20
239.249247
 30
0.0
  0
VERTEX
  5
190
100
AcDbEntity
  8
1
  6
DOT
100
AcDbVertex
100
AcDb2dVertex
 10
73.756919
 20
239.265664
 30
0.0
  0
VERTEX
  5
191
100
AcDbEntity
  8
1
  6
DOT
100
AcDbVertex
100
AcDb2dVertex
 10
73.667451
 20
239.281946
 30
0.0
  0
VERTEX
  5
192
100
AcDbEntity
  8
1
  6
DOT
100
AcDbVertex
100
AcDb2dVertex
 10
73.577945
 20
239.298001
 30
0.0
  0
VERTEX
  5
193
100
AcDbEntity
  8
1
  6
DOT
100
AcDbVertex
100
AcDb2dVertex
 10
73.488379
 20
239.313741
 30
0.0
  0
VERTEX
  5
194
100
AcDbEntity
  8
1
  6
DOT
100
AcDbVertex
100
AcDb2dVertex
 10
73.398731
 20
239.329074
 30
0.0
  0
VERTEX
  5
195
100
AcDbEntity
  8
1
  6
DOT
100
AcDbVertex
100
AcDb2dVertex
 10
73.308977
 20
239.34391
 30
0.0
  0
VERTEX
  5
196
100
AcDbEntity
  8
1
  6
DOT
100
AcDbVertex
100
AcDb2dVertex
 10
73.219095
 20
239.358159
 30
0.0
  0
VERTEX
  5
197
100
AcDbEntity
  8
1
  6
DOT
100
AcDbVertex
100
AcDb2dVertex
 10
73.129002
 20
239.371964
 30
0.0
  0
VERTEX
  5
198
100
AcDbEntity
  8
1
  6
DOT
100
AcDbVertex
100
AcDb2dVertex
 10
73.038676
 20
239.385498
 30
0.0
  0
VERTEX
  5
199
100
AcDbEntity
  8
1
  6
DOT
100
AcDbVertex
100
AcDb2dVertex
 10
72.948185
 20
239.398716
 30
0.0
  0
VERTEX
  5
19A
100
AcDbEntity
  8
1
  6
DOT
100
AcDbVertex
100
AcDb2dVertex
 10
72.857595
 20
239.411572
 30
0.0
  0
VERTEX
  5
19B
100
AcDbEntity
  8
1
  6
DOT
100
AcDbVertex
100
AcDb2dVertex
 10
72.766976
 20
239.424022
 30
0.0
  0
VERTEX
  5
19C
100
AcDbEntity
  8
1
  6
DOT
100
AcDbVertex
100
AcDb2dVertex
 10
72.676394
 20
239.436021
 30
0.0
  0
VERTEX
  5
19D
100
AcDbEntity
  8
1
  6
DOT
100
AcDbVertex
100
AcDb2dVertex
 10
72.585917
 20
239.447522
 30
0.0
  0
VERTEX
  5
19E
100
AcDbEntity
  8
1
  6
DOT
100
AcDbVertex
100
AcDb2dVertex
 10
72.495614
 20
239.458482
 30
0.0
  0
VERTEX
  5
19F
100
AcDbEntity
  8
1
  6
DOT
100
AcDbVertex
100
AcDb2dVertex
 10
72.405551
 20
239.468855
 30
0.0
  0
VERTEX
  5
1A0
100
AcDbEntity
  8
1
  6
DOT
100
AcDbVertex
100
AcDb2dVertex
 10
72.315797
 20
239.478595
 30
0.0
  0
VERTEX
  5
1A1
100
AcDbEntity
  8
1
  6
DOT
100
AcDbVertex
100
AcDb2dVertex
 10
72.224399
 20
239.487808
 30
0.0
  0
VERTEX
  5
1A2
100
AcDbEntity
  8
1
  6
DOT
100
AcDbVertex
100
AcDb2dVertex
 10
72.1302
 20
239.4966
 30
0.0
  0
VERTEX
  5
1A3
100
AcDbEntity
  8
1
  6
DOT
100
AcDbVertex
100
AcDb2dVertex
 10
72.034465
 20
239.504925
 30
0.0
  0
VERTEX
  5
1A4
100
AcDbEntity
  8
1
  6
DOT
100
AcDbVertex
100
AcDb2dVertex
 10
71.93846
 20
239.512738
 30
0.0
  0
VERTEX
  5
1A5
100
AcDbEntity
  8
1
  6
DOT
100
AcDbVertex
100
AcDb2dVertex
 10
71.843448
 20
239.519995
 30
0.0
  0
VERTEX
  5
1A6
100
AcDbEntity
  8
1
  6
DOT
100
AcDbVertex
100
AcDb2dVertex
 10
71.750694
 20
239.526649
 30
0.0
  0
VERTEX
  5
1A7
100
AcDbEntity
  8
1
  6
DOT
100
AcDbVertex
100
AcDb2dVertex
 10
71.661464
 20
239.532655
 30
0.0
  0
VERTEX
  5
1A8
100
AcDbEntity
  8
1
  6
DOT
100
AcDbVertex
100
AcDb2dVertex
 10
71.57702
 20
239.53797
 30
0.0
  0
VERTEX
  5
1A9
100
AcDbEntity
  8
1
  6
DOT
100
AcDbVertex
100
AcDb2dVertex
 10
71.498629
 20
239.542546
 30
0.0
  0
VERTEX
  5
1AA
100
AcDbEntity
  8
1
  6
DOT
100
AcDbVertex
100
AcDb2dVertex
 10
71.427555
 20
239.54634
 30
0.0
  0
VERTEX
  5
1AB
100
AcDbEntity
  8
1
  6
DOT
100
AcDbVertex
100
AcDb2dVertex
 10
71.36674
 20
239.549287
 30
0.0
  0
VERTEX
  5
1AC
100
AcDbEntity
  8
1
  6
DOT
100
AcDbVertex
100
AcDb2dVertex
 10
71.316509
 20
239.551398
 30
0.0
  0
VERTEX
  5
1AD
100
AcDbEntity
  8
1
  6
DOT
100
AcDbVertex
100
AcDb2dVertex
 10
71.274197
 20
239.552742
 30
0.0
  0
VERTEX
  5
1AE
100
AcDbEntity
  8
1
  6
DOT
100
AcDbVertex
100
AcDb2dVertex
 10
71.23714
 20
239.553385
 30
0.0
  0
VERTEX
  5
1AF
100
AcDbEntity
  8
1
  6
DOT
100
AcDbVertex
100
AcDb2dVertex
 10
71.202671
 20
239.553397
 30
0.0
  0
VERTEX
  5
1B0
100
AcDbEntity
  8
1
  6
DOT
100
AcDbVertex
100
AcDb2dVertex
 10
71.168128
 20
239.552843
 30
0.0
  0
VERTEX
  5
1B1
100
AcDbEntity
  8
1
  6
DOT
100
AcDbVertex
100
AcDb2dVertex
 10
71.130844
 20
239.551793
 30
0.0
  0
VERTEX
  5
1B2
100
AcDbEntity
  8
1
  6
DOT
100
AcDbVertex
100
AcDb2dVertex
 10
71.088156
 20
239.550314
 30
0.0
  0
VERTEX
  5
1B3
100
AcDbEntity
  8
1
  6
DOT
100
AcDbVertex
100
AcDb2dVertex
 10
71.037398
 20
239.548474
 30
0.0
  0
VERTEX
  5
1B4
100
AcDbEntity
  8
1
  6
DOT
100
AcDbVertex
100
AcDb2dVertex
 10
70.975906
 20
239.54634
 30
0.0
  0
VERTEX
  5
1B5
100
AcDbEntity
  8
1
  6
DOT
100
AcDbVertex
100
AcDb2dVertex
 10
70.903868
 20
239.544161
 30
0.0
  0
VERTEX
  5
1B6
100
AcDbEntity
  8
1
  6
DOT
100
AcDbVertex
100
AcDb2dVertex
 10
70.824152
 20
239.542004
 30
0.0
  0
VERTEX
  5
1B7
100
AcDbEntity
  8
1
  6
DOT
100
AcDbVertex
100
AcDb2dVertex
 10
70.738113
 20
239.539667
 30
0.0
  0
VERTEX
  5
1B8
100
AcDbEntity
  8
1
  6
DOT
100
AcDbVertex
100
AcDb2dVertex
 10
70.647106
 20
239.536946
 30
0.0
  0
VERTEX
  5
1B9
100
AcDbEntity
  8
1
  6
DOT
100
AcDbVertex
100
AcDb2dVertex
 10
70.552485
 20
239.533638
 30
0.0
  0
VERTEX
  5
1BA
100
AcDbEntity
  8
1
  6
DOT
100
AcDbVertex
100
AcDb2dVertex
 10
70.455606
 20
239.529539
 30
0.0
  0
VERTEX
  5
1BB
100
AcDbEntity
  8
1
  6
DOT
100
AcDbVertex
100
AcDb2dVertex
 10
70.357825
 20
239.524447
 30
0.0
  0
VERTEX
  5
1BC
100
AcDbEntity
  8
1
  6
DOT
100
AcDbVertex
100
AcDb2dVertex
 10
70.260494
 20
239.518158
 30
0.0
  0
VERTEX
  5
1BD
100
AcDbEntity
  8
1
  6
DOT
100
AcDbVertex
100
AcDb2dVertex
 10
70.16497
 20
239.510469
 30
0.0
  0
VERTEX
  5
1BE
100
AcDbEntity
  8
1
  6
DOT
100
AcDbVertex
100
AcDb2dVertex
 10
70.072608
 20
239.501176
 30
0.0
  0
VERTEX
  5
1BF
100
AcDbEntity
  8
1
  6
DOT
100
AcDbVertex
100
AcDb2dVertex
 10
69.97984
 20
239.489807
 30
0.0
  0
VERTEX
  5
1C0
100
AcDbEntity
  8
1
  6
DOT
100
AcDbVertex
100
AcDb2dVertex
 10
69.883277
 20
239.476306
 30
0.0
  0
VERTEX
  5
1C1
100
AcDbEntity
  8
1
  6
DOT
100
AcDbVertex
100
AcDb2dVertex
 10
69.784547
 20
239.461105
 30
0.0
  0
VERTEX
  5
1C2
100
AcDbEntity
  8
1
  6
DOT
100
AcDbVertex
100
AcDb2dVertex
 10
69.685274
 20
239.444632
 30
0.0
  0
VERTEX
  5
1C3
100
AcDbEntity
  8
1
  6
DOT
100
AcDbVertex
100
AcDb2dVertex
 10
69.587086
 20
239.427315
 30
0.0
  0
VERTEX
  5
1C4
100
AcDbEntity
  8
1
  6
DOT
100
AcDbVertex
100
AcDb2dVertex
 10
69.491607
 20
239.409585
 30
0.0
  0
VERTEX
  5
1C5
100
AcDbEntity
  8
1
  6
DOT
100
AcDbVertex
100
AcDb2dVertex
 10
69.400464
 20
239.39187
 30
0.0
  0
VERTEX
  5
1C6
100
AcDbEntity
  8
1
  6
DOT
100
AcDbVertex
100
AcDb2dVertex
 10
69.315284
 20
239.374598
 30
0.0
  0
VERTEX
  5
1C7
100
AcDbEntity
  8
1
  6
DOT
100
AcDbVertex
100
AcDb2dVertex
 10
69.23769
 20
239.3582
 30
0.0
  0
VERTEX
  5
1C8
100
AcDbEntity
  8
1
  6
DOT
100
AcDbVertex
100
AcDb2dVertex
 10
69.169311
 20
239.343105
 30
0.0
  0
VERTEX
  5
1C9
100
AcDbEntity
  8
1
  6
DOT
100
AcDbVertex
100
AcDb2dVertex
 10
69.111229
 20
239.32936
 30
0.0
  0
VERTEX
  5
1CA
100
AcDbEntity
  8
1
  6
DOT
100
AcDbVertex
100
AcDb2dVertex
 10
69.06236
 20
239.316548
 30
0.0
  0
VERTEX
  5
1CB
100
AcDbEntity
  8
1
  6
DOT
100
AcDbVertex
100
AcDb2dVertex
 10
69.021079
 20
239.3044
 30
0.0
  0
VERTEX
  5
1CC
100
AcDbEntity
  8
1
  6
DOT
100
AcDbVertex
100
AcDb2dVertex
 10
68.985761
 20
239.292642
 30
0.0
  0
VERTEX
  5
1CD
100
AcDbEntity
  8
1
  6
DOT
100
AcDbVertex
100
AcDb2dVertex
 10
68.954777
 20
239.281005
 30
0.0
  0
VERTEX
  5
1CE
100
AcDbEntity
  8
1
  6
DOT
100
AcDbVertex
100
AcDb2dVertex
 10
68.926504
 20
239.269217
 30
0.0
  0
VERTEX
  5
1CF
100
AcDbEntity
  8
1
  6
DOT
100
AcDbVertex
100
AcDb2dVertex
 10
68.899315
 20
239.257008
 30
0.0
  0
VERTEX
  5
1D0
100
AcDbEntity
  8
1
  6
DOT
100
AcDbVertex
100
AcDb2dVertex
 10
68.871584
 20
239.244106
 30
0.0
  0
VERTEX
  5
1D1
100
AcDbEntity
  8
1
  6
DOT
100
AcDbVertex
100
AcDb2dVertex
 10
68.841685
 20
239.230241
 30
0.0
  0
VERTEX
  5
1D2
100
AcDbEntity
  8
1
  6
DOT
100
AcDbVertex
100
AcDb2dVertex
 10
68.807992
 20
239.215142
 30
0.0
  0
VERTEX
  5
1D3
100
AcDbEntity
  8
1
  6
DOT
100
AcDbVertex
100
AcDb2dVertex
 10
68.771047
 20
239.198898
 30
0.0
  0
VERTEX
  5
1D4
100
AcDbEntity
  8
1
  6
DOT
100
AcDbVertex
100
AcDb2dVertex
 10
68.732837
 20
239.181841
 30
0.0
  0
VERTEX
  5
1D5
100
AcDbEntity
  8
1
  6
DOT
100
AcDbVertex
100
AcDb2dVertex
 10
68.693905
 20
239.164062
 30
0.0
  0
VERTEX
  5
1D6
100
AcDbEntity
  8
1
  6
DOT
100
AcDbVertex
100
AcDb2dVertex
 10
68.654792
 20
239.14565
 30
0.0
  0
VERTEX
  5
1D7
100
AcDbEntity
  8
1
  6
DOT
100
AcDbVertex
100
AcDb2dVertex
 10
68.616041
 20
239.126697
 30
0.0
  0
VERTEX
  5
1D8
100
AcDbEntity
  8
1
  6
DOT
100
AcDbVertex
100
AcDb2dVertex
 10
68.578193
 20
239.107291
 30
0.0
  0
VERTEX
  5
1D9
100
AcDbEntity
  8
1
  6
DOT
100
AcDbVertex
100
AcDb2dVertex
 10
68.54179
 20
239.087525
 30
0.0
  0
VERTEX
  5
1DA
100
AcDbEntity
  8
1
  6
DOT
100
AcDbVertex
100
AcDb2dVertex
 10
68.507374
 20
239.067487
 30
0.0
  0
VERTEX
  5
1DB
100
AcDbEntity
  8
1
  6
DOT
100
AcDbVertex
100
AcDb2dVertex
 10
68.475488
 20
239.047269
 30
0.0
  0
VERTEX
  5
1DC
100
AcDbEntity
  8
1
  6
DOT
100
AcDbVertex
100
AcDb2dVertex
 10
68.446672
 20
239.026961
 30
0.0
  0
VERTEX
  5
1DD
100
AcDbEntity
  8
1
  6
DOT
100
AcDbVertex
100
AcDb2dVertex
 10
68.420477
 20
239.006487
 30
0.0
  0
VERTEX
  5
1DE
100
AcDbEntity
  8
1
  6
DOT
100
AcDbVertex
100
AcDb2dVertex
 10
68.396088
 20
238.985712
 30
0.0
  0
VERTEX
  5
1DF
100
AcDbEntity
  8
1
  6
DOT
100
AcDbVertex
100
AcDb2dVertex
 10
68.373505
 20
238.964635
 30
0.0
  0
VERTEX
  5
1E0
100
AcDbEntity
  8
1
  6
DOT
100
AcDbVertex
100
AcDb2dVertex
 10
68.35273
 20
238.943258
 30
0.0
  0
VERTEX
  5
1E1
100
AcDbEntity
  8
1
  6
DOT
100
AcDbVertex
100
AcDb2dVertex
 10
68.33376
 20
238.921579
 30
0.0
  0
VERTEX
  5
1E2
100
AcDbEntity
  8
1
  6
DOT
100
AcDbVertex
100
AcDb2dVertex
 10
68.316598
 20
238.8996
 30
0.0
  0
VERTEX
  5
1E3
100
AcDbEntity
  8
1
  6
DOT
100
AcDbVertex
100
AcDb2dVertex
 10
68.301242
 20
238.877319
 30
0.0
  0
VERTEX
  5
1E4
100
AcDbEntity
  8
1
  6
DOT
100
AcDbVertex
100
AcDb2dVertex
 10
68.287692
 20
238.854738
 30
0.0
  0
VERTEX
  5
1E5
100
AcDbEntity
  8
1
  6
DOT
100
AcDbVertex
100
AcDb2dVertex
 10
68.275949
 20
238.831855
 30
0.0
  0
VERTEX
  5
1E6
100
AcDbEntity
  8
1
  6
DOT
100
AcDbVertex
100
AcDb2dVertex
 10
68.266013
 20
238.808671
 30
0.0
  0
SEQEND
  5
1E7
100
AcDbEntity
  8
1
  6
DOT
  0
POLYLINE
  5
1E8
100
AcDbEntity
  8
1
  6
DOT
100
AcDb2dPolyline
 66
     1
 10
0.0
 20
0.0
 30
0.0
  0
VERTEX
  5
1E9
100
AcDbEntity
  8
1
  6
DOT
100
AcDbVertex
100
AcDb2dVertex
 10
68.266013
 20
238.801144
 30
0.0
  0
VERTEX
  5
1EA
100
AcDbEntity
  8
1
  6
DOT
100
AcDbVertex
100
AcDb2dVertex
 10
68.267255
 20
238.790342
 30
0.0
  0
VERTEX
  5
1EB
100
AcDbEntity
  8
1
  6
DOT
100
AcDbVertex
100
AcDb2dVertex
 10
68.270228
 20
238.779766
 30
0.0
  0
VERTEX
  5
1EC
100
AcDbEntity
  8
1
  6
DOT
100
AcDbVertex
100
AcDb2dVertex
 10
68.274933
 20
238.769416
 30
0.0
  0
VERTEX
  5
1ED
100
AcDbEntity
  8
1
  6
DOT
100
AcDbVertex
100
AcDb2dVertex
 10
68.281369
 20
238.759292
 30
0.0
  0
VERTEX
  5
1EE
100
AcDbEntity
  8
1
  6
DOT
100
AcDbVertex
100
AcDb2dVertex
 10
68.289536
 20
238.749394
 30
0.0
  0
VERTEX
  5
1EF
100
AcDbEntity
  8
1
  6
DOT
100
AcDbVertex
100
AcDb2dVertex
 10
68.299435
 20
238.739722
 30
0.0
  0
VERTEX
  5
1F0
100
AcDbEntity
  8
1
  6
DOT
100
AcDbVertex
100
AcDb2dVertex
 10
68.311065
 20
238.730275
 30
0.0
  0
VERTEX
  5
1F1
100
AcDbEntity
  8
1
  6
DOT
100
AcDbVertex
100
AcDb2dVertex
 10
68.324426
 20
238.721054
 30
0.0
  0
VERTEX
  5
1F2
100
AcDbEntity
  8
1
  6
DOT
100
AcDbVertex
100
AcDb2dVertex
 10
68.339519
 20
238.712059
 30
0.0
  0
VERTEX
  5
1F3
100
AcDbEntity
  8
1
  6
DOT
100
AcDbVertex
100
AcDb2dVertex
 10
68.356343
 20
238.70329
 30
0.0
  0
VERTEX
  5
1F4
100
AcDbEntity
  8
1
  6
DOT
100
AcDbVertex
100
AcDb2dVertex
 10
68.356343
 20
238.70329
 30
0.0
  0
VERTEX
  5
1F5
100
AcDbEntity
  8
1
  6
DOT
100
AcDbVertex
100
AcDb2dVertex
 10
68.375237
 20
238.69478
 30
0.0
  0
VERTEX
  5
1F6
100
AcDbEntity
  8
1
  6
DOT
100
AcDbVertex
100
AcDb2dVertex
 10
68.396389
 20
238.686549
 30
0.0
  0
VERTEX
  5
1F7
100
AcDbEntity
  8
1
  6
DOT
100
AcDbVertex
100
AcDb2dVertex
 10
68.419574
 20
238.678574
 30
0.0
  0
VERTEX
  5
1F8
100
AcDbEntity
  8
1
  6
DOT
100
AcDbVertex
100
AcDb2dVertex
 10
68.444565
 20
238.670832
 30
0.0
  0
VERTEX
  5
1F9
100
AcDbEntity
  8
1
  6
DOT
100
AcDbVertex
100
AcDb2dVertex
 10
68.471137
 20
238.663301
 30
0.0
  0
VERTEX
  5
1FA
100
AcDbEntity
  8
1
  6
DOT
100
AcDbVertex
100
AcDb2dVertex
 10
68.499064
 20
238.655958
 30
0.0
  0
VERTEX
  5
1FB
100
AcDbEntity
  8
1
  6
DOT
100
AcDbVertex
100
AcDb2dVertex
 10
68.52812
 20
238.648781
 30
0.0
  0
VERTEX
  5
1FC
100
AcDbEntity
  8
1
  6
DOT
100
AcDbVertex
100
AcDb2dVertex
 10
68.558079
 20
238.641747
 30
0.0
  0
VERTEX
  5
1FD
100
AcDbEntity
  8
1
  6
DOT
100
AcDbVertex
100
AcDb2dVertex
 10
68.588716
 20
238.634833
 30
0.0
  0
VERTEX
  5
1FE
100
AcDbEntity
  8
1
  6
DOT
100
AcDbVertex
100
AcDb2dVertex
 10
68.619805
 20
238.628017
 30
0.0
  0
VERTEX
  5
1FF
100
AcDbEntity
  8
1
  6
DOT
100
AcDbVertex
100
AcDb2dVertex
 10
68.650788
 20
238.62125
 30
0.0
  0
VERTEX
  5
200
100
AcDbEntity
  8
1
  6
DOT
100
AcDbVertex
100
AcDb2dVertex
 10
68.68159
 20
238.614529
 30
0.0
  0
VERTEX
  5
201
100
AcDbEntity
  8
1
  6
DOT
100
AcDbVertex
100
AcDb2dVertex
 10
68.712709
 20
238.607897
 30
0.0
  0
VERTEX
  5
202
100
AcDbEntity
  8
1
  6
DOT
100
AcDbVertex
100
AcDb2dVertex
 10
68.74464
 20
238.601401
 30
0.0
  0
VERTEX
  5
203
100
AcDbEntity
  8
1
  6
DOT
100
AcDbVertex
100
AcDb2dVertex
 10
68.777882
 20
238.595086
 30
0.0
  0
VERTEX
  5
204
100
AcDbEntity
  8
1
  6
DOT
100
AcDbVertex
100
AcDb2dVertex
 10
68.81293
 20
238.588996
 30
0.0
  0
VERTEX
  5
205
100
AcDbEntity
  8
1
  6
DOT
100
AcDbVertex
100
AcDb2dVertex
 10
68.850281
 20
238.583178
 30
0.0
  0
VERTEX
  5
206
100
AcDbEntity
  8
1
  6
DOT
100
AcDbVertex
100
AcDb2dVertex
 10
68.890433
 20
238.577675
 30
0.0
  0
VERTEX
  5
207
100
AcDbEntity
  8
1
  6
DOT
100
AcDbVertex
100
AcDb2dVertex
 10
68.933881
 20
238.572534
 30
0.0
  0
VERTEX
  5
208
100
AcDbEntity
  8
1
  6
DOT
100
AcDbVertex
100
AcDb2dVertex
 10
68.981124
 20
238.5678
 30
0.0
  0
VERTEX
  5
209
100
AcDbEntity
  8
1
  6
DOT
100
AcDbVertex
100
AcDb2dVertex
 10
69.031678
 20
238.563501
 30
0.0
  0
VERTEX
  5
20A
100
AcDbEntity
  8
1
  6
DOT
100
AcDbVertex
100
AcDb2dVertex
 10
69.084762
 20
238.55961
 30
0.0
  0
VERTEX
  5
20B
100
AcDbEntity
  8
1
  6
DOT
100
AcDbVertex
100
AcDb2dVertex
 10
69.14042
 20
238.55608
 30
0.0
  0
VERTEX
  5
20C
100
AcDbEntity
  8
1
  6
DOT
100
AcDbVertex
100
AcDb2dVertex
 10
69.198698
 20
238.552866
 30
0.0
  0
VERTEX
  5
20D
100
AcDbEntity
  8
1
  6
DOT
100
AcDbVertex
100
AcDb2dVertex
 10
69.25964
 20
238.549922
 30
0.0
  0
VERTEX
  5
20E
100
AcDbEntity
  8
1
  6
DOT
100
AcDbVertex
100
AcDb2dVertex
 10
69.323293
 20
238.547205
 30
0.0
  0
VERTEX
  5
20F
100
AcDbEntity
  8
1
  6
DOT
100
AcDbVertex
100
AcDb2dVertex
 10
69.3897
 20
238.544668
 30
0.0
  0
VERTEX
  5
210
100
AcDbEntity
  8
1
  6
DOT
100
AcDbVertex
100
AcDb2dVertex
 10
69.458908
 20
238.542267
 30
0.0
  0
VERTEX
  5
211
100
AcDbEntity
  8
1
  6
DOT
100
AcDbVertex
100
AcDb2dVertex
 10
69.530961
 20
238.539956
 30
0.0
  0
VERTEX
  5
212
100
AcDbEntity
  8
1
  6
DOT
100
AcDbVertex
100
AcDb2dVertex
 10
69.605904
 20
238.537691
 30
0.0
  0
VERTEX
  5
213
100
AcDbEntity
  8
1
  6
DOT
100
AcDbVertex
100
AcDb2dVertex
 10
69.684988
 20
238.535542
 30
0.0
  0
VERTEX
  5
214
100
AcDbEntity
  8
1
  6
DOT
100
AcDbVertex
100
AcDb2dVertex
 10
69.768859
 20
238.533596
 30
0.0
  0
VERTEX
  5
215
100
AcDbEntity
  8
1
  6
DOT
100
AcDbVertex
100
AcDb2dVertex
 10
69.85666
 20
238.531831
 30
0.0
  0
VERTEX
  5
216
100
AcDbEntity
  8
1
  6
DOT
100
AcDbVertex
100
AcDb2dVertex
 10
69.947532
 20
238.530224
 30
0.0
  0
VERTEX
  5
217
100
AcDbEntity
  8
1
  6
DOT
100
AcDbVertex
100
AcDb2dVertex
 10
70.040616
 20
238.528752
 30
0.0
  0
VERTEX
  5
218
100
AcDbEntity
  8
1
  6
DOT
100
AcDbVertex
100
AcDb2dVertex
 10
70.135056
 20
238.527393
 30
0.0
  0
VERTEX
  5
219
100
AcDbEntity
  8
1
  6
DOT
100
AcDbVertex
100
AcDb2dVertex
 10
70.229993
 20
238.526125
 30
0.0
  0
VERTEX
  5
21A
100
AcDbEntity
  8
1
  6
DOT
100
AcDbVertex
100
AcDb2dVertex
 10
70.324568
 20
238.524924
 30
0.0
  0
VERTEX
  5
21B
100
AcDbEntity
  8
1
  6
DOT
100
AcDbVertex
100
AcDb2dVertex
 10
70.417924
 20
238.523769
 30
0.0
  0
VERTEX
  5
21C
100
AcDbEntity
  8
1
  6
DOT
100
AcDbVertex
100
AcDb2dVertex
 10
70.509202
 20
238.522636
 30
0.0
  0
VERTEX
  5
21D
100
AcDbEntity
  8
1
  6
DOT
100
AcDbVertex
100
AcDb2dVertex
 10
70.599084
 20
238.521477
 30
0.0
  0
VERTEX
  5
21E
100
AcDbEntity
  8
1
  6
DOT
100
AcDbVertex
100
AcDb2dVertex
 10
70.688838
 20
238.520288
 30
0.0
  0
VERTEX
  5
21F
100
AcDbEntity
  8
1
  6
DOT
100
AcDbVertex
100
AcDb2dVertex
 10
70.778486
 20
238.519113
 30
0.0
  0
VERTEX
  5
220
100
AcDbEntity
  8
1
  6
DOT
100
AcDbVertex
100
AcDb2dVertex
 10
70.868052
 20
238.517999
 30
0.0
  0
VERTEX
  5
221
100
AcDbEntity
  8
1
  6
DOT
100
AcDbVertex
100
AcDb2dVertex
 10
70.957558
 20
238.516991
 30
0.0
  0
VERTEX
  5
222
100
AcDbEntity
  8
1
  6
DOT
100
AcDbVertex
100
AcDb2dVertex
 10
71.047026
 20
238.516133
 30
0.0
  0
VERTEX
  5
223
100
AcDbEntity
  8
1
  6
DOT
100
AcDbVertex
100
AcDb2dVertex
 10
71.136478
 20
238.51547
 30
0.0
  0
VERTEX
  5
224
100
AcDbEntity
  8
1
  6
DOT
100
AcDbVertex
100
AcDb2dVertex
 10
71.225939
 20
238.515049
 30
0.0
  0
VERTEX
  5
225
100
AcDbEntity
  8
1
  6
DOT
100
AcDbVertex
100
AcDb2dVertex
 10
71.315429
 20
238.514913
 30
0.0
  0
VERTEX
  5
226
100
AcDbEntity
  8
1
  6
DOT
100
AcDbVertex
100
AcDb2dVertex
 10
71.404972
 20
238.515109
 30
0.0
  0
VERTEX
  5
227
100
AcDbEntity
  8
1
  6
DOT
100
AcDbVertex
100
AcDb2dVertex
 10
71.494515
 20
238.5157
 30
0.0
  0
VERTEX
  5
228
100
AcDbEntity
  8
1
  6
DOT
100
AcDbVertex
100
AcDb2dVertex
 10
71.584006
 20
238.516675
 30
0.0
  0
VERTEX
  5
229
100
AcDbEntity
  8
1
  6
DOT
100
AcDbVertex
100
AcDb2dVertex
 10
71.673466
 20
238.517965
 30
0.0
  0
VERTEX
  5
22A
100
AcDbEntity
  8
1
  6
DOT
100
AcDbVertex
100
AcDb2dVertex
 10
71.762919
 20
238.519505
 30
0.0
  0
VERTEX
  5
22B
100
AcDbEntity
  8
1
  6
DOT
100
AcDbVertex
100
AcDb2dVertex
 10
71.852387
 20
238.521225
 30
0.0
  0
VERTEX
  5
22C
100
AcDbEntity
  8
1
  6
DOT
100
AcDbVertex
100
AcDb2dVertex
 10
71.941892
 20
238.523058
 30
0.0
  0
VERTEX
  5
22D
100
AcDbEntity
  8
1
  6
DOT
100
AcDbVertex
100
AcDb2dVertex
 10
72.031458
 20
238.524936
 30
0.0
  0
VERTEX
  5
22E
100
AcDbEntity
  8
1
  6
DOT
100
AcDbVertex
100
AcDb2dVertex
 10
72.121107
 20
238.526791
 30
0.0
  0
VERTEX
  5
22F
100
AcDbEntity
  8
1
  6
DOT
100
AcDbVertex
100
AcDb2dVertex
 10
72.210861
 20
238.528556
 30
0.0
  0
VERTEX
  5
230
100
AcDbEntity
  8
1
  6
DOT
100
AcDbVertex
100
AcDb2dVertex
 10
72.300743
 20
238.530163
 30
0.0
  0
VERTEX
  5
231
100
AcDbEntity
  8
1
  6
DOT
100
AcDbVertex
100
AcDb2dVertex
 10
72.390801
 20
238.531703
 30
0.0
  0
VERTEX
  5
232
100
AcDbEntity
  8
1
  6
DOT
100
AcDbVertex
100
AcDb2dVertex
 10
72.481041
 20
238.533295
 30
0.0
  0
VERTEX
  5
233
100
AcDbEntity
  8
1
  6
DOT
100
AcDbVertex
100
AcDb2dVertex
 10
72.571416
 20
238.534917
 30
0.0
  0
VERTEX
  5
234
100
AcDbEntity
  8
1
  6
DOT
100
AcDbVertex
100
AcDb2dVertex
 10
72.661881
 20
238.536546
 30
0.0
  0
VERTEX
  5
235
100
AcDbEntity
  8
1
  6
DOT
100
AcDbVertex
100
AcDb2dVertex
 10
72.752391
 20
238.538161
 30
0.0
  0
VERTEX
  5
236
100
AcDbEntity
  8
1
  6
DOT
100
AcDbVertex
100
AcDb2dVertex
 10
72.842902
 20
238.539738
 30
0.0
  0
VERTEX
  5
237
100
AcDbEntity
  8
1
  6
DOT
100
AcDbVertex
100
AcDb2dVertex
 10
72.933367
 20
238.541255
 30
0.0
  0
VERTEX
  5
238
100
AcDbEntity
  8
1
  6
DOT
100
AcDbVertex
100
AcDb2dVertex
 10
73.023742
 20
238.542689
 30
0.0
  0
VERTEX
  5
239
100
AcDbEntity
  8
1
  6
DOT
100
AcDbVertex
100
AcDb2dVertex
 10
73.113981
 20
238.544017
 30
0.0
  0
VERTEX
  5
23A
100
AcDbEntity
  8
1
  6
DOT
100
AcDbVertex
100
AcDb2dVertex
 10
73.20404
 20
238.545218
 30
0.0
  0
VERTEX
  5
23B
100
AcDbEntity
  8
1
  6
DOT
100
AcDbVertex
100
AcDb2dVertex
 10
73.293854
 20
238.546309
 30
0.0
  0
VERTEX
  5
23C
100
AcDbEntity
  8
1
  6
DOT
100
AcDbVertex
100
AcDb2dVertex
 10
73.383435
 20
238.547325
 30
0.0
  0
VERTEX
  5
23D
100
AcDbEntity
  8
1
  6
DOT
100
AcDbVertex
100
AcDb2dVertex
 10
73.47285
 20
238.548266
 30
0.0
  0
VERTEX
  5
23E
100
AcDbEntity
  8
1
  6
DOT
100
AcDbVertex
100
AcDb2dVertex
 10
73.562168
 20
238.549132
 30
0.0
  0
VERTEX
  5
23F
100
AcDbEntity
  8
1
  6
DOT
100
AcDbVertex
100
AcDb2dVertex
 10
73.651455
 20
238.549922
 30
0.0
  0
VERTEX
  5
240
100
AcDbEntity
  8
1
  6
DOT
100
AcDbVertex
100
AcDb2dVertex
 10
73.74078
 20
238.550637
 30
0.0
  0
VERTEX
  5
241
100
AcDbEntity
  8
1
  6
DOT
100
AcDbVertex
100
AcDb2dVertex
 10
73.83021
 20
238.551277
 30
0.0
  0
VERTEX
  5
242
100
AcDbEntity
  8
1
  6
DOT
100
AcDbVertex
100
AcDb2dVertex
 10
73.919813
 20
238.551842
 30
0.0
  0
VERTEX
  5
243
100
AcDbEntity
  8
1
  6
DOT
100
AcDbVertex
100
AcDb2dVertex
 10
74.009657
 20
238.552331
 30
0.0
  0
VERTEX
  5
244
100
AcDbEntity
  8
1
  6
DOT
100
AcDbVertex
100
AcDb2dVertex
 10
74.09981
 20
238.552745
 30
0.0
  0
VERTEX
  5
245
100
AcDbEntity
  8
1
  6
DOT
100
AcDbVertex
100
AcDb2dVertex
 10
74.190385
 20
238.552982
 30
0.0
  0
VERTEX
  5
246
100
AcDbEntity
  8
1
  6
DOT
100
AcDbVertex
100
AcDb2dVertex
 10
74.281373
 20
238.552986
 30
0.0
  0
VERTEX
  5
247
100
AcDbEntity
  8
1
  6
DOT
100
AcDbVertex
100
AcDb2dVertex
 10
74.372663
 20
238.552824
 30
0.0
  0
VERTEX
  5
248
100
AcDbEntity
  8
1
  6
DOT
100
AcDbVertex
100
AcDb2dVertex
 10
74.46414
 20
238.552564
 30
0.0
  0
VERTEX
  5
249
100
AcDbEntity
  8
1
  6
DOT
100
AcDbVertex
100
AcDb2dVertex
 10
74.555693
 20
238.552275
 30
0.0
  0
VERTEX
  5
24A
100
AcDbEntity
  8
1
  6
DOT
100
AcDbVertex
100
AcDb2dVertex
 10
74.647209
 20
238.552022
 30
0.0
  0
VERTEX
  5
24B
100
AcDbEntity
  8
1
  6
DOT
100
AcDbVertex
100
AcDb2dVertex
 10
74.738574
 20
238.551876
 30
0.0
  0
VERTEX
  5
24C
100
AcDbEntity
  8
1
  6
DOT
100
AcDbVertex
100
AcDb2dVertex
 10
74.829675
 20
238.551902
 30
0.0
  0
VERTEX
  5
24D
100
AcDbEntity
  8
1
  6
DOT
100
AcDbVertex
100
AcDb2dVertex
 10
74.9204
 20
238.552169
 30
0.0
  0
VERTEX
  5
24E
100
AcDbEntity
  8
1
  6
DOT
100
AcDbVertex
100
AcDb2dVertex
 10
75.010636
 20
238.552745
 30
0.0
  0
VERTEX
  5
24F
100
AcDbEntity
  8
1
  6
DOT
100
AcDbVertex
100
AcDb2dVertex
 10
75.100307
 20
238.553573
 30
0.0
  0
VERTEX
  5
250
100
AcDbEntity
  8
1
  6
DOT
100
AcDbVertex
100
AcDb2dVertex
 10
75.189488
 20
238.554552
 30
0.0
  0
VERTEX
  5
251
100
AcDbEntity
  8
1
  6
DOT
100
AcDbVertex
100
AcDb2dVertex
 10
75.278294
 20
238.555681
 30
0.0
  0
VERTEX
  5
252
100
AcDbEntity
  8
1
  6
DOT
100
AcDbVertex
100
AcDb2dVertex
 10
75.366836
 20
238.55696
 30
0.0
  0
VERTEX
  5
253
100
AcDbEntity
  8
1
  6
DOT
100
AcDbVertex
100
AcDb2dVertex
 10
75.455227
 20
238.55839
 30
0.0
  0
VERTEX
  5
254
100
AcDbEntity
  8
1
  6
DOT
100
AcDbVertex
100
AcDb2dVertex
 10
75.543581
 20
238.559971
 30
0.0
  0
VERTEX
  5
255
100
AcDbEntity
  8
1
  6
DOT
100
AcDbVertex
100
AcDb2dVertex
 10
75.63201
 20
238.561702
 30
0.0
  0
VERTEX
  5
256
100
AcDbEntity
  8
1
  6
DOT
100
AcDbVertex
100
AcDb2dVertex
 10
75.720627
 20
238.563584
 30
0.0
  0
VERTEX
  5
257
100
AcDbEntity
  8
1
  6
DOT
100
AcDbVertex
100
AcDb2dVertex
 10
75.809546
 20
238.565617
 30
0.0
  0
VERTEX
  5
258
100
AcDbEntity
  8
1
  6
DOT
100
AcDbVertex
100
AcDb2dVertex
 10
75.898878
 20
238.5678
 30
0.0
  0
VERTEX
  5
259
100
AcDbEntity
  8
1
  6
DOT
100
AcDbVertex
100
AcDb2dVertex
 10
75.98853
 20
238.570133
 30
0.0
  0
VERTEX
  5
25A
100
AcDbEntity
  8
1
  6
DOT
100
AcDbVertex
100
AcDb2dVertex
 10
76.078333
 20
238.572617
 30
0.0
  0
VERTEX
  5
25B
100
AcDbEntity
  8
1
  6
DOT
100
AcDbVertex
100
AcDb2dVertex
 10
76.168287
 20
238.575251
 30
0.0
  0
VERTEX
  5
25C
100
AcDbEntity
  8
1
  6
DOT
100
AcDbVertex
100
AcDb2dVertex
 10
76.258391
 20
238.578037
 30
0.0
  0
VERTEX
  5
25D
100
AcDbEntity
  8
1
  6
DOT
100
AcDbVertex
100
AcDb2dVertex
 10
76.348645
 20
238.580972
 30
0.0
  0
VERTEX
  5
25E
100
AcDbEntity
  8
1
  6
DOT
100
AcDbVertex
100
AcDb2dVertex
 10
76.43905
 20
238.584058
 30
0.0
  0
VERTEX
  5
25F
100
AcDbEntity
  8
1
  6
DOT
100
AcDbVertex
100
AcDb2dVertex
 10
76.529606
 20
238.587295
 30
0.0
  0
VERTEX
  5
260
100
AcDbEntity
  8
1
  6
DOT
100
AcDbVertex
100
AcDb2dVertex
 10
76.620312
 20
238.590682
 30
0.0
  0
VERTEX
  5
261
100
AcDbEntity
  8
1
  6
DOT
100
AcDbVertex
100
AcDb2dVertex
 10
76.711169
 20
238.59422
 30
0.0
  0
VERTEX
  5
262
100
AcDbEntity
  8
1
  6
DOT
100
AcDbVertex
100
AcDb2dVertex
 10
76.802176
 20
238.597908
 30
0.0
  0
SEQEND
  5
263
100
AcDbEntity
  8
1
  6
DOT
  0
LINE
  5
264
100
AcDbEntity
  8
1
  6
DOT
100
AcDbLine
 10
76.802176
 20
238.597908
 30
0.0
 11
77.246297
 21
238.612963
 31
0.0
  0
ENDBLK
  5
265
100
AcDbEntity
  8
0
100
AcDbBlockEnd
  0
BLOCK
  5
267
100
AcDbEntity
  8
0
100
AcDbBlockBegin
  2
NO_186327904
 70
    64
 10
68.740244
 20
226.70488
 30
0.0
  3
NO_186327904
  1

  0
POLYLINE
  5
268
100
AcDbEntity
  8
1
100
AcDb2dPolyline
 66
     1
 10
0.0
 20
0.0
 30
0.0
  0
VERTEX
  5
269
100
AcDbEntity
  8
1
100
AcDbVertex
100
AcDb2dVertex
 10
66.444434
 20
238.805417
 30
0.0
  0
VERTEX
  5
26A
100
AcDbEntity
  8
1
100
AcDbVertex
100
AcDb2dVertex
 10
66.450627
 20
238.739699
 30
0.0
  0
VERTEX
  5
26B
100
AcDbEntity
  8
1
100
AcDbVertex
100
AcDb2dVertex
 10
66.467743
 20
238.674317
 30
0.0
  0
VERTEX
  5
26C
100
AcDbEntity
  8
1
100
AcDbVertex
100
AcDb2dVertex
 10
66.495781
 20
238.609272
 30
0.0
  0
VERTEX
  5
26D
100
AcDbEntity
  8
1
100
AcDbVertex
100
AcDb2dVertex
 10
66.534741
 20
238.544563
 30
0.0
  0
VERTEX
  5
26E
100
AcDbEntity
  8
1
100
AcDbVertex
100
AcDb2dVertex
 10
66.584624
 20
238.48019
 30
0.0
  0
VERTEX
  5
26F
100
AcDbEntity
  8
1
100
AcDbVertex
100
AcDb2dVertex
 10
66.645429
 20
238.416154
 30
0.0
  0
VERTEX
  5
270
100
AcDbEntity
  8
1
100
AcDbVertex
100
AcDb2dVertex
 10
66.717157
 20
238.352454
 30
0.0
  0
VERTEX
  5
271
100
AcDbEntity
  8
1
100
AcDbVertex
100
AcDb2dVertex
 10
66.799807
 20
238.289091
 30
0.0
  0
VERTEX
  5
272
100
AcDbEntity
  8
1
100
AcDbVertex
100
AcDb2dVertex
 10
66.893379
 20
238.226064
 30
0.0
  0
VERTEX
  5
273
100
AcDbEntity
  8
1
100
AcDbVertex
100
AcDb2dVertex
 10
66.997874
 20
238.163373
 30
0.0
  0
VERTEX
  5
274
100
AcDbEntity
  8
1
100
AcDbVertex
100
AcDb2dVertex
 10
66.997874
 20
238.163373
 30
0.0
  0
VERTEX
  5
275
100
AcDbEntity
  8
1
100
AcDbVertex
100
AcDb2dVertex
 10
67.109363
 20
238.099224
 30
0.0
  0
VERTEX
  5
276
100
AcDbEntity
  8
1
100
AcDbVertex
100
AcDb2dVertex
 10
67.225666
 20
238.032619
 30
0.0
  0
VERTEX
  5
277
100
AcDbEntity
  8
1
100
AcDbVertex
100
AcDb2dVertex
 10
67.3494
 20
237.964755
 30
0.0
  0
VERTEX
  5
278
100
AcDbEntity
  8
1
100
AcDbVertex
100
AcDb2dVertex
 10
67.483184
 20
237.896829
 30
0.0
  0
VERTEX
  5
279
100
AcDbEntity
  8
1
100
AcDbVertex
100
AcDb2dVertex
 10
67.629636
 20
237.830037
 30
0.0
  0
VERTEX
  5
27A
100
AcDbEntity
  8
1
100
AcDbVertex
100
AcDb2dVertex
 10
67.791374
 20
237.765575
 30
0.0
  0
VERTEX
  5
27B
100
AcDbEntity
  8
1
100
AcDbVertex
100
AcDb2dVertex
 10
67.971016
 20
237.704641
 30
0.0
  0
VERTEX
  5
27C
100
AcDbEntity
  8
1
100
AcDbVertex
100
AcDb2dVertex
 10
68.171181
 20
237.648429
 30
0.0
  0
VERTEX
  5
27D
100
AcDbEntity
  8
1
100
AcDbVertex
100
AcDb2dVertex
 10
68.394486
 20
237.598138
 30
0.0
  0
VERTEX
  5
27E
100
AcDbEntity
  8
1
100
AcDbVertex
100
AcDb2dVertex
 10
68.643552
 20
237.554963
 30
0.0
  0
VERTEX
  5
27F
100
AcDbEntity
  8
1
100
AcDbVertex
100
AcDb2dVertex
 10
68.917492
 20
237.516597
 30
0.0
  0
VERTEX
  5
280
100
AcDbEntity
  8
1
100
AcDbVertex
100
AcDb2dVertex
 10
69.213103
 20
237.480519
 30
0.0
  0
VERTEX
  5
281
100
AcDbEntity
  8
1
100
AcDbVertex
100
AcDb2dVertex
 10
69.529517
 20
237.4476
 30
0.0
  0
VERTEX
  5
282
100
AcDbEntity
  8
1
100
AcDbVertex
100
AcDb2dVertex
 10
69.86587
 20
237.418715
 30
0.0
  0
VERTEX
  5
283
100
AcDbEntity
  8
1
100
AcDbVertex
100
AcDb2dVertex
 10
70.221296
 20
237.394737
 30
0.0
  0
VERTEX
  5
284
100
AcDbEntity
  8
1
100
AcDbVertex
100
AcDb2dVertex
 10
70.594929
 20
237.376539
 30
0.0
  0
VERTEX
  5
285
100
AcDbEntity
  8
1
100
AcDbVertex
100
AcDb2dVertex
 10
70.985904
 20
237.364994
 30
0.0
  0
VERTEX
  5
286
100
AcDbEntity
  8
1
100
AcDbVertex
100
AcDb2dVertex
 10
71.393354
 20
237.360976
 30
0.0
  0
VERTEX
  5
287
100
AcDbEntity
  8
1
100
AcDbVertex
100
AcDb2dVertex
 10
71.816415
 20
237.365359
 30
0.0
  0
VERTEX
  5
288
100
AcDbEntity
  8
1
100
AcDbVertex
100
AcDb2dVertex
 10
72.254221
 20
237.379015
 30
0.0
  0
VERTEX
  5
289
100
AcDbEntity
  8
1
100
AcDbVertex
100
AcDb2dVertex
 10
72.728514
 20
237.404034
 30
0.0
  0
VERTEX
  5
28A
100
AcDbEntity
  8
1
100
AcDbVertex
100
AcDb2dVertex
 10
73.252268
 20
237.440673
 30
0.0
  0
VERTEX
  5
28B
100
AcDbEntity
  8
1
100
AcDbVertex
100
AcDb2dVertex
 10
73.811473
 20
237.487051
 30
0.0
  0
VERTEX
  5
28C
100
AcDbEntity
  8
1
100
AcDbVertex
100
AcDb2dVertex
 10
74.392112
 20
237.541292
 30
0.0
  0
VERTEX
  5
28D
100
AcDbEntity
  8
1
100
AcDbVertex
100
AcDb2dVertex
 10
74.980174
 20
237.601515
 30
0.0
  0
VERTEX
  5
28E
100
AcDbEntity
  8
1
100
AcDbVertex
100
AcDb2dVertex
 10
75.561645
 20
237.665844
 30
0.0
  0
VERTEX
  5
28F
100
AcDbEntity
  8
1
100
AcDbVertex
100
AcDb2dVertex
 10
76.122512
 20
237.7324
 30
0.0
  0
VERTEX
  5
290
100
AcDbEntity
  8
1
100
AcDbVertex
100
AcDb2dVertex
 10
76.64876
 20
237.799304
 30
0.0
  0
VERTEX
  5
291
100
AcDbEntity
  8
1
100
AcDbVertex
100
AcDb2dVertex
 10
77.126376
 20
237.864678
 30
0.0
  0
VERTEX
  5
292
100
AcDbEntity
  8
1
100
AcDbVertex
100
AcDb2dVertex
 10
77.541348
 20
237.926643
 30
0.0
  0
VERTEX
  5
293
100
AcDbEntity
  8
1
100
AcDbVertex
100
AcDb2dVertex
 10
77.905353
 20
237.986765
 30
0.0
  0
VERTEX
  5
294
100
AcDbEntity
  8
1
100
AcDbVertex
100
AcDb2dVertex
 10
78.23941
 20
238.047862
 30
0.0
  0
VERTEX
  5
295
100
AcDbEntity
  8
1
100
AcDbVertex
100
AcDb2dVertex
 10
78.543521
 20
238.109933
 30
0.0
  0
VERTEX
  5
296
100
AcDbEntity
  8
1
100
AcDbVertex
100
AcDb2dVertex
 10
78.817685
 20
238.172978
 30
0.0
  0
VERTEX
  5
297
100
AcDbEntity
  8
1
100
AcDbVertex
100
AcDb2dVertex
 10
79.061902
 20
238.236998
 30
0.0
  0
VERTEX
  5
298
100
AcDbEntity
  8
1
100
AcDbVertex
100
AcDb2dVertex
 10
79.276172
 20
238.301992
 30
0.0
  0
VERTEX
  5
299
100
AcDbEntity
  8
1
100
AcDbVertex
100
AcDb2dVertex
 10
79.460495
 20
238.36796
 30
0.0
  0
VERTEX
  5
29A
100
AcDbEntity
  8
1
100
AcDbVertex
100
AcDb2dVertex
 10
79.614871
 20
238.434903
 30
0.0
  0
VERTEX
  5
29B
100
AcDbEntity
  8
1
100
AcDbVertex
100
AcDb2dVertex
 10
79.7393
 20
238.502821
 30
0.0
  0
VERTEX
  5
29C
100
AcDbEntity
  8
1
100
AcDbVertex
100
AcDb2dVertex
 10
79.833782
 20
238.571712
 30
0.0
  0
SEQEND
  5
29D
100
AcDbEntity
  8
1
  0
POLYLINE
  5
29E
100
AcDbEntity
  8
1
100
AcDb2dPolyline
 66
     1
 10
0.0
 20
0.0
 30
0.0
  0
VERTEX
  5
29F
100
AcDbEntity
  8
1
100
AcDbVertex
100
AcDb2dVertex
 10
66.437039
 20
238.813074
 30
0.0
  0
VERTEX
  5
2A0
100
AcDbEntity
  8
1
100
AcDbVertex
100
AcDb2dVertex
 10
66.445497
 20
238.877106
 30
0.0
  0
VERTEX
  5
2A1
100
AcDbEntity
  8
1
100
AcDbVertex
100
AcDb2dVertex
 10
66.464862
 20
238.940571
 30
0.0
  0
VERTEX
  5
2A2
100
AcDbEntity
  8
1
100
AcDbVertex
100
AcDb2dVertex
 10
66.495133
 20
239.003469
 30
0.0
  0
VERTEX
  5
2A3
100
AcDbEntity
  8
1
100
AcDbVertex
100
AcDb2dVertex
 10
66.536311
 20
239.065801
 30
0.0
  0
VERTEX
  5
2A4
100
AcDbEntity
  8
1
100
AcDbVertex
100
AcDb2dVertex
 10
66.588396
 20
239.127565
 30
0.0
  0
VERTEX
  5
2A5
100
AcDbEntity
  8
1
100
AcDbVertex
100
AcDb2dVertex
 10
66.651387
 20
239.188763
 30
0.0
  0
VERTEX
  5
2A6
100
AcDbEntity
  8
1
100
AcDbVertex
100
AcDb2dVertex
 10
66.725285
 20
239.249394
 30
0.0
  0
VERTEX
  5
2A7
100
AcDbEntity
  8
1
100
AcDbVertex
100
AcDb2dVertex
 10
66.810089
 20
239.309458
 30
0.0
  0
VERTEX
  5
2A8
100
AcDbEntity
  8
1
100
AcDbVertex
100
AcDb2dVertex
 10
66.9058
 20
239.368956
 30
0.0
  0
VERTEX
  5
2A9
100
AcDbEntity
  8
1
100
AcDbVertex
100
AcDb2dVertex
 10
67.012418
 20
239.427887
 30
0.0
  0
VERTEX
  5
2AA
100
AcDbEntity
  8
1
100
AcDbVertex
100
AcDb2dVertex
 10
67.012418
 20
239.427887
 30
0.0
  0
VERTEX
  5
2AB
100
AcDbEntity
  8
1
100
AcDbVertex
100
AcDb2dVertex
 10
67.126048
 20
239.488317
 30
0.0
  0
VERTEX
  5
2AC
100
AcDbEntity
  8
1
100
AcDbVertex
100
AcDb2dVertex
 10
67.244528
 20
239.551396
 30
0.0
  0
VERTEX
  5
2AD
100
AcDbEntity
  8
1
100
AcDbVertex
100
AcDb2dVertex
 10
67.370454
 20
239.615745
 30
0.0
  0
VERTEX
  5
2AE
100
AcDbEntity
  8
1
100
AcDbVertex
100
AcDb2dVertex
 10
67.50642
 20
239.679987
 30
0.0
  0
VERTEX
  5
2AF
100
AcDbEntity
  8
1
100
AcDbVertex
100
AcDb2dVertex
 10
67.655024
 20
239.742743
 30
0.0
  0
VERTEX
  5
2B0
100
AcDbEntity
  8
1
100
AcDbVertex
100
AcDb2dVertex
 10
67.818861
 20
239.802636
 30
0.0
  0
VERTEX
  5
2B1
100
AcDbEntity
  8
1
100
AcDbVertex
100
AcDb2dVertex
 10
68.000527
 20
239.858289
 30
0.0
  0
VERTEX
  5
2B2
100
AcDbEntity
  8
1
100
AcDbVertex
100
AcDb2dVertex
 10
68.202618
 20
239.908322
 30
0.0
  0
VERTEX
  5
2B3
100
AcDbEntity
  8
1
100
AcDbVertex
100
AcDb2dVertex
 10
68.42773
 20
239.951358
 30
0.0
  0
VERTEX
  5
2B4
100
AcDbEntity
  8
1
100
AcDbVertex
100
AcDb2dVertex
 10
68.678459
 20
239.98602
 30
0.0
  0
VERTEX
  5
2B5
100
AcDbEntity
  8
1
100
AcDbVertex
100
AcDb2dVertex
 10
68.954118
 20
240.014616
 30
0.0
  0
VERTEX
  5
2B6
100
AcDbEntity
  8
1
100
AcDbVertex
100
AcDb2dVertex
 10
69.251634
 20
240.039857
 30
0.0
  0
VERTEX
  5
2B7
100
AcDbEntity
  8
1
100
AcDbVertex
100
AcDb2dVertex
 10
69.570023
 20
240.060969
 30
0.0
  0
VERTEX
  5
2B8
100
AcDbEntity
  8
1
100
AcDbVertex
100
AcDb2dVertex
 10
69.9083
 20
240.077179
 30
0.0
  0
VERTEX
  5
2B9
100
AcDbEntity
  8
1
100
AcDbVertex
100
AcDb2dVertex
 10
70.26548
 20
240.087714
 30
0.0
  0
VERTEX
  5
2BA
100
AcDbEntity
  8
1
100
AcDbVertex
100
AcDb2dVertex
 10
70.640579
 20
240.0918
 30
0.0
  0
VERTEX
  5
2BB
100
AcDbEntity
  8
1
100
AcDbVertex
100
AcDb2dVertex
 10
71.032611
 20
240.088665
 30
0.0
  0
VERTEX
  5
2BC
100
AcDbEntity
  8
1
100
AcDbVertex
100
AcDb2dVertex
 10
71.440593
 20
240.077536
 30
0.0
  0
VERTEX
  5
2BD
100
AcDbEntity
  8
1
100
AcDbVertex
100
AcDb2dVertex
 10
71.863539
 20
240.057637
 30
0.0
  0
VERTEX
  5
2BE
100
AcDbEntity
  8
1
100
AcDbVertex
100
AcDb2dVertex
 10
72.300464
 20
240.028197
 30
0.0
  0
VERTEX
  5
2BF
100
AcDbEntity
  8
1
100
AcDbVertex
100
AcDb2dVertex
 10
72.772862
 20
239.986315
 30
0.0
  0
VERTEX
  5
2C0
100
AcDbEntity
  8
1
100
AcDbVertex
100
AcDb2dVertex
 10
73.293694
 20
239.931181
 30
0.0
  0
VERTEX
  5
2C1
100
AcDbEntity
  8
1
100
AcDbVertex
100
AcDb2dVertex
 10
73.849178
 20
239.865158
 30
0.0
  0
VERTEX
  5
2C2
100
AcDbEntity
  8
1
100
AcDbVertex
100
AcDb2dVertex
 10
74.425533
 20
239.79061
 30
0.0
  0
VERTEX
  5
2C3
100
AcDbEntity
  8
1
100
AcDbVertex
100
AcDb2dVertex
 10
75.008978
 20
239.7099
 30
0.0
  0
VERTEX
  5
2C4
100
AcDbEntity
  8
1
100
AcDbVertex
100
AcDb2dVertex
 10
75.585732
 20
239.625393
 30
0.0
  0
VERTEX
  5
2C5
100
AcDbEntity
  8
1
100
AcDbVertex
100
AcDb2dVertex
 10
76.142013
 20
239.539451
 30
0.0
  0
VERTEX
  5
2C6
100
AcDbEntity
  8
1
100
AcDbVertex
100
AcDb2dVertex
 10
76.664039
 20
239.454438
 30
0.0
  0
VERTEX
  5
2C7
100
AcDbEntity
  8
1
100
AcDbVertex
100
AcDb2dVertex
 10
77.138031
 20
239.372718
 30
0.0
  0
VERTEX
  5
2C8
100
AcDbEntity
  8
1
100
AcDbVertex
100
AcDb2dVertex
 10
77.550205
 20
239.296654
 30
0.0
  0
VERTEX
  5
2C9
100
AcDbEntity
  8
1
100
AcDbVertex
100
AcDb2dVertex
 10
77.912048
 20
239.224276
 30
0.0
  0
VERTEX
  5
2CA
100
AcDbEntity
  8
1
100
AcDbVertex
100
AcDb2dVertex
 10
78.24423
 20
239.15204
 30
0.0
  0
VERTEX
  5
2CB
100
AcDbEntity
  8
1
100
AcDbVertex
100
AcDb2dVertex
 10
78.546751
 20
239.079946
 30
0.0
  0
VERTEX
  5
2CC
100
AcDbEntity
  8
1
100
AcDbVertex
100
AcDb2dVertex
 10
78.819613
 20
239.007992
 30
0.0
  0
VERTEX
  5
2CD
100
AcDbEntity
  8
1
100
AcDbVertex
100
AcDb2dVertex
 10
79.062814
 20
238.93618
 30
0.0
  0
VERTEX
  5
2CE
100
AcDbEntity
  8
1
100
AcDbVertex
100
AcDb2dVertex
 10
79.276354
 20
238.864509
 30
0.0
  0
VERTEX
  5
2CF
100
AcDbEntity
  8
1
100
AcDbVertex
100
AcDb2dVertex
 10
79.460235
 20
238.79298
 30
0.0
  0
VERTEX
  5
2D0
100
AcDbEntity
  8
1
100
AcDbVertex
100
AcDb2dVertex
 10
79.614455
 20
238.721591
 30
0.0
  0
VERTEX
  5
2D1
100
AcDbEntity
  8
1
100
AcDbVertex
100
AcDb2dVertex
 10
79.739014
 20
238.650344
 30
0.0
  0
VERTEX
  5
2D2
100
AcDbEntity
  8
1
100
AcDbVertex
100
AcDb2dVertex
 10
79.833914
 20
238.579238
 30
0.0
  0
SEQEND
  5
2D3
100
AcDbEntity
  8
1
  0
ENDBLK
  5
2D4
100
AcDbEntity
  8
0
100
AcDbBlockEnd
  0
BLOCK
  5
2D6
100
AcDbEntity
  8
0
100
AcDbBlockBegin
  2
NO_186327893
 70
    64
 10
66.436835
 20
240.103355
 30
0.0
  3
NO_186327893
  1

  0
INSERT
  5
2D7
100
AcDbEntity
  8
1
  6
DOT
100
AcDbBlockReference
  2
NO_186327899
 10
50.282862
 20
237.709695
 30
0.0
  0
LWPOLYLINE
  5
2D8
100
AcDbEntity
  8
1
  6
DOT
100
AcDbPolyline
 90
        4
 70
     1
 10
66.459418
 20
238.898998
 10
79.743397
 20
238.667133
 10
79.741033
 20
238.531663
 10
66.457053
 20
238.763528
  0
INSERT
  5
2DE
100
AcDbEntity
  8
1
100
AcDbBlockReference
  2
NO_186327904
 10
68.740244
 20
226.70488
 30
0.0
  0
ENDBLK
  5
2DF
100
AcDbEntity
  8
0
100
AcDbBlockEnd
  0
BLOCK
  5
2E1
100
AcDbEntity
  8
0
100
AcDbBlockBegin
  2
NO_186328066
 70
    64
 10
66.414253
 20
243.091667
 30
0.0
  3
NO_186328066
  1

  0
LWPOLYLINE
  5
2E2
100
AcDbEntity
  8
1
  6
DOT
100
AcDbPolyline
 90
        4
 70
     1
 10
79.624981
 20
241.127059
 10
66.414253
 20
241.127059
 10
66.414253
 20
241.262549
 10
79.624981
 20
241.262549
  0
LWPOLYLINE
  5
2E8
100
AcDbEntity
  8
1
100
AcDbPolyline
 90
        4
 70
     0
 10
69.982279
 20
241.872255
 10
69.982279
 20
242.549706
 10
70.411345
 20
243.091667
 10
74.182613
 20
243.091667
  0
POLYLINE
  5
2EE
100
AcDbEntity
  8
1
100
AcDb2dPolyline
 66
     1
 10
0.0
 20
0.0
 30
0.0
  0
VERTEX
  5
2EF
100
AcDbEntity
  8
1
100
AcDbVertex
100
AcDb2dVertex
 10
66.414253
 20
241.104477
 30
0.0
  0
VERTEX
  5
2F0
100
AcDbEntity
  8
1
100
AcDbVertex
100
AcDb2dVertex
 10
66.440561
 20
241.057959
 30
0.0
  0
VERTEX
  5
2F1
100
AcDbEntity
  8
1
100
AcDbVertex
100
AcDb2dVertex
 10
66.47658
 20
241.013247
 30
0.0
  0
VERTEX
  5
2F2
100
AcDbEntity
  8
1
100
AcDbVertex
100
AcDb2dVertex
 10
66.52231
 20
240.970342
 30
0.0
  0
VERTEX
  5
2F3
100
AcDbEntity
  8
1
100
AcDbVertex
100
AcDb2dVertex
 10
66.57775
 20
240.929243
 30
0.0
  0
VERTEX
  5
2F4
100
AcDbEntity
  8
1
100
AcDbVertex
100
AcDb2dVertex
 10
66.6429
 20
240.889951
 30
0.0
  0
VERTEX
  5
2F5
100
AcDbEntity
  8
1
100
AcDbVertex
100
AcDb2dVertex
 10
66.717761
 20
240.852465
 30
0.0
  0
VERTEX
  5
2F6
100
AcDbEntity
  8
1
100
AcDbVertex
100
AcDb2dVertex
 10
66.802332
 20
240.816786
 30
0.0
  0
VERTEX
  5
2F7
100
AcDbEntity
  8
1
100
AcDbVertex
100
AcDb2dVertex
 10
66.896614
 20
240.782914
 30
0.0
  0
VERTEX
  5
2F8
100
AcDbEntity
  8
1
100
AcDbVertex
100
AcDb2dVertex
 10
67.000606
 20
240.750848
 30
0.0
  0
VERTEX
  5
2F9
100
AcDbEntity
  8
1
100
AcDbVertex
100
AcDb2dVertex
 10
67.114308
 20
240.720588
 30
0.0
  0
VERTEX
  5
2FA
100
AcDbEntity
  8
1
100
AcDbVertex
100
AcDb2dVertex
 10
67.114308
 20
240.720588
 30
0.0
  0
VERTEX
  5
2FB
100
AcDbEntity
  8
1
100
AcDbVertex
100
AcDb2dVertex
 10
67.237721
 20
240.692135
 30
0.0
  0
VERTEX
  5
2FC
100
AcDbEntity
  8
1
100
AcDbVertex
100
AcDb2dVertex
 10
67.370845
 20
240.665489
 30
0.0
  0
VERTEX
  5
2FD
100
AcDbEntity
  8
1
100
AcDbVertex
100
AcDb2dVertex
 10
67.513679
 20
240.640649
 30
0.0
  0
VERTEX
  5
2FE
100
AcDbEntity
  8
1
100
AcDbVertex
100
AcDb2dVertex
 10
67.666223
 20
240.617616
 30
0.0
  0
VERTEX
  5
2FF
100
AcDbEntity
  8
1
100
AcDbVertex
100
AcDb2dVertex
 10
67.828478
 20
240.596389
 30
0.0
  0
VERTEX
  5
300
100
AcDbEntity
  8
1
100
AcDbVertex
100
AcDb2dVertex
 10
68.000443
 20
240.576969
 30
0.0
  0
VERTEX
  5
301
100
AcDbEntity
  8
1
100
AcDbVertex
100
AcDb2dVertex
 10
68.182119
 20
240.559355
 30
0.0
  0
VERTEX
  5
302
100
AcDbEntity
  8
1
100
AcDbVertex
100
AcDb2dVertex
 10
68.373505
 20
240.543548
 30
0.0
  0
VERTEX
  5
303
100
AcDbEntity
  8
1
100
AcDbVertex
100
AcDb2dVertex
 10
68.574602
 20
240.529547
 30
0.0
  0
VERTEX
  5
304
100
AcDbEntity
  8
1
100
AcDbVertex
100
AcDb2dVertex
 10
68.785409
 20
240.517353
 30
0.0
  0
SEQEND
  5
305
100
AcDbEntity
  8
1
  0
POLYLINE
  5
306
100
AcDbEntity
  8
1
100
AcDb2dPolyline
 66
     1
 10
0.0
 20
0.0
 30
0.0
  0
VERTEX
  5
307
100
AcDbEntity
  8
1
100
AcDbVertex
100
AcDb2dVertex
 10
66.414253
 20
241.270076
 30
0.0
  0
VERTEX
  5
308
100
AcDbEntity
  8
1
100
AcDbVertex
100
AcDb2dVertex
 10
66.440561
 20
241.316595
 30
0.0
  0
VERTEX
  5
309
100
AcDbEntity
  8
1
100
AcDbVertex
100
AcDb2dVertex
 10
66.47658
 20
241.361306
 30
0.0
  0
VERTEX
  5
30A
100
AcDbEntity
  8
1
100
AcDbVertex
100
AcDb2dVertex
 10
66.52231
 20
241.404212
 30
0.0
  0
VERTEX
  5
30B
100
AcDbEntity
  8
1
100
AcDbVertex
100
AcDb2dVertex
 10
66.57775
 20
241.44531
 30
0.0
  0
VERTEX
  5
30C
100
AcDbEntity
  8
1
100
AcDbVertex
100
AcDb2dVertex
 10
66.6429
 20
241.484602
 30
0.0
  0
VERTEX
  5
30D
100
AcDbEntity
  8
1
100
AcDbVertex
100
AcDb2dVertex
 10
66.717761
 20
241.522088
 30
0.0
  0
VERTEX
  5
30E
100
AcDbEntity
  8
1
100
AcDbVertex
100
AcDb2dVertex
 10
66.802332
 20
241.557767
 30
0.0
  0
VERTEX
  5
30F
100
AcDbEntity
  8
1
100
AcDbVertex
100
AcDb2dVertex
 10
66.896614
 20
241.59164
 30
0.0
  0
VERTEX
  5
310
100
AcDbEntity
  8
1
100
AcDbVertex
100
AcDb2dVertex
 10
67.000606
 20
241.623706
 30
0.0
  0
VERTEX
  5
311
100
AcDbEntity
  8
1
100
AcDbVertex
100
AcDb2dVertex
 10
67.114308
 20
241.653965
 30
0.0
  0
VERTEX
  5
312
100
AcDbEntity
  8
1
100
AcDbVertex
100
AcDb2dVertex
 10
67.114308
 20
241.653965
 30
0.0
  0
VERTEX
  5
313
100
AcDbEntity
  8
1
100
AcDbVertex
100
AcDb2dVertex
 10
67.237721
 20
241.682418
 30
0.0
  0
VERTEX
  5
314
100
AcDbEntity
  8
1
100
AcDbVertex
100
AcDb2dVertex
 10
67.370845
 20
241.709064
 30
0.0
  0
VERTEX
  5
315
100
AcDbEntity
  8
1
100
AcDbVertex
100
AcDb2dVertex
 10
67.513679
 20
241.733904
 30
0.0
  0
VERTEX
  5
316
100
AcDbEntity
  8
1
100
AcDbVertex
100
AcDb2dVertex
 10
67.666223
 20
241.756938
 30
0.0
  0
VERTEX
  5
317
100
AcDbEntity
  8
1
100
AcDbVertex
100
AcDb2dVertex
 10
67.828478
 20
241.778164
 30
0.0
  0
VERTEX
  5
318
100
AcDbEntity
  8
1
100
AcDbVertex
100
AcDb2dVertex
 10
68.000443
 20
241.797585
 30
0.0
  0
VERTEX
  5
319
100
AcDbEntity
  8
1
100
AcDbVertex
100
AcDb2dVertex
 10
68.182119
 20
241.815198
 30
0.0
  0
VERTEX
  5
31A
100
AcDbEntity
  8
1
100
AcDbVertex
100
AcDb2dVertex
 10
68.373505
 20
241.831006
 30
0.0
  0
VERTEX
  5
31B
100
AcDbEntity
  8
1
100
AcDbVertex
100
AcDb2dVertex
 10
68.574602
 20
241.845006
 30
0.0
  0
VERTEX
  5
31C
100
AcDbEntity
  8
1
100
AcDbVertex
100
AcDb2dVertex
 10
68.785409
 20
241.8572
 30
0.0
  0
SEQEND
  5
31D
100
AcDbEntity
  8
1
  0
POLYLINE
  5
31E
100
AcDbEntity
  8
1
100
AcDb2dPolyline
 66
     1
 10
0.0
 20
0.0
 30
0.0
  0
VERTEX
  5
31F
100
AcDbEntity
  8
1
100
AcDbVertex
100
AcDb2dVertex
 10
79.624981
 20
241.270076
 30
0.0
  0
VERTEX
  5
320
100
AcDbEntity
  8
1
100
AcDbVertex
100
AcDb2dVertex
 10
79.604469
 20
241.318439
 30
0.0
  0
VERTEX
  5
321
100
AcDbEntity
  8
1
100
AcDbVertex
100
AcDb2dVertex
 10
79.576805
 20
241.364919
 30
0.0
  0
VERTEX
  5
322
100
AcDbEntity
  8
1
100
AcDbVertex
100
AcDb2dVertex
 10
79.541991
 20
241.409518
 30
0.0
  0
VERTEX
  5
323
100
AcDbEntity
  8
1
100
AcDbVertex
100
AcDb2dVertex
 10
79.500025
 20
241.452235
 30
0.0
  0
VERTEX
  5
324
100
AcDbEntity
  8
1
100
AcDbVertex
100
AcDb2dVertex
 10
79.450908
 20
241.493071
 30
0.0
  0
VERTEX
  5
325
100
AcDbEntity
  8
1
100
AcDbVertex
100
AcDb2dVertex
 10
79.39464
 20
241.532024
 30
0.0
  0
VERTEX
  5
326
100
AcDbEntity
  8
1
100
AcDbVertex
100
AcDb2dVertex
 10
79.331221
 20
241.569096
 30
0.0
  0
VERTEX
  5
327
100
AcDbEntity
  8
1
100
AcDbVertex
100
AcDb2dVertex
 10
79.260651
 20
241.604285
 30
0.0
  0
VERTEX
  5
328
100
AcDbEntity
  8
1
100
AcDbVertex
100
AcDb2dVertex
 10
79.18293
 20
241.637593
 30
0.0
  0
VERTEX
  5
329
100
AcDbEntity
  8
1
100
AcDbVertex
100
AcDb2dVertex
 10
79.098057
 20
241.66902
 30
0.0
  0
VERTEX
  5
32A
100
AcDbEntity
  8
1
100
AcDbVertex
100
AcDb2dVertex
 10
79.098057
 20
241.66902
 30
0.0
  0
VERTEX
  5
32B
100
AcDbEntity
  8
1
100
AcDbVertex
100
AcDb2dVertex
 10
79.006034
 20
241.698564
 30
0.0
  0
VERTEX
  5
32C
100
AcDbEntity
  8
1
100
AcDbVertex
100
AcDb2dVertex
 10
78.906859
 20
241.726227
 30
0.0
  0
VERTEX
  5
32D
100
AcDbEntity
  8
1
100
AcDbVertex
100
AcDb2dVertex
 10
78.800534
 20
241.752007
 30
0.0
  0
VERTEX
  5
32E
100
AcDbEntity
  8
1
100
AcDbVertex
100
AcDb2dVertex
 10
78.687057
 20
241.775906
 30
0.0
  0
VERTEX
  5
32F
100
AcDbEntity
  8
1
100
AcDbVertex
100
AcDb2dVertex
 10
78.566429
 20
241.797923
 30
0.0
  0
VERTEX
  5
330
100
AcDbEntity
  8
1
100
AcDbVertex
100
AcDb2dVertex
 10
78.43865
 20
241.818059
 30
0.0
  0
VERTEX
  5
331
100
AcDbEntity
  8
1
100
AcDbVertex
100
AcDb2dVertex
 10
78.30372
 20
241.836312
 30
0.0
  0
VERTEX
  5
332
100
AcDbEntity
  8
1
100
AcDbVertex
100
AcDb2dVertex
 10
78.161639
 20
241.852684
 30
0.0
  0
VERTEX
  5
333
100
AcDbEntity
  8
1
100
AcDbVertex
100
AcDb2dVertex
 10
78.012407
 20
241.867174
 30
0.0
  0
VERTEX
  5
334
100
AcDbEntity
  8
1
100
AcDbVertex
100
AcDb2dVertex
 10
77.856023
 20
241.879782
 30
0.0
  0
SEQEND
  5
335
100
AcDbEntity
  8
1
  0
POLYLINE
  5
336
100
AcDbEntity
  8
1
100
AcDb2dPolyline
 66
     1
 10
0.0
 20
0.0
 30
0.0
  0
VERTEX
  5
337
100
AcDbEntity
  8
1
100
AcDbVertex
100
AcDb2dVertex
 10
79.602399
 20
241.112004
 30
0.0
  0
VERTEX
  5
338
100
AcDbEntity
  8
1
100
AcDbVertex
100
AcDb2dVertex
 10
79.581886
 20
241.064395
 30
0.0
  0
VERTEX
  5
339
100
AcDbEntity
  8
1
100
AcDbVertex
100
AcDb2dVertex
 10
79.554223
 20
241.018667
 30
0.0
  0
VERTEX
  5
33A
100
AcDbEntity
  8
1
100
AcDbVertex
100
AcDb2dVertex
 10
79.519408
 20
240.974821
 30
0.0
  0
VERTEX
  5
33B
100
AcDbEntity
  8
1
100
AcDbVertex
100
AcDb2dVertex
 10
79.477442
 20
240.932856
 30
0.0
  0
VERTEX
  5
33C
100
AcDbEntity
  8
1
100
AcDbVertex
100
AcDb2dVertex
 10
79.428326
 20
240.892774
 30
0.0
  0
VERTEX
  5
33D
100
AcDbEntity
  8
1
100
AcDbVertex
100
AcDb2dVertex
 10
79.372058
 20
240.854573
 30
0.0
  0
VERTEX
  5
33E
100
AcDbEntity
  8
1
100
AcDbVertex
100
AcDb2dVertex
 10
79.308639
 20
240.818254
 30
0.0
  0
VERTEX
  5
33F
100
AcDbEntity
  8
1
100
AcDbVertex
100
AcDb2dVertex
 10
79.238069
 20
240.783817
 30
0.0
  0
VERTEX
  5
340
100
AcDbEntity
  8
1
100
AcDbVertex
100
AcDb2dVertex
 10
79.160347
 20
240.751262
 30
0.0
  0
VERTEX
  5
341
100
AcDbEntity
  8
1
100
AcDbVertex
100
AcDb2dVertex
 10
79.075475
 20
240.720588
 30
0.0
  0
VERTEX
  5
342
100
AcDbEntity
  8
1
100
AcDbVertex
100
AcDb2dVertex
 10
79.075475
 20
240.720588
 30
0.0
  0
VERTEX
  5
343
100
AcDbEntity
  8
1
100
AcDbVertex
100
AcDb2dVertex
 10
78.983452
 20
240.691797
 30
0.0
  0
VERTEX
  5
344
100
AcDbEntity
  8
1
100
AcDbVertex
100
AcDb2dVertex
 10
78.884277
 20
240.664887
 30
0.0
  0
VERTEX
  5
345
100
AcDbEntity
  8
1
100
AcDbVertex
100
AcDb2dVertex
 10
78.777951
 20
240.639859
 30
0.0
  0
VERTEX
  5
346
100
AcDbEntity
  8
1
100
AcDbVertex
100
AcDb2dVertex
 10
78.664475
 20
240.616712
 30
0.0
  0
VERTEX
  5
347
100
AcDbEntity
  8
1
100
AcDbVertex
100
AcDb2dVertex
 10
78.543847
 20
240.595448
 30
0.0
  0
VERTEX
  5
348
100
AcDbEntity
  8
1
100
AcDbVertex
100
AcDb2dVertex
 10
78.416068
 20
240.576065
 30
0.0
  0
VERTEX
  5
349
100
AcDbEntity
  8
1
100
AcDbVertex
100
AcDb2dVertex
 10
78.281138
 20
240.558565
 30
0.0
  0
VERTEX
  5
34A
100
AcDbEntity
  8
1
100
AcDbVertex
100
AcDb2dVertex
 10
78.139056
 20
240.542946
 30
0.0
  0
VERTEX
  5
34B
100
AcDbEntity
  8
1
100
AcDbVertex
100
AcDb2dVertex
 10
77.989824
 20
240.529208
 30
0.0
  0
VERTEX
  5
34C
100
AcDbEntity
  8
1
100
AcDbVertex
100
AcDb2dVertex
 10
77.833441
 20
240.517353
 30
0.0
  0
SEQEND
  5
34D
100
AcDbEntity
  8
1
  0
LINE
  5
34E
100
AcDbEntity
  8
1
100
AcDbLine
 10
68.785409
 20
240.502298
 30
0.0
 11
77.818386
 21
240.502298
 31
0.0
  0
LWPOLYLINE
  5
34F
100
AcDbEntity
  8
1
100
AcDbPolyline
 90
        3
 70
     0
 10
74.16003
 20
243.091667
 10
74.747174
 20
242.527124
 10
74.747174
 20
241.872255
  0
LINE
  5
354
100
AcDbEntity
  8
1
100
AcDbLine
 10
68.785409
 20
241.872255
 30
0.0
 11
69.959696
 21
241.872255
 31
0.0
  0
LINE
  5
355
100
AcDbEntity
  8
1
100
AcDbLine
 10
74.747174
 20
241.872255
 30
0.0
 11
77.863551
 21
241.872255
 31
0.0
  0
ENDBLK
  5
356
100
AcDbEntity
  8
0
100
AcDbBlockEnd
  0
BLOCK
  5
358
100
AcDbEntity
  8
0
100
AcDbBlockBegin
  2
NO_186328071
 70
    64
 10
62.966667
 20
237.446242
 30
0.0
  3
NO_186328071
  1

  0
LWPOLYLINE
  5
359
100
AcDbEntity
  8
1
100
AcDbPolyline
 90
       31
 70
     0
 10
65.503428
 20
238.168856
 10
65.499861
 20
238.093322
 10
65.489199
 20
238.018616
 10
65.471559
 20
237.945556
 10
65.447135
 20
237.874942
 10
65.416193
 20
237.807549
 10
65.379073
 20
237.744114
 10
65.336182
 20
237.685333
 10
65.28799
 20
237.631849
 10
65.235023
 20
237.584249
 10
65.177864
 20
237.543054
 10
65.117138
 20
237.508715
 10
65.05351
 20
237.481609
 10
64.987677
 20
237.462033
 10
64.920362
 20
237.4502
 10
64.852301
 20
237.446242
 10
64.784239
 20
237.4502
 10
64.716924
 20
237.462033
 10
64.651091
 20
237.481609
 10
64.587463
 20
237.508715
 10
64.526737
 20
237.543054
 10
64.469578
 20
237.584249
 10
64.416611
 20
237.631849
 10
64.368419
 20
237.685333
 10
64.325528
 20
237.744114
 10
64.288408
 20
237.807549
 10
64.257466
 20
237.874942
 10
64.233042
 20
237.945556
 10
64.215402
 20
238.018616
 10
64.20474
 20
238.093322
 10
64.201173
 20
238.168856
  0
POLYLINE
  5
37A
100
AcDbEntity
  8
1
100
AcDb2dPolyline
 66
     1
 10
0.0
 20
0.0
 30
0.0
  0
VERTEX
  5
37B
100
AcDbEntity
  8
1
100
AcDbVertex
100
AcDb2dVertex
 10
65.503428
 20
239.185033
 30
0.0
  0
VERTEX
  5
37C
100
AcDbEntity
  8
1
100
AcDbVertex
100
AcDb2dVertex
 10
65.499861
 20
239.286531
 30
0.0
  0
VERTEX
  5
37D
100
AcDbEntity
  8
1
100
AcDbVertex
100
AcDb2dVertex
 10
65.489199
 20
239.386918
 30
0.0
  0
VERTEX
  5
37E
100
AcDbEntity
  8
1
100
AcDbVertex
100
AcDb2dVertex
 10
65.471559
 20
239.485092
 30
0.0
  0
VERTEX
  5
37F
100
AcDbEntity
  8
1
100
AcDbVertex
100
AcDb2dVertex
 10
65.447135
 20
239.579979
 30
0.0
  0
VERTEX
  5
380
100
AcDbEntity
  8
1
100
AcDbVertex
100
AcDb2dVertex
 10
65.416193
 20
239.670539
 30
0.0
  0
VERTEX
  5
381
100
AcDbEntity
  8
1
100
AcDbVertex
100
AcDb2dVertex
 10
65.379073
 20
239.75578
 30
0.0
  0
VERTEX
  5
382
100
AcDbEntity
  8
1
100
AcDbVertex
100
AcDb2dVertex
 10
65.336182
 20
239.834767
 30
0.0
  0
VERTEX
  5
383
100
AcDbEntity
  8
1
100
AcDbVertex
100
AcDb2dVertex
 10
65.28799
 20
239.906636
 30
0.0
  0
VERTEX
  5
384
100
AcDbEntity
  8
1
100
AcDbVertex
100
AcDb2dVertex
 10
65.235023
 20
239.970599
 30
0.0
  0
VERTEX
  5
385
100
AcDbEntity
  8
1
100
AcDbVertex
100
AcDb2dVertex
 10
65.177864
 20
240.025955
 30
0.0
  0
VERTEX
  5
386
100
AcDbEntity
  8
1
100
AcDbVertex
100
AcDb2dVertex
 10
65.117138
 20
240.072097
 30
0.0
  0
VERTEX
  5
387
100
AcDbEntity
  8
1
100
AcDbVertex
100
AcDb2dVertex
 10
65.05351
 20
240.108521
 30
0.0
  0
VERTEX
  5
388
100
AcDbEntity
  8
1
100
AcDbVertex
100
AcDb2dVertex
 10
64.987677
 20
240.134827
 30
0.0
  0
VERTEX
  5
389
100
AcDbEntity
  8
1
100
AcDbVertex
100
AcDb2dVertex
 10
64.920362
 20
240.150726
 30
0.0
  0
VERTEX
  5
38A
100
AcDbEntity
  8
1
100
AcDbVertex
100
AcDb2dVertex
 10
64.852301
 20
240.156046
 30
0.0
  0
VERTEX
  5
38B
100
AcDbEntity
  8
1
100
AcDbVertex
100
AcDb2dVertex
 10
64.784239
 20
240.150726
 30
0.0
  0
VERTEX
  5
38C
100
AcDbEntity
  8
1
100
AcDbVertex
100
AcDb2dVertex
 10
64.716924
 20
240.134827
 30
0.0
  0
VERTEX
  5
38D
100
AcDbEntity
  8
1
100
AcDbVertex
100
AcDb2dVertex
 10
64.651091
 20
240.108521
 30
0.0
  0
VERTEX
  5
38E
100
AcDbEntity
  8
1
100
AcDbVertex
100
AcDb2dVertex
 10
64.587463
 20
240.072097
 30
0.0
  0
VERTEX
  5
38F
100
AcDbEntity
  8
1
100
AcDbVertex
100
AcDb2dVertex
 10
64.526737
 20
240.025955
 30
0.0
  0
VERTEX
  5
390
100
AcDbEntity
  8
1
100
AcDbVertex
100
AcDb2dVertex
 10
64.469578
 20
239.970599
 30
0.0
  0
VERTEX
  5
391
100
AcDbEntity
  8
1
100
AcDbVertex
100
AcDb2dVertex
 10
64.416611
 20
239.906636
 30
0.0
  0
VERTEX
  5
392
100
AcDbEntity
  8
1
100
AcDbVertex
100
AcDb2dVertex
 10
64.368419
 20
239.834767
 30
0.0
  0
VERTEX
  5
393
100
AcDbEntity
  8
1
100
AcDbVertex
100
AcDb2dVertex
 10
64.325528
 20
239.75578
 30
0.0
  0
VERTEX
  5
394
100
AcDbEntity
  8
1
100
AcDbVertex
100
AcDb2dVertex
 10
64.288408
 20
239.670539
 30
0.0
  0
VERTEX
  5
395
100
AcDbEntity
  8
1
100
AcDbVertex
100
AcDb2dVertex
 10
64.257466
 20
239.579979
 30
0.0
  0
VERTEX
  5
396
100
AcDbEntity
  8
1
100
AcDbVertex
100
AcDb2dVertex
 10
64.233042
 20
239.485092
 30
0.0
  0
VERTEX
  5
397
100
AcDbEntity
  8
1
100
AcDbVertex
100
AcDb2dVertex
 10
64.215402
 20
239.386918
 30
0.0
  0
VERTEX
  5
398
100
AcDbEntity
  8
1
100
AcDbVertex
100
AcDb2dVertex
 10
64.20474
 20
239.286531
 30
0.0
  0
VERTEX
  5
399
100
AcDbEntity
  8
1
100
AcDbVertex
100
AcDb2dVertex
 10
64.201173
 20
239.185033
 30
0.0
  0
VERTEX
  5
39A
100
AcDbEntity
  8
1
100
AcDbVertex
100
AcDb2dVertex
 10
64.201173
 20
239.185033
 30
0.0
  0
SEQEND
  5
39B
100
AcDbEntity
  8
1
  0
LINE
  5
39C
100
AcDbEntity
  8
1
100
AcDbLine
 10
64.201173
 20
238.168856
 30
0.0
 11
64.201173
 21
239.185033
 31
0.0
  0
LINE
  5
39D
100
AcDbEntity
  8
1
100
AcDbLine
 10
65.503428
 20
238.168856
 30
0.0
 11
65.503428
 21
239.185033
 31
0.0
  0
LWPOLYLINE
  5
39E
100
AcDbEntity
  8
1
100
AcDbPolyline
 90
        4
 70
     1
 10
64.765735
 20
240.156046
 10
64.923812
 20
240.156046
 10
64.923812
 20
237.446242
 10
64.765735
 20
237.446242
  0
LWPOLYLINE
  5
3A4
100
AcDbEntity
  8
1
100
AcDbPolyline
 90
        4
 70
     1
 10
62.966667
 20
238.868889
 10
65.503428
 20
238.868889
 10
65.503428
 20
238.733399
 10
62.966667
 20
238.733399
  0
ENDBLK
  5
3AA
100
AcDbEntity
  8
0
100
AcDbBlockEnd
  0
BLOCK
  5
3AC
100
AcDbEntity
  8
0
100
AcDbBlockBegin
  2
NO_186327888
 70
    64
 10
62.966667
 20
243.091667
 30
0.0
  3
NO_186327888
  1

  0
INSERT
  5
3AD
100
AcDbEntity
  8
1
100
AcDbBlockReference
  2
NO_186327893
 10
66.436835
 20
240.103355
 30
0.0
  0
INSERT
  5
3AE
100
AcDbEntity
  8
1
100
AcDbBlockReference
  2
NO_186328066
 10
66.414253
 20
243.091667
 30
0.0
  0
INSERT
  5
3AF
100
AcDbEntity
  8
1
100
AcDbBlockReference
  2
NO_186328071
 10
62.966667
 20
237.446242
 30
0.0
  0
ENDBLK
  5
3B0
100
AcDbEntity
  8
0
100
AcDbBlockEnd
  0
BLOCK
  5
3B2
100
AcDbEntity
  8
0
100
AcDbBlockBegin
  2
NO_186328077
 70
    64
 10
1.283333
 20
241.9
 30
0.0
  3
NO_186328077
  1

  0
POLYLINE
  5
3B3
100
AcDbEntity
  8
1
100
AcDb2dPolyline
 66
     1
 10
0.0
 20
0.0
 30
0.0
 70
     1
  0
VERTEX
  5
3B4
100
AcDbEntity
  8
1
100
AcDbVertex
100
AcDb2dVertex
 10
53.739078
 20
238.880843
 30
0.0
  0
VERTEX
  5
3B5
100
AcDbEntity
  8
1
100
AcDbVertex
100
AcDb2dVertex
 10
53.739078
 20
238.405326
 30
0.0
  0
VERTEX
  5
3B6
100
AcDbEntity
  8
1
100
AcDbVertex
100
AcDb2dVertex
 10
55.037263
 20
238.544018
 30
0.0
  0
VERTEX
  5
3B7
100
AcDbEntity
  8
1
100
AcDbVertex
100
AcDb2dVertex
 10
55.037263
 20
238.722337
 30
0.0
  0
VERTEX
  5
3B8
100
AcDbEntity
  8
1
100
AcDbVertex
100
AcDb2dVertex
 10
53.739078
 20
238.880843
 30
0.0
  0
VERTEX
  5
3B9
100
AcDbEntity
  8
1
100
AcDbVertex
100
AcDb2dVertex
 10
53.739078
 20
238.880843
 30
0.0
  0
SEQEND
  5
3BA
100
AcDbEntity
  8
1
  0
LINE
  5
3BB
100
AcDbEntity
  8
1
100
AcDbLine
 10
55.075001
 20
238.631762
 30
0.0
 11
27.911228
 21
241.620728
 31
0.0
  0
LINE
  5
3BC
100
AcDbEntity
  8
1
100
AcDbLine
 10
27.888585
 20
241.620728
 30
0.0
 11
11.766935
 21
241.764138
 31
0.0
  0
LWPOLYLINE
  5
3BD
100
AcDbEntity
  8
1
100
AcDbPolyline
 90
       21
 70
     0
 10
11.751839
 20
241.764138
 10
10.880057
 20
241.754628
 10
10.044984
 20
241.742781
 10
9.24662
 20
241.728599
 10
8.484965
 20
241.712081
 10
7.760018
 20
241.693227
 10
7.071781
 20
241.672038
 10
6.420252
 20
241.648512
 10
5.805432
 20
241.622651
 10
5.22732
 20
241.594453
 10
4.685918
 20
241.56392
 10
4.181225
 20
241.531051
 10
3.71324
 20
241.495846
 10
3.281964
 20
241.458305
 10
2.887397
 20
241.418429
 10
2.529539
 20
241.376216
 10
2.20839
 20
241.331668
 10
1.923949
 20
241.284783
 10
1.676218
 20
241.235563
 10
1.465195
 20
241.184007
 10
1.290881
 20
241.130115
  0
LINE
  5
3D4
100
AcDbEntity
  8
1
100
AcDbLine
 10
55.052358
 20
238.631762
 30
0.0
 11
27.911228
 21
235.627701
 31
0.0
  0
LINE
  5
3D5
100
AcDbEntity
  8
1
100
AcDbLine
 10
27.888585
 20
235.627701
 30
0.0
 11
11.766935
 21
235.469195
 31
0.0
  0
LWPOLYLINE
  5
3D6
100
AcDbEntity
  8
1
100
AcDbPolyline
 90
       21
 70
     0
 10
11.751839
 20
235.469195
 10
10.880057
 20
235.478706
 10
10.044984
 20
235.490552
 10
9.24662
 20
235.504734
 10
8.484965
 20
235.521252
 10
7.760018
 20
235.540106
 10
7.071781
 20
235.561296
 10
6.420252
 20
235.584821
 10
5.805432
 20
235.610683
 10
5.22732
 20
235.63888
 10
4.685918
 20
235.669413
 10
4.181225
 20
235.702282
 10
3.71324
 20
235.737487
 10
3.281964
 20
235.775028
 10
2.887397
 20
235.814905
 10
2.529539
 20
235.857117
 10
2.20839
 20
235.901666
 10
1.923949
 20
235.94855
 10
1.676218
 20
235.99777
 10
1.465195
 20
236.049326
 10
1.290881
 20
236.103218
  0
LWPOLYLINE
  5
3ED
100
AcDbEntity
  8
1
100
AcDbPolyline
 90
        4
 70
     1
 10
27.918775
 20
241.620728
 10
28.190489
 20
241.620728
 10
28.190489
 20
235.642797
 10
27.918775
 20
235.642797
  0
LWPOLYLINE
  5
3F3
100
AcDbEntity
  8
1
100
AcDbPolyline
 90
        4
 70
     1
 10
1.283333
 20
241.145211
 10
1.434285
 20
241.145211
 10
1.434285
 20
236.118314
 10
1.283333
 20
236.118314
  0
LINE
  5
3F9
100
AcDbEntity
  8
1
100
AcDbLine
 10
1.305976
 20
238.631762
 30
0.0
 11
55.052358
 21
238.631762
 31
0.0
  0
LINE
  5
3FA
100
AcDbEntity
  8
1
100
AcDbLine
 10
1.283333
 20
241.122567
 30
0.0
 11
1.283333
 21
236.118314
 31
0.0
  0
POLYLINE
  5
3FB
100
AcDbEntity
  8
1
100
AcDb2dPolyline
 66
     1
 10
0.0
 20
0.0
 30
0.0
 70
     1
  0
VERTEX
  5
3FC
100
AcDbEntity
  8
1
100
AcDbVertex
100
AcDb2dVertex
 10
1.434285
 20
241.190498
 30
0.0
  0
VERTEX
  5
3FD
100
AcDbEntity
  8
1
100
AcDbVertex
100
AcDb2dVertex
 10
1.434285
 20
236.050383
 30
0.0
  0
VERTEX
  5
3FE
100
AcDbEntity
  8
1
100
AcDbVertex
100
AcDb2dVertex
 10
2.566423
 20
235.84659
 30
0.0
  0
VERTEX
  5
3FF
100
AcDbEntity
  8
1
100
AcDbVertex
100
AcDb2dVertex
 10
2.566423
 20
241.394291
 30
0.0
  0
VERTEX
  5
400
100
AcDbEntity
  8
1
100
AcDbVertex
100
AcDb2dVertex
 10
1.434285
 20
241.190498
 30
0.0
  0
VERTEX
  5
401
100
AcDbEntity
  8
1
100
AcDbVertex
100
AcDb2dVertex
 10
1.434285
 20
241.190498
 30
0.0
  0
SEQEND
  5
402
100
AcDbEntity
  8
1
  0
LWPOLYLINE
  5
403
100
AcDbEntity
  8
1
100
AcDbPolyline
 90
       21
 70
     0
 10
11.751839
 20
241.9
 10
10.880319
 20
241.894905
 10
10.045481
 20
241.886414
 10
9.247323
 20
241.874526
 10
8.485847
 20
241.859241
 10
7.761052
 20
241.84056
 10
7.072938
 20
241.818483
 10
6.421506
 20
241.793009
 10
5.806754
 20
241.764138
 10
5.228685
 20
241.731871
 10
4.687296
 20
241.696207
 10
4.182589
 20
241.657147
 10
3.714563
 20
241.61469
 10
3.283218
 20
241.568836
 10
2.888555
 20
241.519586
 10
2.530572
 20
241.46694
 10
2.209272
 20
241.410897
 10
1.924652
 20
241.351457
 10
1.676714
 20
241.288621
 10
1.465457
 20
241.222388
 10
1.290881
 20
241.152759
  0
LWPOLYLINE
  5
41A
100
AcDbEntity
  8
1
100
AcDbPolyline
 90
       21
 70
     0
 10
11.751839
 20
235.333333
 10
10.880319
 20
235.338428
 10
10.045481
 20
235.34692
 10
9.247323
 20
235.358808
 10
8.485847
 20
235.374092
 10
7.761052
 20
235.392773
 10
7.072938
 20
235.414851
 10
6.421506
 20
235.440325
 10
5.806754
 20
235.469195
 10
5.228685
 20
235.501463
 10
4.687296
 20
235.537127
 10
4.182589
 20
235.576187
 10
3.714563
 20
235.618644
 10
3.283218
 20
235.664497
 10
2.888555
 20
235.713747
 10
2.530572
 20
235.766394
 10
2.209272
 20
235.822437
 10
1.924652
 20
235.881877
 10
1.676714
 20
235.944713
 10
1.465457
 20
236.010945
 10
1.290881
 20
236.080575
  0
LINE
  5
431
100
AcDbEntity
  8
1
100
AcDbLine
 10
27.888585
 20
235.491839
 30
0.0
 11
11.766935
 21
235.333333
 31
0.0
  0
LINE
  5
432
100
AcDbEntity
  8
1
100
AcDbLine
 10
27.888585
 20
241.75659
 30
0.0
 11
11.766935
 21
241.9
 31
0.0
  0
LINE
  5
433
100
AcDbEntity
  8
1
100
AcDbLine
 10
55.075001
 20
238.744981
 30
0.0
 11
27.911228
 21
241.75659
 31
0.0
  0
LINE
  5
434
100
AcDbEntity
  8
1
100
AcDbLine
 10
55.075001
 20
238.518544
 30
0.0
 11
27.911228
 21
235.491839
 31
0.0
  0
LINE
  5
435
100
AcDbEntity
  8
1
  6
DOT
100
AcDbLine
 10
55.075001
 20
238.744981
 30
0.0
 11
55.075001
 21
238.518544
 31
0.0
  0
LWPOLYLINE
  5
436
100
AcDbEntity
  8
1
100
AcDbPolyline
 90
        4
 70
     1
 10
11.502769
 20
241.771686
 10
11.774482
 20
241.771686
 10
11.774482
 20
235.491839
 10
11.502769
 20
235.491839
  0
LINE
  5
43C
100
AcDbEntity
  8
1
100
AcDbLine
 10
27.888585
 20
241.349004
 30
0.0
 11
11.766935
 21
241.492414
 31
0.0
  0
LINE
  5
43D
100
AcDbEntity
  8
1
100
AcDbLine
 10
52.561654
 20
238.654406
 30
0.0
 11
27.911228
 21
241.349004
 31
0.0
  0
LINE
  5
43E
100
AcDbEntity
  8
1
100
AcDbLine
 10
27.888585
 20
235.899425
 30
0.0
 11
11.766935
 21
235.74092
 31
0.0
  0
LINE
  5
43F
100
AcDbEntity
  8
1
100
AcDbLine
 10
52.561654
 20
238.631762
 30
0.0
 11
27.911228
 21
235.899425
 31
0.0
  0
LWPOLYLINE
  5
440
100
AcDbEntity
  8
1
100
AcDbPolyline
 90
       21
 70
     0
 10
11.751839
 20
241.492414
 10
11.025459
 20
241.488225
 10
10.327157
 20
241.482451
 10
9.656931
 20
241.475091
 10
9.014782
 20
241.466147
 10
8.40071
 20
241.455618
 10
7.814715
 20
241.443503
 10
7.256797
 20
241.429804
 10
6.726957
 20
241.41452
 10
6.225193
 20
241.39765
 10
5.751506
 20
241.379195
 10
5.305896
 20
241.359156
 10
4.888364
 20
241.337531
 10
4.498908
 20
241.314321
 10
4.13753
 20
241.289526
 10
3.804228
 20
241.263147
 10
3.499004
 20
241.235182
 10
3.221856
 20
241.205632
 10
2.972786
 20
241.174497
 10
2.751792
 20
241.141776
 10
2.558876
 20
241.107471
  0
LWPOLYLINE
  5
457
100
AcDbEntity
  8
1
100
AcDbPolyline
 90
       21
 70
     0
 10
11.751839
 20
235.74092
 10
11.085689
 20
235.74409
 10
10.441276
 20
235.749071
 10
9.8186
 20
235.755864
 10
9.217661
 20
235.764469
 10
8.638459
 20
235.774885
 10
8.080994
 20
235.787113
 10
7.545266
 20
235.801152
 10
7.031275
 20
235.817002
 10
6.539022
 20
235.834664
 10
6.068505
 20
235.854138
 10
5.619725
 20
235.875423
 10
5.192683
 20
235.89852
 10
4.787377
 20
235.923428
 10
4.403809
 20
235.950147
 10
4.041977
 20
235.978678
 10
3.701883
 20
236.009021
 10
3.383525
 20
236.041175
 10
3.086905
 20
236.07514
 10
2.812022
 20
236.110917
 10
2.558876
 20
236.148506
  0
LINE
  5
46E
100
AcDbEntity
  8
1
100
AcDbLine
 10
27.933871
 20
235.568321
 30
0.0
 11
27.933871
 21
241.763803
 31
0.0
  0
LWPOLYLINE
  5
46F
100
AcDbEntity
  8
1
100
AcDbPolyline
 90
       21
 70
     0
 10
27.933871
 20
241.763803
 10
28.205152
 20
241.772277
 10
28.461951
 20
241.76538
 10
28.704266
 20
241.743112
 10
28.932098
 20
241.705474
 10
29.145447
 20
241.652466
 10
29.344313
 20
241.584087
 10
29.528695
 20
241.500338
 10
29.698594
 20
241.401218
 10
29.85401
 20
241.286728
 10
29.994943
 20
241.156867
 10
30.121393
 20
241.011636
 10
30.233359
 20
240.851034
 10
30.330842
 20
240.675062
 10
30.413842
 20
240.483719
 10
30.482359
 20
240.277006
 10
30.536392
 20
240.054922
 10
30.575943
 20
239.817468
 10
30.60101
 20
239.564644
 10
30.611594
 20
239.296449
 10
30.607694
 20
239.012883
  0
LINE
  5
486
100
AcDbEntity
  8
1
100
AcDbLine
 10
30.607694
 20
239.012883
 30
0.0
 11
30.607694
 21
238.319241
 31
0.0
  0
LWPOLYLINE
  5
487
100
AcDbEntity
  8
1
100
AcDbPolyline
 90
       21
 70
     0
 10
30.607694
 20
238.303477
 10
30.611594
 20
238.019911
 10
30.60101
 20
237.751716
 10
30.575943
 20
237.498892
 10
30.536392
 20
237.261438
 10
30.482359
 20
237.039354
 10
30.413842
 20
236.832641
 10
30.330842
 20
236.641298
 10
30.233359
 20
236.465326
 10
30.121393
 20
236.304724
 10
29.994943
 20
236.159493
 10
29.85401
 20
236.029632
 10
29.698594
 20
235.915142
 10
29.528695
 20
235.816022
 10
29.344313
 20
235.732273
 10
29.145447
 20
235.663894
 10
28.932098
 20
235.610886
 10
28.704266
 20
235.573248
 10
28.461951
 20
235.55098
 10
28.205152
 20
235.544083
 10
27.933871
 20
235.552557
  0
LINE
  5
49E
100
AcDbEntity
  8
1
100
AcDbLine
 10
11.766935
 20
235.38707
 30
0.0
 11
11.766935
 21
241.86196
 31
0.0
  0
LWPOLYLINE
  5
49F
100
AcDbEntity
  8
1
100
AcDbPolyline
 90
       21
 70
     0
 10
11.766935
 20
241.86196
 10
11.668104
 20
241.870436
 10
11.574553
 20
241.862902
 10
11.48628
 20
241.839357
 10
11.403286
 20
241.799801
 10
11.325571
 20
241.744235
 10
11.253135
 20
241.672658
 10
11.185977
 20
241.58507
 10
11.124098
 20
241.481472
 10
11.067498
 20
241.361863
 10
11.016177
 20
241.226243
 10
10.970134
 20
241.074613
 10
10.929371
 20
240.906972
 10
10.893885
 20
240.723321
 10
10.863679
 20
240.523659
 10
10.838752
 20
240.307986
 10
10.819103
 20
240.076303
 10
10.804733
 20
239.828609
 10
10.795642
 20
239.564904
 10
10.791829
 20
239.285189
 10
10.793296
 20
238.989463
  0
LINE
  5
4B6
100
AcDbEntity
  8
1
100
AcDbLine
 10
10.793296
 20
238.989463
 30
0.0
 11
10.793296
 21
238.259567
 31
0.0
  0
LWPOLYLINE
  5
4B7
100
AcDbEntity
  8
1
100
AcDbPolyline
 90
       21
 70
     0
 10
10.793296
 20
238.24387
 10
10.791829
 20
237.948144
 10
10.795642
 20
237.668429
 10
10.804733
 20
237.404724
 10
10.819103
 20
237.15703
 10
10.838752
 20
236.925347
 10
10.863679
 20
236.709674
 10
10.893885
 20
236.510012
 10
10.929371
 20
236.326361
 10
10.970134
 20
236.15872
 10
11.016177
 20
236.00709
 10
11.067498
 20
235.87147
 10
11.124098
 20
235.751861
 10
11.185977
 20
235.648263
 10
11.253135
 20
235.560676
 10
11.325571
 20
235.489099
 10
11.403286
 20
235.433532
 10
11.48628
 20
235.393977
 10
11.574553
 20
235.370432
 10
11.668104
 20
235.362897
 10
11.766935
 20
235.371373
  0
ENDBLK
  5
4CE
100
AcDbEntity
  8
0
100
AcDbBlockEnd
  0
BLOCK
  5
4D0
100
AcDbEntity
  8
0
100
AcDbBlockBegin
  2
NO_186328088
 70
    64
 10
49.911048
 20
246.40348
 30
0.0
  3
NO_186328088
  1

  0
POLYLINE
  5
4D1
100
AcDbEntity
  8
1
100
AcDb2dPolyline
 66
     1
 10
0.0
 20
0.0
 30
0.0
  0
VERTEX
  5
4D2
100
AcDbEntity
  8
1
100
AcDbVertex
100
AcDb2dVertex
 10
76.984243
 20
247.333825
 30
0.0
  0
VERTEX
  5
4D3
100
AcDbEntity
  8
1
100
AcDbVertex
100
AcDb2dVertex
 10
76.95864
 20
247.337954
 30
0.0
  0
VERTEX
  5
4D4
100
AcDbEntity
  8
1
100
AcDbVertex
100
AcDb2dVertex
 10
76.928613
 20
247.343024
 30
0.0
  0
VERTEX
  5
4D5
100
AcDbEntity
  8
1
100
AcDbVertex
100
AcDb2dVertex
 10
76.89416
 20
247.349035
 30
0.0
  0
VERTEX
  5
4D6
100
AcDbEntity
  8
1
100
AcDbVertex
100
AcDb2dVertex
 10
76.855283
 20
247.355986
 30
0.0
  0
VERTEX
  5
4D7
100
AcDbEntity
  8
1
100
AcDbVertex
100
AcDb2dVertex
 10
76.81198
 20
247.363879
 30
0.0
  0
VERTEX
  5
4D8
100
AcDbEntity
  8
1
100
AcDbVertex
100
AcDb2dVertex
 10
76.764252
 20
247.372712
 30
0.0
  0
VERTEX
  5
4D9
100
AcDbEntity
  8
1
100
AcDbVertex
100
AcDb2dVertex
 10
76.712099
 20
247.382486
 30
0.0
  0
VERTEX
  5
4DA
100
AcDbEntity
  8
1
100
AcDbVertex
100
AcDb2dVertex
 10
76.655521
 20
247.3932
 30
0.0
  0
VERTEX
  5
4DB
100
AcDbEntity
  8
1
100
AcDbVertex
100
AcDb2dVertex
 10
76.594518
 20
247.404856
 30
0.0
  0
VERTEX
  5
4DC
100
AcDbEntity
  8
1
100
AcDbVertex
100
AcDb2dVertex
 10
76.52909
 20
247.417452
 30
0.0
  0
VERTEX
  5
4DD
100
AcDbEntity
  8
1
100
AcDbVertex
100
AcDb2dVertex
 10
76.52909
 20
247.417452
 30
0.0
  0
VERTEX
  5
4DE
100
AcDbEntity
  8
1
100
AcDbVertex
100
AcDb2dVertex
 10
76.457245
 20
247.431459
 30
0.0
  0
VERTEX
  5
4DF
100
AcDbEntity
  8
1
100
AcDbVertex
100
AcDb2dVertex
 10
76.377877
 20
247.447139
 30
0.0
  0
VERTEX
  5
4E0
100
AcDbEntity
  8
1
100
AcDbVertex
100
AcDb2dVertex
 10
76.292315
 20
247.464178
 30
0.0
  0
VERTEX
  5
4E1
100
AcDbEntity
  8
1
100
AcDbVertex
100
AcDb2dVertex
 10
76.201885
 20
247.482262
 30
0.0
  0
VERTEX
  5
4E2
100
AcDbEntity
  8
1
100
AcDbVertex
100
AcDb2dVertex
 10
76.107915
 20
247.501078
 30
0.0
  0
VERTEX
  5
4E3
100
AcDbEntity
  8
1
100
AcDbVertex
100
AcDb2dVertex
 10
76.011732
 20
247.520313
 30
0.0
  0
VERTEX
  5
4E4
100
AcDbEntity
  8
1
100
AcDbVertex
100
AcDb2dVertex
 10
75.914664
 20
247.539651
 30
0.0
  0
VERTEX
  5
4E5
100
AcDbEntity
  8
1
100
AcDbVertex
100
AcDb2dVertex
 10
75.818039
 20
247.558781
 30
0.0
  0
VERTEX
  5
4E6
100
AcDbEntity
  8
1
100
AcDbVertex
100
AcDb2dVertex
 10
75.723184
 20
247.577388
 30
0.0
  0
VERTEX
  5
4E7
100
AcDbEntity
  8
1
100
AcDbVertex
100
AcDb2dVertex
 10
75.631426
 20
247.595158
 30
0.0
  0
VERTEX
  5
4E8
100
AcDbEntity
  8
1
100
AcDbVertex
100
AcDb2dVertex
 10
75.541679
 20
247.612307
 30
0.0
  0
VERTEX
  5
4E9
100
AcDbEntity
  8
1
100
AcDbVertex
100
AcDb2dVertex
 10
75.451961
 20
247.629278
 30
0.0
  0
VERTEX
  5
4EA
100
AcDbEntity
  8
1
100
AcDbVertex
100
AcDb2dVertex
 10
75.36226
 20
247.646103
 30
0.0
  0
VERTEX
  5
4EB
100
AcDbEntity
  8
1
100
AcDbVertex
100
AcDb2dVertex
 10
75.272563
 20
247.662812
 30
0.0
  0
VERTEX
  5
4EC
100
AcDbEntity
  8
1
100
AcDbVertex
100
AcDb2dVertex
 10
75.182858
 20
247.679438
 30
0.0
  0
VERTEX
  5
4ED
100
AcDbEntity
  8
1
100
AcDbVertex
100
AcDb2dVertex
 10
75.093131
 20
247.696012
 30
0.0
  0
VERTEX
  5
4EE
100
AcDbEntity
  8
1
100
AcDbVertex
100
AcDb2dVertex
 10
75.003371
 20
247.712565
 30
0.0
  0
VERTEX
  5
4EF
100
AcDbEntity
  8
1
100
AcDbVertex
100
AcDb2dVertex
 10
74.913565
 20
247.729128
 30
0.0
  0
VERTEX
  5
4F0
100
AcDbEntity
  8
1
100
AcDbVertex
100
AcDb2dVertex
 10
74.823699
 20
247.745733
 30
0.0
  0
VERTEX
  5
4F1
100
AcDbEntity
  8
1
100
AcDbVertex
100
AcDb2dVertex
 10
74.733762
 20
247.762412
 30
0.0
  0
VERTEX
  5
4F2
100
AcDbEntity
  8
1
100
AcDbVertex
100
AcDb2dVertex
 10
74.643745
 20
247.77916
 30
0.0
  0
VERTEX
  5
4F3
100
AcDbEntity
  8
1
100
AcDbVertex
100
AcDb2dVertex
 10
74.553657
 20
247.795946
 30
0.0
  0
VERTEX
  5
4F4
100
AcDbEntity
  8
1
100
AcDbVertex
100
AcDb2dVertex
 10
74.463509
 20
247.812752
 30
0.0
  0
VERTEX
  5
4F5
100
AcDbEntity
  8
1
100
AcDbVertex
100
AcDb2dVertex
 10
74.373315
 20
247.829564
 30
0.0
  0
VERTEX
  5
4F6
100
AcDbEntity
  8
1
100
AcDbVertex
100
AcDb2dVertex
 10
74.283087
 20
247.846365
 30
0.0
  0
VERTEX
  5
4F7
100
AcDbEntity
  8
1
100
AcDbVertex
100
AcDb2dVertex
 10
74.192838
 20
247.86314
 30
0.0
  0
VERTEX
  5
4F8
100
AcDbEntity
  8
1
100
AcDbVertex
100
AcDb2dVertex
 10
74.102581
 20
247.879873
 30
0.0
  0
VERTEX
  5
4F9
100
AcDbEntity
  8
1
100
AcDbVertex
100
AcDb2dVertex
 10
74.012328
 20
247.896549
 30
0.0
  0
VERTEX
  5
4FA
100
AcDbEntity
  8
1
100
AcDbVertex
100
AcDb2dVertex
 10
73.922091
 20
247.913151
 30
0.0
  0
VERTEX
  5
4FB
100
AcDbEntity
  8
1
100
AcDbVertex
100
AcDb2dVertex
 10
73.831885
 20
247.929665
 30
0.0
  0
VERTEX
  5
4FC
100
AcDbEntity
  8
1
100
AcDbVertex
100
AcDb2dVertex
 10
73.741697
 20
247.946244
 30
0.0
  0
VERTEX
  5
4FD
100
AcDbEntity
  8
1
100
AcDbVertex
100
AcDb2dVertex
 10
73.651509
 20
247.96299
 30
0.0
  0
VERTEX
  5
4FE
100
AcDbEntity
  8
1
100
AcDbVertex
100
AcDb2dVertex
 10
73.561321
 20
247.979809
 30
0.0
  0
VERTEX
  5
4FF
100
AcDbEntity
  8
1
100
AcDbVertex
100
AcDb2dVertex
 10
73.471133
 20
247.996608
 30
0.0
  0
VERTEX
  5
500
100
AcDbEntity
  8
1
100
AcDbVertex
100
AcDb2dVertex
 10
73.380946
 20
248.013291
 30
0.0
  0
VERTEX
  5
501
100
AcDbEntity
  8
1
100
AcDbVertex
100
AcDb2dVertex
 10
73.290758
 20
248.029766
 30
0.0
  0
VERTEX
  5
502
100
AcDbEntity
  8
1
100
AcDbVertex
100
AcDb2dVertex
 10
73.20057
 20
248.045937
 30
0.0
  0
VERTEX
  5
503
100
AcDbEntity
  8
1
100
AcDbVertex
100
AcDb2dVertex
 10
73.110382
 20
248.061711
 30
0.0
  0
VERTEX
  5
504
100
AcDbEntity
  8
1
100
AcDbVertex
100
AcDb2dVertex
 10
73.020194
 20
248.076994
 30
0.0
  0
VERTEX
  5
505
100
AcDbEntity
  8
1
100
AcDbVertex
100
AcDb2dVertex
 10
72.930007
 20
248.091691
 30
0.0
  0
VERTEX
  5
506
100
AcDbEntity
  8
1
100
AcDbVertex
100
AcDb2dVertex
 10
72.839781
 20
248.105976
 30
0.0
  0
VERTEX
  5
507
100
AcDbEntity
  8
1
100
AcDbVertex
100
AcDb2dVertex
 10
72.749496
 20
248.120041
 30
0.0
  0
VERTEX
  5
508
100
AcDbEntity
  8
1
100
AcDbVertex
100
AcDb2dVertex
 10
72.659178
 20
248.133823
 30
0.0
  0
VERTEX
  5
509
100
AcDbEntity
  8
1
100
AcDbVertex
100
AcDb2dVertex
 10
72.568851
 20
248.147261
 30
0.0
  0
VERTEX
  5
50A
100
AcDbEntity
  8
1
100
AcDbVertex
100
AcDb2dVertex
 10
72.478541
 20
248.160291
 30
0.0
  0
VERTEX
  5
50B
100
AcDbEntity
  8
1
100
AcDbVertex
100
AcDb2dVertex
 10
72.388273
 20
248.172851
 30
0.0
  0
VERTEX
  5
50C
100
AcDbEntity
  8
1
100
AcDbVertex
100
AcDb2dVertex
 10
72.298073
 20
248.184877
 30
0.0
  0
VERTEX
  5
50D
100
AcDbEntity
  8
1
100
AcDbVertex
100
AcDb2dVertex
 10
72.207965
 20
248.196308
 30
0.0
  0
VERTEX
  5
50E
100
AcDbEntity
  8
1
100
AcDbVertex
100
AcDb2dVertex
 10
72.117975
 20
248.20708
 30
0.0
  0
VERTEX
  5
50F
100
AcDbEntity
  8
1
100
AcDbVertex
100
AcDb2dVertex
 10
72.028129
 20
248.217131
 30
0.0
  0
VERTEX
  5
510
100
AcDbEntity
  8
1
100
AcDbVertex
100
AcDb2dVertex
 10
71.93647
 20
248.22656
 30
0.0
  0
VERTEX
  5
511
100
AcDbEntity
  8
1
100
AcDbVertex
100
AcDb2dVertex
 10
71.841887
 20
248.235487
 30
0.0
  0
VERTEX
  5
512
100
AcDbEntity
  8
1
100
AcDbVertex
100
AcDb2dVertex
 10
71.745668
 20
248.243881
 30
0.0
  0
VERTEX
  5
513
100
AcDbEntity
  8
1
100
AcDbVertex
100
AcDb2dVertex
 10
71.649104
 20
248.251711
 30
0.0
  0
VERTEX
  5
514
100
AcDbEntity
  8
1
100
AcDbVertex
100
AcDb2dVertex
 10
71.553484
 20
248.258944
 30
0.0
  0
VERTEX
  5
515
100
AcDbEntity
  8
1
100
AcDbVertex
100
AcDb2dVertex
 10
71.460097
 20
248.265551
 30
0.0
  0
VERTEX
  5
516
100
AcDbEntity
  8
1
100
AcDbVertex
100
AcDb2dVertex
 10
71.370234
 20
248.271499
 30
0.0
  0
VERTEX
  5
517
100
AcDbEntity
  8
1
100
AcDbVertex
100
AcDb2dVertex
 10
71.285184
 20
248.276757
 30
0.0
  0
VERTEX
  5
518
100
AcDbEntity
  8
1
100
AcDbVertex
100
AcDb2dVertex
 10
71.206236
 20
248.281294
 30
0.0
  0
VERTEX
  5
519
100
AcDbEntity
  8
1
100
AcDbVertex
100
AcDb2dVertex
 10
71.13468
 20
248.285078
 30
0.0
  0
VERTEX
  5
51A
100
AcDbEntity
  8
1
100
AcDbVertex
100
AcDb2dVertex
 10
71.073424
 20
248.288018
 30
0.0
  0
VERTEX
  5
51B
100
AcDbEntity
  8
1
100
AcDbVertex
100
AcDb2dVertex
 10
71.022746
 20
248.290095
 30
0.0
  0
VERTEX
  5
51C
100
AcDbEntity
  8
1
100
AcDbVertex
100
AcDb2dVertex
 10
70.979991
 20
248.291389
 30
0.0
  0
VERTEX
  5
51D
100
AcDbEntity
  8
1
100
AcDbVertex
100
AcDb2dVertex
 10
70.942504
 20
248.291977
 30
0.0
  0
VERTEX
  5
51E
100
AcDbEntity
  8
1
100
AcDbVertex
100
AcDb2dVertex
 10
70.90763
 20
248.291938
 30
0.0
  0
VERTEX
  5
51F
100
AcDbEntity
  8
1
100
AcDbVertex
100
AcDb2dVertex
 10
70.872714
 20
248.29135
 30
0.0
  0
VERTEX
  5
520
100
AcDbEntity
  8
1
100
AcDbVertex
100
AcDb2dVertex
 10
70.8351
 20
248.290291
 30
0.0
  0
VERTEX
  5
521
100
AcDbEntity
  8
1
100
AcDbVertex
100
AcDb2dVertex
 10
70.792135
 20
248.288841
 30
0.0
  0
VERTEX
  5
522
100
AcDbEntity
  8
1
100
AcDbVertex
100
AcDb2dVertex
 10
70.741162
 20
248.287077
 30
0.0
  0
VERTEX
  5
523
100
AcDbEntity
  8
1
100
AcDbVertex
100
AcDb2dVertex
 10
70.679526
 20
248.285078
 30
0.0
  0
VERTEX
  5
524
100
AcDbEntity
  8
1
100
AcDbVertex
100
AcDb2dVertex
 10
70.60745
 20
248.283154
 30
0.0
  0
VERTEX
  5
525
100
AcDbEntity
  8
1
100
AcDbVertex
100
AcDb2dVertex
 10
70.527808
 20
248.281398
 30
0.0
  0
VERTEX
  5
526
100
AcDbEntity
  8
1
100
AcDbVertex
100
AcDb2dVertex
 10
70.44193
 20
248.279558
 30
0.0
  0
VERTEX
  5
527
100
AcDbEntity
  8
1
100
AcDbVertex
100
AcDb2dVertex
 10
70.351142
 20
248.277384
 30
0.0
  0
VERTEX
  5
528
100
AcDbEntity
  8
1
100
AcDbVertex
100
AcDb2dVertex
 10
70.256771
 20
248.274624
 30
0.0
  0
VERTEX
  5
529
100
AcDbEntity
  8
1
100
AcDbVertex
100
AcDb2dVertex
 10
70.160146
 20
248.271028
 30
0.0
  0
VERTEX
  5
52A
100
AcDbEntity
  8
1
100
AcDbVertex
100
AcDb2dVertex
 10
70.062593
 20
248.266345
 30
0.0
  0
VERTEX
  5
52B
100
AcDbEntity
  8
1
100
AcDbVertex
100
AcDb2dVertex
 10
69.965441
 20
248.260324
 30
0.0
  0
VERTEX
  5
52C
100
AcDbEntity
  8
1
100
AcDbVertex
100
AcDb2dVertex
 10
69.870017
 20
248.252714
 30
0.0
  0
VERTEX
  5
52D
100
AcDbEntity
  8
1
100
AcDbVertex
100
AcDb2dVertex
 10
69.777648
 20
248.243264
 30
0.0
  0
VERTEX
  5
52E
100
AcDbEntity
  8
1
100
AcDbVertex
100
AcDb2dVertex
 10
69.684763
 20
248.231431
 30
0.0
  0
VERTEX
  5
52F
100
AcDbEntity
  8
1
100
AcDbVertex
100
AcDb2dVertex
 10
69.588001
 20
248.217173
 30
0.0
  0
VERTEX
  5
530
100
AcDbEntity
  8
1
100
AcDbVertex
100
AcDb2dVertex
 10
69.489005
 20
248.200991
 30
0.0
  0
VERTEX
  5
531
100
AcDbEntity
  8
1
100
AcDbVertex
100
AcDb2dVertex
 10
69.389419
 20
248.183388
 30
0.0
  0
VERTEX
  5
532
100
AcDbEntity
  8
1
100
AcDbVertex
100
AcDb2dVertex
 10
69.290887
 20
248.164864
 30
0.0
  0
VERTEX
  5
533
100
AcDbEntity
  8
1
100
AcDbVertex
100
AcDb2dVertex
 10
69.195052
 20
248.145923
 30
0.0
  0
VERTEX
  5
534
100
AcDbEntity
  8
1
100
AcDbVertex
100
AcDb2dVertex
 10
69.103558
 20
248.127065
 30
0.0
  0
VERTEX
  5
535
100
AcDbEntity
  8
1
100
AcDbVertex
100
AcDb2dVertex
 10
69.018048
 20
248.108793
 30
0.0
  0
VERTEX
  5
536
100
AcDbEntity
  8
1
100
AcDbVertex
100
AcDb2dVertex
 10
68.940166
 20
248.091608
 30
0.0
  0
VERTEX
  5
537
100
AcDbEntity
  8
1
100
AcDbVertex
100
AcDb2dVertex
 10
68.871556
 20
248.076011
 30
0.0
  0
VERTEX
  5
538
100
AcDbEntity
  8
1
100
AcDbVertex
100
AcDb2dVertex
 10
68.813313
 20
248.06208
 30
0.0
  0
VERTEX
  5
539
100
AcDbEntity
  8
1
100
AcDbVertex
100
AcDb2dVertex
 10
68.764342
 20
248.049334
 30
0.0
  0
VERTEX
  5
53A
100
AcDbEntity
  8
1
100
AcDbVertex
100
AcDb2dVertex
 10
68.722999
 20
248.037446
 30
0.0
  0
VERTEX
  5
53B
100
AcDbEntity
  8
1
100
AcDbVertex
100
AcDb2dVertex
 10
68.68764
 20
248.026086
 30
0.0
  0
VERTEX
  5
53C
100
AcDbEntity
  8
1
100
AcDbVertex
100
AcDb2dVertex
 10
68.656622
 20
248.014925
 30
0.0
  0
VERTEX
  5
53D
100
AcDbEntity
  8
1
100
AcDbVertex
100
AcDb2dVertex
 10
68.628302
 20
248.003632
 30
0.0
  0
VERTEX
  5
53E
100
AcDbEntity
  8
1
100
AcDbVertex
100
AcDb2dVertex
 10
68.601035
 20
247.99188
 30
0.0
  0
VERTEX
  5
53F
100
AcDbEntity
  8
1
100
AcDbVertex
100
AcDb2dVertex
 10
68.573178
 20
247.979339
 30
0.0
  0
VERTEX
  5
540
100
AcDbEntity
  8
1
100
AcDbVertex
100
AcDb2dVertex
 10
68.543087
 20
247.965679
 30
0.0
  0
VERTEX
  5
541
100
AcDbEntity
  8
1
100
AcDbVertex
100
AcDb2dVertex
 10
68.509119
 20
247.950571
 30
0.0
  0
VERTEX
  5
542
100
AcDbEntity
  8
1
100
AcDbVertex
100
AcDb2dVertex
 10
68.47179
 20
247.934149
 30
0.0
  0
VERTEX
  5
543
100
AcDbEntity
  8
1
100
AcDbVertex
100
AcDb2dVertex
 10
68.433092
 20
247.916828
 30
0.0
  0
VERTEX
  5
544
100
AcDbEntity
  8
1
100
AcDbVertex
100
AcDb2dVertex
 10
68.393592
 20
247.898702
 30
0.0
  0
VERTEX
  5
545
100
AcDbEntity
  8
1
100
AcDbVertex
100
AcDb2dVertex
 10
68.353861
 20
247.879865
 30
0.0
  0
VERTEX
  5
546
100
AcDbEntity
  8
1
100
AcDbVertex
100
AcDb2dVertex
 10
68.314467
 20
247.860411
 30
0.0
  0
VERTEX
  5
547
100
AcDbEntity
  8
1
100
AcDbVertex
100
AcDb2dVertex
 10
68.275979
 20
247.840435
 30
0.0
  0
VERTEX
  5
548
100
AcDbEntity
  8
1
100
AcDbVertex
100
AcDb2dVertex
 10
68.238967
 20
247.82003
 30
0.0
  0
VERTEX
  5
549
100
AcDbEntity
  8
1
100
AcDbVertex
100
AcDb2dVertex
 10
68.203998
 20
247.799291
 30
0.0
  0
VERTEX
  5
54A
100
AcDbEntity
  8
1
100
AcDbVertex
100
AcDb2dVertex
 10
68.171642
 20
247.778311
 30
0.0
  0
VERTEX
  5
54B
100
AcDbEntity
  8
1
100
AcDbVertex
100
AcDb2dVertex
 10
68.142468
 20
247.757185
 30
0.0
  0
VERTEX
  5
54C
100
AcDbEntity
  8
1
100
AcDbVertex
100
AcDb2dVertex
 10
68.116001
 20
247.735834
 30
0.0
  0
VERTEX
  5
54D
100
AcDbEntity
  8
1
100
AcDbVertex
100
AcDb2dVertex
 10
68.091389
 20
247.714117
 30
0.0
  0
VERTEX
  5
54E
100
AcDbEntity
  8
1
100
AcDbVertex
100
AcDb2dVertex
 10
68.068632
 20
247.692035
 30
0.0
  0
VERTEX
  5
54F
100
AcDbEntity
  8
1
100
AcDbVertex
100
AcDb2dVertex
 10
68.047728
 20
247.669586
 30
0.0
  0
VERTEX
  5
550
100
AcDbEntity
  8
1
100
AcDbVertex
100
AcDb2dVertex
 10
68.028679
 20
247.646772
 30
0.0
  0
VERTEX
  5
551
100
AcDbEntity
  8
1
100
AcDbVertex
100
AcDb2dVertex
 10
68.011485
 20
247.623591
 30
0.0
  0
VERTEX
  5
552
100
AcDbEntity
  8
1
100
AcDbVertex
100
AcDb2dVertex
 10
67.996144
 20
247.600045
 30
0.0
  0
VERTEX
  5
553
100
AcDbEntity
  8
1
100
AcDbVertex
100
AcDb2dVertex
 10
67.982658
 20
247.576133
 30
0.0
  0
VERTEX
  5
554
100
AcDbEntity
  8
1
100
AcDbVertex
100
AcDb2dVertex
 10
67.971027
 20
247.551855
 30
0.0
  0
VERTEX
  5
555
100
AcDbEntity
  8
1
100
AcDbVertex
100
AcDb2dVertex
 10
67.961249
 20
247.527212
 30
0.0
  0
SEQEND
  5
556
100
AcDbEntity
  8
1
  0
POLYLINE
  5
557
100
AcDbEntity
  8
1
100
AcDb2dPolyline
 66
     1
 10
0.0
 20
0.0
 30
0.0
  0
VERTEX
  5
558
100
AcDbEntity
  8
1
100
AcDbVertex
100
AcDb2dVertex
 10
67.961249
 20
247.521985
 30
0.0
  0
VERTEX
  5
559
100
AcDbEntity
  8
1
100
AcDbVertex
100
AcDb2dVertex
 10
67.962935
 20
247.511114
 30
0.0
  0
VERTEX
  5
55A
100
AcDbEntity
  8
1
100
AcDbVertex
100
AcDb2dVertex
 10
67.966307
 20
247.500451
 30
0.0
  0
VERTEX
  5
55B
100
AcDbEntity
  8
1
100
AcDbVertex
100
AcDb2dVertex
 10
67.971364
 20
247.489998
 30
0.0
  0
VERTEX
  5
55C
100
AcDbEntity
  8
1
100
AcDbVertex
100
AcDb2dVertex
 10
67.978107
 20
247.479754
 30
0.0
  0
VERTEX
  5
55D
100
AcDbEntity
  8
1
100
AcDbVertex
100
AcDb2dVertex
 10
67.986536
 20
247.469719
 30
0.0
  0
VERTEX
  5
55E
100
AcDbEntity
  8
1
100
AcDbVertex
100
AcDb2dVertex
 10
67.99665
 20
247.459892
 30
0.0
  0
VERTEX
  5
55F
100
AcDbEntity
  8
1
100
AcDbVertex
100
AcDb2dVertex
 10
68.00845
 20
247.450275
 30
0.0
  0
VERTEX
  5
560
100
AcDbEntity
  8
1
100
AcDbVertex
100
AcDb2dVertex
 10
68.021936
 20
247.440867
 30
0.0
  0
VERTEX
  5
561
100
AcDbEntity
  8
1
100
AcDbVertex
100
AcDb2dVertex
 10
68.037108
 20
247.431668
 30
0.0
  0
VERTEX
  5
562
100
AcDbEntity
  8
1
100
AcDbVertex
100
AcDb2dVertex
 10
68.053966
 20
247.422679
 30
0.0
  0
VERTEX
  5
563
100
AcDbEntity
  8
1
100
AcDbVertex
100
AcDb2dVertex
 10
68.053966
 20
247.422679
 30
0.0
  0
VERTEX
  5
564
100
AcDbEntity
  8
1
100
AcDbVertex
100
AcDb2dVertex
 10
68.072794
 20
247.413921
 30
0.0
  0
VERTEX
  5
565
100
AcDbEntity
  8
1
100
AcDbVertex
100
AcDb2dVertex
 10
68.09375
 20
247.40541
 30
0.0
  0
VERTEX
  5
566
100
AcDbEntity
  8
1
100
AcDbVertex
100
AcDb2dVertex
 10
68.116644
 20
247.397128
 30
0.0
  0
VERTEX
  5
567
100
AcDbEntity
  8
1
100
AcDbVertex
100
AcDb2dVertex
 10
68.141288
 20
247.389061
 30
0.0
  0
VERTEX
  5
568
100
AcDbEntity
  8
1
100
AcDbVertex
100
AcDb2dVertex
 10
68.167491
 20
247.381192
 30
0.0
  0
VERTEX
  5
569
100
AcDbEntity
  8
1
100
AcDbVertex
100
AcDb2dVertex
 10
68.195063
 20
247.373506
 30
0.0
  0
VERTEX
  5
56A
100
AcDbEntity
  8
1
100
AcDbVertex
100
AcDb2dVertex
 10
68.223816
 20
247.365988
 30
0.0
  0
VERTEX
  5
56B
100
AcDbEntity
  8
1
100
AcDbVertex
100
AcDb2dVertex
 10
68.253559
 20
247.358621
 30
0.0
  0
VERTEX
  5
56C
100
AcDbEntity
  8
1
100
AcDbVertex
100
AcDb2dVertex
 10
68.284103
 20
247.35139
 30
0.0
  0
VERTEX
  5
56D
100
AcDbEntity
  8
1
100
AcDbVertex
100
AcDb2dVertex
 10
68.315257
 20
247.344279
 30
0.0
  0
VERTEX
  5
56E
100
AcDbEntity
  8
1
100
AcDbVertex
100
AcDb2dVertex
 10
68.34648
 20
247.337207
 30
0.0
  0
VERTEX
  5
56F
100
AcDbEntity
  8
1
100
AcDbVertex
100
AcDb2dVertex
 10
68.377664
 20
247.330146
 30
0.0
  0
VERTEX
  5
570
100
AcDbEntity
  8
1
100
AcDbVertex
100
AcDb2dVertex
 10
68.409278
 20
247.323158
 30
0.0
  0
VERTEX
  5
571
100
AcDbEntity
  8
1
100
AcDbVertex
100
AcDb2dVertex
 10
68.44179
 20
247.316306
 30
0.0
  0
VERTEX
  5
572
100
AcDbEntity
  8
1
100
AcDbVertex
100
AcDb2dVertex
 10
68.475667
 20
247.309652
 30
0.0
  0
VERTEX
  5
573
100
AcDbEntity
  8
1
100
AcDbVertex
100
AcDb2dVertex
 10
68.511378
 20
247.30326
 30
0.0
  0
VERTEX
  5
574
100
AcDbEntity
  8
1
100
AcDbVertex
100
AcDb2dVertex
 10
68.54939
 20
247.297192
 30
0.0
  0
VERTEX
  5
575
100
AcDbEntity
  8
1
100
AcDbVertex
100
AcDb2dVertex
 10
68.59017
 20
247.29151
 30
0.0
  0
VERTEX
  5
576
100
AcDbEntity
  8
1
100
AcDbVertex
100
AcDb2dVertex
 10
68.634187
 20
247.286278
 30
0.0
  0
VERTEX
  5
577
100
AcDbEntity
  8
1
100
AcDbVertex
100
AcDb2dVertex
 10
68.681909
 20
247.281559
 30
0.0
  0
VERTEX
  5
578
100
AcDbEntity
  8
1
100
AcDbVertex
100
AcDb2dVertex
 10
68.732888
 20
247.27744
 30
0.0
  0
VERTEX
  5
579
100
AcDbEntity
  8
1
100
AcDbVertex
100
AcDb2dVertex
 10
68.786392
 20
247.273907
 30
0.0
  0
VERTEX
  5
57A
100
AcDbEntity
  8
1
100
AcDbVertex
100
AcDb2dVertex
 10
68.842458
 20
247.270865
 30
0.0
  0
VERTEX
  5
57B
100
AcDbEntity
  8
1
100
AcDbVertex
100
AcDb2dVertex
 10
68.901124
 20
247.26822
 30
0.0
  0
VERTEX
  5
57C
100
AcDbEntity
  8
1
100
AcDbVertex
100
AcDb2dVertex
 10
68.962429
 20
247.265879
 30
0.0
  0
VERTEX
  5
57D
100
AcDbEntity
  8
1
100
AcDbVertex
100
AcDb2dVertex
 10
69.026409
 20
247.263746
 30
0.0
  0
VERTEX
  5
57E
100
AcDbEntity
  8
1
100
AcDbVertex
100
AcDb2dVertex
 10
69.093104
 20
247.261729
 30
0.0
  0
VERTEX
  5
57F
100
AcDbEntity
  8
1
100
AcDbVertex
100
AcDb2dVertex
 10
69.162551
 20
247.259732
 30
0.0
  0
VERTEX
  5
580
100
AcDbEntity
  8
1
100
AcDbVertex
100
AcDb2dVertex
 10
69.234787
 20
247.257662
 30
0.0
  0
VERTEX
  5
581
100
AcDbEntity
  8
1
100
AcDbVertex
100
AcDb2dVertex
 10
69.309852
 20
247.255425
 30
0.0
  0
VERTEX
  5
582
100
AcDbEntity
  8
1
100
AcDbVertex
100
AcDb2dVertex
 10
69.388945
 20
247.253053
 30
0.0
  0
VERTEX
  5
583
100
AcDbEntity
  8
1
100
AcDbVertex
100
AcDb2dVertex
 10
69.472696
 20
247.250659
 30
0.0
  0
VERTEX
  5
584
100
AcDbEntity
  8
1
100
AcDbVertex
100
AcDb2dVertex
 10
69.560281
 20
247.248275
 30
0.0
  0
VERTEX
  5
585
100
AcDbEntity
  8
1
100
AcDbVertex
100
AcDb2dVertex
 10
69.65088
 20
247.245934
 30
0.0
  0
VERTEX
  5
586
100
AcDbEntity
  8
1
100
AcDbVertex
100
AcDb2dVertex
 10
69.74367
 20
247.243665
 30
0.0
  0
VERTEX
  5
587
100
AcDbEntity
  8
1
100
AcDbVertex
100
AcDb2dVertex
 10
69.83783
 20
247.241502
 30
0.0
  0
VERTEX
  5
588
100
AcDbEntity
  8
1
100
AcDbVertex
100
AcDb2dVertex
 10
69.932537
 20
247.239474
 30
0.0
  0
VERTEX
  5
589
100
AcDbEntity
  8
1
100
AcDbVertex
100
AcDb2dVertex
 10
70.026971
 20
247.237613
 30
0.0
  0
VERTEX
  5
58A
100
AcDbEntity
  8
1
100
AcDbVertex
100
AcDb2dVertex
 10
70.120309
 20
247.235951
 30
0.0
  0
VERTEX
  5
58B
100
AcDbEntity
  8
1
100
AcDbVertex
100
AcDb2dVertex
 10
70.21173
 20
247.234519
 30
0.0
  0
VERTEX
  5
58C
100
AcDbEntity
  8
1
100
AcDbVertex
100
AcDb2dVertex
 10
70.301918
 20
247.233267
 30
0.0
  0
VERTEX
  5
58D
100
AcDbEntity
  8
1
100
AcDbVertex
100
AcDb2dVertex
 10
70.392105
 20
247.232135
 30
0.0
  0
VERTEX
  5
58E
100
AcDbEntity
  8
1
100
AcDbVertex
100
AcDb2dVertex
 10
70.482293
 20
247.23114
 30
0.0
  0
VERTEX
  5
58F
100
AcDbEntity
  8
1
100
AcDbVertex
100
AcDb2dVertex
 10
70.572481
 20
247.230296
 30
0.0
  0
VERTEX
  5
590
100
AcDbEntity
  8
1
100
AcDbVertex
100
AcDb2dVertex
 10
70.662669
 20
247.229619
 30
0.0
  0
VERTEX
  5
591
100
AcDbEntity
  8
1
100
AcDbVertex
100
AcDb2dVertex
 10
70.752856
 20
247.229125
 30
0.0
  0
VERTEX
  5
592
100
AcDbEntity
  8
1
100
AcDbVertex
100
AcDb2dVertex
 10
70.843044
 20
247.22883
 30
0.0
  0
VERTEX
  5
593
100
AcDbEntity
  8
1
100
AcDbVertex
100
AcDb2dVertex
 10
70.933232
 20
247.228749
 30
0.0
  0
VERTEX
  5
594
100
AcDbEntity
  8
1
100
AcDbVertex
100
AcDb2dVertex
 10
71.02342
 20
247.228897
 30
0.0
  0
VERTEX
  5
595
100
AcDbEntity
  8
1
100
AcDbVertex
100
AcDb2dVertex
 10
71.113608
 20
247.229292
 30
0.0
  0
VERTEX
  5
596
100
AcDbEntity
  8
1
100
AcDbVertex
100
AcDb2dVertex
 10
71.203795
 20
247.230013
 30
0.0
  0
VERTEX
  5
597
100
AcDbEntity
  8
1
100
AcDbVertex
100
AcDb2dVertex
 10
71.293983
 20
247.23109
 30
0.0
  0
VERTEX
  5
598
100
AcDbEntity
  8
1
100
AcDbVertex
100
AcDb2dVertex
 10
71.384171
 20
247.232459
 30
0.0
  0
VERTEX
  5
599
100
AcDbEntity
  8
1
100
AcDbVertex
100
AcDb2dVertex
 10
71.474359
 20
247.234059
 30
0.0
  0
VERTEX
  5
59A
100
AcDbEntity
  8
1
100
AcDbVertex
100
AcDb2dVertex
 10
71.564547
 20
247.235825
 30
0.0
  0
VERTEX
  5
59B
100
AcDbEntity
  8
1
100
AcDbVertex
100
AcDb2dVertex
 10
71.654734
 20
247.237697
 30
0.0
  0
VERTEX
  5
59C
100
AcDbEntity
  8
1
100
AcDbVertex
100
AcDb2dVertex
 10
71.744922
 20
247.23961
 30
0.0
  0
VERTEX
  5
59D
100
AcDbEntity
  8
1
100
AcDbVertex
100
AcDb2dVertex
 10
71.83511
 20
247.241502
 30
0.0
  0
VERTEX
  5
59E
100
AcDbEntity
  8
1
100
AcDbVertex
100
AcDb2dVertex
 10
71.925298
 20
247.24331
 30
0.0
  0
VERTEX
  5
59F
100
AcDbEntity
  8
1
100
AcDbVertex
100
AcDb2dVertex
 10
72.015486
 20
247.244972
 30
0.0
  0
VERTEX
  5
5A0
100
AcDbEntity
  8
1
100
AcDbVertex
100
AcDb2dVertex
 10
72.105673
 20
247.246564
 30
0.0
  0
VERTEX
  5
5A1
100
AcDbEntity
  8
1
100
AcDbVertex
100
AcDb2dVertex
 10
72.195861
 20
247.248192
 30
0.0
  0
VERTEX
  5
5A2
100
AcDbEntity
  8
1
100
AcDbVertex
100
AcDb2dVertex
 10
72.286049
 20
247.249841
 30
0.0
  0
VERTEX
  5
5A3
100
AcDbEntity
  8
1
100
AcDbVertex
100
AcDb2dVertex
 10
72.376237
 20
247.251495
 30
0.0
  0
VERTEX
  5
5A4
100
AcDbEntity
  8
1
100
AcDbVertex
100
AcDb2dVertex
 10
72.466425
 20
247.253139
 30
0.0
  0
VERTEX
  5
5A5
100
AcDbEntity
  8
1
100
AcDbVertex
100
AcDb2dVertex
 10
72.556612
 20
247.254756
 30
0.0
  0
VERTEX
  5
5A6
100
AcDbEntity
  8
1
100
AcDbVertex
100
AcDb2dVertex
 10
72.6468
 20
247.256332
 30
0.0
  0
VERTEX
  5
5A7
100
AcDbEntity
  8
1
100
AcDbVertex
100
AcDb2dVertex
 10
72.736988
 20
247.257851
 30
0.0
  0
VERTEX
  5
5A8
100
AcDbEntity
  8
1
100
AcDbVertex
100
AcDb2dVertex
 10
72.827176
 20
247.259296
 30
0.0
  0
VERTEX
  5
5A9
100
AcDbEntity
  8
1
100
AcDbVertex
100
AcDb2dVertex
 10
72.917363
 20
247.260652
 30
0.0
  0
VERTEX
  5
5AA
100
AcDbEntity
  8
1
100
AcDbVertex
100
AcDb2dVertex
 10
73.007513
 20
247.261956
 30
0.0
  0
VERTEX
  5
5AB
100
AcDbEntity
  8
1
100
AcDbVertex
100
AcDb2dVertex
 10
73.097604
 20
247.263244
 30
0.0
  0
VERTEX
  5
5AC
100
AcDbEntity
  8
1
100
AcDbVertex
100
AcDb2dVertex
 10
73.187661
 20
247.264502
 30
0.0
  0
VERTEX
  5
5AD
100
AcDbEntity
  8
1
100
AcDbVertex
100
AcDb2dVertex
 10
73.27771
 20
247.265711
 30
0.0
  0
VERTEX
  5
5AE
100
AcDbEntity
  8
1
100
AcDbVertex
100
AcDb2dVertex
 10
73.367776
 20
247.266859
 30
0.0
  0
VERTEX
  5
5AF
100
AcDbEntity
  8
1
100
AcDbVertex
100
AcDb2dVertex
 10
73.457883
 20
247.267928
 30
0.0
  0
VERTEX
  5
5B0
100
AcDbEntity
  8
1
100
AcDbVertex
100
AcDb2dVertex
 10
73.548059
 20
247.268902
 30
0.0
  0
VERTEX
  5
5B1
100
AcDbEntity
  8
1
100
AcDbVertex
100
AcDb2dVertex
 10
73.638326
 20
247.269767
 30
0.0
  0
VERTEX
  5
5B2
100
AcDbEntity
  8
1
100
AcDbVertex
100
AcDb2dVertex
 10
73.728712
 20
247.270507
 30
0.0
  0
VERTEX
  5
5B3
100
AcDbEntity
  8
1
100
AcDbVertex
100
AcDb2dVertex
 10
73.819241
 20
247.271105
 30
0.0
  0
VERTEX
  5
5B4
100
AcDbEntity
  8
1
100
AcDbVertex
100
AcDb2dVertex
 10
73.909988
 20
247.271458
 30
0.0
  0
VERTEX
  5
5B5
100
AcDbEntity
  8
1
100
AcDbVertex
100
AcDb2dVertex
 10
74.000966
 20
247.271524
 30
0.0
  0
VERTEX
  5
5B6
100
AcDbEntity
  8
1
100
AcDbVertex
100
AcDb2dVertex
 10
74.092112
 20
247.27138
 30
0.0
  0
VERTEX
  5
5B7
100
AcDbEntity
  8
1
100
AcDbVertex
100
AcDb2dVertex
 10
74.183364
 20
247.271105
 30
0.0
  0
VERTEX
  5
5B8
100
AcDbEntity
  8
1
100
AcDbVertex
100
AcDb2dVertex
 10
74.274658
 20
247.270779
 30
0.0
  0
VERTEX
  5
5B9
100
AcDbEntity
  8
1
100
AcDbVertex
100
AcDb2dVertex
 10
74.365931
 20
247.270478
 30
0.0
  0
VERTEX
  5
5BA
100
AcDbEntity
  8
1
100
AcDbVertex
100
AcDb2dVertex
 10
74.45712
 20
247.270282
 30
0.0
  0
VERTEX
  5
5BB
100
AcDbEntity
  8
1
100
AcDbVertex
100
AcDb2dVertex
 10
74.548161
 20
247.270269
 30
0.0
  0
VERTEX
  5
5BC
100
AcDbEntity
  8
1
100
AcDbVertex
100
AcDb2dVertex
 10
74.638992
 20
247.270517
 30
0.0
  0
VERTEX
  5
5BD
100
AcDbEntity
  8
1
100
AcDbVertex
100
AcDb2dVertex
 10
74.729548
 20
247.271105
 30
0.0
  0
VERTEX
  5
5BE
100
AcDbEntity
  8
1
100
AcDbVertex
100
AcDb2dVertex
 10
74.819808
 20
247.271991
 30
0.0
  0
VERTEX
  5
5BF
100
AcDbEntity
  8
1
100
AcDbVertex
100
AcDb2dVertex
 10
74.909823
 20
247.273071
 30
0.0
  0
VERTEX
  5
5C0
100
AcDbEntity
  8
1
100
AcDbVertex
100
AcDb2dVertex
 10
74.999644
 20
247.274328
 30
0.0
  0
VERTEX
  5
5C1
100
AcDbEntity
  8
1
100
AcDbVertex
100
AcDb2dVertex
 10
75.089321
 20
247.275747
 30
0.0
  0
VERTEX
  5
5C2
100
AcDbEntity
  8
1
100
AcDbVertex
100
AcDb2dVertex
 10
75.178907
 20
247.277312
 30
0.0
  0
VERTEX
  5
5C3
100
AcDbEntity
  8
1
100
AcDbVertex
100
AcDb2dVertex
 10
75.26845
 20
247.279008
 30
0.0
  0
VERTEX
  5
5C4
100
AcDbEntity
  8
1
100
AcDbVertex
100
AcDb2dVertex
 10
75.358001
 20
247.280819
 30
0.0
  0
VERTEX
  5
5C5
100
AcDbEntity
  8
1
100
AcDbVertex
100
AcDb2dVertex
 10
75.447611
 20
247.282729
 30
0.0
  0
VERTEX
  5
5C6
100
AcDbEntity
  8
1
100
AcDbVertex
100
AcDb2dVertex
 10
75.537331
 20
247.284723
 30
0.0
  0
VERTEX
  5
5C7
100
AcDbEntity
  8
1
100
AcDbVertex
100
AcDb2dVertex
 10
75.627212
 20
247.286785
 30
0.0
  0
VERTEX
  5
5C8
100
AcDbEntity
  8
1
100
AcDbVertex
100
AcDb2dVertex
 10
75.71721
 20
247.288928
 30
0.0
  0
VERTEX
  5
5C9
100
AcDbEntity
  8
1
100
AcDbVertex
100
AcDb2dVertex
 10
75.80725
 20
247.291176
 30
0.0
  0
VERTEX
  5
5CA
100
AcDbEntity
  8
1
100
AcDbVertex
100
AcDb2dVertex
 10
75.897332
 20
247.293528
 30
0.0
  0
VERTEX
  5
5CB
100
AcDbEntity
  8
1
100
AcDbVertex
100
AcDb2dVertex
 10
75.987457
 20
247.295984
 30
0.0
  0
VERTEX
  5
5CC
100
AcDbEntity
  8
1
100
AcDbVertex
100
AcDb2dVertex
 10
76.077624
 20
247.298545
 30
0.0
  0
VERTEX
  5
5CD
100
AcDbEntity
  8
1
100
AcDbVertex
100
AcDb2dVertex
 10
76.167833
 20
247.301211
 30
0.0
  0
VERTEX
  5
5CE
100
AcDbEntity
  8
1
100
AcDbVertex
100
AcDb2dVertex
 10
76.258084
 20
247.303981
 30
0.0
  0
VERTEX
  5
5CF
100
AcDbEntity
  8
1
100
AcDbVertex
100
AcDb2dVertex
 10
76.348377
 20
247.306856
 30
0.0
  0
VERTEX
  5
5D0
100
AcDbEntity
  8
1
100
AcDbVertex
100
AcDb2dVertex
 10
76.438712
 20
247.309835
 30
0.0
  0
VERTEX
  5
5D1
100
AcDbEntity
  8
1
100
AcDbVertex
100
AcDb2dVertex
 10
76.52909
 20
247.312919
 30
0.0
  0
SEQEND
  5
5D2
100
AcDbEntity
  8
1
  0
LINE
  5
5D3
100
AcDbEntity
  8
1
100
AcDbLine
 10
76.52909
 20
247.312919
 30
0.0
 11
76.980028
 21
247.328599
 31
0.0
  0
ENDBLK
  5
5D4
100
AcDbEntity
  8
0
100
AcDbBlockEnd
  0
BLOCK
  5
5D6
100
AcDbEntity
  8
0
100
AcDbBlockBegin
  2
NO_186328093
 70
    64
 10
49.503103
 20
250.245963
 30
0.0
  3
NO_186328093
  1

  0
POLYLINE
  5
5D7
100
AcDbEntity
  8
1
100
AcDb2dPolyline
 66
     1
 10
0.0
 20
0.0
 30
0.0
  0
VERTEX
  5
5D8
100
AcDbEntity
  8
1
100
AcDbVertex
100
AcDb2dVertex
 10
81.584091
 20
250.03718
 30
0.0
  0
VERTEX
  5
5D9
100
AcDbEntity
  8
1
100
AcDbVertex
100
AcDb2dVertex
 10
81.540142
 20
250.043433
 30
0.0
  0
VERTEX
  5
5DA
100
AcDbEntity
  8
1
100
AcDbVertex
100
AcDb2dVertex
 10
81.488204
 20
250.05095
 30
0.0
  0
VERTEX
  5
5DB
100
AcDbEntity
  8
1
100
AcDbVertex
100
AcDb2dVertex
 10
81.428277
 20
250.059732
 30
0.0
  0
VERTEX
  5
5DC
100
AcDbEntity
  8
1
100
AcDbVertex
100
AcDb2dVertex
 10
81.360362
 20
250.069779
 30
0.0
  0
VERTEX
  5
5DD
100
AcDbEntity
  8
1
100
AcDbVertex
100
AcDb2dVertex
 10
81.284459
 20
250.08109
 30
0.0
  0
VERTEX
  5
5DE
100
AcDbEntity
  8
1
100
AcDbVertex
100
AcDb2dVertex
 10
81.200567
 20
250.093665
 30
0.0
  0
VERTEX
  5
5DF
100
AcDbEntity
  8
1
100
AcDbVertex
100
AcDb2dVertex
 10
81.108686
 20
250.107506
 30
0.0
  0
VERTEX
  5
5E0
100
AcDbEntity
  8
1
100
AcDbVertex
100
AcDb2dVertex
 10
81.008817
 20
250.122611
 30
0.0
  0
VERTEX
  5
5E1
100
AcDbEntity
  8
1
100
AcDbVertex
100
AcDb2dVertex
 10
80.900959
 20
250.138981
 30
0.0
  0
VERTEX
  5
5E2
100
AcDbEntity
  8
1
100
AcDbVertex
100
AcDb2dVertex
 10
80.785113
 20
250.156615
 30
0.0
  0
VERTEX
  5
5E3
100
AcDbEntity
  8
1
100
AcDbVertex
100
AcDb2dVertex
 10
80.785113
 20
250.156615
 30
0.0
  0
VERTEX
  5
5E4
100
AcDbEntity
  8
1
100
AcDbVertex
100
AcDb2dVertex
 10
80.657683
 20
250.176083
 30
0.0
  0
VERTEX
  5
5E5
100
AcDbEntity
  8
1
100
AcDbVertex
100
AcDb2dVertex
 10
80.516672
 20
250.197701
 30
0.0
  0
VERTEX
  5
5E6
100
AcDbEntity
  8
1
100
AcDbVertex
100
AcDb2dVertex
 10
80.364478
 20
250.22109
 30
0.0
  0
VERTEX
  5
5E7
100
AcDbEntity
  8
1
100
AcDbVertex
100
AcDb2dVertex
 10
80.203496
 20
250.245869
 30
0.0
  0
VERTEX
  5
5E8
100
AcDbEntity
  8
1
100
AcDbVertex
100
AcDb2dVertex
 10
80.036124
 20
250.27166
 30
0.0
  0
VERTEX
  5
5E9
100
AcDbEntity
  8
1
100
AcDbVertex
100
AcDb2dVertex
 10
79.864757
 20
250.298084
 30
0.0
  0
VERTEX
  5
5EA
100
AcDbEntity
  8
1
100
AcDbVertex
100
AcDb2dVertex
 10
79.691792
 20
250.324761
 30
0.0
  0
VERTEX
  5
5EB
100
AcDbEntity
  8
1
100
AcDbVertex
100
AcDb2dVertex
 10
79.519627
 20
250.351311
 30
0.0
  0
VERTEX
  5
5EC
100
AcDbEntity
  8
1
100
AcDbVertex
100
AcDb2dVertex
 10
79.350656
 20
250.377355
 30
0.0
  0
VERTEX
  5
5ED
100
AcDbEntity
  8
1
100
AcDbVertex
100
AcDb2dVertex
 10
79.187278
 20
250.402514
 30
0.0
  0
VERTEX
  5
5EE
100
AcDbEntity
  8
1
100
AcDbVertex
100
AcDb2dVertex
 10
79.027527
 20
250.427166
 30
0.0
  0
VERTEX
  5
5EF
100
AcDbEntity
  8
1
100
AcDbVertex
100
AcDb2dVertex
 10
78.867828
 20
250.451917
 30
0.0
  0
VERTEX
  5
5F0
100
AcDbEntity
  8
1
100
AcDbVertex
100
AcDb2dVertex
 10
78.708157
 20
250.476723
 30
0.0
  0
VERTEX
  5
5F1
100
AcDbEntity
  8
1
100
AcDbVertex
100
AcDb2dVertex
 10
78.548493
 20
250.501542
 30
0.0
  0
VERTEX
  5
5F2
100
AcDbEntity
  8
1
100
AcDbVertex
100
AcDb2dVertex
 10
78.388815
 20
250.526334
 30
0.0
  0
VERTEX
  5
5F3
100
AcDbEntity
  8
1
100
AcDbVertex
100
AcDb2dVertex
 10
78.229101
 20
250.551057
 30
0.0
  0
VERTEX
  5
5F4
100
AcDbEntity
  8
1
100
AcDbVertex
100
AcDb2dVertex
 10
78.069329
 20
250.575667
 30
0.0
  0
VERTEX
  5
5F5
100
AcDbEntity
  8
1
100
AcDbVertex
100
AcDb2dVertex
 10
77.909476
 20
250.600125
 30
0.0
  0
VERTEX
  5
5F6
100
AcDbEntity
  8
1
100
AcDbVertex
100
AcDb2dVertex
 10
77.749522
 20
250.624387
 30
0.0
  0
VERTEX
  5
5F7
100
AcDbEntity
  8
1
100
AcDbVertex
100
AcDb2dVertex
 10
77.589444
 20
250.648413
 30
0.0
  0
VERTEX
  5
5F8
100
AcDbEntity
  8
1
100
AcDbVertex
100
AcDb2dVertex
 10
77.429197
 20
250.672206
 30
0.0
  0
VERTEX
  5
5F9
100
AcDbEntity
  8
1
100
AcDbVertex
100
AcDb2dVertex
 10
77.268778
 20
250.695811
 30
0.0
  0
VERTEX
  5
5FA
100
AcDbEntity
  8
1
100
AcDbVertex
100
AcDb2dVertex
 10
77.10823
 20
250.719251
 30
0.0
  0
VERTEX
  5
5FB
100
AcDbEntity
  8
1
100
AcDbVertex
100
AcDb2dVertex
 10
76.947594
 20
250.742544
 30
0.0
  0
VERTEX
  5
5FC
100
AcDbEntity
  8
1
100
AcDbVertex
100
AcDb2dVertex
 10
76.786915
 20
250.765712
 30
0.0
  0
VERTEX
  5
5FD
100
AcDbEntity
  8
1
100
AcDbVertex
100
AcDb2dVertex
 10
76.626233
 20
250.788774
 30
0.0
  0
VERTEX
  5
5FE
100
AcDbEntity
  8
1
100
AcDbVertex
100
AcDb2dVertex
 10
76.465593
 20
250.811751
 30
0.0
  0
VERTEX
  5
5FF
100
AcDbEntity
  8
1
100
AcDbVertex
100
AcDb2dVertex
 10
76.305035
 20
250.834663
 30
0.0
  0
VERTEX
  5
600
100
AcDbEntity
  8
1
100
AcDbVertex
100
AcDb2dVertex
 10
76.144603
 20
250.857531
 30
0.0
  0
VERTEX
  5
601
100
AcDbEntity
  8
1
100
AcDbVertex
100
AcDb2dVertex
 10
75.98434
 20
250.880375
 30
0.0
  0
VERTEX
  5
602
100
AcDbEntity
  8
1
100
AcDbVertex
100
AcDb2dVertex
 10
75.824275
 20
250.903335
 30
0.0
  0
VERTEX
  5
603
100
AcDbEntity
  8
1
100
AcDbVertex
100
AcDb2dVertex
 10
75.664382
 20
250.926467
 30
0.0
  0
VERTEX
  5
604
100
AcDbEntity
  8
1
100
AcDbVertex
100
AcDb2dVertex
 10
75.504616
 20
250.949668
 30
0.0
  0
VERTEX
  5
605
100
AcDbEntity
  8
1
100
AcDbVertex
100
AcDb2dVertex
 10
75.344934
 20
250.972832
 30
0.0
  0
VERTEX
  5
606
100
AcDbEntity
  8
1
100
AcDbVertex
100
AcDb2dVertex
 10
75.185292
 20
250.995855
 30
0.0
  0
VERTEX
  5
607
100
AcDbEntity
  8
1
100
AcDbVertex
100
AcDb2dVertex
 10
75.025646
 20
251.018632
 30
0.0
  0
VERTEX
  5
608
100
AcDbEntity
  8
1
100
AcDbVertex
100
AcDb2dVertex
 10
74.865951
 20
251.041058
 30
0.0
  0
VERTEX
  5
609
100
AcDbEntity
  8
1
100
AcDbVertex
100
AcDb2dVertex
 10
74.706164
 20
251.063028
 30
0.0
  0
VERTEX
  5
60A
100
AcDbEntity
  8
1
100
AcDbVertex
100
AcDb2dVertex
 10
74.546241
 20
251.084439
 30
0.0
  0
VERTEX
  5
60B
100
AcDbEntity
  8
1
100
AcDbVertex
100
AcDb2dVertex
 10
74.386137
 20
251.105184
 30
0.0
  0
VERTEX
  5
60C
100
AcDbEntity
  8
1
100
AcDbVertex
100
AcDb2dVertex
 10
74.22583
 20
251.125511
 30
0.0
  0
VERTEX
  5
60D
100
AcDbEntity
  8
1
100
AcDbVertex
100
AcDb2dVertex
 10
74.065351
 20
251.145666
 30
0.0
  0
VERTEX
  5
60E
100
AcDbEntity
  8
1
100
AcDbVertex
100
AcDb2dVertex
 10
73.90474
 20
251.165541
 30
0.0
  0
VERTEX
  5
60F
100
AcDbEntity
  8
1
100
AcDbVertex
100
AcDb2dVertex
 10
73.744039
 20
251.185031
 30
0.0
  0
VERTEX
  5
610
100
AcDbEntity
  8
1
100
AcDbVertex
100
AcDb2dVertex
 10
73.583286
 20
251.20403
 30
0.0
  0
VERTEX
  5
611
100
AcDbEntity
  8
1
100
AcDbVertex
100
AcDb2dVertex
 10
73.422524
 20
251.222432
 30
0.0
  0
VERTEX
  5
612
100
AcDbEntity
  8
1
100
AcDbVertex
100
AcDb2dVertex
 10
73.261791
 20
251.240129
 30
0.0
  0
VERTEX
  5
613
100
AcDbEntity
  8
1
100
AcDbVertex
100
AcDb2dVertex
 10
73.101128
 20
251.257017
 30
0.0
  0
VERTEX
  5
614
100
AcDbEntity
  8
1
100
AcDbVertex
100
AcDb2dVertex
 10
72.940576
 20
251.272989
 30
0.0
  0
VERTEX
  5
615
100
AcDbEntity
  8
1
100
AcDbVertex
100
AcDb2dVertex
 10
72.780175
 20
251.287938
 30
0.0
  0
VERTEX
  5
616
100
AcDbEntity
  8
1
100
AcDbVertex
100
AcDb2dVertex
 10
72.61632
 20
251.302079
 30
0.0
  0
VERTEX
  5
617
100
AcDbEntity
  8
1
100
AcDbVertex
100
AcDb2dVertex
 10
72.446967
 20
251.315642
 30
0.0
  0
VERTEX
  5
618
100
AcDbEntity
  8
1
100
AcDbVertex
100
AcDb2dVertex
 10
72.274496
 20
251.328541
 30
0.0
  0
VERTEX
  5
619
100
AcDbEntity
  8
1
100
AcDbVertex
100
AcDb2dVertex
 10
72.101289
 20
251.340694
 30
0.0
  0
VERTEX
  5
61A
100
AcDbEntity
  8
1
100
AcDbVertex
100
AcDb2dVertex
 10
71.929725
 20
251.352017
 30
0.0
  0
VERTEX
  5
61B
100
AcDbEntity
  8
1
100
AcDbVertex
100
AcDb2dVertex
 10
71.762186
 20
251.362425
 30
0.0
  0
VERTEX
  5
61C
100
AcDbEntity
  8
1
100
AcDbVertex
100
AcDb2dVertex
 10
71.601052
 20
251.371836
 30
0.0
  0
VERTEX
  5
61D
100
AcDbEntity
  8
1
100
AcDbVertex
100
AcDb2dVertex
 10
71.448704
 20
251.380164
 30
0.0
  0
VERTEX
  5
61E
100
AcDbEntity
  8
1
100
AcDbVertex
100
AcDb2dVertex
 10
71.307523
 20
251.387328
 30
0.0
  0
VERTEX
  5
61F
100
AcDbEntity
  8
1
100
AcDbVertex
100
AcDb2dVertex
 10
71.179888
 20
251.393242
 30
0.0
  0
VERTEX
  5
620
100
AcDbEntity
  8
1
100
AcDbVertex
100
AcDb2dVertex
 10
71.071024
 20
251.397819
 30
0.0
  0
VERTEX
  5
621
100
AcDbEntity
  8
1
100
AcDbVertex
100
AcDb2dVertex
 10
70.981362
 20
251.401098
 30
0.0
  0
VERTEX
  5
622
100
AcDbEntity
  8
1
100
AcDbVertex
100
AcDb2dVertex
 10
70.906098
 20
251.403182
 30
0.0
  0
VERTEX
  5
623
100
AcDbEntity
  8
1
100
AcDbVertex
100
AcDb2dVertex
 10
70.840429
 20
251.404178
 30
0.0
  0
VERTEX
  5
624
100
AcDbEntity
  8
1
100
AcDbVertex
100
AcDb2dVertex
 10
70.779548
 20
251.40419
 30
0.0
  0
VERTEX
  5
625
100
AcDbEntity
  8
1
100
AcDbVertex
100
AcDb2dVertex
 10
70.718652
 20
251.403324
 30
0.0
  0
VERTEX
  5
626
100
AcDbEntity
  8
1
100
AcDbVertex
100
AcDb2dVertex
 10
70.652937
 20
251.401684
 30
0.0
  0
VERTEX
  5
627
100
AcDbEntity
  8
1
100
AcDbVertex
100
AcDb2dVertex
 10
70.577597
 20
251.399375
 30
0.0
  0
VERTEX
  5
628
100
AcDbEntity
  8
1
100
AcDbVertex
100
AcDb2dVertex
 10
70.487828
 20
251.396502
 30
0.0
  0
VERTEX
  5
629
100
AcDbEntity
  8
1
100
AcDbVertex
100
AcDb2dVertex
 10
70.378825
 20
251.393171
 30
0.0
  0
VERTEX
  5
62A
100
AcDbEntity
  8
1
100
AcDbVertex
100
AcDb2dVertex
 10
70.251027
 20
251.389735
 30
0.0
  0
VERTEX
  5
62B
100
AcDbEntity
  8
1
100
AcDbVertex
100
AcDb2dVertex
 10
70.109661
 20
251.386284
 30
0.0
  0
VERTEX
  5
62C
100
AcDbEntity
  8
1
100
AcDbVertex
100
AcDb2dVertex
 10
69.957102
 20
251.382522
 30
0.0
  0
VERTEX
  5
62D
100
AcDbEntity
  8
1
100
AcDbVertex
100
AcDb2dVertex
 10
69.795728
 20
251.378154
 30
0.0
  0
VERTEX
  5
62E
100
AcDbEntity
  8
1
100
AcDbVertex
100
AcDb2dVertex
 10
69.627915
 20
251.372886
 30
0.0
  0
VERTEX
  5
62F
100
AcDbEntity
  8
1
100
AcDbVertex
100
AcDb2dVertex
 10
69.456041
 20
251.366423
 30
0.0
  0
VERTEX
  5
630
100
AcDbEntity
  8
1
100
AcDbVertex
100
AcDb2dVertex
 10
69.282483
 20
251.358471
 30
0.0
  0
VERTEX
  5
631
100
AcDbEntity
  8
1
100
AcDbVertex
100
AcDb2dVertex
 10
69.109618
 20
251.348735
 30
0.0
  0
VERTEX
  5
632
100
AcDbEntity
  8
1
100
AcDbVertex
100
AcDb2dVertex
 10
68.939822
 20
251.33692
 30
0.0
  0
VERTEX
  5
633
100
AcDbEntity
  8
1
100
AcDbVertex
100
AcDb2dVertex
 10
68.775473
 20
251.322731
 30
0.0
  0
VERTEX
  5
634
100
AcDbEntity
  8
1
100
AcDbVertex
100
AcDb2dVertex
 10
68.610176
 20
251.305352
 30
0.0
  0
VERTEX
  5
635
100
AcDbEntity
  8
1
100
AcDbVertex
100
AcDb2dVertex
 10
68.437913
 20
251.284636
 30
0.0
  0
VERTEX
  5
636
100
AcDbEntity
  8
1
100
AcDbVertex
100
AcDb2dVertex
 10
68.261627
 20
251.261289
 30
0.0
  0
VERTEX
  5
637
100
AcDbEntity
  8
1
100
AcDbVertex
100
AcDb2dVertex
 10
68.084261
 20
251.236021
 30
0.0
  0
VERTEX
  5
638
100
AcDbEntity
  8
1
100
AcDbVertex
100
AcDb2dVertex
 10
67.908756
 20
251.209538
 30
0.0
  0
VERTEX
  5
639
100
AcDbEntity
  8
1
100
AcDbVertex
100
AcDb2dVertex
 10
67.738056
 20
251.18255
 30
0.0
  0
VERTEX
  5
63A
100
AcDbEntity
  8
1
100
AcDbVertex
100
AcDb2dVertex
 10
67.575103
 20
251.155764
 30
0.0
  0
VERTEX
  5
63B
100
AcDbEntity
  8
1
100
AcDbVertex
100
AcDb2dVertex
 10
67.42284
 20
251.129889
 30
0.0
  0
VERTEX
  5
63C
100
AcDbEntity
  8
1
100
AcDbVertex
100
AcDb2dVertex
 10
67.28421
 20
251.105631
 30
0.0
  0
VERTEX
  5
63D
100
AcDbEntity
  8
1
100
AcDbVertex
100
AcDb2dVertex
 10
67.162153
 20
251.0837
 30
0.0
  0
VERTEX
  5
63E
100
AcDbEntity
  8
1
100
AcDbVertex
100
AcDb2dVertex
 10
67.058629
 20
251.064283
 30
0.0
  0
VERTEX
  5
63F
100
AcDbEntity
  8
1
100
AcDbVertex
100
AcDb2dVertex
 10
66.971671
 20
251.046749
 30
0.0
  0
VERTEX
  5
640
100
AcDbEntity
  8
1
100
AcDbVertex
100
AcDb2dVertex
 10
66.898342
 20
251.03058
 30
0.0
  0
VERTEX
  5
641
100
AcDbEntity
  8
1
100
AcDbVertex
100
AcDb2dVertex
 10
66.8357
 20
251.015258
 30
0.0
  0
VERTEX
  5
642
100
AcDbEntity
  8
1
100
AcDbVertex
100
AcDb2dVertex
 10
66.780809
 20
251.000265
 30
0.0
  0
VERTEX
  5
643
100
AcDbEntity
  8
1
100
AcDbVertex
100
AcDb2dVertex
 10
66.730727
 20
250.985083
 30
0.0
  0
VERTEX
  5
644
100
AcDbEntity
  8
1
100
AcDbVertex
100
AcDb2dVertex
 10
66.682516
 20
250.969192
 30
0.0
  0
VERTEX
  5
645
100
AcDbEntity
  8
1
100
AcDbVertex
100
AcDb2dVertex
 10
66.633237
 20
250.952076
 30
0.0
  0
VERTEX
  5
646
100
AcDbEntity
  8
1
100
AcDbVertex
100
AcDb2dVertex
 10
66.57995
 20
250.933216
 30
0.0
  0
VERTEX
  5
647
100
AcDbEntity
  8
1
100
AcDbVertex
100
AcDb2dVertex
 10
66.519716
 20
250.912093
 30
0.0
  0
VERTEX
  5
648
100
AcDbEntity
  8
1
100
AcDbVertex
100
AcDb2dVertex
 10
66.453462
 20
250.888849
 30
0.0
  0
VERTEX
  5
649
100
AcDbEntity
  8
1
100
AcDbVertex
100
AcDb2dVertex
 10
66.38475
 20
250.864102
 30
0.0
  0
VERTEX
  5
64A
100
AcDbEntity
  8
1
100
AcDbVertex
100
AcDb2dVertex
 10
66.314596
 20
250.838044
 30
0.0
  0
VERTEX
  5
64B
100
AcDbEntity
  8
1
100
AcDbVertex
100
AcDb2dVertex
 10
66.244016
 20
250.810868
 30
0.0
  0
VERTEX
  5
64C
100
AcDbEntity
  8
1
100
AcDbVertex
100
AcDb2dVertex
 10
66.174023
 20
250.782767
 30
0.0
  0
VERTEX
  5
64D
100
AcDbEntity
  8
1
100
AcDbVertex
100
AcDb2dVertex
 10
66.105633
 20
250.753936
 30
0.0
  0
VERTEX
  5
64E
100
AcDbEntity
  8
1
100
AcDbVertex
100
AcDb2dVertex
 10
66.039863
 20
250.724566
 30
0.0
  0
VERTEX
  5
64F
100
AcDbEntity
  8
1
100
AcDbVertex
100
AcDb2dVertex
 10
65.977726
 20
250.694852
 30
0.0
  0
VERTEX
  5
650
100
AcDbEntity
  8
1
100
AcDbVertex
100
AcDb2dVertex
 10
65.920238
 20
250.664986
 30
0.0
  0
VERTEX
  5
651
100
AcDbEntity
  8
1
100
AcDbVertex
100
AcDb2dVertex
 10
65.868415
 20
250.635162
 30
0.0
  0
VERTEX
  5
652
100
AcDbEntity
  8
1
100
AcDbVertex
100
AcDb2dVertex
 10
65.82141
 20
250.605218
 30
0.0
  0
VERTEX
  5
653
100
AcDbEntity
  8
1
100
AcDbVertex
100
AcDb2dVertex
 10
65.7777
 20
250.574866
 30
0.0
  0
VERTEX
  5
654
100
AcDbEntity
  8
1
100
AcDbVertex
100
AcDb2dVertex
 10
65.737286
 20
250.544104
 30
0.0
  0
VERTEX
  5
655
100
AcDbEntity
  8
1
100
AcDbVertex
100
AcDb2dVertex
 10
65.700168
 20
250.512933
 30
0.0
  0
VERTEX
  5
656
100
AcDbEntity
  8
1
100
AcDbVertex
100
AcDb2dVertex
 10
65.666345
 20
250.481353
 30
0.0
  0
VERTEX
  5
657
100
AcDbEntity
  8
1
100
AcDbVertex
100
AcDb2dVertex
 10
65.635817
 20
250.449364
 30
0.0
  0
VERTEX
  5
658
100
AcDbEntity
  8
1
100
AcDbVertex
100
AcDb2dVertex
 10
65.608585
 20
250.416965
 30
0.0
  0
VERTEX
  5
659
100
AcDbEntity
  8
1
100
AcDbVertex
100
AcDb2dVertex
 10
65.584649
 20
250.384158
 30
0.0
  0
VERTEX
  5
65A
100
AcDbEntity
  8
1
100
AcDbVertex
100
AcDb2dVertex
 10
65.564008
 20
250.350941
 30
0.0
  0
VERTEX
  5
65B
100
AcDbEntity
  8
1
100
AcDbVertex
100
AcDb2dVertex
 10
65.546662
 20
250.317315
 30
0.0
  0
SEQEND
  5
65C
100
AcDbEntity
  8
1
  0
POLYLINE
  5
65D
100
AcDbEntity
  8
1
100
AcDb2dPolyline
 66
     1
 10
0.0
 20
0.0
 30
0.0
  0
VERTEX
  5
65E
100
AcDbEntity
  8
1
100
AcDbVertex
100
AcDb2dVertex
 10
65.546662
 20
250.317315
 30
0.0
  0
VERTEX
  5
65F
100
AcDbEntity
  8
1
100
AcDbVertex
100
AcDb2dVertex
 10
65.548303
 20
250.300621
 30
0.0
  0
VERTEX
  5
660
100
AcDbEntity
  8
1
100
AcDbVertex
100
AcDb2dVertex
 10
65.553113
 20
250.284293
 30
0.0
  0
VERTEX
  5
661
100
AcDbEntity
  8
1
100
AcDbVertex
100
AcDb2dVertex
 10
65.561091
 20
250.268332
 30
0.0
  0
VERTEX
  5
662
100
AcDbEntity
  8
1
100
AcDbVertex
100
AcDb2dVertex
 10
65.572238
 20
250.252738
 30
0.0
  0
VERTEX
  5
663
100
AcDbEntity
  8
1
100
AcDbVertex
100
AcDb2dVertex
 10
65.586553
 20
250.23751
 30
0.0
  0
VERTEX
  5
664
100
AcDbEntity
  8
1
100
AcDbVertex
100
AcDb2dVertex
 10
65.604037
 20
250.222648
 30
0.0
  0
VERTEX
  5
665
100
AcDbEntity
  8
1
100
AcDbVertex
100
AcDb2dVertex
 10
65.624689
 20
250.208154
 30
0.0
  0
VERTEX
  5
666
100
AcDbEntity
  8
1
100
AcDbVertex
100
AcDb2dVertex
 10
65.648509
 20
250.194025
 30
0.0
  0
VERTEX
  5
667
100
AcDbEntity
  8
1
100
AcDbVertex
100
AcDb2dVertex
 10
65.675498
 20
250.180264
 30
0.0
  0
VERTEX
  5
668
100
AcDbEntity
  8
1
100
AcDbVertex
100
AcDb2dVertex
 10
65.705656
 20
250.166868
 30
0.0
  0
VERTEX
  5
669
100
AcDbEntity
  8
1
100
AcDbVertex
100
AcDb2dVertex
 10
65.705656
 20
250.166868
 30
0.0
  0
VERTEX
  5
66A
100
AcDbEntity
  8
1
100
AcDbVertex
100
AcDb2dVertex
 10
65.739646
 20
250.153828
 30
0.0
  0
VERTEX
  5
66B
100
AcDbEntity
  8
1
100
AcDbVertex
100
AcDb2dVertex
 10
65.777837
 20
250.141137
 30
0.0
  0
VERTEX
  5
66C
100
AcDbEntity
  8
1
100
AcDbVertex
100
AcDb2dVertex
 10
65.819786
 20
250.128801
 30
0.0
  0
VERTEX
  5
66D
100
AcDbEntity
  8
1
100
AcDbVertex
100
AcDb2dVertex
 10
65.865052
 20
250.11683
 30
0.0
  0
VERTEX
  5
66E
100
AcDbEntity
  8
1
100
AcDbVertex
100
AcDb2dVertex
 10
65.91319
 20
250.10523
 30
0.0
  0
VERTEX
  5
66F
100
AcDbEntity
  8
1
100
AcDbVertex
100
AcDb2dVertex
 10
65.96376
 20
250.09401
 30
0.0
  0
VERTEX
  5
670
100
AcDbEntity
  8
1
100
AcDbVertex
100
AcDb2dVertex
 10
66.016318
 20
250.083177
 30
0.0
  0
VERTEX
  5
671
100
AcDbEntity
  8
1
100
AcDbVertex
100
AcDb2dVertex
 10
66.070422
 20
250.072739
 30
0.0
  0
VERTEX
  5
672
100
AcDbEntity
  8
1
100
AcDbVertex
100
AcDb2dVertex
 10
66.12563
 20
250.062703
 30
0.0
  0
VERTEX
  5
673
100
AcDbEntity
  8
1
100
AcDbVertex
100
AcDb2dVertex
 10
66.181497
 20
250.053078
 30
0.0
  0
VERTEX
  5
674
100
AcDbEntity
  8
1
100
AcDbVertex
100
AcDb2dVertex
 10
66.237036
 20
250.043912
 30
0.0
  0
VERTEX
  5
675
100
AcDbEntity
  8
1
100
AcDbVertex
100
AcDb2dVertex
 10
66.292154
 20
250.035225
 30
0.0
  0
VERTEX
  5
676
100
AcDbEntity
  8
1
100
AcDbVertex
100
AcDb2dVertex
 10
66.347758
 20
250.026979
 30
0.0
  0
VERTEX
  5
677
100
AcDbEntity
  8
1
100
AcDbVertex
100
AcDb2dVertex
 10
66.404753
 20
250.019138
 30
0.0
  0
VERTEX
  5
678
100
AcDbEntity
  8
1
100
AcDbVertex
100
AcDb2dVertex
 10
66.464045
 20
250.011665
 30
0.0
  0
VERTEX
  5
679
100
AcDbEntity
  8
1
100
AcDbVertex
100
AcDb2dVertex
 10
66.52654
 20
250.004522
 30
0.0
  0
VERTEX
  5
67A
100
AcDbEntity
  8
1
100
AcDbVertex
100
AcDb2dVertex
 10
66.593144
 20
249.997674
 30
0.0
  0
VERTEX
  5
67B
100
AcDbEntity
  8
1
100
AcDbVertex
100
AcDb2dVertex
 10
66.664763
 20
249.991082
 30
0.0
  0
VERTEX
  5
67C
100
AcDbEntity
  8
1
100
AcDbVertex
100
AcDb2dVertex
 10
66.742302
 20
249.98471
 30
0.0
  0
VERTEX
  5
67D
100
AcDbEntity
  8
1
100
AcDbVertex
100
AcDb2dVertex
 10
66.826668
 20
249.978522
 30
0.0
  0
VERTEX
  5
67E
100
AcDbEntity
  8
1
100
AcDbVertex
100
AcDb2dVertex
 10
66.91701
 20
249.97258
 30
0.0
  0
VERTEX
  5
67F
100
AcDbEntity
  8
1
100
AcDbVertex
100
AcDb2dVertex
 10
67.011919
 20
249.96696
 30
0.0
  0
VERTEX
  5
680
100
AcDbEntity
  8
1
100
AcDbVertex
100
AcDb2dVertex
 10
67.111456
 20
249.961639
 30
0.0
  0
VERTEX
  5
681
100
AcDbEntity
  8
1
100
AcDbVertex
100
AcDb2dVertex
 10
67.215686
 20
249.956594
 30
0.0
  0
VERTEX
  5
682
100
AcDbEntity
  8
1
100
AcDbVertex
100
AcDb2dVertex
 10
67.324669
 20
249.951804
 30
0.0
  0
VERTEX
  5
683
100
AcDbEntity
  8
1
100
AcDbVertex
100
AcDb2dVertex
 10
67.438471
 20
249.947246
 30
0.0
  0
VERTEX
  5
684
100
AcDbEntity
  8
1
100
AcDbVertex
100
AcDb2dVertex
 10
67.557152
 20
249.942898
 30
0.0
  0
VERTEX
  5
685
100
AcDbEntity
  8
1
100
AcDbVertex
100
AcDb2dVertex
 10
67.680777
 20
249.938738
 30
0.0
  0
VERTEX
  5
686
100
AcDbEntity
  8
1
100
AcDbVertex
100
AcDb2dVertex
 10
67.809408
 20
249.934743
 30
0.0
  0
VERTEX
  5
687
100
AcDbEntity
  8
1
100
AcDbVertex
100
AcDb2dVertex
 10
67.943107
 20
249.930893
 30
0.0
  0
VERTEX
  5
688
100
AcDbEntity
  8
1
100
AcDbVertex
100
AcDb2dVertex
 10
68.084068
 20
249.927165
 30
0.0
  0
VERTEX
  5
689
100
AcDbEntity
  8
1
100
AcDbVertex
100
AcDb2dVertex
 10
68.233442
 20
249.923571
 30
0.0
  0
VERTEX
  5
68A
100
AcDbEntity
  8
1
100
AcDbVertex
100
AcDb2dVertex
 10
68.389733
 20
249.920138
 30
0.0
  0
VERTEX
  5
68B
100
AcDbEntity
  8
1
100
AcDbVertex
100
AcDb2dVertex
 10
68.551445
 20
249.916891
 30
0.0
  0
VERTEX
  5
68C
100
AcDbEntity
  8
1
100
AcDbVertex
100
AcDb2dVertex
 10
68.717082
 20
249.913857
 30
0.0
  0
VERTEX
  5
68D
100
AcDbEntity
  8
1
100
AcDbVertex
100
AcDb2dVertex
 10
68.885147
 20
249.911062
 30
0.0
  0
VERTEX
  5
68E
100
AcDbEntity
  8
1
100
AcDbVertex
100
AcDb2dVertex
 10
69.054145
 20
249.908532
 30
0.0
  0
VERTEX
  5
68F
100
AcDbEntity
  8
1
100
AcDbVertex
100
AcDb2dVertex
 10
69.222578
 20
249.906293
 30
0.0
  0
VERTEX
  5
690
100
AcDbEntity
  8
1
100
AcDbVertex
100
AcDb2dVertex
 10
69.388951
 20
249.904372
 30
0.0
  0
VERTEX
  5
691
100
AcDbEntity
  8
1
100
AcDbVertex
100
AcDb2dVertex
 10
69.551767
 20
249.902793
 30
0.0
  0
VERTEX
  5
692
100
AcDbEntity
  8
1
100
AcDbVertex
100
AcDb2dVertex
 10
69.712243
 20
249.901569
 30
0.0
  0
VERTEX
  5
693
100
AcDbEntity
  8
1
100
AcDbVertex
100
AcDb2dVertex
 10
69.872605
 20
249.900677
 30
0.0
  0
VERTEX
  5
694
100
AcDbEntity
  8
1
100
AcDbVertex
100
AcDb2dVertex
 10
70.032874
 20
249.900096
 30
0.0
  0
VERTEX
  5
695
100
AcDbEntity
  8
1
100
AcDbVertex
100
AcDb2dVertex
 10
70.193071
 20
249.899805
 30
0.0
  0
VERTEX
  5
696
100
AcDbEntity
  8
1
100
AcDbVertex
100
AcDb2dVertex
 10
70.353216
 20
249.899781
 30
0.0
  0
VERTEX
  5
697
100
AcDbEntity
  8
1
100
AcDbVertex
100
AcDb2dVertex
 10
70.51333
 20
249.900005
 30
0.0
  0
VERTEX
  5
698
100
AcDbEntity
  8
1
100
AcDbVertex
100
AcDb2dVertex
 10
70.673434
 20
249.900453
 30
0.0
  0
VERTEX
  5
699
100
AcDbEntity
  8
1
100
AcDbVertex
100
AcDb2dVertex
 10
70.833549
 20
249.901106
 30
0.0
  0
VERTEX
  5
69A
100
AcDbEntity
  8
1
100
AcDbVertex
100
AcDb2dVertex
 10
70.993695
 20
249.90194
 30
0.0
  0
VERTEX
  5
69B
100
AcDbEntity
  8
1
100
AcDbVertex
100
AcDb2dVertex
 10
71.153893
 20
249.902936
 30
0.0
  0
VERTEX
  5
69C
100
AcDbEntity
  8
1
100
AcDbVertex
100
AcDb2dVertex
 10
71.314097
 20
249.904237
 30
0.0
  0
VERTEX
  5
69D
100
AcDbEntity
  8
1
100
AcDbVertex
100
AcDb2dVertex
 10
71.474258
 20
249.905947
 30
0.0
  0
VERTEX
  5
69E
100
AcDbEntity
  8
1
100
AcDbVertex
100
AcDb2dVertex
 10
71.634397
 20
249.90798
 30
0.0
  0
VERTEX
  5
69F
100
AcDbEntity
  8
1
100
AcDbVertex
100
AcDb2dVertex
 10
71.794533
 20
249.910253
 30
0.0
  0
VERTEX
  5
6A0
100
AcDbEntity
  8
1
100
AcDbVertex
100
AcDb2dVertex
 10
71.954686
 20
249.91268
 30
0.0
  0
VERTEX
  5
6A1
100
AcDbEntity
  8
1
100
AcDbVertex
100
AcDb2dVertex
 10
72.114875
 20
249.915177
 30
0.0
  0
VERTEX
  5
6A2
100
AcDbEntity
  8
1
100
AcDbVertex
100
AcDb2dVertex
 10
72.27512
 20
249.917659
 30
0.0
  0
VERTEX
  5
6A3
100
AcDbEntity
  8
1
100
AcDbVertex
100
AcDb2dVertex
 10
72.435441
 20
249.920041
 30
0.0
  0
VERTEX
  5
6A4
100
AcDbEntity
  8
1
100
AcDbVertex
100
AcDb2dVertex
 10
72.595857
 20
249.922239
 30
0.0
  0
VERTEX
  5
6A5
100
AcDbEntity
  8
1
100
AcDbVertex
100
AcDb2dVertex
 10
72.756387
 20
249.924167
 30
0.0
  0
VERTEX
  5
6A6
100
AcDbEntity
  8
1
100
AcDbVertex
100
AcDb2dVertex
 10
72.917079
 20
249.925864
 30
0.0
  0
VERTEX
  5
6A7
100
AcDbEntity
  8
1
100
AcDbVertex
100
AcDb2dVertex
 10
73.077937
 20
249.927439
 30
0.0
  0
VERTEX
  5
6A8
100
AcDbEntity
  8
1
100
AcDbVertex
100
AcDb2dVertex
 10
73.23892
 20
249.928913
 30
0.0
  0
VERTEX
  5
6A9
100
AcDbEntity
  8
1
100
AcDbVertex
100
AcDb2dVertex
 10
73.399986
 20
249.930308
 30
0.0
  0
VERTEX
  5
6AA
100
AcDbEntity
  8
1
100
AcDbVertex
100
AcDb2dVertex
 10
73.561093
 20
249.931646
 30
0.0
  0
VERTEX
  5
6AB
100
AcDbEntity
  8
1
100
AcDbVertex
100
AcDb2dVertex
 10
73.722199
 20
249.932949
 30
0.0
  0
VERTEX
  5
6AC
100
AcDbEntity
  8
1
100
AcDbVertex
100
AcDb2dVertex
 10
73.883263
 20
249.934239
 30
0.0
  0
VERTEX
  5
6AD
100
AcDbEntity
  8
1
100
AcDbVertex
100
AcDb2dVertex
 10
74.044243
 20
249.935537
 30
0.0
  0
VERTEX
  5
6AE
100
AcDbEntity
  8
1
100
AcDbVertex
100
AcDb2dVertex
 10
74.205097
 20
249.936866
 30
0.0
  0
VERTEX
  5
6AF
100
AcDbEntity
  8
1
100
AcDbVertex
100
AcDb2dVertex
 10
74.365783
 20
249.938246
 30
0.0
  0
VERTEX
  5
6B0
100
AcDbEntity
  8
1
100
AcDbVertex
100
AcDb2dVertex
 10
74.526273
 20
249.939662
 30
0.0
  0
VERTEX
  5
6B1
100
AcDbEntity
  8
1
100
AcDbVertex
100
AcDb2dVertex
 10
74.686594
 20
249.941081
 30
0.0
  0
VERTEX
  5
6B2
100
AcDbEntity
  8
1
100
AcDbVertex
100
AcDb2dVertex
 10
74.846789
 20
249.942502
 30
0.0
  0
VERTEX
  5
6B3
100
AcDbEntity
  8
1
100
AcDbVertex
100
AcDb2dVertex
 10
75.0069
 20
249.943924
 30
0.0
  0
VERTEX
  5
6B4
100
AcDbEntity
  8
1
100
AcDbVertex
100
AcDb2dVertex
 10
75.166969
 20
249.945347
 30
0.0
  0
VERTEX
  5
6B5
100
AcDbEntity
  8
1
100
AcDbVertex
100
AcDb2dVertex
 10
75.327037
 20
249.94677
 30
0.0
  0
VERTEX
  5
6B6
100
AcDbEntity
  8
1
100
AcDbVertex
100
AcDb2dVertex
 10
75.487148
 20
249.948193
 30
0.0
  0
VERTEX
  5
6B7
100
AcDbEntity
  8
1
100
AcDbVertex
100
AcDb2dVertex
 10
75.647343
 20
249.949614
 30
0.0
  0
VERTEX
  5
6B8
100
AcDbEntity
  8
1
100
AcDbVertex
100
AcDb2dVertex
 10
75.807664
 20
249.951032
 30
0.0
  0
VERTEX
  5
6B9
100
AcDbEntity
  8
1
100
AcDbVertex
100
AcDb2dVertex
 10
75.968154
 20
249.952448
 30
0.0
  0
VERTEX
  5
6BA
100
AcDbEntity
  8
1
100
AcDbVertex
100
AcDb2dVertex
 10
76.12884
 20
249.953829
 30
0.0
  0
VERTEX
  5
6BB
100
AcDbEntity
  8
1
100
AcDbVertex
100
AcDb2dVertex
 10
76.289694
 20
249.955157
 30
0.0
  0
VERTEX
  5
6BC
100
AcDbEntity
  8
1
100
AcDbVertex
100
AcDb2dVertex
 10
76.450674
 20
249.956456
 30
0.0
  0
VERTEX
  5
6BD
100
AcDbEntity
  8
1
100
AcDbVertex
100
AcDb2dVertex
 10
76.611738
 20
249.957745
 30
0.0
  0
VERTEX
  5
6BE
100
AcDbEntity
  8
1
100
AcDbVertex
100
AcDb2dVertex
 10
76.772844
 20
249.959048
 30
0.0
  0
VERTEX
  5
6BF
100
AcDbEntity
  8
1
100
AcDbVertex
100
AcDb2dVertex
 10
76.933951
 20
249.960386
 30
0.0
  0
VERTEX
  5
6C0
100
AcDbEntity
  8
1
100
AcDbVertex
100
AcDb2dVertex
 10
77.095017
 20
249.961782
 30
0.0
  0
VERTEX
  5
6C1
100
AcDbEntity
  8
1
100
AcDbVertex
100
AcDb2dVertex
 10
77.256
 20
249.963256
 30
0.0
  0
VERTEX
  5
6C2
100
AcDbEntity
  8
1
100
AcDbVertex
100
AcDb2dVertex
 10
77.416858
 20
249.96483
 30
0.0
  0
VERTEX
  5
6C3
100
AcDbEntity
  8
1
100
AcDbVertex
100
AcDb2dVertex
 10
77.57755
 20
249.966527
 30
0.0
  0
VERTEX
  5
6C4
100
AcDbEntity
  8
1
100
AcDbVertex
100
AcDb2dVertex
 10
77.738078
 20
249.968329
 30
0.0
  0
VERTEX
  5
6C5
100
AcDbEntity
  8
1
100
AcDbVertex
100
AcDb2dVertex
 10
77.898489
 20
249.970203
 30
0.0
  0
VERTEX
  5
6C6
100
AcDbEntity
  8
1
100
AcDbVertex
100
AcDb2dVertex
 10
78.058802
 20
249.97215
 30
0.0
  0
VERTEX
  5
6C7
100
AcDbEntity
  8
1
100
AcDbVertex
100
AcDb2dVertex
 10
78.219039
 20
249.974167
 30
0.0
  0
VERTEX
  5
6C8
100
AcDbEntity
  8
1
100
AcDbVertex
100
AcDb2dVertex
 10
78.379221
 20
249.976257
 30
0.0
  0
VERTEX
  5
6C9
100
AcDbEntity
  8
1
100
AcDbVertex
100
AcDb2dVertex
 10
78.539369
 20
249.978417
 30
0.0
  0
VERTEX
  5
6CA
100
AcDbEntity
  8
1
100
AcDbVertex
100
AcDb2dVertex
 10
78.699504
 20
249.980647
 30
0.0
  0
VERTEX
  5
6CB
100
AcDbEntity
  8
1
100
AcDbVertex
100
AcDb2dVertex
 10
78.859648
 20
249.982948
 30
0.0
  0
VERTEX
  5
6CC
100
AcDbEntity
  8
1
100
AcDbVertex
100
AcDb2dVertex
 10
79.019821
 20
249.985319
 30
0.0
  0
VERTEX
  5
6CD
100
AcDbEntity
  8
1
100
AcDbVertex
100
AcDb2dVertex
 10
79.180044
 20
249.987759
 30
0.0
  0
VERTEX
  5
6CE
100
AcDbEntity
  8
1
100
AcDbVertex
100
AcDb2dVertex
 10
79.3403
 20
249.990269
 30
0.0
  0
VERTEX
  5
6CF
100
AcDbEntity
  8
1
100
AcDbVertex
100
AcDb2dVertex
 10
79.500557
 20
249.992849
 30
0.0
  0
VERTEX
  5
6D0
100
AcDbEntity
  8
1
100
AcDbVertex
100
AcDb2dVertex
 10
79.660816
 20
249.995499
 30
0.0
  0
VERTEX
  5
6D1
100
AcDbEntity
  8
1
100
AcDbVertex
100
AcDb2dVertex
 10
79.821076
 20
249.99822
 30
0.0
  0
VERTEX
  5
6D2
100
AcDbEntity
  8
1
100
AcDbVertex
100
AcDb2dVertex
 10
79.981337
 20
250.001011
 30
0.0
  0
VERTEX
  5
6D3
100
AcDbEntity
  8
1
100
AcDbVertex
100
AcDb2dVertex
 10
80.141599
 20
250.003872
 30
0.0
  0
VERTEX
  5
6D4
100
AcDbEntity
  8
1
100
AcDbVertex
100
AcDb2dVertex
 10
80.301862
 20
250.006804
 30
0.0
  0
VERTEX
  5
6D5
100
AcDbEntity
  8
1
100
AcDbVertex
100
AcDb2dVertex
 10
80.462127
 20
250.009805
 30
0.0
  0
VERTEX
  5
6D6
100
AcDbEntity
  8
1
100
AcDbVertex
100
AcDb2dVertex
 10
80.622393
 20
250.012878
 30
0.0
  0
VERTEX
  5
6D7
100
AcDbEntity
  8
1
100
AcDbVertex
100
AcDb2dVertex
 10
80.78266
 20
250.01602
 30
0.0
  0
SEQEND
  5
6D8
100
AcDbEntity
  8
1
  0
LINE
  5
6D9
100
AcDbEntity
  8
1
100
AcDbLine
 10
80.78266
 20
250.01602
 30
0.0
 11
81.584091
 21
250.03718
 31
0.0
  0
ENDBLK
  5
6DA
100
AcDbEntity
  8
0
100
AcDbBlockEnd
  0
BLOCK
  5
6DC
100
AcDbEntity
  8
0
100
AcDbBlockBegin
  2
NO_186328082
 70
    64
 10
65.55
 20
252.225
 30
0.0
  3
NO_186328082
  1

  0
INSERT
  5
6DD
100
AcDbEntity
  8
1
100
AcDbBlockReference
  2
NO_186328088
 10
49.911048
 20
246.40348
 30
0.0
  0
INSERT
  5
6DE
100
AcDbEntity
  8
1
100
AcDbBlockReference
  2
NO_186328093
 10
49.503103
 20
250.245963
 30
0.0
  0
TEXT
  5
6DF
100
AcDbEntity
  8
1
100
AcDbText
 10
67.488014
 20
251.640892
 30
0.0
 40
0.497574
  1
WING ROOT
 41
0.485995
  7
TXT
 72
     5
 11
69.583773
 21
251.640892
 31
0.0
100
AcDbText
  0
TEXT
  5
6E0
100
AcDbEntity
  8
1
100
AcDbText
 10
70.778131
 20
246.141138
 30
0.0
 40
0.497574
  1
WING TIP
 41
0.51054
  7
TXT
 72
     5
 11
72.641028
 21
246.141138
 31
0.0
100
AcDbText
  0
ENDBLK
  5
6E1
100
AcDbEntity
  8
0
100
AcDbBlockEnd
  0
BLOCK
  5
6E3
100
AcDbEntity
  8
0
100
AcDbBlockBegin
  2
NO_186328110
 70
    64
 10
1.884698
 20
251.181237
 30
0.0
  3
NO_186328110
  1

  0
POLYLINE
  5
6E4
100
AcDbEntity
  8
1
100
AcDb2dPolyline
 66
     1
 10
0.0
 20
0.0
 30
0.0
  0
VERTEX
  5
6E5
100
AcDbEntity
  8
1
100
AcDbVertex
100
AcDb2dVertex
 10
1.884698
 20
249.375504
 30
0.0
  0
VERTEX
  5
6E6
100
AcDbEntity
  8
1
100
AcDbVertex
100
AcDb2dVertex
 10
1.898733
 20
249.312529
 30
0.0
  0
VERTEX
  5
6E7
100
AcDbEntity
  8
1
100
AcDbVertex
100
AcDb2dVertex
 10
1.9182
 20
249.250006
 30
0.0
  0
VERTEX
  5
6E8
100
AcDbEntity
  8
1
100
AcDbVertex
100
AcDb2dVertex
 10
1.943101
 20
249.187934
 30
0.0
  0
VERTEX
  5
6E9
100
AcDbEntity
  8
1
100
AcDbVertex
100
AcDb2dVertex
 10
1.973434
 20
249.126313
 30
0.0
  0
VERTEX
  5
6EA
100
AcDbEntity
  8
1
100
AcDbVertex
100
AcDb2dVertex
 10
2.009199
 20
249.065144
 30
0.0
  0
VERTEX
  5
6EB
100
AcDbEntity
  8
1
100
AcDbVertex
100
AcDb2dVertex
 10
2.050398
 20
249.004426
 30
0.0
  0
VERTEX
  5
6EC
100
AcDbEntity
  8
1
100
AcDbVertex
100
AcDb2dVertex
 10
2.097029
 20
248.94416
 30
0.0
  0
VERTEX
  5
6ED
100
AcDbEntity
  8
1
100
AcDbVertex
100
AcDb2dVertex
 10
2.149093
 20
248.884345
 30
0.0
  0
VERTEX
  5
6EE
100
AcDbEntity
  8
1
100
AcDbVertex
100
AcDb2dVertex
 10
2.20659
 20
248.824982
 30
0.0
  0
VERTEX
  5
6EF
100
AcDbEntity
  8
1
100
AcDbVertex
100
AcDb2dVertex
 10
2.269519
 20
248.76607
 30
0.0
  0
VERTEX
  5
6F0
100
AcDbEntity
  8
1
100
AcDbVertex
100
AcDb2dVertex
 10
2.269519
 20
248.76607
 30
0.0
  0
VERTEX
  5
6F1
100
AcDbEntity
  8
1
100
AcDbVertex
100
AcDb2dVertex
 10
2.339104
 20
248.705984
 30
0.0
  0
VERTEX
  5
6F2
100
AcDbEntity
  8
1
100
AcDbVertex
100
AcDb2dVertex
 10
2.416023
 20
248.643821
 30
0.0
  0
VERTEX
  5
6F3
100
AcDbEntity
  8
1
100
AcDbVertex
100
AcDb2dVertex
 10
2.499461
 20
248.580666
 30
0.0
  0
VERTEX
  5
6F4
100
AcDbEntity
  8
1
100
AcDbVertex
100
AcDb2dVertex
 10
2.588603
 20
248.517601
 30
0.0
  0
VERTEX
  5
6F5
100
AcDbEntity
  8
1
100
AcDbVertex
100
AcDb2dVertex
 10
2.682635
 20
248.455709
 30
0.0
  0
VERTEX
  5
6F6
100
AcDbEntity
  8
1
100
AcDbVertex
100
AcDb2dVertex
 10
2.780742
 20
248.396075
 30
0.0
  0
VERTEX
  5
6F7
100
AcDbEntity
  8
1
100
AcDbVertex
100
AcDb2dVertex
 10
2.882108
 20
248.339781
 30
0.0
  0
VERTEX
  5
6F8
100
AcDbEntity
  8
1
100
AcDbVertex
100
AcDb2dVertex
 10
2.985919
 20
248.287912
 30
0.0
  0
VERTEX
  5
6F9
100
AcDbEntity
  8
1
100
AcDbVertex
100
AcDb2dVertex
 10
3.09136
 20
248.241549
 30
0.0
  0
VERTEX
  5
6FA
100
AcDbEntity
  8
1
100
AcDbVertex
100
AcDb2dVertex
 10
3.197616
 20
248.201778
 30
0.0
  0
VERTEX
  5
6FB
100
AcDbEntity
  8
1
100
AcDbVertex
100
AcDb2dVertex
 10
3.305366
 20
248.167695
 30
0.0
  0
VERTEX
  5
6FC
100
AcDbEntity
  8
1
100
AcDbVertex
100
AcDb2dVertex
 10
3.415832
 20
248.137675
 30
0.0
  0
VERTEX
  5
6FD
100
AcDbEntity
  8
1
100
AcDbVertex
100
AcDb2dVertex
 10
3.529015
 20
248.111717
 30
0.0
  0
VERTEX
  5
6FE
100
AcDbEntity
  8
1
100
AcDbVertex
100
AcDb2dVertex
 10
3.644914
 20
248.089823
 30
0.0
  0
VERTEX
  5
6FF
100
AcDbEntity
  8
1
100
AcDbVertex
100
AcDb2dVertex
 10
3.763529
 20
248.071991
 30
0.0
  0
VERTEX
  5
700
100
AcDbEntity
  8
1
100
AcDbVertex
100
AcDb2dVertex
 10
3.884861
 20
248.058222
 30
0.0
  0
VERTEX
  5
701
100
AcDbEntity
  8
1
100
AcDbVertex
100
AcDb2dVertex
 10
4.008909
 20
248.048517
 30
0.0
  0
VERTEX
  5
702
100
AcDbEntity
  8
1
100
AcDbVertex
100
AcDb2dVertex
 10
4.135673
 20
248.042874
 30
0.0
  0
VERTEX
  5
703
100
AcDbEntity
  8
1
100
AcDbVertex
100
AcDb2dVertex
 10
4.265154
 20
248.041294
 30
0.0
  0
VERTEX
  5
704
100
AcDbEntity
  8
1
100
AcDbVertex
100
AcDb2dVertex
 10
4.397351
 20
248.043777
 30
0.0
  0
SEQEND
  5
705
100
AcDbEntity
  8
1
  0
POLYLINE
  5
706
100
AcDbEntity
  8
1
100
AcDb2dPolyline
 66
     1
 10
0.0
 20
0.0
 30
0.0
  0
VERTEX
  5
707
100
AcDbEntity
  8
1
100
AcDbVertex
100
AcDb2dVertex
 10
4.397351
 20
251.181237
 30
0.0
  0
VERTEX
  5
708
100
AcDbEntity
  8
1
100
AcDbVertex
100
AcDb2dVertex
 10
4.214735
 20
251.182365
 30
0.0
  0
VERTEX
  5
709
100
AcDbEntity
  8
1
100
AcDbVertex
100
AcDb2dVertex
 10
4.039298
 20
251.181237
 30
0.0
  0
VERTEX
  5
70A
100
AcDbEntity
  8
1
100
AcDbVertex
100
AcDb2dVertex
 10
3.87104
 20
251.177851
 30
0.0
  0
VERTEX
  5
70B
100
AcDbEntity
  8
1
100
AcDbVertex
100
AcDb2dVertex
 10
3.709961
 20
251.172208
 30
0.0
  0
VERTEX
  5
70C
100
AcDbEntity
  8
1
100
AcDbVertex
100
AcDb2dVertex
 10
3.556061
 20
251.164308
 30
0.0
  0
VERTEX
  5
70D
100
AcDbEntity
  8
1
100
AcDbVertex
100
AcDb2dVertex
 10
3.40934
 20
251.154151
 30
0.0
  0
VERTEX
  5
70E
100
AcDbEntity
  8
1
100
AcDbVertex
100
AcDb2dVertex
 10
3.269798
 20
251.141736
 30
0.0
  0
VERTEX
  5
70F
100
AcDbEntity
  8
1
100
AcDbVertex
100
AcDb2dVertex
 10
3.137435
 20
251.127065
 30
0.0
  0
VERTEX
  5
710
100
AcDbEntity
  8
1
100
AcDbVertex
100
AcDb2dVertex
 10
3.012251
 20
251.110136
 30
0.0
  0
VERTEX
  5
711
100
AcDbEntity
  8
1
100
AcDbVertex
100
AcDb2dVertex
 10
2.894246
 20
251.09095
 30
0.0
  0
VERTEX
  5
712
100
AcDbEntity
  8
1
100
AcDbVertex
100
AcDb2dVertex
 10
2.894246
 20
251.09095
 30
0.0
  0
VERTEX
  5
713
100
AcDbEntity
  8
1
100
AcDbVertex
100
AcDb2dVertex
 10
2.784127
 20
251.072148
 30
0.0
  0
VERTEX
  5
714
100
AcDbEntity
  8
1
100
AcDbVertex
100
AcDb2dVertex
 10
2.682286
 20
251.055197
 30
0.0
  0
VERTEX
  5
715
100
AcDbEntity
  8
1
100
AcDbVertex
100
AcDb2dVertex
 10
2.588252
 20
251.038336
 30
0.0
  0
VERTEX
  5
716
100
AcDbEntity
  8
1
100
AcDbVertex
100
AcDb2dVertex
 10
2.501555
 20
251.019804
 30
0.0
  0
VERTEX
  5
717
100
AcDbEntity
  8
1
100
AcDbVertex
100
AcDb2dVertex
 10
2.421722
 20
250.997842
 30
0.0
  0
VERTEX
  5
718
100
AcDbEntity
  8
1
100
AcDbVertex
100
AcDb2dVertex
 10
2.348283
 20
250.970688
 30
0.0
  0
VERTEX
  5
719
100
AcDbEntity
  8
1
100
AcDbVertex
100
AcDb2dVertex
 10
2.280767
 20
250.936583
 30
0.0
  0
VERTEX
  5
71A
100
AcDbEntity
  8
1
100
AcDbVertex
100
AcDb2dVertex
 10
2.218702
 20
250.893764
 30
0.0
  0
VERTEX
  5
71B
100
AcDbEntity
  8
1
100
AcDbVertex
100
AcDb2dVertex
 10
2.161617
 20
250.840472
 30
0.0
  0
VERTEX
  5
71C
100
AcDbEntity
  8
1
100
AcDbVertex
100
AcDb2dVertex
 10
2.109042
 20
250.774947
 30
0.0
  0
VERTEX
  5
71D
100
AcDbEntity
  8
1
100
AcDbVertex
100
AcDb2dVertex
 10
2.061369
 20
250.698655
 30
0.0
  0
VERTEX
  5
71E
100
AcDbEntity
  8
1
100
AcDbVertex
100
AcDb2dVertex
 10
2.019305
 20
250.614237
 30
0.0
  0
VERTEX
  5
71F
100
AcDbEntity
  8
1
100
AcDbVertex
100
AcDb2dVertex
 10
1.982849
 20
250.521693
 30
0.0
  0
VERTEX
  5
720
100
AcDbEntity
  8
1
100
AcDbVertex
100
AcDb2dVertex
 10
1.952002
 20
250.421023
 30
0.0
  0
VERTEX
  5
721
100
AcDbEntity
  8
1
100
AcDbVertex
100
AcDb2dVertex
 10
1.926763
 20
250.312228
 30
0.0
  0
VERTEX
  5
722
100
AcDbEntity
  8
1
100
AcDbVertex
100
AcDb2dVertex
 10
1.907133
 20
250.195307
 30
0.0
  0
VERTEX
  5
723
100
AcDbEntity
  8
1
100
AcDbVertex
100
AcDb2dVertex
 10
1.893111
 20
250.07026
 30
0.0
  0
VERTEX
  5
724
100
AcDbEntity
  8
1
100
AcDbVertex
100
AcDb2dVertex
 10
1.884698
 20
249.937087
 30
0.0
  0
VERTEX
  5
725
100
AcDbEntity
  8
1
100
AcDbVertex
100
AcDb2dVertex
 10
1.881894
 20
249.795788
 30
0.0
  0
VERTEX
  5
726
100
AcDbEntity
  8
1
100
AcDbVertex
100
AcDb2dVertex
 10
1.884698
 20
249.646364
 30
0.0
  0
SEQEND
  5
727
100
AcDbEntity
  8
1
  0
LWPOLYLINE
  5
728
100
AcDbEntity
  8
1
100
AcDbPolyline
 90
       61
 70
     1
 10
4.397351
 20
250.142941
 10
4.449407
 20
250.14022
 10
4.500892
 20
250.132089
 10
4.551243
 20
250.118636
 10
4.599907
 20
250.100009
 10
4.646353
 20
250.076412
 10
4.69007
 20
250.048103
 10
4.730581
 20
250.015392
 10
4.76744
 20
249.978639
 10
4.800244
 20
249.938244
 10
4.828635
 20
249.894652
 10
4.8523
 20
249.84834
 10
4.870981
 20
249.799815
 10
4.884472
 20
249.749608
 10
4.892626
 20
249.69827
 10
4.895355
 20
249.646364
 10
4.892626
 20
249.594458
 10
4.884472
 20
249.54312
 10
4.870981
 20
249.492914
 10
4.8523
 20
249.444388
 10
4.828635
 20
249.398076
 10
4.800244
 20
249.354484
 10
4.76744
 20
249.31409
 10
4.730581
 20
249.277336
 10
4.69007
 20
249.244625
 10
4.646353
 20
249.216316
 10
4.599907
 20
249.192719
 10
4.551243
 20
249.174092
 10
4.500892
 20
249.160639
 10
4.449407
 20
249.152508
 10
4.397351
 20
249.149788
 10
4.345296
 20
249.152508
 10
4.293811
 20
249.160639
 10
4.24346
 20
249.174092
 10
4.194795
 20
249.192719
 10
4.14835
 20
249.216316
 10
4.104632
 20
249.244625
 10
4.064122
 20
249.277336
 10
4.027263
 20
249.31409
 10
3.994458
 20
249.354484
 10
3.966068
 20
249.398076
 10
3.942403
 20
249.444388
 10
3.923722
 20
249.492914
 10
3.910231
 20
249.54312
 10
3.902076
 20
249.594458
 10
3.899348
 20
249.646364
 10
3.902076
 20
249.69827
 10
3.910231
 20
249.749608
 10
3.923722
 20
249.799815
 10
3.942403
 20
249.84834
 10
3.966068
 20
249.894652
 10
3.994458
 20
249.938244
 10
4.027263
 20
249.978639
 10
4.064122
 20
250.015392
 10
4.104632
 20
250.048103
 10
4.14835
 20
250.076412
 10
4.194795
 20
250.100009
 10
4.24346
 20
250.118636
 10
4.293811
 20
250.132089
 10
4.345296
 20
250.14022
 10
4.397351
 20
250.142941
  0
LWPOLYLINE
  5
767
100
AcDbEntity
  8
1
100
AcDbPolyline
 90
       61
 70
     1
 10
3.672983
 20
249.736651
 10
3.682448
 20
249.736156
 10
3.691808
 20
249.734678
 10
3.700963
 20
249.732232
 10
3.709811
 20
249.728845
 10
3.718256
 20
249.724555
 10
3.726205
 20
249.719408
 10
3.73357
 20
249.71346
 10
3.740272
 20
249.706778
 10
3.746236
 20
249.699433
 10
3.751398
 20
249.691507
 10
3.755701
 20
249.683087
 10
3.759097
 20
249.674264
 10
3.76155
 20
249.665136
 10
3.763033
 20
249.655802
 10
3.763529
 20
249.646364
 10
3.763033
 20
249.636927
 10
3.76155
 20
249.627592
 10
3.759097
 20
249.618464
 10
3.755701
 20
249.609641
 10
3.751398
 20
249.601221
 10
3.746236
 20
249.593295
 10
3.740272
 20
249.585951
 10
3.73357
 20
249.579268
 10
3.726205
 20
249.573321
 10
3.718256
 20
249.568174
 10
3.709811
 20
249.563883
 10
3.700963
 20
249.560496
 10
3.691808
 20
249.55805
 10
3.682448
 20
249.556572
 10
3.672983
 20
249.556077
 10
3.663518
 20
249.556572
 10
3.654157
 20
249.55805
 10
3.645003
 20
249.560496
 10
3.636154
 20
249.563883
 10
3.62771
 20
249.568174
 10
3.619761
 20
249.573321
 10
3.612396
 20
249.579268
 10
3.605694
 20
249.585951
 10
3.59973
 20
249.593295
 10
3.594568
 20
249.601221
 10
3.590265
 20
249.609641
 10
3.586868
 20
249.618464
 10
3.584415
 20
249.627592
 10
3.582933
 20
249.636927
 10
3.582437
 20
249.646364
 10
3.582933
 20
249.655802
 10
3.584415
 20
249.665136
 10
3.586868
 20
249.674264
 10
3.590265
 20
249.683087
 10
3.594568
 20
249.691507
 10
3.59973
 20
249.699433
 10
3.605694
 20
249.706778
 10
3.612396
 20
249.71346
 10
3.619761
 20
249.719408
 10
3.62771
 20
249.724555
 10
3.636154
 20
249.728845
 10
3.645003
 20
249.732232
 10
3.654157
 20
249.734678
 10
3.663518
 20
249.736156
 10
3.672983
 20
249.736651
  0
LWPOLYLINE
  5
7A6
100
AcDbEntity
  8
1
100
AcDbPolyline
 90
       61
 70
     1
 10
5.12172
 20
249.736651
 10
5.131184
 20
249.736156
 10
5.140545
 20
249.734678
 10
5.1497
 20
249.732232
 10
5.158548
 20
249.728845
 10
5.166993
 20
249.724555
 10
5.174941
 20
249.719408
 10
5.182307
 20
249.71346
 10
5.189008
 20
249.706778
 10
5.194973
 20
249.699433
 10
5.200135
 20
249.691507
 10
5.204438
 20
249.683087
 10
5.207834
 20
249.674264
 10
5.210287
 20
249.665136
 10
5.21177
 20
249.655802
 10
5.212266
 20
249.646364
 10
5.21177
 20
249.636927
 10
5.210287
 20
249.627592
 10
5.207834
 20
249.618464
 10
5.204438
 20
249.609641
 10
5.200135
 20
249.601221
 10
5.194973
 20
249.593295
 10
5.189008
 20
249.585951
 10
5.182307
 20
249.579268
 10
5.174941
 20
249.573321
 10
5.166993
 20
249.568174
 10
5.158548
 20
249.563883
 10
5.1497
 20
249.560496
 10
5.140545
 20
249.55805
 10
5.131184
 20
249.556572
 10
5.12172
 20
249.556077
 10
5.112255
 20
249.556572
 10
5.102894
 20
249.55805
 10
5.093739
 20
249.560496
 10
5.084891
 20
249.563883
 10
5.076447
 20
249.568174
 10
5.068498
 20
249.573321
 10
5.061133
 20
249.579268
 10
5.054431
 20
249.585951
 10
5.048466
 20
249.593295
 10
5.043304
 20
249.601221
 10
5.039002
 20
249.609641
 10
5.035605
 20
249.618464
 10
5.033152
 20
249.627592
 10
5.03167
 20
249.636927
 10
5.031174
 20
249.646364
 10
5.03167
 20
249.655802
 10
5.033152
 20
249.665136
 10
5.035605
 20
249.674264
 10
5.039002
 20
249.683087
 10
5.043304
 20
249.691507
 10
5.048466
 20
249.699433
 10
5.054431
 20
249.706778
 10
5.061133
 20
249.71346
 10
5.068498
 20
249.719408
 10
5.076447
 20
249.724555
 10
5.084891
 20
249.728845
 10
5.093739
 20
249.732232
 10
5.102894
 20
249.734678
 10
5.112255
 20
249.736156
 10
5.12172
 20
249.736651
  0
POLYLINE
  5
7E5
100
AcDbEntity
  8
1
100
AcDb2dPolyline
 66
     1
 10
0.0
 20
0.0
 30
0.0
  0
VERTEX
  5
7E6
100
AcDbEntity
  8
1
100
AcDbVertex
100
AcDb2dVertex
 10
4.397351
 20
251.181237
 30
0.0
  0
VERTEX
  5
7E7
100
AcDbEntity
  8
1
100
AcDbVertex
100
AcDb2dVertex
 10
4.579967
 20
251.182365
 30
0.0
  0
VERTEX
  5
7E8
100
AcDbEntity
  8
1
100
AcDbVertex
100
AcDb2dVertex
 10
4.755404
 20
251.181237
 30
0.0
  0
VERTEX
  5
7E9
100
AcDbEntity
  8
1
100
AcDbVertex
100
AcDb2dVertex
 10
4.923662
 20
251.177851
 30
0.0
  0
VERTEX
  5
7EA
100
AcDbEntity
  8
1
100
AcDbVertex
100
AcDb2dVertex
 10
5.084741
 20
251.172208
 30
0.0
  0
VERTEX
  5
7EB
100
AcDbEntity
  8
1
100
AcDbVertex
100
AcDb2dVertex
 10
5.238641
 20
251.164308
 30
0.0
  0
VERTEX
  5
7EC
100
AcDbEntity
  8
1
100
AcDbVertex
100
AcDb2dVertex
 10
5.385362
 20
251.154151
 30
0.0
  0
VERTEX
  5
7ED
100
AcDbEntity
  8
1
100
AcDbVertex
100
AcDb2dVertex
 10
5.524904
 20
251.141736
 30
0.0
  0
VERTEX
  5
7EE
100
AcDbEntity
  8
1
100
AcDbVertex
100
AcDb2dVertex
 10
5.657267
 20
251.127065
 30
0.0
  0
VERTEX
  5
7EF
100
AcDbEntity
  8
1
100
AcDbVertex
100
AcDb2dVertex
 10
5.782451
 20
251.110136
 30
0.0
  0
VERTEX
  5
7F0
100
AcDbEntity
  8
1
100
AcDbVertex
100
AcDb2dVertex
 10
5.900456
 20
251.09095
 30
0.0
  0
VERTEX
  5
7F1
100
AcDbEntity
  8
1
100
AcDbVertex
100
AcDb2dVertex
 10
5.900456
 20
251.09095
 30
0.0
  0
VERTEX
  5
7F2
100
AcDbEntity
  8
1
100
AcDbVertex
100
AcDb2dVertex
 10
6.010575
 20
251.072148
 30
0.0
  0
VERTEX
  5
7F3
100
AcDbEntity
  8
1
100
AcDbVertex
100
AcDb2dVertex
 10
6.112416
 20
251.055197
 30
0.0
  0
VERTEX
  5
7F4
100
AcDbEntity
  8
1
100
AcDbVertex
100
AcDb2dVertex
 10
6.20645
 20
251.038336
 30
0.0
  0
VERTEX
  5
7F5
100
AcDbEntity
  8
1
100
AcDbVertex
100
AcDb2dVertex
 10
6.293148
 20
251.019804
 30
0.0
  0
VERTEX
  5
7F6
100
AcDbEntity
  8
1
100
AcDbVertex
100
AcDb2dVertex
 10
6.372981
 20
250.997842
 30
0.0
  0
VERTEX
  5
7F7
100
AcDbEntity
  8
1
100
AcDbVertex
100
AcDb2dVertex
 10
6.44642
 20
250.970688
 30
0.0
  0
VERTEX
  5
7F8
100
AcDbEntity
  8
1
100
AcDbVertex
100
AcDb2dVertex
 10
6.513936
 20
250.936583
 30
0.0
  0
VERTEX
  5
7F9
100
AcDbEntity
  8
1
100
AcDbVertex
100
AcDb2dVertex
 10
6.576001
 20
250.893764
 30
0.0
  0
VERTEX
  5
7FA
100
AcDbEntity
  8
1
100
AcDbVertex
100
AcDb2dVertex
 10
6.633085
 20
250.840472
 30
0.0
  0
VERTEX
  5
7FB
100
AcDbEntity
  8
1
100
AcDbVertex
100
AcDb2dVertex
 10
6.68566
 20
250.774947
 30
0.0
  0
VERTEX
  5
7FC
100
AcDbEntity
  8
1
100
AcDbVertex
100
AcDb2dVertex
 10
6.733333
 20
250.698655
 30
0.0
  0
VERTEX
  5
7FD
100
AcDbEntity
  8
1
100
AcDbVertex
100
AcDb2dVertex
 10
6.775398
 20
250.614237
 30
0.0
  0
VERTEX
  5
7FE
100
AcDbEntity
  8
1
100
AcDbVertex
100
AcDb2dVertex
 10
6.811854
 20
250.521693
 30
0.0
  0
VERTEX
  5
7FF
100
AcDbEntity
  8
1
100
AcDbVertex
100
AcDb2dVertex
 10
6.842701
 20
250.421023
 30
0.0
  0
VERTEX
  5
800
100
AcDbEntity
  8
1
100
AcDbVertex
100
AcDb2dVertex
 10
6.86794
 20
250.312228
 30
0.0
  0
VERTEX
  5
801
100
AcDbEntity
  8
1
100
AcDbVertex
100
AcDb2dVertex
 10
6.88757
 20
250.195307
 30
0.0
  0
VERTEX
  5
802
100
AcDbEntity
  8
1
100
AcDbVertex
100
AcDb2dVertex
 10
6.901591
 20
250.07026
 30
0.0
  0
VERTEX
  5
803
100
AcDbEntity
  8
1
100
AcDbVertex
100
AcDb2dVertex
 10
6.910004
 20
249.937087
 30
0.0
  0
VERTEX
  5
804
100
AcDbEntity
  8
1
100
AcDbVertex
100
AcDb2dVertex
 10
6.912808
 20
249.795788
 30
0.0
  0
VERTEX
  5
805
100
AcDbEntity
  8
1
100
AcDbVertex
100
AcDb2dVertex
 10
6.910004
 20
249.646364
 30
0.0
  0
SEQEND
  5
806
100
AcDbEntity
  8
1
  0
POLYLINE
  5
807
100
AcDbEntity
  8
1
100
AcDb2dPolyline
 66
     1
 10
0.0
 20
0.0
 30
0.0
  0
VERTEX
  5
808
100
AcDbEntity
  8
1
100
AcDbVertex
100
AcDb2dVertex
 10
6.910004
 20
249.375504
 30
0.0
  0
VERTEX
  5
809
100
AcDbEntity
  8
1
100
AcDbVertex
100
AcDb2dVertex
 10
6.895969
 20
249.312529
 30
0.0
  0
VERTEX
  5
80A
100
AcDbEntity
  8
1
100
AcDbVertex
100
AcDb2dVertex
 10
6.876502
 20
249.250006
 30
0.0
  0
VERTEX
  5
80B
100
AcDbEntity
  8
1
100
AcDbVertex
100
AcDb2dVertex
 10
6.851602
 20
249.187934
 30
0.0
  0
VERTEX
  5
80C
100
AcDbEntity
  8
1
100
AcDbVertex
100
AcDb2dVertex
 10
6.821269
 20
249.126313
 30
0.0
  0
VERTEX
  5
80D
100
AcDbEntity
  8
1
100
AcDbVertex
100
AcDb2dVertex
 10
6.785503
 20
249.065144
 30
0.0
  0
VERTEX
  5
80E
100
AcDbEntity
  8
1
100
AcDbVertex
100
AcDb2dVertex
 10
6.744305
 20
249.004426
 30
0.0
  0
VERTEX
  5
80F
100
AcDbEntity
  8
1
100
AcDbVertex
100
AcDb2dVertex
 10
6.697674
 20
248.94416
 30
0.0
  0
VERTEX
  5
810
100
AcDbEntity
  8
1
100
AcDbVertex
100
AcDb2dVertex
 10
6.64561
 20
248.884345
 30
0.0
  0
VERTEX
  5
811
100
AcDbEntity
  8
1
100
AcDbVertex
100
AcDb2dVertex
 10
6.588113
 20
248.824982
 30
0.0
  0
VERTEX
  5
812
100
AcDbEntity
  8
1
100
AcDbVertex
100
AcDb2dVertex
 10
6.525183
 20
248.76607
 30
0.0
  0
VERTEX
  5
813
100
AcDbEntity
  8
1
100
AcDbVertex
100
AcDb2dVertex
 10
6.525183
 20
248.76607
 30
0.0
  0
VERTEX
  5
814
100
AcDbEntity
  8
1
100
AcDbVertex
100
AcDb2dVertex
 10
6.455599
 20
248.705984
 30
0.0
  0
VERTEX
  5
815
100
AcDbEntity
  8
1
100
AcDbVertex
100
AcDb2dVertex
 10
6.37868
 20
248.643821
 30
0.0
  0
VERTEX
  5
816
100
AcDbEntity
  8
1
100
AcDbVertex
100
AcDb2dVertex
 10
6.295242
 20
248.580666
 30
0.0
  0
VERTEX
  5
817
100
AcDbEntity
  8
1
100
AcDbVertex
100
AcDb2dVertex
 10
6.206099
 20
248.517601
 30
0.0
  0
VERTEX
  5
818
100
AcDbEntity
  8
1
100
AcDbVertex
100
AcDb2dVertex
 10
6.112067
 20
248.455709
 30
0.0
  0
VERTEX
  5
819
100
AcDbEntity
  8
1
100
AcDbVertex
100
AcDb2dVertex
 10
6.01396
 20
248.396075
 30
0.0
  0
VERTEX
  5
81A
100
AcDbEntity
  8
1
100
AcDbVertex
100
AcDb2dVertex
 10
5.912594
 20
248.339781
 30
0.0
  0
VERTEX
  5
81B
100
AcDbEntity
  8
1
100
AcDbVertex
100
AcDb2dVertex
 10
5.808783
 20
248.287912
 30
0.0
  0
VERTEX
  5
81C
100
AcDbEntity
  8
1
100
AcDbVertex
100
AcDb2dVertex
 10
5.703342
 20
248.241549
 30
0.0
  0
VERTEX
  5
81D
100
AcDbEntity
  8
1
100
AcDbVertex
100
AcDb2dVertex
 10
5.597086
 20
248.201778
 30
0.0
  0
VERTEX
  5
81E
100
AcDbEntity
  8
1
100
AcDbVertex
100
AcDb2dVertex
 10
5.489337
 20
248.167695
 30
0.0
  0
VERTEX
  5
81F
100
AcDbEntity
  8
1
100
AcDbVertex
100
AcDb2dVertex
 10
5.37887
 20
248.137675
 30
0.0
  0
VERTEX
  5
820
100
AcDbEntity
  8
1
100
AcDbVertex
100
AcDb2dVertex
 10
5.265688
 20
248.111717
 30
0.0
  0
VERTEX
  5
821
100
AcDbEntity
  8
1
100
AcDbVertex
100
AcDb2dVertex
 10
5.149789
 20
248.089823
 30
0.0
  0
VERTEX
  5
822
100
AcDbEntity
  8
1
100
AcDbVertex
100
AcDb2dVertex
 10
5.031174
 20
248.071991
 30
0.0
  0
VERTEX
  5
823
100
AcDbEntity
  8
1
100
AcDbVertex
100
AcDb2dVertex
 10
4.909842
 20
248.058222
 30
0.0
  0
VERTEX
  5
824
100
AcDbEntity
  8
1
100
AcDbVertex
100
AcDb2dVertex
 10
4.785794
 20
248.048517
 30
0.0
  0
VERTEX
  5
825
100
AcDbEntity
  8
1
100
AcDbVertex
100
AcDb2dVertex
 10
4.659029
 20
248.042874
 30
0.0
  0
VERTEX
  5
826
100
AcDbEntity
  8
1
100
AcDbVertex
100
AcDb2dVertex
 10
4.529549
 20
248.041294
 30
0.0
  0
VERTEX
  5
827
100
AcDbEntity
  8
1
100
AcDbVertex
100
AcDb2dVertex
 10
4.397351
 20
248.043777
 30
0.0
  0
SEQEND
  5
828
100
AcDbEntity
  8
1
  0
LWPOLYLINE
  5
829
100
AcDbEntity
  8
1
100
AcDbPolyline
 90
        4
 70
     1
 10
6.638366
 20
249.646364
 10
6.910004
 20
249.646364
 10
6.910004
 20
248.833784
 10
6.638366
 20
248.833784
  0
LWPOLYLINE
  5
82F
100
AcDbEntity
  8
1
100
AcDbPolyline
 90
        3
 70
     0
 10
6.910004
 20
249.646364
 10
6.638366
 20
249.646364
 10
6.638366
 20
248.878928
  0
LWPOLYLINE
  5
834
100
AcDbEntity
  8
1
100
AcDbPolyline
 90
        4
 70
     1
 10
1.884698
 20
249.646364
 10
2.156337
 20
249.646364
 10
2.156337
 20
248.833784
 10
1.884698
 20
248.833784
  0
LWPOLYLINE
  5
83A
100
AcDbEntity
  8
1
100
AcDbPolyline
 90
        3
 70
     0
 10
1.884698
 20
249.646364
 10
2.156337
 20
249.646364
 10
2.156337
 20
248.878928
  0
ENDBLK
  5
83F
100
AcDbEntity
  8
0
100
AcDbBlockEnd
  0
BLOCK
  5
841
100
AcDbEntity
  8
0
100
AcDbBlockBegin
  2
NO_186328104
 70
    64
 10
1.658333
 20
251.316667
 30
0.0
  3
NO_186328104
  1

  0
INSERT
  5
842
100
AcDbEntity
  8
1
100
AcDbBlockReference
  2
NO_186328110
 10
1.884698
 20
251.181237
 30
0.0
  0
LWPOLYLINE
  5
843
100
AcDbEntity
  8
1
100
AcDbPolyline
 90
        4
 70
     1
 10
1.658333
 20
251.316667
 10
7.226915
 20
251.316667
 10
7.226915
 20
247.27634
 10
1.658333
 20
247.27634
  0
ENDBLK
  5
849
100
AcDbEntity
  8
0
100
AcDbBlockEnd
  0
BLOCK
  5
84B
100
AcDbEntity
  8
0
100
AcDbBlockBegin
  2
NO_186328099
 70
    64
 10
1.658333
 20
251.316667
 30
0.0
  3
NO_186328099
  1

  0
INSERT
  5
84C
100
AcDbEntity
  8
1
100
AcDbBlockReference
  2
NO_186328104
 10
1.658333
 20
251.316667
 30
0.0
  0
TEXT
  5
84D
100
AcDbEntity
  8
1
100
AcDbText
 10
3.982349
 20
246.621887
 30
0.0
 40
0.499814
  1
12mm BALSA
 41
0.501424
  7
TXT
 72
     5
 11
6.321455
 21
246.621887
 31
0.0
100
AcDbText
  0
TEXT
  5
84E
100
AcDbEntity
  8
1
100
AcDbText
 10
7.989011
 20
249.714204
 30
0.0
 40
0.499814
  1
3mm PLY
 41
0.491395
  7
TXT
 72
     5
 11
9.626386
 21
249.714204
 31
0.0
100
AcDbText
  0
TEXT
  5
84F
100
AcDbEntity
  8
1
100
AcDbText
 10
7.989011
 20
249.104769
 30
0.0
 40
0.499814
  1
BULKHEAD
 41
0.488343
  7
TXT
 72
     5
 11
9.860296
 21
249.104769
 31
0.0
100
AcDbText
  0
ENDBLK
  5
850
100
AcDbEntity
  8
0
100
AcDbBlockEnd
  0
BLOCK
  5
852
100
AcDbEntity
  8
0
100
AcDbBlockBegin
  2
NO_186328121
 70
    64
 10
12.066667
 20
249.475
 30
0.0
  3
NO_186328121
  1

  0
POLYLINE
  5
853
100
AcDbEntity
  8
1
100
AcDb2dPolyline
 66
     1
 10
0.0
 20
0.0
 30
0.0
 70
     1
  0
VERTEX
  5
854
100
AcDbEntity
  8
1
100
AcDbVertex
100
AcDb2dVertex
 10
12.066667
 20
248.659466
 30
0.0
  0
VERTEX
  5
855
100
AcDbEntity
  8
1
100
AcDbVertex
100
AcDb2dVertex
 10
12.338508
 20
248.659466
 30
0.0
  0
VERTEX
  5
856
100
AcDbEntity
  8
1
100
AcDbVertex
100
AcDb2dVertex
 10
12.338508
 20
249.475
 30
0.0
  0
VERTEX
  5
857
100
AcDbEntity
  8
1
100
AcDbVertex
100
AcDb2dVertex
 10
18.069825
 20
249.475
 30
0.0
  0
VERTEX
  5
858
100
AcDbEntity
  8
1
100
AcDbVertex
100
AcDb2dVertex
 10
18.069825
 20
248.659466
 30
0.0
  0
VERTEX
  5
859
100
AcDbEntity
  8
1
100
AcDbVertex
100
AcDb2dVertex
 10
18.341667
 20
248.659466
 30
0.0
  0
VERTEX
  5
85A
100
AcDbEntity
  8
1
100
AcDbVertex
100
AcDb2dVertex
 10
18.341667
 20
244.808333
 30
0.0
  0
VERTEX
  5
85B
100
AcDbEntity
  8
1
100
AcDbVertex
100
AcDb2dVertex
 10
12.066667
 20
244.808333
 30
0.0
  0
VERTEX
  5
85C
100
AcDbEntity
  8
1
100
AcDbVertex
100
AcDb2dVertex
 10
12.066667
 20
248.659466
 30
0.0
  0
VERTEX
  5
85D
100
AcDbEntity
  8
1
100
AcDbVertex
100
AcDb2dVertex
 10
12.066667
 20
248.659466
 30
0.0
  0
SEQEND
  5
85E
100
AcDbEntity
  8
1
  0
LWPOLYLINE
  5
85F
100
AcDbEntity
  8
1
100
AcDbPolyline
 90
       61
 70
     1
 10
15.215493
 20
245.284062
 10
15.229701
 20
245.283317
 10
15.243753
 20
245.281091
 10
15.257495
 20
245.277409
 10
15.270777
 20
245.27231
 10
15.283454
 20
245.265851
 10
15.295385
 20
245.258103
 10
15.306442
 20
245.249149
 10
15.316502
 20
245.239089
 10
15.325455
 20
245.228032
 10
15.333204
 20
245.2161
 10
15.339663
 20
245.203424
 10
15.344761
 20
245.190142
 10
15.348444
 20
245.176399
 10
15.350669
 20
245.162347
 10
15.351414
 20
245.148139
 10
15.350669
 20
245.133931
 10
15.348444
 20
245.119879
 10
15.344761
 20
245.106137
 10
15.339663
 20
245.092855
 10
15.333204
 20
245.080178
 10
15.325455
 20
245.068246
 10
15.316502
 20
245.057189
 10
15.306442
 20
245.047129
 10
15.295385
 20
245.038176
 10
15.283454
 20
245.030427
 10
15.270777
 20
245.023968
 10
15.257495
 20
245.018869
 10
15.243753
 20
245.015187
 10
15.229701
 20
245.012962
 10
15.215493
 20
245.012217
 10
15.201286
 20
245.012962
 10
15.187234
 20
245.015187
 10
15.173492
 20
245.018869
 10
15.160209
 20
245.023968
 10
15.147533
 20
245.030427
 10
15.135601
 20
245.038176
 10
15.124545
 20
245.047129
 10
15.114485
 20
245.057189
 10
15.105531
 20
245.068246
 10
15.097783
 20
245.080178
 10
15.091324
 20
245.092855
 10
15.086225
 20
245.106137
 10
15.082543
 20
245.119879
 10
15.080317
 20
245.133931
 10
15.079573
 20
245.148139
 10
15.080317
 20
245.162347
 10
15.082543
 20
245.176399
 10
15.086225
 20
245.190142
 10
15.091324
 20
245.203424
 10
15.097783
 20
245.2161
 10
15.105531
 20
245.228032
 10
15.114485
 20
245.239089
 10
15.124545
 20
245.249149
 10
15.135601
 20
245.258103
 10
15.147533
 20
245.265851
 10
15.160209
 20
245.27231
 10
15.173492
 20
245.277409
 10
15.187234
 20
245.281091
 10
15.201286
 20
245.283317
 10
15.215493
 20
245.284062
  0
ENDBLK
  5
89E
100
AcDbEntity
  8
0
100
AcDbBlockEnd
  0
BLOCK
  5
8A0
100
AcDbEntity
  8
0
100
AcDbBlockBegin
  2
NO_186328126
 70
    64
 10
15.033333
 20
258.241667
 30
0.0
  3
NO_186328126
  1

  0
LWPOLYLINE
  5
8A1
100
AcDbEntity
  8
1
100
AcDbPolyline
 90
       61
 70
     1
 10
15.780208
 20
256.928091
 10
15.858278
 20
256.923997
 10
15.935492
 20
256.911759
 10
16.011005
 20
256.891512
 10
16.08399
 20
256.863477
 10
16.153646
 20
256.827962
 10
16.21921
 20
256.785355
 10
16.279965
 20
256.736123
 10
16.335245
 20
256.680807
 10
16.384443
 20
256.620011
 10
16.427021
 20
256.554402
 10
16.462513
 20
256.484699
 10
16.490529
 20
256.411665
 10
16.510762
 20
256.336101
 10
16.522992
 20
256.258835
 10
16.527083
 20
256.180712
 10
16.522992
 20
256.10259
 10
16.510762
 20
256.025324
 10
16.490529
 20
255.94976
 10
16.462513
 20
255.876726
 10
16.427021
 20
255.807023
 10
16.384443
 20
255.741414
 10
16.335245
 20
255.680618
 10
16.279965
 20
255.625302
 10
16.21921
 20
255.57607
 10
16.153646
 20
255.533463
 10
16.08399
 20
255.497948
 10
16.011005
 20
255.469913
 10
15.935492
 20
255.449665
 10
15.858278
 20
255.437428
 10
15.780208
 20
255.433333
 10
15.702139
 20
255.437428
 10
15.624924
 20
255.449665
 10
15.549411
 20
255.469913
 10
15.476427
 20
255.497948
 10
15.406771
 20
255.533463
 10
15.341206
 20
255.57607
 10
15.280451
 20
255.625302
 10
15.225172
 20
255.680618
 10
15.175974
 20
255.741414
 10
15.133396
 20
255.807023
 10
15.097904
 20
255.876726
 10
15.069888
 20
255.94976
 10
15.049654
 20
256.025324
 10
15.037425
 20
256.10259
 10
15.033333
 20
256.180712
 10
15.037425
 20
256.258835
 10
15.049654
 20
256.336101
 10
15.069888
 20
256.411665
 10
15.097904
 20
256.484699
 10
15.133396
 20
256.554402
 10
15.175974
 20
256.620011
 10
15.225172
 20
256.680807
 10
15.280451
 20
256.736123
 10
15.341206
 20
256.785355
 10
15.406771
 20
256.827962
 10
15.476427
 20
256.863477
 10
15.549411
 20
256.891512
 10
15.624924
 20
256.911759
 10
15.702139
 20
256.923997
 10
15.780208
 20
256.928091
  0
LWPOLYLINE
  5
8E0
100
AcDbEntity
  8
1
100
AcDbPolyline
 90
       61
 70
     1
 10
17.273958
 20
256.928091
 10
17.352028
 20
256.923997
 10
17.429242
 20
256.911759
 10
17.504755
 20
256.891512
 10
17.57774
 20
256.863477
 10
17.647396
 20
256.827962
 10
17.71296
 20
256.785355
 10
17.773715
 20
256.736123
 10
17.828995
 20
256.680807
 10
17.878193
 20
256.620011
 10
17.920771
 20
256.554402
 10
17.956263
 20
256.484699
 10
17.984279
 20
256.411665
 10
18.004512
 20
256.336101
 10
18.016742
 20
256.258835
 10
18.020833
 20
256.180712
 10
18.016742
 20
256.10259
 10
18.004512
 20
256.025324
 10
17.984279
 20
255.94976
 10
17.956263
 20
255.876726
 10
17.920771
 20
255.807023
 10
17.878193
 20
255.741414
 10
17.828995
 20
255.680618
 10
17.773715
 20
255.625302
 10
17.71296
 20
255.57607
 10
17.647396
 20
255.533463
 10
17.57774
 20
255.497948
 10
17.504755
 20
255.469913
 10
17.429242
 20
255.449665
 10
17.352028
 20
255.437428
 10
17.273958
 20
255.433333
 10
17.195889
 20
255.437428
 10
17.118674
 20
255.449665
 10
17.043161
 20
255.469913
 10
16.970177
 20
255.497948
 10
16.900521
 20
255.533463
 10
16.834956
 20
255.57607
 10
16.774201
 20
255.625302
 10
16.718922
 20
255.680618
 10
16.669724
 20
255.741414
 10
16.627146
 20
255.807023
 10
16.591654
 20
255.876726
 10
16.563638
 20
255.94976
 10
16.543404
 20
256.025324
 10
16.531175
 20
256.10259
 10
16.527083
 20
256.180712
 10
16.531175
 20
256.258835
 10
16.543404
 20
256.336101
 10
16.563638
 20
256.411665
 10
16.591654
 20
256.484699
 10
16.627146
 20
256.554402
 10
16.669724
 20
256.620011
 10
16.718922
 20
256.680807
 10
16.774201
 20
256.736123
 10
16.834956
 20
256.785355
 10
16.900521
 20
256.827962
 10
16.970177
 20
256.863477
 10
17.043161
 20
256.891512
 10
17.118674
 20
256.911759
 10
17.195889
 20
256.923997
 10
17.273958
 20
256.928091
  0
LWPOLYLINE
  5
91F
100
AcDbEntity
  8
1
100
AcDbPolyline
 90
       61
 70
     1
 10
18.767708
 20
256.928091
 10
18.845778
 20
256.923997
 10
18.922992
 20
256.911759
 10
18.998505
 20
256.891512
 10
19.07149
 20
256.863477
 10
19.141146
 20
256.827962
 10
19.20671
 20
256.785355
 10
19.267465
 20
256.736123
 10
19.322744
 20
256.680807
 10
19.371943
 20
256.620011
 10
19.414521
 20
256.554402
 10
19.450012
 20
256.484699
 10
19.478029
 20
256.411665
 10
19.498262
 20
256.336101
 10
19.510492
 20
256.258835
 10
19.514583
 20
256.180712
 10
19.510492
 20
256.10259
 10
19.498262
 20
256.025324
 10
19.478029
 20
255.94976
 10
19.450012
 20
255.876726
 10
19.414521
 20
255.807023
 10
19.371943
 20
255.741414
 10
19.322744
 20
255.680618
 10
19.267465
 20
255.625302
 10
19.20671
 20
255.57607
 10
19.141146
 20
255.533463
 10
19.07149
 20
255.497948
 10
18.998505
 20
255.469913
 10
18.922992
 20
255.449665
 10
18.845778
 20
255.437428
 10
18.767708
 20
255.433333
 10
18.689639
 20
255.437428
 10
18.612424
 20
255.449665
 10
18.536911
 20
255.469913
 10
18.463927
 20
255.497948
 10
18.394271
 20
255.533463
 10
18.328706
 20
255.57607
 10
18.267951
 20
255.625302
 10
18.212672
 20
255.680618
 10
18.163474
 20
255.741414
 10
18.120896
 20
255.807023
 10
18.085404
 20
255.876726
 10
18.057388
 20
255.94976
 10
18.037154
 20
256.025324
 10
18.024925
 20
256.10259
 10
18.020833
 20
256.180712
 10
18.024925
 20
256.258835
 10
18.037154
 20
256.336101
 10
18.057388
 20
256.411665
 10
18.085404
 20
256.484699
 10
18.120896
 20
256.554402
 10
18.163474
 20
256.620011
 10
18.212672
 20
256.680807
 10
18.267951
 20
256.736123
 10
18.328706
 20
256.785355
 10
18.394271
 20
256.827962
 10
18.463927
 20
256.863477
 10
18.536911
 20
256.891512
 10
18.612424
 20
256.911759
 10
18.689639
 20
256.923997
 10
18.767708
 20
256.928091
  0
LWPOLYLINE
  5
95E
100
AcDbEntity
  8
1
100
AcDbPolyline
 90
       61
 70
     1
 10
20.261458
 20
256.928091
 10
20.339528
 20
256.923997
 10
20.416742
 20
256.911759
 10
20.492255
 20
256.891512
 10
20.56524
 20
256.863477
 10
20.634896
 20
256.827962
 10
20.70046
 20
256.785355
 10
20.761215
 20
256.736123
 10
20.816494
 20
256.680807
 10
20.865693
 20
256.620011
 10
20.908271
 20
256.554402
 10
20.943762
 20
256.484699
 10
20.971778
 20
256.411665
 10
20.992012
 20
256.336101
 10
21.004242
 20
256.258835
 10
21.008333
 20
256.180712
 10
21.004242
 20
256.10259
 10
20.992012
 20
256.025324
 10
20.971778
 20
255.94976
 10
20.943762
 20
255.876726
 10
20.908271
 20
255.807023
 10
20.865693
 20
255.741414
 10
20.816494
 20
255.680618
 10
20.761215
 20
255.625302
 10
20.70046
 20
255.57607
 10
20.634896
 20
255.533463
 10
20.56524
 20
255.497948
 10
20.492255
 20
255.469913
 10
20.416742
 20
255.449665
 10
20.339528
 20
255.437428
 10
20.261458
 20
255.433333
 10
20.183388
 20
255.437428
 10
20.106174
 20
255.449665
 10
20.030661
 20
255.469913
 10
19.957677
 20
255.497948
 10
19.888021
 20
255.533463
 10
19.822456
 20
255.57607
 10
19.761701
 20
255.625302
 10
19.706422
 20
255.680618
 10
19.657224
 20
255.741414
 10
19.614645
 20
255.807023
 10
19.579154
 20
255.876726
 10
19.551138
 20
255.94976
 10
19.530904
 20
256.025324
 10
19.518675
 20
256.10259
 10
19.514583
 20
256.180712
 10
19.518675
 20
256.258835
 10
19.530904
 20
256.336101
 10
19.551138
 20
256.411665
 10
19.579154
 20
256.484699
 10
19.614645
 20
256.554402
 10
19.657224
 20
256.620011
 10
19.706422
 20
256.680807
 10
19.761701
 20
256.736123
 10
19.822456
 20
256.785355
 10
19.888021
 20
256.827962
 10
19.957677
 20
256.863477
 10
20.030661
 20
256.891512
 10
20.106174
 20
256.911759
 10
20.183388
 20
256.923997
 10
20.261458
 20
256.928091
  0
LWPOLYLINE
  5
99D
100
AcDbEntity
  8
1
100
AcDbPolyline
 90
       61
 70
     1
 10
16.527083
 20
258.241667
 10
16.605153
 20
258.237572
 10
16.682367
 20
258.225335
 10
16.75788
 20
258.205087
 10
16.830865
 20
258.177052
 10
16.900521
 20
258.141537
 10
16.966085
 20
258.09893
 10
17.02684
 20
258.049699
 10
17.08212
 20
257.994382
 10
17.131318
 20
257.933586
 10
17.173896
 20
257.867977
 10
17.209388
 20
257.798274
 10
17.237404
 20
257.72524
 10
17.257637
 20
257.649676
 10
17.269867
 20
257.57241
 10
17.273958
 20
257.494288
 10
17.269867
 20
257.416165
 10
17.257637
 20
257.338899
 10
17.237404
 20
257.263335
 10
17.209388
 20
257.190301
 10
17.173896
 20
257.120598
 10
17.131318
 20
257.054989
 10
17.08212
 20
256.994193
 10
17.02684
 20
256.938877
 10
16.966085
 20
256.889645
 10
16.900521
 20
256.847038
 10
16.830865
 20
256.811523
 10
16.75788
 20
256.783488
 10
16.682367
 20
256.763241
 10
16.605153
 20
256.751003
 10
16.527083
 20
256.746909
 10
16.449014
 20
256.751003
 10
16.371799
 20
256.763241
 10
16.296286
 20
256.783488
 10
16.223302
 20
256.811523
 10
16.153646
 20
256.847038
 10
16.088081
 20
256.889645
 10
16.027326
 20
256.938877
 10
15.972047
 20
256.994193
 10
15.922849
 20
257.054989
 10
15.880271
 20
257.120598
 10
15.844779
 20
257.190301
 10
15.816763
 20
257.263335
 10
15.796529
 20
257.338899
 10
15.7843
 20
257.416165
 10
15.780208
 20
257.494288
 10
15.7843
 20
257.57241
 10
15.796529
 20
257.649676
 10
15.816763
 20
257.72524
 10
15.844779
 20
257.798274
 10
15.880271
 20
257.867977
 10
15.922849
 20
257.933586
 10
15.972047
 20
257.994382
 10
16.027326
 20
258.049699
 10
16.088081
 20
258.09893
 10
16.153646
 20
258.141537
 10
16.223302
 20
258.177052
 10
16.296286
 20
258.205087
 10
16.371799
 20
258.225335
 10
16.449014
 20
258.237572
 10
16.527083
 20
258.241667
  0
LWPOLYLINE
  5
9DC
100
AcDbEntity
  8
1
100
AcDbPolyline
 90
       61
 70
     1
 10
18.020833
 20
258.241667
 10
18.098903
 20
258.237572
 10
18.176117
 20
258.225335
 10
18.25163
 20
258.205087
 10
18.324615
 20
258.177052
 10
18.394271
 20
258.141537
 10
18.459835
 20
258.09893
 10
18.52059
 20
258.049699
 10
18.57587
 20
257.994382
 10
18.625068
 20
257.933586
 10
18.667646
 20
257.867977
 10
18.703137
 20
257.798274
 10
18.731154
 20
257.72524
 10
18.751387
 20
257.649676
 10
18.763617
 20
257.57241
 10
18.767708
 20
257.494288
 10
18.763617
 20
257.416165
 10
18.751387
 20
257.338899
 10
18.731154
 20
257.263335
 10
18.703137
 20
257.190301
 10
18.667646
 20
257.120598
 10
18.625068
 20
257.054989
 10
18.57587
 20
256.994193
 10
18.52059
 20
256.938877
 10
18.459835
 20
256.889645
 10
18.394271
 20
256.847038
 10
18.324615
 20
256.811523
 10
18.25163
 20
256.783488
 10
18.176117
 20
256.763241
 10
18.098903
 20
256.751003
 10
18.020833
 20
256.746909
 10
17.942764
 20
256.751003
 10
17.865549
 20
256.763241
 10
17.790036
 20
256.783488
 10
17.717052
 20
256.811523
 10
17.647396
 20
256.847038
 10
17.581831
 20
256.889645
 10
17.521076
 20
256.938877
 10
17.465797
 20
256.994193
 10
17.416599
 20
257.054989
 10
17.374021
 20
257.120598
 10
17.338529
 20
257.190301
 10
17.310513
 20
257.263335
 10
17.290279
 20
257.338899
 10
17.27805
 20
257.416165
 10
17.273958
 20
257.494288
 10
17.27805
 20
257.57241
 10
17.290279
 20
257.649676
 10
17.310513
 20
257.72524
 10
17.338529
 20
257.798274
 10
17.374021
 20
257.867977
 10
17.416599
 20
257.933586
 10
17.465797
 20
257.994382
 10
17.521076
 20
258.049699
 10
17.581831
 20
258.09893
 10
17.647396
 20
258.141537
 10
17.717052
 20
258.177052
 10
17.790036
 20
258.205087
 10
17.865549
 20
258.225335
 10
17.942764
 20
258.237572
 10
18.020833
 20
258.241667
  0
LWPOLYLINE
  5
A1B
100
AcDbEntity
  8
1
100
AcDbPolyline
 90
       61
 70
     1
 10
19.514583
 20
258.241667
 10
19.592653
 20
258.237572
 10
19.669867
 20
258.225335
 10
19.74538
 20
258.205087
 10
19.818365
 20
258.177052
 10
19.888021
 20
258.141537
 10
19.953585
 20
258.09893
 10
20.01434
 20
258.049699
 10
20.069619
 20
257.994382
 10
20.118818
 20
257.933586
 10
20.161396
 20
257.867977
 10
20.196887
 20
257.798274
 10
20.224904
 20
257.72524
 10
20.245137
 20
257.649676
 10
20.257367
 20
257.57241
 10
20.261458
 20
257.494288
 10
20.257367
 20
257.416165
 10
20.245137
 20
257.338899
 10
20.224904
 20
257.263335
 10
20.196887
 20
257.190301
 10
20.161396
 20
257.120598
 10
20.118818
 20
257.054989
 10
20.069619
 20
256.994193
 10
20.01434
 20
256.938877
 10
19.953585
 20
256.889645
 10
19.888021
 20
256.847038
 10
19.818365
 20
256.811523
 10
19.74538
 20
256.783488
 10
19.669867
 20
256.763241
 10
19.592653
 20
256.751003
 10
19.514583
 20
256.746909
 10
19.436513
 20
256.751003
 10
19.359299
 20
256.763241
 10
19.283786
 20
256.783488
 10
19.210802
 20
256.811523
 10
19.141146
 20
256.847038
 10
19.075581
 20
256.889645
 10
19.014826
 20
256.938877
 10
18.959547
 20
256.994193
 10
18.910349
 20
257.054989
 10
18.86777
 20
257.120598
 10
18.832279
 20
257.190301
 10
18.804263
 20
257.263335
 10
18.784029
 20
257.338899
 10
18.7718
 20
257.416165
 10
18.767708
 20
257.494288
 10
18.7718
 20
257.57241
 10
18.784029
 20
257.649676
 10
18.804263
 20
257.72524
 10
18.832279
 20
257.798274
 10
18.86777
 20
257.867977
 10
18.910349
 20
257.933586
 10
18.959547
 20
257.994382
 10
19.014826
 20
258.049699
 10
19.075581
 20
258.09893
 10
19.141146
 20
258.141537
 10
19.210802
 20
258.177052
 10
19.283786
 20
258.205087
 10
19.359299
 20
258.225335
 10
19.436513
 20
258.237572
 10
19.514583
 20
258.241667
  0
ENDBLK
  5
A5A
100
AcDbEntity
  8
0
100
AcDbBlockEnd
  0
BLOCK
  5
A5C
100
AcDbEntity
  8
0
100
AcDbBlockBegin
  2
NO_186328137
 70
    64
 10
-2.282041
 20
254.136047
 30
0.0
  3
NO_186328137
  1

  0
POLYLINE
  5
A5D
100
AcDbEntity
  8
1
100
AcDb2dPolyline
 66
     1
 10
0.0
 20
0.0
 30
0.0
  0
VERTEX
  5
A5E
100
AcDbEntity
  8
1
100
AcDbVertex
100
AcDb2dVertex
 10
29.869206
 20
253.926569
 30
0.0
  0
VERTEX
  5
A5F
100
AcDbEntity
  8
1
100
AcDbVertex
100
AcDb2dVertex
 10
29.82516
 20
253.932842
 30
0.0
  0
VERTEX
  5
A60
100
AcDbEntity
  8
1
100
AcDbVertex
100
AcDb2dVertex
 10
29.773108
 20
253.940385
 30
0.0
  0
VERTEX
  5
A61
100
AcDbEntity
  8
1
100
AcDbVertex
100
AcDb2dVertex
 10
29.713051
 20
253.949196
 30
0.0
  0
VERTEX
  5
A62
100
AcDbEntity
  8
1
100
AcDbVertex
100
AcDb2dVertex
 10
29.644987
 20
253.959276
 30
0.0
  0
VERTEX
  5
A63
100
AcDbEntity
  8
1
100
AcDbVertex
100
AcDb2dVertex
 10
29.568917
 20
253.970625
 30
0.0
  0
VERTEX
  5
A64
100
AcDbEntity
  8
1
100
AcDbVertex
100
AcDb2dVertex
 10
29.484841
 20
253.983242
 30
0.0
  0
VERTEX
  5
A65
100
AcDbEntity
  8
1
100
AcDbVertex
100
AcDb2dVertex
 10
29.392759
 20
253.997129
 30
0.0
  0
VERTEX
  5
A66
100
AcDbEntity
  8
1
100
AcDbVertex
100
AcDb2dVertex
 10
29.292671
 20
254.012284
 30
0.0
  0
VERTEX
  5
A67
100
AcDbEntity
  8
1
100
AcDbVertex
100
AcDb2dVertex
 10
29.184577
 20
254.028709
 30
0.0
  0
VERTEX
  5
A68
100
AcDbEntity
  8
1
100
AcDbVertex
100
AcDb2dVertex
 10
29.068477
 20
254.046402
 30
0.0
  0
VERTEX
  5
A69
100
AcDbEntity
  8
1
100
AcDbVertex
100
AcDb2dVertex
 10
29.068477
 20
254.046402
 30
0.0
  0
VERTEX
  5
A6A
100
AcDbEntity
  8
1
100
AcDbVertex
100
AcDb2dVertex
 10
28.940768
 20
254.065935
 30
0.0
  0
VERTEX
  5
A6B
100
AcDbEntity
  8
1
100
AcDbVertex
100
AcDb2dVertex
 10
28.799449
 20
254.087625
 30
0.0
  0
VERTEX
  5
A6C
100
AcDbEntity
  8
1
100
AcDbVertex
100
AcDb2dVertex
 10
28.646922
 20
254.111091
 30
0.0
  0
VERTEX
  5
A6D
100
AcDbEntity
  8
1
100
AcDbVertex
100
AcDb2dVertex
 10
28.485587
 20
254.135953
 30
0.0
  0
VERTEX
  5
A6E
100
AcDbEntity
  8
1
100
AcDbVertex
100
AcDb2dVertex
 10
28.317848
 20
254.161831
 30
0.0
  0
VERTEX
  5
A6F
100
AcDbEntity
  8
1
100
AcDbVertex
100
AcDb2dVertex
 10
28.146106
 20
254.188342
 30
0.0
  0
VERTEX
  5
A70
100
AcDbEntity
  8
1
100
AcDbVertex
100
AcDb2dVertex
 10
27.972763
 20
254.215108
 30
0.0
  0
VERTEX
  5
A71
100
AcDbEntity
  8
1
100
AcDbVertex
100
AcDb2dVertex
 10
27.80022
 20
254.241747
 30
0.0
  0
VERTEX
  5
A72
100
AcDbEntity
  8
1
100
AcDbVertex
100
AcDb2dVertex
 10
27.63088
 20
254.267878
 30
0.0
  0
VERTEX
  5
A73
100
AcDbEntity
  8
1
100
AcDbVertex
100
AcDb2dVertex
 10
27.467144
 20
254.293121
 30
0.0
  0
VERTEX
  5
A74
100
AcDbEntity
  8
1
100
AcDbVertex
100
AcDb2dVertex
 10
27.307043
 20
254.317855
 30
0.0
  0
VERTEX
  5
A75
100
AcDbEntity
  8
1
100
AcDbVertex
100
AcDb2dVertex
 10
27.146993
 20
254.342688
 30
0.0
  0
VERTEX
  5
A76
100
AcDbEntity
  8
1
100
AcDbVertex
100
AcDb2dVertex
 10
26.986973
 20
254.367577
 30
0.0
  0
VERTEX
  5
A77
100
AcDbEntity
  8
1
100
AcDbVertex
100
AcDb2dVertex
 10
26.82696
 20
254.392479
 30
0.0
  0
VERTEX
  5
A78
100
AcDbEntity
  8
1
100
AcDbVertex
100
AcDb2dVertex
 10
26.666932
 20
254.417354
 30
0.0
  0
VERTEX
  5
A79
100
AcDbEntity
  8
1
100
AcDbVertex
100
AcDb2dVertex
 10
26.506868
 20
254.442159
 30
0.0
  0
VERTEX
  5
A7A
100
AcDbEntity
  8
1
100
AcDbVertex
100
AcDb2dVertex
 10
26.346746
 20
254.466851
 30
0.0
  0
VERTEX
  5
A7B
100
AcDbEntity
  8
1
100
AcDbVertex
100
AcDb2dVertex
 10
26.186543
 20
254.49139
 30
0.0
  0
VERTEX
  5
A7C
100
AcDbEntity
  8
1
100
AcDbVertex
100
AcDb2dVertex
 10
26.026238
 20
254.515734
 30
0.0
  0
VERTEX
  5
A7D
100
AcDbEntity
  8
1
100
AcDbVertex
100
AcDb2dVertex
 10
25.86581
 20
254.539839
 30
0.0
  0
VERTEX
  5
A7E
100
AcDbEntity
  8
1
100
AcDbVertex
100
AcDb2dVertex
 10
25.705212
 20
254.563712
 30
0.0
  0
VERTEX
  5
A7F
100
AcDbEntity
  8
1
100
AcDbVertex
100
AcDb2dVertex
 10
25.544442
 20
254.587396
 30
0.0
  0
VERTEX
  5
A80
100
AcDbEntity
  8
1
100
AcDbVertex
100
AcDb2dVertex
 10
25.383542
 20
254.610914
 30
0.0
  0
VERTEX
  5
A81
100
AcDbEntity
  8
1
100
AcDbVertex
100
AcDb2dVertex
 10
25.222555
 20
254.634285
 30
0.0
  0
VERTEX
  5
A82
100
AcDbEntity
  8
1
100
AcDbVertex
100
AcDb2dVertex
 10
25.061523
 20
254.65753
 30
0.0
  0
VERTEX
  5
A83
100
AcDbEntity
  8
1
100
AcDbVertex
100
AcDb2dVertex
 10
24.90049
 20
254.680669
 30
0.0
  0
VERTEX
  5
A84
100
AcDbEntity
  8
1
100
AcDbVertex
100
AcDb2dVertex
 10
24.739497
 20
254.703722
 30
0.0
  0
VERTEX
  5
A85
100
AcDbEntity
  8
1
100
AcDbVertex
100
AcDb2dVertex
 10
24.578588
 20
254.726711
 30
0.0
  0
VERTEX
  5
A86
100
AcDbEntity
  8
1
100
AcDbVertex
100
AcDb2dVertex
 10
24.417805
 20
254.749655
 30
0.0
  0
VERTEX
  5
A87
100
AcDbEntity
  8
1
100
AcDbVertex
100
AcDb2dVertex
 10
24.25719
 20
254.772575
 30
0.0
  0
VERTEX
  5
A88
100
AcDbEntity
  8
1
100
AcDbVertex
100
AcDb2dVertex
 10
24.096775
 20
254.795611
 30
0.0
  0
VERTEX
  5
A89
100
AcDbEntity
  8
1
100
AcDbVertex
100
AcDb2dVertex
 10
23.936532
 20
254.818821
 30
0.0
  0
VERTEX
  5
A8A
100
AcDbEntity
  8
1
100
AcDbVertex
100
AcDb2dVertex
 10
23.776416
 20
254.842099
 30
0.0
  0
VERTEX
  5
A8B
100
AcDbEntity
  8
1
100
AcDbVertex
100
AcDb2dVertex
 10
23.616385
 20
254.865341
 30
0.0
  0
VERTEX
  5
A8C
100
AcDbEntity
  8
1
100
AcDbVertex
100
AcDb2dVertex
 10
23.456393
 20
254.88844
 30
0.0
  0
VERTEX
  5
A8D
100
AcDbEntity
  8
1
100
AcDbVertex
100
AcDb2dVertex
 10
23.296397
 20
254.911293
 30
0.0
  0
VERTEX
  5
A8E
100
AcDbEntity
  8
1
100
AcDbVertex
100
AcDb2dVertex
 10
23.136353
 20
254.933794
 30
0.0
  0
VERTEX
  5
A8F
100
AcDbEntity
  8
1
100
AcDbVertex
100
AcDb2dVertex
 10
22.976216
 20
254.955838
 30
0.0
  0
VERTEX
  5
A90
100
AcDbEntity
  8
1
100
AcDbVertex
100
AcDb2dVertex
 10
22.815942
 20
254.977319
 30
0.0
  0
VERTEX
  5
A91
100
AcDbEntity
  8
1
100
AcDbVertex
100
AcDb2dVertex
 10
22.655488
 20
254.998134
 30
0.0
  0
VERTEX
  5
A92
100
AcDbEntity
  8
1
100
AcDbVertex
100
AcDb2dVertex
 10
22.49483
 20
255.018529
 30
0.0
  0
VERTEX
  5
A93
100
AcDbEntity
  8
1
100
AcDbVertex
100
AcDb2dVertex
 10
22.333999
 20
255.038751
 30
0.0
  0
VERTEX
  5
A94
100
AcDbEntity
  8
1
100
AcDbVertex
100
AcDb2dVertex
 10
22.173037
 20
255.058692
 30
0.0
  0
VERTEX
  5
A95
100
AcDbEntity
  8
1
100
AcDbVertex
100
AcDb2dVertex
 10
22.011983
 20
255.078248
 30
0.0
  0
VERTEX
  5
A96
100
AcDbEntity
  8
1
100
AcDbVertex
100
AcDb2dVertex
 10
21.850879
 20
255.09731
 30
0.0
  0
VERTEX
  5
A97
100
AcDbEntity
  8
1
100
AcDbVertex
100
AcDb2dVertex
 10
21.689764
 20
255.115772
 30
0.0
  0
VERTEX
  5
A98
100
AcDbEntity
  8
1
100
AcDbVertex
100
AcDb2dVertex
 10
21.528679
 20
255.133529
 30
0.0
  0
VERTEX
  5
A99
100
AcDbEntity
  8
1
100
AcDbVertex
100
AcDb2dVertex
 10
21.367665
 20
255.150473
 30
0.0
  0
VERTEX
  5
A9A
100
AcDbEntity
  8
1
100
AcDbVertex
100
AcDb2dVertex
 10
21.206761
 20
255.166498
 30
0.0
  0
VERTEX
  5
A9B
100
AcDbEntity
  8
1
100
AcDbVertex
100
AcDb2dVertex
 10
21.046008
 20
255.181497
 30
0.0
  0
VERTEX
  5
A9C
100
AcDbEntity
  8
1
100
AcDbVertex
100
AcDb2dVertex
 10
20.881795
 20
255.195686
 30
0.0
  0
VERTEX
  5
A9D
100
AcDbEntity
  8
1
100
AcDbVertex
100
AcDb2dVertex
 10
20.712071
 20
255.209293
 30
0.0
  0
VERTEX
  5
A9E
100
AcDbEntity
  8
1
100
AcDbVertex
100
AcDb2dVertex
 10
20.539222
 20
255.222236
 30
0.0
  0
VERTEX
  5
A9F
100
AcDbEntity
  8
1
100
AcDbVertex
100
AcDb2dVertex
 10
20.365636
 20
255.234429
 30
0.0
  0
VERTEX
  5
AA0
100
AcDbEntity
  8
1
100
AcDbVertex
100
AcDb2dVertex
 10
20.193696
 20
255.24579
 30
0.0
  0
VERTEX
  5
AA1
100
AcDbEntity
  8
1
100
AcDbVertex
100
AcDb2dVertex
 10
20.02579
 20
255.256233
 30
0.0
  0
VERTEX
  5
AA2
100
AcDbEntity
  8
1
100
AcDbVertex
100
AcDb2dVertex
 10
19.864304
 20
255.265675
 30
0.0
  0
VERTEX
  5
AA3
100
AcDbEntity
  8
1
100
AcDbVertex
100
AcDb2dVertex
 10
19.711622
 20
255.274031
 30
0.0
  0
VERTEX
  5
AA4
100
AcDbEntity
  8
1
100
AcDbVertex
100
AcDb2dVertex
 10
19.570131
 20
255.281219
 30
0.0
  0
VERTEX
  5
AA5
100
AcDbEntity
  8
1
100
AcDbVertex
100
AcDb2dVertex
 10
19.442217
 20
255.287152
 30
0.0
  0
VERTEX
  5
AA6
100
AcDbEntity
  8
1
100
AcDbVertex
100
AcDb2dVertex
 10
19.333114
 20
255.291745
 30
0.0
  0
VERTEX
  5
AA7
100
AcDbEntity
  8
1
100
AcDbVertex
100
AcDb2dVertex
 10
19.243256
 20
255.295034
 30
0.0
  0
VERTEX
  5
AA8
100
AcDbEntity
  8
1
100
AcDbVertex
100
AcDb2dVertex
 10
19.167828
 20
255.297126
 30
0.0
  0
VERTEX
  5
AA9
100
AcDbEntity
  8
1
100
AcDbVertex
100
AcDb2dVertex
 10
19.102014
 20
255.298125
 30
0.0
  0
VERTEX
  5
AAA
100
AcDbEntity
  8
1
100
AcDbVertex
100
AcDb2dVertex
 10
19.041
 20
255.298137
 30
0.0
  0
VERTEX
  5
AAB
100
AcDbEntity
  8
1
100
AcDbVertex
100
AcDb2dVertex
 10
18.979971
 20
255.297268
 30
0.0
  0
VERTEX
  5
AAC
100
AcDbEntity
  8
1
100
AcDbVertex
100
AcDb2dVertex
 10
18.914112
 20
255.295622
 30
0.0
  0
VERTEX
  5
AAD
100
AcDbEntity
  8
1
100
AcDbVertex
100
AcDb2dVertex
 10
18.838607
 20
255.293306
 30
0.0
  0
VERTEX
  5
AAE
100
AcDbEntity
  8
1
100
AcDbVertex
100
AcDb2dVertex
 10
18.748641
 20
255.290423
 30
0.0
  0
VERTEX
  5
AAF
100
AcDbEntity
  8
1
100
AcDbVertex
100
AcDb2dVertex
 10
18.6394
 20
255.287081
 30
0.0
  0
VERTEX
  5
AB0
100
AcDbEntity
  8
1
100
AcDbVertex
100
AcDb2dVertex
 10
18.511322
 20
255.283634
 30
0.0
  0
VERTEX
  5
AB1
100
AcDbEntity
  8
1
100
AcDbVertex
100
AcDb2dVertex
 10
18.369646
 20
255.280171
 30
0.0
  0
VERTEX
  5
AB2
100
AcDbEntity
  8
1
100
AcDbVertex
100
AcDb2dVertex
 10
18.216753
 20
255.276396
 30
0.0
  0
VERTEX
  5
AB3
100
AcDbEntity
  8
1
100
AcDbVertex
100
AcDb2dVertex
 10
18.055025
 20
255.272014
 30
0.0
  0
VERTEX
  5
AB4
100
AcDbEntity
  8
1
100
AcDbVertex
100
AcDb2dVertex
 10
17.886845
 20
255.266728
 30
0.0
  0
VERTEX
  5
AB5
100
AcDbEntity
  8
1
100
AcDbVertex
100
AcDb2dVertex
 10
17.714595
 20
255.260244
 30
0.0
  0
VERTEX
  5
AB6
100
AcDbEntity
  8
1
100
AcDbVertex
100
AcDb2dVertex
 10
17.540657
 20
255.252266
 30
0.0
  0
VERTEX
  5
AB7
100
AcDbEntity
  8
1
100
AcDbVertex
100
AcDb2dVertex
 10
17.367413
 20
255.242497
 30
0.0
  0
VERTEX
  5
AB8
100
AcDbEntity
  8
1
100
AcDbVertex
100
AcDb2dVertex
 10
17.197245
 20
255.230642
 30
0.0
  0
VERTEX
  5
AB9
100
AcDbEntity
  8
1
100
AcDbVertex
100
AcDb2dVertex
 10
17.032536
 20
255.216406
 30
0.0
  0
VERTEX
  5
ABA
100
AcDbEntity
  8
1
100
AcDbVertex
100
AcDb2dVertex
 10
16.866877
 20
255.19897
 30
0.0
  0
VERTEX
  5
ABB
100
AcDbEntity
  8
1
100
AcDbVertex
100
AcDb2dVertex
 10
16.694237
 20
255.178184
 30
0.0
  0
VERTEX
  5
ABC
100
AcDbEntity
  8
1
100
AcDbVertex
100
AcDb2dVertex
 10
16.517565
 20
255.15476
 30
0.0
  0
VERTEX
  5
ABD
100
AcDbEntity
  8
1
100
AcDbVertex
100
AcDb2dVertex
 10
16.33981
 20
255.129407
 30
0.0
  0
VERTEX
  5
ABE
100
AcDbEntity
  8
1
100
AcDbVertex
100
AcDb2dVertex
 10
16.163921
 20
255.102836
 30
0.0
  0
VERTEX
  5
ABF
100
AcDbEntity
  8
1
100
AcDbVertex
100
AcDb2dVertex
 10
15.992847
 20
255.075758
 30
0.0
  0
VERTEX
  5
AC0
100
AcDbEntity
  8
1
100
AcDbVertex
100
AcDb2dVertex
 10
15.829538
 20
255.048883
 30
0.0
  0
VERTEX
  5
AC1
100
AcDbEntity
  8
1
100
AcDbVertex
100
AcDb2dVertex
 10
15.676941
 20
255.022921
 30
0.0
  0
VERTEX
  5
AC2
100
AcDbEntity
  8
1
100
AcDbVertex
100
AcDb2dVertex
 10
15.538007
 20
254.998582
 30
0.0
  0
VERTEX
  5
AC3
100
AcDbEntity
  8
1
100
AcDbVertex
100
AcDb2dVertex
 10
15.415683
 20
254.976578
 30
0.0
  0
VERTEX
  5
AC4
100
AcDbEntity
  8
1
100
AcDbVertex
100
AcDb2dVertex
 10
15.311932
 20
254.957096
 30
0.0
  0
VERTEX
  5
AC5
100
AcDbEntity
  8
1
100
AcDbVertex
100
AcDb2dVertex
 10
15.224784
 20
254.939504
 30
0.0
  0
VERTEX
  5
AC6
100
AcDbEntity
  8
1
100
AcDbVertex
100
AcDb2dVertex
 10
15.151294
 20
254.923281
 30
0.0
  0
VERTEX
  5
AC7
100
AcDbEntity
  8
1
100
AcDbVertex
100
AcDb2dVertex
 10
15.088516
 20
254.907908
 30
0.0
  0
VERTEX
  5
AC8
100
AcDbEntity
  8
1
100
AcDbVertex
100
AcDb2dVertex
 10
15.033504
 20
254.892865
 30
0.0
  0
VERTEX
  5
AC9
100
AcDbEntity
  8
1
100
AcDbVertex
100
AcDb2dVertex
 10
14.983312
 20
254.877632
 30
0.0
  0
VERTEX
  5
ACA
100
AcDbEntity
  8
1
100
AcDbVertex
100
AcDb2dVertex
 10
14.934996
 20
254.861689
 30
0.0
  0
VERTEX
  5
ACB
100
AcDbEntity
  8
1
100
AcDbVertex
100
AcDb2dVertex
 10
14.885608
 20
254.844515
 30
0.0
  0
VERTEX
  5
ACC
100
AcDbEntity
  8
1
100
AcDbVertex
100
AcDb2dVertex
 10
14.832205
 20
254.825592
 30
0.0
  0
VERTEX
  5
ACD
100
AcDbEntity
  8
1
100
AcDbVertex
100
AcDb2dVertex
 10
14.771839
 20
254.804399
 30
0.0
  0
VERTEX
  5
ACE
100
AcDbEntity
  8
1
100
AcDbVertex
100
AcDb2dVertex
 10
14.70544
 20
254.781078
 30
0.0
  0
VERTEX
  5
ACF
100
AcDbEntity
  8
1
100
AcDbVertex
100
AcDb2dVertex
 10
14.636578
 20
254.756248
 30
0.0
  0
VERTEX
  5
AD0
100
AcDbEntity
  8
1
100
AcDbVertex
100
AcDb2dVertex
 10
14.56627
 20
254.730103
 30
0.0
  0
VERTEX
  5
AD1
100
AcDbEntity
  8
1
100
AcDbVertex
100
AcDb2dVertex
 10
14.495535
 20
254.702836
 30
0.0
  0
VERTEX
  5
AD2
100
AcDbEntity
  8
1
100
AcDbVertex
100
AcDb2dVertex
 10
14.425389
 20
254.674642
 30
0.0
  0
VERTEX
  5
AD3
100
AcDbEntity
  8
1
100
AcDbVertex
100
AcDb2dVertex
 10
14.35685
 20
254.645714
 30
0.0
  0
VERTEX
  5
AD4
100
AcDbEntity
  8
1
100
AcDbVertex
100
AcDb2dVertex
 10
14.290935
 20
254.616247
 30
0.0
  0
VERTEX
  5
AD5
100
AcDbEntity
  8
1
100
AcDbVertex
100
AcDb2dVertex
 10
14.228662
 20
254.586433
 30
0.0
  0
VERTEX
  5
AD6
100
AcDbEntity
  8
1
100
AcDbVertex
100
AcDb2dVertex
 10
14.171048
 20
254.556468
 30
0.0
  0
VERTEX
  5
AD7
100
AcDbEntity
  8
1
100
AcDbVertex
100
AcDb2dVertex
 10
14.119112
 20
254.526544
 30
0.0
  0
VERTEX
  5
AD8
100
AcDbEntity
  8
1
100
AcDbVertex
100
AcDb2dVertex
 10
14.072004
 20
254.496501
 30
0.0
  0
VERTEX
  5
AD9
100
AcDbEntity
  8
1
100
AcDbVertex
100
AcDb2dVertex
 10
14.028199
 20
254.466047
 30
0.0
  0
VERTEX
  5
ADA
100
AcDbEntity
  8
1
100
AcDbVertex
100
AcDb2dVertex
 10
13.987696
 20
254.435183
 30
0.0
  0
VERTEX
  5
ADB
100
AcDbEntity
  8
1
100
AcDbVertex
100
AcDb2dVertex
 10
13.950496
 20
254.403908
 30
0.0
  0
VERTEX
  5
ADC
100
AcDbEntity
  8
1
100
AcDbVertex
100
AcDb2dVertex
 10
13.916599
 20
254.372223
 30
0.0
  0
VERTEX
  5
ADD
100
AcDbEntity
  8
1
100
AcDbVertex
100
AcDb2dVertex
 10
13.886005
 20
254.340127
 30
0.0
  0
VERTEX
  5
ADE
100
AcDbEntity
  8
1
100
AcDbVertex
100
AcDb2dVertex
 10
13.858713
 20
254.30762
 30
0.0
  0
VERTEX
  5
ADF
100
AcDbEntity
  8
1
100
AcDbVertex
100
AcDb2dVertex
 10
13.834724
 20
254.274703
 30
0.0
  0
VERTEX
  5
AE0
100
AcDbEntity
  8
1
100
AcDbVertex
100
AcDb2dVertex
 10
13.814038
 20
254.241376
 30
0.0
  0
VERTEX
  5
AE1
100
AcDbEntity
  8
1
100
AcDbVertex
100
AcDb2dVertex
 10
13.796654
 20
254.207638
 30
0.0
  0
SEQEND
  5
AE2
100
AcDbEntity
  8
1
  0
POLYLINE
  5
AE3
100
AcDbEntity
  8
1
100
AcDb2dPolyline
 66
     1
 10
0.0
 20
0.0
 30
0.0
  0
VERTEX
  5
AE4
100
AcDbEntity
  8
1
100
AcDbVertex
100
AcDb2dVertex
 10
13.796654
 20
254.207638
 30
0.0
  0
VERTEX
  5
AE5
100
AcDbEntity
  8
1
100
AcDbVertex
100
AcDb2dVertex
 10
13.798299
 20
254.190888
 30
0.0
  0
VERTEX
  5
AE6
100
AcDbEntity
  8
1
100
AcDbVertex
100
AcDb2dVertex
 10
13.803119
 20
254.174506
 30
0.0
  0
VERTEX
  5
AE7
100
AcDbEntity
  8
1
100
AcDbVertex
100
AcDb2dVertex
 10
13.811115
 20
254.158491
 30
0.0
  0
VERTEX
  5
AE8
100
AcDbEntity
  8
1
100
AcDbVertex
100
AcDb2dVertex
 10
13.822286
 20
254.142845
 30
0.0
  0
VERTEX
  5
AE9
100
AcDbEntity
  8
1
100
AcDbVertex
100
AcDb2dVertex
 10
13.836632
 20
254.127566
 30
0.0
  0
VERTEX
  5
AEA
100
AcDbEntity
  8
1
100
AcDbVertex
100
AcDb2dVertex
 10
13.854154
 20
254.112655
 30
0.0
  0
VERTEX
  5
AEB
100
AcDbEntity
  8
1
100
AcDbVertex
100
AcDb2dVertex
 10
13.874852
 20
254.098112
 30
0.0
  0
VERTEX
  5
AEC
100
AcDbEntity
  8
1
100
AcDbVertex
100
AcDb2dVertex
 10
13.898724
 20
254.083937
 30
0.0
  0
VERTEX
  5
AED
100
AcDbEntity
  8
1
100
AcDbVertex
100
AcDb2dVertex
 10
13.925772
 20
254.070129
 30
0.0
  0
VERTEX
  5
AEE
100
AcDbEntity
  8
1
100
AcDbVertex
100
AcDb2dVertex
 10
13.955996
 20
254.056689
 30
0.0
  0
VERTEX
  5
AEF
100
AcDbEntity
  8
1
100
AcDbVertex
100
AcDb2dVertex
 10
13.955996
 20
254.056689
 30
0.0
  0
VERTEX
  5
AF0
100
AcDbEntity
  8
1
100
AcDbVertex
100
AcDb2dVertex
 10
13.99006
 20
254.043606
 30
0.0
  0
VERTEX
  5
AF1
100
AcDbEntity
  8
1
100
AcDbVertex
100
AcDb2dVertex
 10
14.028335
 20
254.030872
 30
0.0
  0
VERTEX
  5
AF2
100
AcDbEntity
  8
1
100
AcDbVertex
100
AcDb2dVertex
 10
14.070376
 20
254.018495
 30
0.0
  0
VERTEX
  5
AF3
100
AcDbEntity
  8
1
100
AcDbVertex
100
AcDb2dVertex
 10
14.115741
 20
254.006484
 30
0.0
  0
VERTEX
  5
AF4
100
AcDbEntity
  8
1
100
AcDbVertex
100
AcDb2dVertex
 10
14.163985
 20
253.994846
 30
0.0
  0
VERTEX
  5
AF5
100
AcDbEntity
  8
1
100
AcDbVertex
100
AcDb2dVertex
 10
14.214666
 20
253.983588
 30
0.0
  0
VERTEX
  5
AF6
100
AcDbEntity
  8
1
100
AcDbVertex
100
AcDb2dVertex
 10
14.267339
 20
253.972719
 30
0.0
  0
VERTEX
  5
AF7
100
AcDbEntity
  8
1
100
AcDbVertex
100
AcDb2dVertex
 10
14.321561
 20
253.962246
 30
0.0
  0
VERTEX
  5
AF8
100
AcDbEntity
  8
1
100
AcDbVertex
100
AcDb2dVertex
 10
14.37689
 20
253.952177
 30
0.0
  0
VERTEX
  5
AF9
100
AcDbEntity
  8
1
100
AcDbVertex
100
AcDb2dVertex
 10
14.43288
 20
253.94252
 30
0.0
  0
VERTEX
  5
AFA
100
AcDbEntity
  8
1
100
AcDbVertex
100
AcDb2dVertex
 10
14.48854
 20
253.933323
 30
0.0
  0
VERTEX
  5
AFB
100
AcDbEntity
  8
1
100
AcDbVertex
100
AcDb2dVertex
 10
14.543779
 20
253.924607
 30
0.0
  0
VERTEX
  5
AFC
100
AcDbEntity
  8
1
100
AcDbVertex
100
AcDb2dVertex
 10
14.599504
 20
253.916334
 30
0.0
  0
VERTEX
  5
AFD
100
AcDbEntity
  8
1
100
AcDbVertex
100
AcDb2dVertex
 10
14.656624
 20
253.908467
 30
0.0
  0
VERTEX
  5
AFE
100
AcDbEntity
  8
1
100
AcDbVertex
100
AcDb2dVertex
 10
14.716046
 20
253.900968
 30
0.0
  0
VERTEX
  5
AFF
100
AcDbEntity
  8
1
100
AcDbVertex
100
AcDb2dVertex
 10
14.778678
 20
253.893802
 30
0.0
  0
VERTEX
  5
B00
100
AcDbEntity
  8
1
100
AcDbVertex
100
AcDb2dVertex
 10
14.845428
 20
253.88693
 30
0.0
  0
VERTEX
  5
B01
100
AcDbEntity
  8
1
100
AcDbVertex
100
AcDb2dVertex
 10
14.917204
 20
253.880317
 30
0.0
  0
VERTEX
  5
B02
100
AcDbEntity
  8
1
100
AcDbVertex
100
AcDb2dVertex
 10
14.994913
 20
253.873924
 30
0.0
  0
VERTEX
  5
B03
100
AcDbEntity
  8
1
100
AcDbVertex
100
AcDb2dVertex
 10
15.079463
 20
253.867715
 30
0.0
  0
VERTEX
  5
B04
100
AcDbEntity
  8
1
100
AcDbVertex
100
AcDb2dVertex
 10
15.170003
 20
253.861753
 30
0.0
  0
VERTEX
  5
B05
100
AcDbEntity
  8
1
100
AcDbVertex
100
AcDb2dVertex
 10
15.26512
 20
253.856114
 30
0.0
  0
VERTEX
  5
B06
100
AcDbEntity
  8
1
100
AcDbVertex
100
AcDb2dVertex
 10
15.364875
 20
253.850775
 30
0.0
  0
VERTEX
  5
B07
100
AcDbEntity
  8
1
100
AcDbVertex
100
AcDb2dVertex
 10
15.469333
 20
253.845714
 30
0.0
  0
VERTEX
  5
B08
100
AcDbEntity
  8
1
100
AcDbVertex
100
AcDb2dVertex
 10
15.578555
 20
253.840907
 30
0.0
  0
VERTEX
  5
B09
100
AcDbEntity
  8
1
100
AcDbVertex
100
AcDb2dVertex
 10
15.692606
 20
253.836334
 30
0.0
  0
VERTEX
  5
B0A
100
AcDbEntity
  8
1
100
AcDbVertex
100
AcDb2dVertex
 10
15.811547
 20
253.831972
 30
0.0
  0
VERTEX
  5
B0B
100
AcDbEntity
  8
1
100
AcDbVertex
100
AcDb2dVertex
 10
15.935443
 20
253.827798
 30
0.0
  0
VERTEX
  5
B0C
100
AcDbEntity
  8
1
100
AcDbVertex
100
AcDb2dVertex
 10
16.064355
 20
253.82379
 30
0.0
  0
VERTEX
  5
B0D
100
AcDbEntity
  8
1
100
AcDbVertex
100
AcDb2dVertex
 10
16.198348
 20
253.819927
 30
0.0
  0
VERTEX
  5
B0E
100
AcDbEntity
  8
1
100
AcDbVertex
100
AcDb2dVertex
 10
16.339617
 20
253.816186
 30
0.0
  0
VERTEX
  5
B0F
100
AcDbEntity
  8
1
100
AcDbVertex
100
AcDb2dVertex
 10
16.489318
 20
253.812581
 30
0.0
  0
VERTEX
  5
B10
100
AcDbEntity
  8
1
100
AcDbVertex
100
AcDb2dVertex
 10
16.645951
 20
253.809136
 30
0.0
  0
VERTEX
  5
B11
100
AcDbEntity
  8
1
100
AcDbVertex
100
AcDb2dVertex
 10
16.808018
 20
253.805878
 30
0.0
  0
VERTEX
  5
B12
100
AcDbEntity
  8
1
100
AcDbVertex
100
AcDb2dVertex
 10
16.974017
 20
253.802834
 30
0.0
  0
VERTEX
  5
B13
100
AcDbEntity
  8
1
100
AcDbVertex
100
AcDb2dVertex
 10
17.142451
 20
253.80003
 30
0.0
  0
VERTEX
  5
B14
100
AcDbEntity
  8
1
100
AcDbVertex
100
AcDb2dVertex
 10
17.311818
 20
253.797492
 30
0.0
  0
VERTEX
  5
B15
100
AcDbEntity
  8
1
100
AcDbVertex
100
AcDb2dVertex
 10
17.48062
 20
253.795245
 30
0.0
  0
VERTEX
  5
B16
100
AcDbEntity
  8
1
100
AcDbVertex
100
AcDb2dVertex
 10
17.647358
 20
253.793317
 30
0.0
  0
VERTEX
  5
B17
100
AcDbEntity
  8
1
100
AcDbVertex
100
AcDb2dVertex
 10
17.810531
 20
253.791734
 30
0.0
  0
VERTEX
  5
B18
100
AcDbEntity
  8
1
100
AcDbVertex
100
AcDb2dVertex
 10
17.971358
 20
253.790505
 30
0.0
  0
VERTEX
  5
B19
100
AcDbEntity
  8
1
100
AcDbVertex
100
AcDb2dVertex
 10
18.132071
 20
253.78961
 30
0.0
  0
VERTEX
  5
B1A
100
AcDbEntity
  8
1
100
AcDbVertex
100
AcDb2dVertex
 10
18.292691
 20
253.789027
 30
0.0
  0
VERTEX
  5
B1B
100
AcDbEntity
  8
1
100
AcDbVertex
100
AcDb2dVertex
 10
18.453238
 20
253.788735
 30
0.0
  0
VERTEX
  5
B1C
100
AcDbEntity
  8
1
100
AcDbVertex
100
AcDb2dVertex
 10
18.613734
 20
253.788711
 30
0.0
  0
VERTEX
  5
B1D
100
AcDbEntity
  8
1
100
AcDbVertex
100
AcDb2dVertex
 10
18.774199
 20
253.788936
 30
0.0
  0
VERTEX
  5
B1E
100
AcDbEntity
  8
1
100
AcDbVertex
100
AcDb2dVertex
 10
18.934654
 20
253.789386
 30
0.0
  0
VERTEX
  5
B1F
100
AcDbEntity
  8
1
100
AcDbVertex
100
AcDb2dVertex
 10
19.09512
 20
253.79004
 30
0.0
  0
VERTEX
  5
B20
100
AcDbEntity
  8
1
100
AcDbVertex
100
AcDb2dVertex
 10
19.255616
 20
253.790878
 30
0.0
  0
VERTEX
  5
B21
100
AcDbEntity
  8
1
100
AcDbVertex
100
AcDb2dVertex
 10
19.416165
 20
253.791876
 30
0.0
  0
VERTEX
  5
B22
100
AcDbEntity
  8
1
100
AcDbVertex
100
AcDb2dVertex
 10
19.57672
 20
253.793182
 30
0.0
  0
VERTEX
  5
B23
100
AcDbEntity
  8
1
100
AcDbVertex
100
AcDb2dVertex
 10
19.737232
 20
253.794897
 30
0.0
  0
VERTEX
  5
B24
100
AcDbEntity
  8
1
100
AcDbVertex
100
AcDb2dVertex
 10
19.897721
 20
253.796938
 30
0.0
  0
VERTEX
  5
B25
100
AcDbEntity
  8
1
100
AcDbVertex
100
AcDb2dVertex
 10
20.058208
 20
253.799218
 30
0.0
  0
VERTEX
  5
B26
100
AcDbEntity
  8
1
100
AcDbVertex
100
AcDb2dVertex
 10
20.218712
 20
253.801654
 30
0.0
  0
VERTEX
  5
B27
100
AcDbEntity
  8
1
100
AcDbVertex
100
AcDb2dVertex
 10
20.379252
 20
253.804159
 30
0.0
  0
VERTEX
  5
B28
100
AcDbEntity
  8
1
100
AcDbVertex
100
AcDb2dVertex
 10
20.539848
 20
253.806649
 30
0.0
  0
VERTEX
  5
B29
100
AcDbEntity
  8
1
100
AcDbVertex
100
AcDb2dVertex
 10
20.700519
 20
253.809039
 30
0.0
  0
VERTEX
  5
B2A
100
AcDbEntity
  8
1
100
AcDbVertex
100
AcDb2dVertex
 10
20.861287
 20
253.811244
 30
0.0
  0
VERTEX
  5
B2B
100
AcDbEntity
  8
1
100
AcDbVertex
100
AcDb2dVertex
 10
21.022169
 20
253.813179
 30
0.0
  0
VERTEX
  5
B2C
100
AcDbEntity
  8
1
100
AcDbVertex
100
AcDb2dVertex
 10
21.183212
 20
253.814881
 30
0.0
  0
VERTEX
  5
B2D
100
AcDbEntity
  8
1
100
AcDbVertex
100
AcDb2dVertex
 10
21.344423
 20
253.816461
 30
0.0
  0
VERTEX
  5
B2E
100
AcDbEntity
  8
1
100
AcDbVertex
100
AcDb2dVertex
 10
21.505758
 20
253.81794
 30
0.0
  0
VERTEX
  5
B2F
100
AcDbEntity
  8
1
100
AcDbVertex
100
AcDb2dVertex
 10
21.667177
 20
253.81934
 30
0.0
  0
VERTEX
  5
B30
100
AcDbEntity
  8
1
100
AcDbVertex
100
AcDb2dVertex
 10
21.828637
 20
253.820683
 30
0.0
  0
VERTEX
  5
B31
100
AcDbEntity
  8
1
100
AcDbVertex
100
AcDb2dVertex
 10
21.990096
 20
253.82199
 30
0.0
  0
VERTEX
  5
B32
100
AcDbEntity
  8
1
100
AcDbVertex
100
AcDb2dVertex
 10
22.151513
 20
253.823284
 30
0.0
  0
VERTEX
  5
B33
100
AcDbEntity
  8
1
100
AcDbVertex
100
AcDb2dVertex
 10
22.312845
 20
253.824587
 30
0.0
  0
VERTEX
  5
B34
100
AcDbEntity
  8
1
100
AcDbVertex
100
AcDb2dVertex
 10
22.474051
 20
253.825919
 30
0.0
  0
VERTEX
  5
B35
100
AcDbEntity
  8
1
100
AcDbVertex
100
AcDb2dVertex
 10
22.635089
 20
253.827305
 30
0.0
  0
VERTEX
  5
B36
100
AcDbEntity
  8
1
100
AcDbVertex
100
AcDb2dVertex
 10
22.795931
 20
253.828725
 30
0.0
  0
VERTEX
  5
B37
100
AcDbEntity
  8
1
100
AcDbVertex
100
AcDb2dVertex
 10
22.956603
 20
253.830149
 30
0.0
  0
VERTEX
  5
B38
100
AcDbEntity
  8
1
100
AcDbVertex
100
AcDb2dVertex
 10
23.117149
 20
253.831574
 30
0.0
  0
VERTEX
  5
B39
100
AcDbEntity
  8
1
100
AcDbVertex
100
AcDb2dVertex
 10
23.27761
 20
253.833001
 30
0.0
  0
VERTEX
  5
B3A
100
AcDbEntity
  8
1
100
AcDbVertex
100
AcDb2dVertex
 10
23.438029
 20
253.834429
 30
0.0
  0
VERTEX
  5
B3B
100
AcDbEntity
  8
1
100
AcDbVertex
100
AcDb2dVertex
 10
23.598448
 20
253.835857
 30
0.0
  0
VERTEX
  5
B3C
100
AcDbEntity
  8
1
100
AcDbVertex
100
AcDb2dVertex
 10
23.75891
 20
253.837284
 30
0.0
  0
VERTEX
  5
B3D
100
AcDbEntity
  8
1
100
AcDbVertex
100
AcDb2dVertex
 10
23.919456
 20
253.83871
 30
0.0
  0
VERTEX
  5
B3E
100
AcDbEntity
  8
1
100
AcDbVertex
100
AcDb2dVertex
 10
24.080128
 20
253.840133
 30
0.0
  0
VERTEX
  5
B3F
100
AcDbEntity
  8
1
100
AcDbVertex
100
AcDb2dVertex
 10
24.24097
 20
253.841554
 30
0.0
  0
VERTEX
  5
B40
100
AcDbEntity
  8
1
100
AcDbVertex
100
AcDb2dVertex
 10
24.402008
 20
253.842939
 30
0.0
  0
VERTEX
  5
B41
100
AcDbEntity
  8
1
100
AcDbVertex
100
AcDb2dVertex
 10
24.563214
 20
253.844272
 30
0.0
  0
VERTEX
  5
B42
100
AcDbEntity
  8
1
100
AcDbVertex
100
AcDb2dVertex
 10
24.724546
 20
253.845575
 30
0.0
  0
VERTEX
  5
B43
100
AcDbEntity
  8
1
100
AcDbVertex
100
AcDb2dVertex
 10
24.885963
 20
253.846869
 30
0.0
  0
VERTEX
  5
B44
100
AcDbEntity
  8
1
100
AcDbVertex
100
AcDb2dVertex
 10
25.047422
 20
253.848176
 30
0.0
  0
VERTEX
  5
B45
100
AcDbEntity
  8
1
100
AcDbVertex
100
AcDb2dVertex
 10
25.208882
 20
253.849519
 30
0.0
  0
VERTEX
  5
B46
100
AcDbEntity
  8
1
100
AcDbVertex
100
AcDb2dVertex
 10
25.370301
 20
253.850919
 30
0.0
  0
VERTEX
  5
B47
100
AcDbEntity
  8
1
100
AcDbVertex
100
AcDb2dVertex
 10
25.531636
 20
253.852397
 30
0.0
  0
VERTEX
  5
B48
100
AcDbEntity
  8
1
100
AcDbVertex
100
AcDb2dVertex
 10
25.692846
 20
253.853977
 30
0.0
  0
VERTEX
  5
B49
100
AcDbEntity
  8
1
100
AcDbVertex
100
AcDb2dVertex
 10
25.85389
 20
253.85568
 30
0.0
  0
VERTEX
  5
B4A
100
AcDbEntity
  8
1
100
AcDbVertex
100
AcDb2dVertex
 10
26.01477
 20
253.857488
 30
0.0
  0
VERTEX
  5
B4B
100
AcDbEntity
  8
1
100
AcDbVertex
100
AcDb2dVertex
 10
26.175531
 20
253.859368
 30
0.0
  0
VERTEX
  5
B4C
100
AcDbEntity
  8
1
100
AcDbVertex
100
AcDb2dVertex
 10
26.336196
 20
253.861321
 30
0.0
  0
VERTEX
  5
B4D
100
AcDbEntity
  8
1
100
AcDbVertex
100
AcDb2dVertex
 10
26.496784
 20
253.863346
 30
0.0
  0
VERTEX
  5
B4E
100
AcDbEntity
  8
1
100
AcDbVertex
100
AcDb2dVertex
 10
26.657316
 20
253.865442
 30
0.0
  0
VERTEX
  5
B4F
100
AcDbEntity
  8
1
100
AcDbVertex
100
AcDb2dVertex
 10
26.817815
 20
253.867609
 30
0.0
  0
VERTEX
  5
B50
100
AcDbEntity
  8
1
100
AcDbVertex
100
AcDb2dVertex
 10
26.978301
 20
253.869847
 30
0.0
  0
VERTEX
  5
B51
100
AcDbEntity
  8
1
100
AcDbVertex
100
AcDb2dVertex
 10
27.138796
 20
253.872156
 30
0.0
  0
VERTEX
  5
B52
100
AcDbEntity
  8
1
100
AcDbVertex
100
AcDb2dVertex
 10
27.299319
 20
253.874534
 30
0.0
  0
VERTEX
  5
B53
100
AcDbEntity
  8
1
100
AcDbVertex
100
AcDb2dVertex
 10
27.459893
 20
253.876982
 30
0.0
  0
VERTEX
  5
B54
100
AcDbEntity
  8
1
100
AcDbVertex
100
AcDb2dVertex
 10
27.6205
 20
253.879501
 30
0.0
  0
VERTEX
  5
B55
100
AcDbEntity
  8
1
100
AcDbVertex
100
AcDb2dVertex
 10
27.781109
 20
253.882089
 30
0.0
  0
VERTEX
  5
B56
100
AcDbEntity
  8
1
100
AcDbVertex
100
AcDb2dVertex
 10
27.941718
 20
253.884748
 30
0.0
  0
VERTEX
  5
B57
100
AcDbEntity
  8
1
100
AcDbVertex
100
AcDb2dVertex
 10
28.102329
 20
253.887478
 30
0.0
  0
VERTEX
  5
B58
100
AcDbEntity
  8
1
100
AcDbVertex
100
AcDb2dVertex
 10
28.262941
 20
253.890278
 30
0.0
  0
VERTEX
  5
B59
100
AcDbEntity
  8
1
100
AcDbVertex
100
AcDb2dVertex
 10
28.423554
 20
253.893149
 30
0.0
  0
VERTEX
  5
B5A
100
AcDbEntity
  8
1
100
AcDbVertex
100
AcDb2dVertex
 10
28.584169
 20
253.896091
 30
0.0
  0
VERTEX
  5
B5B
100
AcDbEntity
  8
1
100
AcDbVertex
100
AcDb2dVertex
 10
28.744784
 20
253.899103
 30
0.0
  0
VERTEX
  5
B5C
100
AcDbEntity
  8
1
100
AcDbVertex
100
AcDb2dVertex
 10
28.905401
 20
253.902185
 30
0.0
  0
VERTEX
  5
B5D
100
AcDbEntity
  8
1
100
AcDbVertex
100
AcDb2dVertex
 10
29.06602
 20
253.905338
 30
0.0
  0
SEQEND
  5
B5E
100
AcDbEntity
  8
1
  0
LINE
  5
B5F
100
AcDbEntity
  8
1
100
AcDbLine
 10
29.06602
 20
253.905338
 30
0.0
 11
29.869206
 21
253.926569
 31
0.0
  0
ENDBLK
  5
B60
100
AcDbEntity
  8
0
100
AcDbBlockEnd
  0
BLOCK
  5
B62
100
AcDbEntity
  8
0
100
AcDbBlockBegin
  2
NO_186328153
 70
    64
 10
0.416667
 20
260.058333
 30
0.0
  3
NO_186328153
  1

  0
LWPOLYLINE
  5
B63
100
AcDbEntity
  8
1
100
AcDbPolyline
 90
       21
 70
     0
 10
3.101953
 20
260.044322
 10
2.896827
 20
260.000235
 10
2.69916
 20
259.953304
 10
2.508952
 20
259.903528
 10
2.326203
 20
259.850908
 10
2.150914
 20
259.795444
 10
1.983083
 20
259.737135
 10
1.822712
 20
259.675982
 10
1.6698
 20
259.611985
 10
1.524347
 20
259.545143
 10
1.386353
 20
259.475458
 10
1.255819
 20
259.402927
 10
1.132743
 20
259.327553
 10
1.017126
 20
259.249334
 10
0.908969
 20
259.168271
 10
0.808271
 20
259.084363
 10
0.715032
 20
258.997611
 10
0.629252
 20
258.908015
 10
0.550931
 20
258.815575
 10
0.480069
 20
258.72029
 10
0.416667
 20
258.622161
  0
LWPOLYLINE
  5
B7A
100
AcDbEntity
  8
1
100
AcDbPolyline
 90
       21
 70
     0
 10
0.416667
 20
258.60815
 10
0.480069
 20
258.510987
 10
0.550931
 20
258.416641
 10
0.629252
 20
258.325112
 10
0.715032
 20
258.236398
 10
0.808271
 20
258.150501
 10
0.908969
 20
258.06742
 10
1.017126
 20
257.987156
 10
1.132743
 20
257.909707
 10
1.255819
 20
257.835075
 10
1.386353
 20
257.76326
 10
1.524347
 20
257.694261
 10
1.6698
 20
257.628077
 10
1.822712
 20
257.564711
 10
1.983083
 20
257.50416
 10
2.150914
 20
257.446426
 10
2.326203
 20
257.391508
 10
2.508952
 20
257.339407
 10
2.69916
 20
257.290122
 10
2.896827
 20
257.243653
 10
3.101953
 20
257.2
  0
LINE
  5
B91
100
AcDbEntity
  8
1
100
AcDbLine
 10
3.116667
 20
260.058333
 30
0.0
 11
3.116667
 21
257.2
 31
0.0
  0
ENDBLK
  5
B92
100
AcDbEntity
  8
0
100
AcDbBlockEnd
  0
BLOCK
  5
B94
100
AcDbEntity
  8
0
100
AcDbBlockBegin
  2
NO_186328159
 70
    64
 10
2.116667
 20
259.908333
 30
0.0
  3
NO_186328159
  1

  0
LWPOLYLINE
  5
B95
100
AcDbEntity
  8
1
100
AcDbPolyline
 90
        4
 70
     1
 10
3.316667
 20
259.908333
 10
7.116667
 20
259.908333
 10
7.116667
 20
257.208333
 10
3.316667
 20
257.208333
  0
LWPOLYLINE
  5
B9B
100
AcDbEntity
  8
1
100
AcDbPolyline
 90
        4
 70
     1
 10
7.116667
 20
259.008333
 10
7.366667
 20
259.008333
 10
7.366667
 20
258.108333
 10
7.116667
 20
258.108333
  0
LWPOLYLINE
  5
BA1
100
AcDbEntity
  8
1
100
AcDbPolyline
 90
        4
 70
     1
 10
2.116667
 20
258.658333
 10
3.316667
 20
258.658333
 10
3.316667
 20
258.458333
 10
2.116667
 20
258.458333
  0
LWPOLYLINE
  5
BA7
100
AcDbEntity
  8
1
100
AcDbPolyline
 90
        4
 70
     1
 10
7.116667
 20
259.758333
 10
7.816667
 20
259.758333
 10
7.816667
 20
259.708333
 10
7.116667
 20
259.708333
  0
LWPOLYLINE
  5
BAD
100
AcDbEntity
  8
1
100
AcDbPolyline
 90
        4
 70
     1
 10
7.116667
 20
259.808333
 10
7.266667
 20
259.808333
 10
7.266667
 20
259.658333
 10
7.116667
 20
259.658333
  0
LWPOLYLINE
  5
BB3
100
AcDbEntity
  8
1
100
AcDbPolyline
 90
        4
 70
     1
 10
7.116667
 20
257.408333
 10
7.816667
 20
257.408333
 10
7.816667
 20
257.358333
 10
7.116667
 20
257.358333
  0
LWPOLYLINE
  5
BB9
100
AcDbEntity
  8
1
100
AcDbPolyline
 90
        4
 70
     1
 10
7.116667
 20
257.458333
 10
7.266667
 20
257.458333
 10
7.266667
 20
257.308333
 10
7.116667
 20
257.308333
  0
TEXT
  5
BBF
100
AcDbEntity
  8
1
100
AcDbText
 10
3.866667
 20
258.558075
 30
0.0
 40
0.553923
  1
Speed 400
 41
0.508696
  7
TXT
 72
     5
 11
6.21482
 21
258.558075
 31
0.0
100
AcDbText
  0
ENDBLK
  5
BC0
100
AcDbEntity
  8
0
100
AcDbBlockEnd
  0
BLOCK
  5
E80
100
AcDbEntity
  8
0
100
AcDbBlockBegin
  2
A$C1C7533D0
 70
    64
 10
0.0
 20
0.0
 30
0.0
  3
A$C1C7533D0
  1

  0
MTEXT
  5
E7F
100
AcDbEntity
  8
0
  6
CONTINUOUS
100
AcDbMText
 10
0.0
 20
0.2
 30
0.0
 40
0.2
 41
5.8951
 71
     1
 72
     5
  1
3.0mm sheet balsa
  7
TXT
  0
ENDBLK
  5
E81
100
AcDbEntity
  8
0
100
AcDbBlockEnd
  0
BLOCK
  5
E95
100
AcDbEntity
  8
0
100
AcDbBlockBegin
  2
A$C129E0784
 70
    64
 10
0.0
 20
0.0
 30
0.0
  3
A$C129E0784
  1

  0
MTEXT
  5
E94
100
AcDbEntity
  8
0
  6
CONTINUOUS
100
AcDbMText
 10
0.0
 20
0.2
 30
0.0
 40
0.2
 41
0.0
 71
     1
 72
     5
  1
F1
  7
TXT
  0
ENDBLK
  5
E96
100
AcDbEntity
  8
0
100
AcDbBlockEnd
  0
BLOCK
  5
E9C
100
AcDbEntity
  8
0
100
AcDbBlockBegin
  2
A$C420C7865
 70
    64
 10
0.0
 20
0.0
 30
0.0
  3
A$C420C7865
  1

  0
MTEXT
  5
E9B
100
AcDbEntity
  8
0
  6
CONTINUOUS
100
AcDbMText
 10
0.0
 20
0.2
 30
0.0
 40
0.2
 41
0.8422
 71
     1
 72
     5
  1
F2
  7
TXT
  0
ENDBLK
  5
E9D
100
AcDbEntity
  8
0
100
AcDbBlockEnd
  0
BLOCK
  5
EA2
100
AcDbEntity
  8
0
100
AcDbBlockBegin
  2
A$C702B0AD5
 70
    64
 10
0.0
 20
0.0
 30
0.0
  3
A$C702B0AD5
  1

  0
MTEXT
  5
EA1
100
AcDbEntity
  8
0
  6
CONTINUOUS
100
AcDbMText
 10
0.0
 20
0.2
 30
0.0
 40
0.2
 41
0.4679
 71
     1
 72
     5
  1
F3a
  7
TXT
  0
ENDBLK
  5
EA3
100
AcDbEntity
  8
0
100
AcDbBlockEnd
  0
BLOCK
  5
EA8
100
AcDbEntity
  8
0
100
AcDbBlockBegin
  2
A$C7D9842FC
 70
    64
 10
0.0
 20
0.0
 30
0.0
  3
A$C7D9842FC
  1

  0
MTEXT
  5
EA7
100
AcDbEntity
  8
0
  6
CONTINUOUS
100
AcDbMText
 10
0.0
 20
0.2
 30
0.0
 40
0.2
 41
1.1852
 71
     1
 72
     5
  1
F4a
  7
TXT
  0
ENDBLK
  5
EA9
100
AcDbEntity
  8
0
100
AcDbBlockEnd
  0
BLOCK
  5
EAE
100
AcDbEntity
  8
0
100
AcDbBlockBegin
  2
A$C27F66F06
 70
    64
 10
0.0
 20
0.0
 30
0.0
  3
A$C27F66F06
  1

  0
MTEXT
  5
EAD
100
AcDbEntity
  8
0
  6
CONTINUOUS
100
AcDbMText
 10
0.0
 20
0.2
 30
0.0
 40
0.2
 41
2.1834
 71
     1
 72
     5
  1
F3
  7
TXT
  0
ENDBLK
  5
EAF
100
AcDbEntity
  8
0
100
AcDbBlockEnd
  0
BLOCK
  5
EB5
100
AcDbEntity
  8
0
100
AcDbBlockBegin
  2
A$C378F45B2
 70
    64
 10
0.0
 20
0.0
 30
0.0
  3
A$C378F45B2
  1

  0
INSERT
  5
EB3
100
AcDbEntity
  8
0
  6
CONTINUOUS
100
AcDbBlockReference
  2
A$C27F66F06
 10
0.0
 20
11.227836
 30
0.0
  0
MTEXT
  5
EB4
100
AcDbEntity
  8
0
  6
CONTINUOUS
100
AcDbMText
 10
8.483892
 20
0.2
 30
0.0
 40
0.2
 41
0.5302
 71
     1
 72
     5
  1
F4
  7
TXT
  0
ENDBLK
  5
EB6
100
AcDbEntity
  8
0
100
AcDbBlockEnd
  0
BLOCK
  5
EBD
100
AcDbEntity
  8
0
100
AcDbBlockBegin
  2
A$C6141051F
 70
    64
 10
0.0
 20
0.0
 30
0.0
  3
A$C6141051F
  1

  0
MTEXT
  5
EBC
100
AcDbEntity
  8
0
  6
CONTINUOUS
100
AcDbMText
 10
0.0
 20
0.2
 30
0.0
 40
0.2
 41
0.5302
 71
     1
 72
     5
  1
F4
  7
TXT
  0
ENDBLK
  5
EBE
100
AcDbEntity
  8
0
100
AcDbBlockEnd
  0
BLOCK
  5
F3B
100
AcDbEntity
  8
0
100
AcDbBlockBegin
  2
*D31
 70
    65
 10
0.0
 20
0.0
 30
0.0
  3
*D31
  1

  0
LINE
  5
F3C
100
AcDbEntity
  8
0
  6
BYBLOCK
 62
     0
100
AcDbLine
 10
-279.204828
 20
46.366563
 30
0.0
 11
-279.204828
 21
131.262127
 31
0.0
  0
LINE
  5
F3D
100
AcDbEntity
  8
0
  6
BYBLOCK
 62
     0
100
AcDbLine
 10
494.759552
 20
46.366563
 30
0.0
 11
494.759552
 21
131.262127
 31
0.0
  0
LINE
  5
F3E
100
AcDbEntity
  8
0
  6
BYBLOCK
 62
     0
100
AcDbLine
 10
-279.024828
 20
131.082127
 30
0.0
 11
107.174988
 21
131.082127
 31
0.0
  0
LINE
  5
F3F
100
AcDbEntity
  8
0
  6
BYBLOCK
 62
     0
100
AcDbLine
 10
494.579552
 20
131.082127
 30
0.0
 11
108.379736
 21
131.082127
 31
0.0
  0
SOLID
  5
F40
100
AcDbEntity
  8
0
  6
BYBLOCK
 62
     0
100
AcDbTrace
 10
-279.024828
 20
131.112127
 30
0.0
 11
-279.024828
 21
131.052127
 31
0.0
 12
-279.204828
 22
131.082127
 32
0.0
 13
-279.204828
 23
131.082127
 33
0.0
  0
SOLID
  5
F41
100
AcDbEntity
  8
0
  6
BYBLOCK
 62
     0
100
AcDbTrace
 10
494.579552
 20
131.112127
 30
0.0
 11
494.579552
 21
131.052127
 31
0.0
 12
494.759552
 22
131.082127
 32
0.0
 13
494.759552
 23
131.082127
 33
0.0
  0
MTEXT
  5
F42
100
AcDbEntity
  8
0
  6
BYBLOCK
 62
     0
100
AcDbMText
 10
107.777362
 20
131.082127
 30
0.0
 40
0.18
 41
0.0
 71
     5
 72
     1
  1
\A1;773.9644
  0
POINT
  5
F43
100
AcDbEntity
  8
DEFPOINTS
  6
BYBLOCK
 62
     0
100
AcDbPoint
 10
-279.204828
 20
46.304063
 30
0.0
  0
POINT
  5
F44
100
AcDbEntity
  8
DEFPOINTS
  6
BYBLOCK
 62
     0
100
AcDbPoint
 10
494.759552
 20
46.304063
 30
0.0
  0
POINT
  5
F45
100
AcDbEntity
  8
DEFPOINTS
  6
BYBLOCK
 62
     0
100
AcDbPoint
 10
494.759552
 20
131.082127
 30
0.0
  0
ENDBLK
  5
F46
100
AcDbEntity
  8
0
100
AcDbBlockEnd
  0
ENDSEC
  0
SECTION
  2
ENTITIES
  0
INSERT
  5
BC2
100
AcDbEntity
  8
1
100
AcDbBlockReference
  2
NO_186327888
 10
120.626319
 20
268.098127
 30
0.0
 41
10.0
 42
10.0
 43
10.0
  0
INSERT
  5
BC3
100
AcDbEntity
  8
1
100
AcDbBlockReference
  2
NO_186328077
 10
-288.621498
 20
207.643973
 30
0.0
 41
10.0
 42
10.0
 43
10.0
  0
INSERT
  5
BC9
100
AcDbEntity
  8
1
100
AcDbBlockReference
  2
NO_186328121
 10
-180.788158
 20
283.393973
 30
0.0
 41
10.0
 42
10.0
 43
10.0
  0
POLYLINE
  5
BCA
100
AcDbEntity
  8
1
100
AcDb2dPolyline
 66
     1
 10
0.0
 20
0.0
 30
0.0
 70
     1
  0
VERTEX
  5
BCB
100
AcDbEntity
  8
1
100
AcDbVertex
100
AcDb2dVertex
 10
-89.871498
 20
259.734553
 30
0.0
  0
VERTEX
  5
BCC
100
AcDbEntity
  8
1
100
AcDbVertex
100
AcDb2dVertex
 10
-87.503988
 20
259.734553
 30
0.0
  0
VERTEX
  5
BCD
100
AcDbEntity
  8
1
100
AcDbVertex
100
AcDb2dVertex
 10
-87.503988
 20
267.893973
 30
0.0
  0
VERTEX
  5
BCE
100
AcDbEntity
  8
1
100
AcDbVertex
100
AcDb2dVertex
 10
-32.620898
 20
267.893973
 30
0.0
  0
VERTEX
  5
BCF
100
AcDbEntity
  8
1
100
AcDbVertex
100
AcDb2dVertex
 10
-32.620898
 20
259.734553
 30
0.0
  0
VERTEX
  5
BD0
100
AcDbEntity
  8
1
100
AcDbVertex
100
AcDb2dVertex
 10
-30.038158
 20
259.734553
 30
0.0
  0
VERTEX
  5
BD1
100
AcDbEntity
  8
1
100
AcDbVertex
100
AcDb2dVertex
 10
-30.038158
 20
220.977303
 30
0.0
  0
VERTEX
  5
BD2
100
AcDbEntity
  8
1
100
AcDbVertex
100
AcDb2dVertex
 10
-89.871498
 20
220.977303
 30
0.0
  0
VERTEX
  5
BD3
100
AcDbEntity
  8
1
100
AcDbVertex
100
AcDb2dVertex
 10
-89.871498
 20
259.734553
 30
0.0
  0
VERTEX
  5
BD4
100
AcDbEntity
  8
1
100
AcDbVertex
100
AcDb2dVertex
 10
-89.871498
 20
259.734553
 30
0.0
  0
SEQEND
  5
BD5
100
AcDbEntity
  8
1
  0
LINE
  5
BD6
100
AcDbEntity
  8
1
100
AcDbLine
 10
-28.181188
 20
275.560643
 30
0.0
 11
-90.129368
 21
275.560643
 31
0.0
  0
LWPOLYLINE
  5
BD7
100
AcDbEntity
  8
1
100
AcDbPolyline
 90
       21
 70
     0
 10
-90.129368
 20
275.560643
 10
-90.221808
 20
279.205263
 10
-90.159558
 20
282.655183
 10
-89.942618
 20
285.910393
 10
-89.571008
 20
288.970903
 10
-89.044708
 20
291.836703
 10
-88.363738
 20
294.507803
 10
-87.528078
 20
296.984193
 10
-86.537738
 20
299.265883
 10
-85.392708
 20
301.352873
 10
-84.093008
 20
303.245153
 10
-82.638618
 20
304.942733
 10
-81.029558
 20
306.445603
 10
-79.265808
 20
307.753773
 10
-77.347368
 20
308.867243
 10
-75.274258
 20
309.786003
 10
-73.046458
 20
310.510053
 10
-70.663988
 20
311.039413
 10
-68.126828
 20
311.374053
 10
-65.434988
 20
311.514003
 10
-62.588468
 20
311.459243
  0
LINE
  5
BEE
100
AcDbEntity
  8
1
100
AcDbLine
 10
-62.588468
 20
311.459243
 30
0.0
 11
-55.722098
 21
311.459243
 31
0.0
  0
LWPOLYLINE
  5
BEF
100
AcDbEntity
  8
1
100
AcDbPolyline
 90
       21
 70
     0
 10
-55.571188
 20
311.459243
 10
-52.724668
 20
311.514003
 10
-50.032828
 20
311.374053
 10
-47.495668
 20
311.039413
 10
-45.113188
 20
310.510053
 10
-42.885398
 20
309.786003
 10
-40.812278
 20
308.867243
 10
-38.893848
 20
307.753773
 10
-37.130098
 20
306.445603
 10
-35.521028
 20
304.942733
 10
-34.066648
 20
303.245153
 10
-32.766938
 20
301.352873
 10
-31.621918
 20
299.265883
 10
-30.631578
 20
296.984193
 10
-29.795918
 20
294.507803
 10
-29.114938
 20
291.836703
 10
-28.588648
 20
288.970903
 10
-28.217028
 20
285.910393
 10
-28.000098
 20
282.655183
 10
-27.937848
 20
279.205263
 10
-28.030278
 20
275.560643
  0
LINE
  5
C06
100
AcDbEntity
  8
1
100
AcDbLine
 10
-116.847998
 20
284.977303
 30
0.0
 11
-181.629328
 21
284.977303
 31
0.0
  0
LWPOLYLINE
  5
C07
100
AcDbEntity
  8
1
100
AcDbPolyline
 90
       21
 70
     0
 10
-181.629328
 20
284.977303
 10
-181.718798
 20
286.850763
 10
-181.647448
 20
288.624823
 10
-181.415278
 20
290.299483
 10
-181.022288
 20
291.874753
 10
-180.468468
 20
293.350613
 10
-179.753838
 20
294.727073
 10
-178.878388
 20
296.004133
 10
-177.842108
 20
297.181803
 10
-176.645018
 20
298.260073
 10
-175.287098
 20
299.238933
 10
-173.768358
 20
300.118403
 10
-172.088808
 20
300.898473
 10
-170.248428
 20
301.579133
 10
-168.247228
 20
302.160403
 10
-166.085208
 20
302.642273
 10
-163.762368
 20
303.024753
 10
-161.278708
 20
303.307823
 10
-158.634218
 20
303.491493
 10
-155.828918
 20
303.575763
 10
-152.862798
 20
303.560643
  0
LINE
  5
C1E
100
AcDbEntity
  8
1
100
AcDbLine
 10
-152.862798
 20
303.560643
 30
0.0
 11
-145.614538
 21
303.560643
 31
0.0
  0
LWPOLYLINE
  5
C1F
100
AcDbEntity
  8
1
100
AcDbPolyline
 90
       21
 70
     0
 10
-145.463528
 20
303.560643
 10
-142.497408
 20
303.575763
 10
-139.692098
 20
303.491493
 10
-137.047618
 20
303.307823
 10
-134.563958
 20
303.024753
 10
-132.241118
 20
302.642273
 10
-130.079098
 20
302.160403
 10
-128.077898
 20
301.579133
 10
-126.237518
 20
300.898473
 10
-124.557958
 20
300.118403
 10
-123.039228
 20
299.238933
 10
-121.681308
 20
298.260073
 10
-120.484218
 20
297.181803
 10
-119.447938
 20
296.004133
 10
-118.572488
 20
294.727073
 10
-117.857848
 20
293.350613
 10
-117.304038
 20
291.874753
 10
-116.911048
 20
290.299483
 10
-116.678878
 20
288.624823
 10
-116.607528
 20
286.850763
 10
-116.696998
 20
284.977303
  0
INSERT
  5
C39
100
AcDbEntity
  8
1
100
AcDbBlockReference
  2
NO_186328126
 10
-151.121498
 20
371.060643
 30
0.0
 41
10.0
 42
10.0
 43
10.0
  0
POLYLINE
  5
C3A
100
AcDbEntity
  8
1
  6
DOT
100
AcDb2dPolyline
 66
     1
 10
0.0
 20
0.0
 30
0.0
 70
     1
  0
VERTEX
  5
C3B
100
AcDbEntity
  8
1
  6
DOT
100
AcDbVertex
100
AcDb2dVertex
 10
-269.371498
 20
374.227303
 30
0.0
  0
VERTEX
  5
C3C
100
AcDbEntity
  8
1
  6
DOT
100
AcDbVertex
100
AcDb2dVertex
 10
167.494262
 20
374.227303
 30
0.0
  0
VERTEX
  5
C3D
100
AcDbEntity
  8
1
  6
DOT
100
AcDbVertex
100
AcDb2dVertex
 10
167.494262
 20
371.513023
 30
0.0
  0
VERTEX
  5
C3E
100
AcDbEntity
  8
1
  6
DOT
100
AcDbVertex
100
AcDb2dVertex
 10
251.878492
 20
371.513023
 30
0.0
  0
VERTEX
  5
C3F
100
AcDbEntity
  8
1
  6
DOT
100
AcDbVertex
100
AcDb2dVertex
 10
213.837662
 20
366.310643
 30
0.0
  0
VERTEX
  5
C40
100
AcDbEntity
  8
1
  6
DOT
100
AcDbVertex
100
AcDb2dVertex
 10
-269.371498
 20
366.310643
 30
0.0
  0
VERTEX
  5
C41
100
AcDbEntity
  8
1
  6
DOT
100
AcDbVertex
100
AcDb2dVertex
 10
-269.371498
 20
374.227303
 30
0.0
  0
VERTEX
  5
C42
100
AcDbEntity
  8
1
  6
DOT
100
AcDbVertex
100
AcDb2dVertex
 10
-269.371498
 20
374.227303
 30
0.0
  0
SEQEND
  5
C43
100
AcDbEntity
  8
1
  6
DOT
  0
POLYLINE
  5
C44
100
AcDbEntity
  8
1
  6
DOT
100
AcDb2dPolyline
 66
     1
 10
0.0
 20
0.0
 30
0.0
 70
     1
  0
VERTEX
  5
C45
100
AcDbEntity
  8
1
  6
DOT
100
AcDbVertex
100
AcDb2dVertex
 10
-256.704828
 20
359.977303
 30
0.0
  0
VERTEX
  5
C46
100
AcDbEntity
  8
1
  6
DOT
100
AcDbVertex
100
AcDb2dVertex
 10
-256.704828
 20
357.264023
 30
0.0
  0
VERTEX
  5
C47
100
AcDbEntity
  8
1
  6
DOT
100
AcDbVertex
100
AcDb2dVertex
 10
-166.621488
 20
327.643973
 30
0.0
  0
VERTEX
  5
C48
100
AcDbEntity
  8
1
  6
DOT
100
AcDbVertex
100
AcDb2dVertex
 10
-166.621488
 20
330.357263
 30
0.0
  0
VERTEX
  5
C49
100
AcDbEntity
  8
1
  6
DOT
100
AcDbVertex
100
AcDb2dVertex
 10
-256.704828
 20
359.977303
 30
0.0
  0
VERTEX
  5
C4A
100
AcDbEntity
  8
1
  6
DOT
100
AcDbVertex
100
AcDb2dVertex
 10
-256.704828
 20
359.977303
 30
0.0
  0
SEQEND
  5
C4B
100
AcDbEntity
  8
1
  6
DOT
  0
INSERT
  5
C4C
100
AcDbEntity
  8
1
100
AcDbBlockReference
  2
NO_186328137
 10
-324.275238
 20
330.004443
 30
0.0
 41
10.0
 42
10.0
 43
10.0
  0
LINE
  5
C4D
100
AcDbEntity
  8
1
100
AcDbLine
 10
-268.954828
 20
374.143973
 30
0.0
 11
254.711842
 21
374.143973
 31
0.0
  0
LINE
  5
C4E
100
AcDbEntity
  8
1
100
AcDbLine
 10
-135.954828
 20
378.477303
 30
0.0
 11
-124.454828
 21
418.643973
 31
0.0
  0
LINE
  5
C4F
100
AcDbEntity
  8
1
100
AcDbLine
 10
-119.788158
 20
420.893973
 30
0.0
 11
-133.121498
 21
374.893973
 31
0.0
  0
LINE
  5
C50
100
AcDbEntity
  8
1
100
AcDbLine
 10
-126.954828
 20
378.727303
 30
0.0
 11
-115.204828
 21
423.227303
 31
0.0
  0
LINE
  5
C51
100
AcDbEntity
  8
1
100
AcDbLine
 10
-55.454828
 20
381.060643
 30
0.0
 11
-162.538158
 21
377.393973
 31
0.0
  0
LINE
  5
C52
100
AcDbEntity
  8
1
100
AcDbLine
 10
-173.121498
 20
394.810643
 30
0.0
 11
-160.954828
 21
374.227303
 31
0.0
  0
LINE
  5
C53
100
AcDbEntity
  8
1
100
AcDbLine
 10
-160.704828
 20
374.227303
 30
0.0
 11
-44.788158
 21
377.227303
 31
0.0
  0
LINE
  5
C54
100
AcDbEntity
  8
1
100
AcDbLine
 10
-121.371498
 20
420.143973
 30
0.0
 11
-176.621498
 21
393.310643
 31
0.0
  0
LINE
  5
C55
100
AcDbEntity
  8
1
100
AcDbLine
 10
0.211842
 20
328.227303
 30
0.0
 11
254.045172
 21
367.227303
 31
0.0
  0
LWPOLYLINE
  5
C56
100
AcDbEntity
  8
1
100
AcDbPolyline
 90
       21
 70
     0
 10
254.045172
 20
367.227303
 10
255.401842
 20
367.500133
 10
256.696842
 20
367.780643
 10
257.930172
 20
368.068833
 10
259.101842
 20
368.364713
 10
260.211842
 20
368.668283
 10
261.260172
 20
368.979533
 10
262.246842
 20
369.298463
 10
263.171842
 20
369.625083
 10
264.035172
 20
369.959393
 10
264.836842
 20
370.301383
 10
265.576842
 20
370.651053
 10
266.255172
 20
371.008413
 10
266.871842
 20
371.373463
 10
267.426842
 20
371.746193
 10
267.920172
 20
372.126613
 10
268.351842
 20
372.514713
 10
268.721842
 20
372.910503
 10
269.030172
 20
373.313973
 10
269.276842
 20
373.725133
 10
269.461842
 20
374.143973
  0
LINE
  5
C6D
100
AcDbEntity
  8
1
100
AcDbLine
 10
249.461842
 20
397.227303
 30
0.0
 11
267.878502
 21
493.143973
 31
0.0
  0
POLYLINE
  5
C6E
100
AcDbEntity
  8
1
100
AcDb2dPolyline
 66
     1
 10
0.0
 20
0.0
 30
0.0
  0
VERTEX
  5
C6F
100
AcDbEntity
  8
1
100
AcDbVertex
100
AcDb2dVertex
 10
267.878502
 20
493.143973
 30
0.0
  0
VERTEX
  5
C70
100
AcDbEntity
  8
1
100
AcDbVertex
100
AcDb2dVertex
 10
265.094692
 20
493.319733
 30
0.0
  0
VERTEX
  5
C71
100
AcDbEntity
  8
1
100
AcDbVertex
100
AcDb2dVertex
 10
262.402642
 20
493.483363
 30
0.0
  0
VERTEX
  5
C72
100
AcDbEntity
  8
1
100
AcDbVertex
100
AcDb2dVertex
 10
259.802382
 20
493.634883
 30
0.0
  0
VERTEX
  5
C73
100
AcDbEntity
  8
1
100
AcDbVertex
100
AcDb2dVertex
 10
257.293882
 20
493.774273
 30
0.0
  0
VERTEX
  5
C74
100
AcDbEntity
  8
1
100
AcDbVertex
100
AcDb2dVertex
 10
254.877162
 20
493.901553
 30
0.0
  0
VERTEX
  5
C75
100
AcDbEntity
  8
1
100
AcDbVertex
100
AcDb2dVertex
 10
252.552212
 20
494.016703
 30
0.0
  0
VERTEX
  5
C76
100
AcDbEntity
  8
1
100
AcDbVertex
100
AcDb2dVertex
 10
250.319042
 20
494.119733
 30
0.0
  0
VERTEX
  5
C77
100
AcDbEntity
  8
1
100
AcDbVertex
100
AcDb2dVertex
 10
248.177642
 20
494.210643
 30
0.0
  0
VERTEX
  5
C78
100
AcDbEntity
  8
1
100
AcDbVertex
100
AcDb2dVertex
 10
246.128022
 20
494.289423
 30
0.0
  0
VERTEX
  5
C79
100
AcDbEntity
  8
1
100
AcDbVertex
100
AcDb2dVertex
 10
244.170172
 20
494.356093
 30
0.0
  0
VERTEX
  5
C7A
100
AcDbEntity
  8
1
100
AcDbVertex
100
AcDb2dVertex
 10
244.170172
 20
494.356093
 30
0.0
  0
VERTEX
  5
C7B
100
AcDbEntity
  8
1
100
AcDbVertex
100
AcDb2dVertex
 10
242.321302
 20
494.410643
 30
0.0
  0
VERTEX
  5
C7C
100
AcDbEntity
  8
1
100
AcDbVertex
100
AcDb2dVertex
 10
240.590982
 20
494.453063
 30
0.0
  0
VERTEX
  5
C7D
100
AcDbEntity
  8
1
100
AcDbVertex
100
AcDb2dVertex
 10
238.967722
 20
494.483363
 30
0.0
  0
VERTEX
  5
C7E
100
AcDbEntity
  8
1
100
AcDbVertex
100
AcDb2dVertex
 10
237.440062
 20
494.501553
 30
0.0
  0
VERTEX
  5
C7F
100
AcDbEntity
  8
1
100
AcDbVertex
100
AcDb2dVertex
 10
235.996532
 20
494.507613
 30
0.0
  0
VERTEX
  5
C80
100
AcDbEntity
  8
1
100
AcDbVertex
100
AcDb2dVertex
 10
234.625652
 20
494.501553
 30
0.0
  0
VERTEX
  5
C81
100
AcDbEntity
  8
1
100
AcDbVertex
100
AcDb2dVertex
 10
233.315962
 20
494.483363
 30
0.0
  0
VERTEX
  5
C82
100
AcDbEntity
  8
1
100
AcDbVertex
100
AcDb2dVertex
 10
232.055982
 20
494.453063
 30
0.0
  0
VERTEX
  5
C83
100
AcDbEntity
  8
1
100
AcDbVertex
100
AcDb2dVertex
 10
230.834232
 20
494.410643
 30
0.0
  0
VERTEX
  5
C84
100
AcDbEntity
  8
1
100
AcDbVertex
100
AcDb2dVertex
 10
229.639262
 20
494.356093
 30
0.0
  0
VERTEX
  5
C85
100
AcDbEntity
  8
1
100
AcDbVertex
100
AcDb2dVertex
 10
228.480612
 20
494.289423
 30
0.0
  0
VERTEX
  5
C86
100
AcDbEntity
  8
1
100
AcDbVertex
100
AcDb2dVertex
 10
227.375492
 20
494.210643
 30
0.0
  0
VERTEX
  5
C87
100
AcDbEntity
  8
1
100
AcDbVertex
100
AcDb2dVertex
 10
226.323912
 20
494.119733
 30
0.0
  0
VERTEX
  5
C88
100
AcDbEntity
  8
1
100
AcDbVertex
100
AcDb2dVertex
 10
225.325872
 20
494.016703
 30
0.0
  0
VERTEX
  5
C89
100
AcDbEntity
  8
1
100
AcDbVertex
100
AcDb2dVertex
 10
224.381362
 20
493.901553
 30
0.0
  0
VERTEX
  5
C8A
100
AcDbEntity
  8
1
100
AcDbVertex
100
AcDb2dVertex
 10
223.490392
 20
493.774273
 30
0.0
  0
VERTEX
  5
C8B
100
AcDbEntity
  8
1
100
AcDbVertex
100
AcDb2dVertex
 10
222.652952
 20
493.634883
 30
0.0
  0
VERTEX
  5
C8C
100
AcDbEntity
  8
1
100
AcDbVertex
100
AcDb2dVertex
 10
221.869042
 20
493.483363
 30
0.0
  0
VERTEX
  5
C8D
100
AcDbEntity
  8
1
100
AcDbVertex
100
AcDb2dVertex
 10
221.138672
 20
493.319733
 30
0.0
  0
VERTEX
  5
C8E
100
AcDbEntity
  8
1
100
AcDbVertex
100
AcDb2dVertex
 10
220.461842
 20
493.143973
 30
0.0
  0
SEQEND
  5
C8F
100
AcDbEntity
  8
1
  0
LINE
  5
C90
100
AcDbEntity
  8
1
100
AcDbLine
 10
220.461842
 20
493.143973
 30
0.0
 11
170.795172
 21
423.143973
 31
0.0
  0
LINE
  5
C91
100
AcDbEntity
  8
1
100
AcDbLine
 10
143.628502
 20
411.810643
 30
0.0
 11
2.878502
 21
405.477303
 31
0.0
  0
LINE
  5
C92
100
AcDbEntity
  8
1
100
AcDbLine
 10
24.545172
 20
398.727303
 30
0.0
 11
247.045172
 21
386.727303
 31
0.0
  0
POLYLINE
  5
C93
100
AcDbEntity
  8
1
100
AcDb2dPolyline
 66
     1
 10
0.0
 20
0.0
 30
0.0
  0
VERTEX
  5
C94
100
AcDbEntity
  8
1
100
AcDbVertex
100
AcDb2dVertex
 10
269.461842
 20
374.143973
 30
0.0
  0
VERTEX
  5
C95
100
AcDbEntity
  8
1
100
AcDbVertex
100
AcDb2dVertex
 10
269.361842
 20
374.605643
 30
0.0
  0
VERTEX
  5
C96
100
AcDbEntity
  8
1
100
AcDbVertex
100
AcDb2dVertex
 10
269.215682
 20
375.067303
 30
0.0
  0
VERTEX
  5
C97
100
AcDbEntity
  8
1
100
AcDbVertex
100
AcDb2dVertex
 10
269.023382
 20
375.528973
 30
0.0
  0
VERTEX
  5
C98
100
AcDbEntity
  8
1
100
AcDbVertex
100
AcDb2dVertex
 10
268.784912
 20
375.990643
 30
0.0
  0
VERTEX
  5
C99
100
AcDbEntity
  8
1
100
AcDbVertex
100
AcDb2dVertex
 10
268.500302
 20
376.452303
 30
0.0
  0
VERTEX
  5
C9A
100
AcDbEntity
  8
1
100
AcDbVertex
100
AcDb2dVertex
 10
268.169532
 20
376.913973
 30
0.0
  0
VERTEX
  5
C9B
100
AcDbEntity
  8
1
100
AcDbVertex
100
AcDb2dVertex
 10
267.792612
 20
377.375643
 30
0.0
  0
VERTEX
  5
C9C
100
AcDbEntity
  8
1
100
AcDbVertex
100
AcDb2dVertex
 10
267.369532
 20
377.837303
 30
0.0
  0
VERTEX
  5
C9D
100
AcDbEntity
  8
1
100
AcDbVertex
100
AcDb2dVertex
 10
266.900302
 20
378.298973
 30
0.0
  0
VERTEX
  5
C9E
100
AcDbEntity
  8
1
100
AcDbVertex
100
AcDb2dVertex
 10
266.384912
 20
378.760643
 30
0.0
  0
VERTEX
  5
C9F
100
AcDbEntity
  8
1
100
AcDbVertex
100
AcDb2dVertex
 10
266.384912
 20
378.760643
 30
0.0
  0
VERTEX
  5
CA0
100
AcDbEntity
  8
1
100
AcDbVertex
100
AcDb2dVertex
 10
265.799142
 20
379.212953
 30
0.0
  0
VERTEX
  5
CA1
100
AcDbEntity
  8
1
100
AcDbVertex
100
AcDb2dVertex
 10
265.129532
 20
379.650733
 30
0.0
  0
VERTEX
  5
CA2
100
AcDbEntity
  8
1
100
AcDbVertex
100
AcDb2dVertex
 10
264.392222
 20
380.080203
 30
0.0
  0
VERTEX
  5
CA3
100
AcDbEntity
  8
1
100
AcDbVertex
100
AcDb2dVertex
 10
263.603382
 20
380.507583
 30
0.0
  0
VERTEX
  5
CA4
100
AcDbEntity
  8
1
100
AcDbVertex
100
AcDb2dVertex
 10
262.779142
 20
380.939133
 30
0.0
  0
VERTEX
  5
CA5
100
AcDbEntity
  8
1
100
AcDbVertex
100
AcDb2dVertex
 10
261.935682
 20
381.381063
 30
0.0
  0
VERTEX
  5
CA6
100
AcDbEntity
  8
1
100
AcDbVertex
100
AcDb2dVertex
 10
261.089142
 20
381.839613
 30
0.0
  0
VERTEX
  5
CA7
100
AcDbEntity
  8
1
100
AcDbVertex
100
AcDb2dVertex
 10
260.255682
 20
382.321013
 30
0.0
  0
VERTEX
  5
CA8
100
AcDbEntity
  8
1
100
AcDbVertex
100
AcDb2dVertex
 10
259.451452
 20
382.831503
 30
0.0
  0
VERTEX
  5
CA9
100
AcDbEntity
  8
1
100
AcDbVertex
100
AcDb2dVertex
 10
258.692612
 20
383.377303
 30
0.0
  0
VERTEX
  5
CAA
100
AcDbEntity
  8
1
100
AcDbVertex
100
AcDb2dVertex
 10
257.948382
 20
383.960503
 30
0.0
  0
VERTEX
  5
CAB
100
AcDbEntity
  8
1
100
AcDbVertex
100
AcDb2dVertex
 10
257.184912
 20
384.575793
 30
0.0
  0
VERTEX
  5
CAC
100
AcDbEntity
  8
1
100
AcDbVertex
100
AcDb2dVertex
 10
256.413762
 20
385.218313
 30
0.0
  0
VERTEX
  5
CAD
100
AcDbEntity
  8
1
100
AcDbVertex
100
AcDb2dVertex
 10
255.646452
 20
385.883233
 30
0.0
  0
VERTEX
  5
CAE
100
AcDbEntity
  8
1
100
AcDbVertex
100
AcDb2dVertex
 10
254.894532
 20
386.565693
 30
0.0
  0
VERTEX
  5
CAF
100
AcDbEntity
  8
1
100
AcDbVertex
100
AcDb2dVertex
 10
254.169532
 20
387.260843
 30
0.0
  0
VERTEX
  5
CB0
100
AcDbEntity
  8
1
100
AcDbVertex
100
AcDb2dVertex
 10
253.482992
 20
387.963853
 30
0.0
  0
VERTEX
  5
CB1
100
AcDbEntity
  8
1
100
AcDbVertex
100
AcDb2dVertex
 10
252.846452
 20
388.669853
 30
0.0
  0
VERTEX
  5
CB2
100
AcDbEntity
  8
1
100
AcDbVertex
100
AcDb2dVertex
 10
252.271452
 20
389.374013
 30
0.0
  0
VERTEX
  5
CB3
100
AcDbEntity
  8
1
100
AcDbVertex
100
AcDb2dVertex
 10
251.769532
 20
390.071473
 30
0.0
  0
VERTEX
  5
CB4
100
AcDbEntity
  8
1
100
AcDbVertex
100
AcDb2dVertex
 10
251.331072
 20
390.766283
 30
0.0
  0
VERTEX
  5
CB5
100
AcDbEntity
  8
1
100
AcDbVertex
100
AcDb2dVertex
 10
250.938762
 20
391.465703
 30
0.0
  0
VERTEX
  5
CB6
100
AcDbEntity
  8
1
100
AcDbVertex
100
AcDb2dVertex
 10
250.592612
 20
392.169743
 30
0.0
  0
VERTEX
  5
CB7
100
AcDbEntity
  8
1
100
AcDbVertex
100
AcDb2dVertex
 10
250.292612
 20
392.878403
 30
0.0
  0
VERTEX
  5
CB8
100
AcDbEntity
  8
1
100
AcDbVertex
100
AcDb2dVertex
 10
250.038762
 20
393.591683
 30
0.0
  0
VERTEX
  5
CB9
100
AcDbEntity
  8
1
100
AcDbVertex
100
AcDb2dVertex
 10
249.831072
 20
394.309573
 30
0.0
  0
VERTEX
  5
CBA
100
AcDbEntity
  8
1
100
AcDbVertex
100
AcDb2dVertex
 10
249.669532
 20
395.032083
 30
0.0
  0
VERTEX
  5
CBB
100
AcDbEntity
  8
1
100
AcDbVertex
100
AcDb2dVertex
 10
249.554142
 20
395.759203
 30
0.0
  0
VERTEX
  5
CBC
100
AcDbEntity
  8
1
100
AcDbVertex
100
AcDb2dVertex
 10
249.484912
 20
396.490943
 30
0.0
  0
VERTEX
  5
CBD
100
AcDbEntity
  8
1
100
AcDbVertex
100
AcDb2dVertex
 10
249.461842
 20
397.227303
 30
0.0
  0
SEQEND
  5
CBE
100
AcDbEntity
  8
1
  0
LWPOLYLINE
  5
CBF
100
AcDbEntity
  8
1
100
AcDbPolyline
 90
       21
 70
     0
 10
170.795172
 20
423.143973
 10
169.856972
 20
422.133973
 10
168.874552
 20
421.170643
 10
167.847902
 20
420.253973
 10
166.777032
 20
419.383973
 10
165.661932
 20
418.560643
 10
164.502612
 20
417.783973
 10
163.299072
 20
417.053973
 10
162.051292
 20
416.370643
 10
160.759302
 20
415.733973
 10
159.423082
 20
415.143973
 10
158.042632
 20
414.600643
 10
156.617962
 20
414.103973
 10
155.149072
 20
413.653973
 10
153.635952
 20
413.250643
 10
152.078602
 20
412.893973
 10
150.477032
 20
412.583973
 10
148.831242
 20
412.320643
 10
147.141222
 20
412.103973
 10
145.406972
 20
411.933973
 10
143.628502
 20
411.810643
  0
LWPOLYLINE
  5
CD6
100
AcDbEntity
  8
1
100
AcDbPolyline
 90
        3
 70
     0
 10
-253.954828
 20
338.393973
 10
-253.954828
 20
344.257613
 10
-247.871498
 20
345.560643
  0
LWPOLYLINE
  5
CDB
100
AcDbEntity
  8
1
100
AcDbPolyline
 90
       21
 70
     0
 10
-253.954828
 20
338.227303
 10
-251.025078
 20
337.151903
 10
-248.062068
 20
336.142883
 10
-245.065778
 20
335.200223
 10
-242.036208
 20
334.323943
 10
-238.973378
 20
333.514043
 10
-235.877268
 20
332.770513
 10
-232.747888
 20
332.093353
 10
-229.585238
 20
331.482573
 10
-226.389318
 20
330.938163
 10
-223.160118
 20
330.460133
 10
-219.897648
 20
330.048473
 10
-216.601908
 20
329.703183
 10
-213.272888
 20
329.424273
 10
-209.910598
 20
329.211733
 10
-206.515048
 20
329.065573
 10
-203.086208
 20
328.985783
 10
-199.624108
 20
328.972363
 10
-196.128728
 20
329.025323
 10
-192.600078
 20
329.144653
 10
-189.038158
 20
329.330363
  0
LINE
  5
CF2
100
AcDbEntity
  8
1
100
AcDbLine
 10
-2.288158
 20
374.227303
 30
0.0
 11
24.545172
 21
398.727303
 31
0.0
  0
LWPOLYLINE
  5
CF3
100
AcDbEntity
  8
1
100
AcDbPolyline
 90
       21
 70
     0
 10
24.628512
 20
398.810643
 10
12.633532
 20
402.496323
 10
1.132762
 20
405.906433
 10
-9.873798
 20
409.040983
 10
-20.386158
 20
411.899953
 10
-30.404298
 20
414.483343
 10
-39.928238
 20
416.791173
 10
-48.957968
 20
418.823423
 10
-57.493488
 20
420.580103
 10
-65.534798
 20
422.061223
 10
-73.081908
 20
423.266753
 10
-80.134798
 20
424.196723
 10
-86.693488
 20
424.851123
 10
-92.757968
 20
425.229943
 10
-98.328238
 20
425.333193
 10
-103.404308
 20
425.160873
 10
-107.986158
 20
424.712983
 10
-112.073808
 20
423.989513
 10
-115.667238
 20
422.990483
 10
-118.766468
 20
421.715873
 10
-121.371498
 20
420.165693
  0
LINE
  5
D0A
100
AcDbEntity
  8
1
100
AcDbLine
 10
-163.871498
 20
374.227303
 30
0.0
 11
-175.038158
 21
393.810643
 31
0.0
  0
LWPOLYLINE
  5
D0B
100
AcDbEntity
  8
1
100
AcDbPolyline
 90
        4
 70
     1
 10
-166.371498
 20
374.060643
 10
-163.871498
 20
374.060643
 10
-163.871498
 20
327.310643
 10
-166.371498
 20
327.310643
  0
LINE
  5
D11
100
AcDbEntity
  8
1
100
AcDbLine
 10
-166.371498
 20
374.227303
 30
0.0
 11
-176.621498
 21
393.310643
 31
0.0
  0
LINE
  5
D12
100
AcDbEntity
  8
1
100
AcDbLine
 10
-166.371498
 20
327.310643
 30
0.0
 11
-266.288158
 21
360.477303
 31
0.0
  0
LINE
  5
D13
100
AcDbEntity
  8
1
100
AcDbLine
 10
26.878502
 20
398.477303
 30
0.0
 11
0.211842
 21
374.227303
 31
0.0
  0
LINE
  5
D14
100
AcDbEntity
  8
1
100
AcDbLine
 10
-2.371498
 20
329.060643
 30
0.0
 11
255.211842
 21
368.727303
 31
0.0
  0
POLYLINE
  5
D15
100
AcDbEntity
  8
1
100
AcDb2dPolyline
 66
     1
 10
0.0
 20
0.0
 30
0.0
 70
     1
  0
VERTEX
  5
D16
100
AcDbEntity
  8
1
100
AcDbVertex
100
AcDb2dVertex
 10
-2.371498
 20
374.060643
 30
0.0
  0
VERTEX
  5
D17
100
AcDbEntity
  8
1
100
AcDbVertex
100
AcDb2dVertex
 10
-2.371498
 20
329.060643
 30
0.0
  0
VERTEX
  5
D18
100
AcDbEntity
  8
1
100
AcDbVertex
100
AcDb2dVertex
 10
0.211842
 20
329.460053
 30
0.0
  0
VERTEX
  5
D19
100
AcDbEntity
  8
1
100
AcDbVertex
100
AcDb2dVertex
 10
0.211842
 20
374.060643
 30
0.0
  0
VERTEX
  5
D1A
100
AcDbEntity
  8
1
100
AcDbVertex
100
AcDb2dVertex
 10
-2.371498
 20
374.060643
 30
0.0
  0
VERTEX
  5
D1B
100
AcDbEntity
  8
1
100
AcDbVertex
100
AcDb2dVertex
 10
-2.371498
 20
374.060643
 30
0.0
  0
SEQEND
  5
D1C
100
AcDbEntity
  8
1
  0
LINE
  5
D1D
100
AcDbEntity
  8
1
100
AcDbLine
 10
-2.371498
 20
328.227303
 30
0.0
 11
0.378502
 21
328.227303
 31
0.0
  0
POLYLINE
  5
D1E
100
AcDbEntity
  8
1
100
AcDb2dPolyline
 66
     1
 10
0.0
 20
0.0
 30
0.0
  0
VERTEX
  5
D1F
100
AcDbEntity
  8
1
100
AcDbVertex
100
AcDb2dVertex
 10
-2.371488
 20
335.143973
 30
0.0
  0
VERTEX
  5
D20
100
AcDbEntity
  8
1
100
AcDbVertex
100
AcDb2dVertex
 10
-7.878428
 20
336.415403
 30
0.0
  0
VERTEX
  5
D21
100
AcDbEntity
  8
1
100
AcDbVertex
100
AcDb2dVertex
 10
-13.455488
 20
337.630323
 30
0.0
  0
VERTEX
  5
D22
100
AcDbEntity
  8
1
100
AcDbVertex
100
AcDb2dVertex
 10
-19.102678
 20
338.788733
 30
0.0
  0
VERTEX
  5
D23
100
AcDbEntity
  8
1
100
AcDbVertex
100
AcDb2dVertex
 10
-24.819988
 20
339.890643
 30
0.0
  0
VERTEX
  5
D24
100
AcDbEntity
  8
1
100
AcDbVertex
100
AcDb2dVertex
 10
-30.607428
 20
340.936033
 30
0.0
  0
VERTEX
  5
D25
100
AcDbEntity
  8
1
100
AcDbVertex
100
AcDb2dVertex
 10
-36.464988
 20
341.924923
 30
0.0
  0
VERTEX
  5
D26
100
AcDbEntity
  8
1
100
AcDbVertex
100
AcDb2dVertex
 10
-42.392678
 20
342.857303
 30
0.0
  0
VERTEX
  5
D27
100
AcDbEntity
  8
1
100
AcDbVertex
100
AcDb2dVertex
 10
-48.390488
 20
343.733183
 30
0.0
  0
VERTEX
  5
D28
100
AcDbEntity
  8
1
100
AcDbVertex
100
AcDb2dVertex
 10
-54.458428
 20
344.552543
 30
0.0
  0
VERTEX
  5
D29
100
AcDbEntity
  8
1
100
AcDbVertex
100
AcDb2dVertex
 10
-60.596488
 20
345.315403
 30
0.0
  0
VERTEX
  5
D2A
100
AcDbEntity
  8
1
100
AcDbVertex
100
AcDb2dVertex
 10
-60.596488
 20
345.315403
 30
0.0
  0
VERTEX
  5
D2B
100
AcDbEntity
  8
1
100
AcDbVertex
100
AcDb2dVertex
 10
-66.958638
 20
346.054173
 30
0.0
  0
VERTEX
  5
D2C
100
AcDbEntity
  8
1
100
AcDbVertex
100
AcDb2dVertex
 10
-73.630388
 20
346.786873
 30
0.0
  0
VERTEX
  5
D2D
100
AcDbEntity
  8
1
100
AcDbVertex
100
AcDb2dVertex
 10
-80.509128
 20
347.491873
 30
0.0
  0
VERTEX
  5
D2E
100
AcDbEntity
  8
1
100
AcDbVertex
100
AcDb2dVertex
 10
-87.492188
 20
348.147583
 30
0.0
  0
VERTEX
  5
D2F
100
AcDbEntity
  8
1
100
AcDbVertex
100
AcDb2dVertex
 10
-94.476958
 20
348.732363
 30
0.0
  0
VERTEX
  5
D30
100
AcDbEntity
  8
1
100
AcDbVertex
100
AcDb2dVertex
 10
-101.360788
 20
349.224623
 30
0.0
  0
VERTEX
  5
D31
100
AcDbEntity
  8
1
100
AcDbVertex
100
AcDb2dVertex
 10
-108.041048
 20
349.602733
 30
0.0
  0
VERTEX
  5
D32
100
AcDbEntity
  8
1
100
AcDbVertex
100
AcDb2dVertex
 10
-114.415098
 20
349.845073
 30
0.0
  0
VERTEX
  5
D33
100
AcDbEntity
  8
1
100
AcDbVertex
100
AcDb2dVertex
 10
-120.380288
 20
349.930053
 30
0.0
  0
VERTEX
  5
D34
100
AcDbEntity
  8
1
100
AcDbVertex
100
AcDb2dVertex
 10
-125.833998
 20
349.836033
 30
0.0
  0
VERTEX
  5
D35
100
AcDbEntity
  8
1
100
AcDbVertex
100
AcDb2dVertex
 10
-130.861748
 20
349.581043
 30
0.0
  0
VERTEX
  5
D36
100
AcDbEntity
  8
1
100
AcDbVertex
100
AcDb2dVertex
 10
-135.617498
 20
349.197493
 30
0.0
  0
VERTEX
  5
D37
100
AcDbEntity
  8
1
100
AcDbVertex
100
AcDb2dVertex
 10
-140.101248
 20
348.685393
 30
0.0
  0
VERTEX
  5
D38
100
AcDbEntity
  8
1
100
AcDbVertex
100
AcDb2dVertex
 10
-144.312998
 20
348.044733
 30
0.0
  0
VERTEX
  5
D39
100
AcDbEntity
  8
1
100
AcDbVertex
100
AcDb2dVertex
 10
-148.252748
 20
347.275523
 30
0.0
  0
VERTEX
  5
D3A
100
AcDbEntity
  8
1
100
AcDbVertex
100
AcDb2dVertex
 10
-151.920498
 20
346.377753
 30
0.0
  0
VERTEX
  5
D3B
100
AcDbEntity
  8
1
100
AcDbVertex
100
AcDb2dVertex
 10
-155.316248
 20
345.351423
 30
0.0
  0
VERTEX
  5
D3C
100
AcDbEntity
  8
1
100
AcDbVertex
100
AcDb2dVertex
 10
-158.439998
 20
344.196543
 30
0.0
  0
VERTEX
  5
D3D
100
AcDbEntity
  8
1
100
AcDbVertex
100
AcDb2dVertex
 10
-161.291748
 20
342.913103
 30
0.0
  0
VERTEX
  5
D3E
100
AcDbEntity
  8
1
100
AcDbVertex
100
AcDb2dVertex
 10
-163.871498
 20
341.501113
 30
0.0
  0
SEQEND
  5
D3F
100
AcDbEntity
  8
1
  0
POLYLINE
  5
D40
100
AcDbEntity
  8
1
100
AcDb2dPolyline
 66
     1
 10
0.0
 20
0.0
 30
0.0
  0
VERTEX
  5
D41
100
AcDbEntity
  8
1
100
AcDbVertex
100
AcDb2dVertex
 10
-44.788158
 20
377.227303
 30
0.0
  0
VERTEX
  5
D42
100
AcDbEntity
  8
1
100
AcDbVertex
100
AcDb2dVertex
 10
-43.565328
 20
377.345913
 30
0.0
  0
VERTEX
  5
D43
100
AcDbEntity
  8
1
100
AcDbVertex
100
AcDb2dVertex
 10
-42.309328
 20
377.528523
 30
0.0
  0
VERTEX
  5
D44
100
AcDbEntity
  8
1
100
AcDbVertex
100
AcDb2dVertex
 10
-41.020158
 20
377.775143
 30
0.0
  0
VERTEX
  5
D45
100
AcDbEntity
  8
1
100
AcDbVertex
100
AcDb2dVertex
 10
-39.697818
 20
378.085773
 30
0.0
  0
VERTEX
  5
D46
100
AcDbEntity
  8
1
100
AcDbVertex
100
AcDb2dVertex
 10
-38.342298
 20
378.460403
 30
0.0
  0
VERTEX
  5
D47
100
AcDbEntity
  8
1
100
AcDbVertex
100
AcDb2dVertex
 10
-36.953608
 20
378.899053
 30
0.0
  0
VERTEX
  5
D48
100
AcDbEntity
  8
1
100
AcDbVertex
100
AcDb2dVertex
 10
-35.531758
 20
379.401703
 30
0.0
  0
VERTEX
  5
D49
100
AcDbEntity
  8
1
100
AcDbVertex
100
AcDb2dVertex
 10
-34.076728
 20
379.968363
 30
0.0
  0
VERTEX
  5
D4A
100
AcDbEntity
  8
1
100
AcDbVertex
100
AcDb2dVertex
 10
-32.588518
 20
380.599033
 30
0.0
  0
VERTEX
  5
D4B
100
AcDbEntity
  8
1
100
AcDbVertex
100
AcDb2dVertex
 10
-31.067148
 20
381.293713
 30
0.0
  0
VERTEX
  5
D4C
100
AcDbEntity
  8
1
100
AcDbVertex
100
AcDb2dVertex
 10
-31.067148
 20
381.293713
 30
0.0
  0
VERTEX
  5
D4D
100
AcDbEntity
  8
1
100
AcDbVertex
100
AcDb2dVertex
 10
-29.485458
 20
382.063583
 30
0.0
  0
VERTEX
  5
D4E
100
AcDbEntity
  8
1
100
AcDbVertex
100
AcDb2dVertex
 10
-27.828388
 20
382.914853
 30
0.0
  0
VERTEX
  5
D4F
100
AcDbEntity
  8
1
100
AcDbVertex
100
AcDb2dVertex
 10
-26.114008
 20
383.840073
 30
0.0
  0
VERTEX
  5
D50
100
AcDbEntity
  8
1
100
AcDbVertex
100
AcDb2dVertex
 10
-24.360438
 20
384.831783
 30
0.0
  0
VERTEX
  5
D51
100
AcDbEntity
  8
1
100
AcDbVertex
100
AcDb2dVertex
 10
-22.585748
 20
385.882543
 30
0.0
  0
VERTEX
  5
D52
100
AcDbEntity
  8
1
100
AcDbVertex
100
AcDb2dVertex
 10
-20.808048
 20
386.984873
 30
0.0
  0
VERTEX
  5
D53
100
AcDbEntity
  8
1
100
AcDbVertex
100
AcDb2dVertex
 10
-19.045428
 20
388.131333
 30
0.0
  0
VERTEX
  5
D54
100
AcDbEntity
  8
1
100
AcDbVertex
100
AcDb2dVertex
 10
-17.315978
 20
389.314473
 30
0.0
  0
VERTEX
  5
D55
100
AcDbEntity
  8
1
100
AcDbVertex
100
AcDb2dVertex
 10
-15.637788
 20
390.526823
 30
0.0
  0
VERTEX
  5
D56
100
AcDbEntity
  8
1
100
AcDbVertex
100
AcDb2dVertex
 10
-14.028968
 20
391.760943
 30
0.0
  0
VERTEX
  5
D57
100
AcDbEntity
  8
1
100
AcDbVertex
100
AcDb2dVertex
 10
-12.474418
 20
393.023033
 30
0.0
  0
VERTEX
  5
D58
100
AcDbEntity
  8
1
100
AcDbVertex
100
AcDb2dVertex
 10
-10.947008
 20
394.324283
 30
0.0
  0
VERTEX
  5
D59
100
AcDbEntity
  8
1
100
AcDbVertex
100
AcDb2dVertex
 10
-9.446748
 20
395.664693
 30
0.0
  0
VERTEX
  5
D5A
100
AcDbEntity
  8
1
100
AcDbVertex
100
AcDb2dVertex
 10
-7.973628
 20
397.044263
 30
0.0
  0
VERTEX
  5
D5B
100
AcDbEntity
  8
1
100
AcDbVertex
100
AcDb2dVertex
 10
-6.527638
 20
398.462983
 30
0.0
  0
VERTEX
  5
D5C
100
AcDbEntity
  8
1
100
AcDbVertex
100
AcDb2dVertex
 10
-5.108798
 20
399.920863
 30
0.0
  0
VERTEX
  5
D5D
100
AcDbEntity
  8
1
100
AcDbVertex
100
AcDb2dVertex
 10
-3.717098
 20
401.417903
 30
0.0
  0
VERTEX
  5
D5E
100
AcDbEntity
  8
1
100
AcDbVertex
100
AcDb2dVertex
 10
-2.352528
 20
402.954103
 30
0.0
  0
VERTEX
  5
D5F
100
AcDbEntity
  8
1
100
AcDbVertex
100
AcDb2dVertex
 10
-1.015108
 20
404.529463
 30
0.0
  0
VERTEX
  5
D60
100
AcDbEntity
  8
1
100
AcDbVertex
100
AcDb2dVertex
 10
0.295172
 20
406.143973
 30
0.0
  0
SEQEND
  5
D61
100
AcDbEntity
  8
1
  0
POLYLINE
  5
D62
100
AcDbEntity
  8
1
100
AcDb2dPolyline
 66
     1
 10
0.0
 20
0.0
 30
0.0
  0
VERTEX
  5
D63
100
AcDbEntity
  8
1
100
AcDbVertex
100
AcDb2dVertex
 10
-8.288158
 20
408.560643
 30
0.0
  0
VERTEX
  5
D64
100
AcDbEntity
  8
1
100
AcDbVertex
100
AcDb2dVertex
 10
-9.470348
 20
407.208243
 30
0.0
  0
VERTEX
  5
D65
100
AcDbEntity
  8
1
100
AcDbVertex
100
AcDb2dVertex
 10
-10.684978
 20
405.878443
 30
0.0
  0
VERTEX
  5
D66
100
AcDbEntity
  8
1
100
AcDbVertex
100
AcDb2dVertex
 10
-11.932068
 20
404.571253
 30
0.0
  0
VERTEX
  5
D67
100
AcDbEntity
  8
1
100
AcDbVertex
100
AcDb2dVertex
 10
-13.211608
 20
403.286663
 30
0.0
  0
VERTEX
  5
D68
100
AcDbEntity
  8
1
100
AcDbVertex
100
AcDb2dVertex
 10
-14.523598
 20
402.024683
 30
0.0
  0
VERTEX
  5
D69
100
AcDbEntity
  8
1
100
AcDbVertex
100
AcDb2dVertex
 10
-15.868028
 20
400.785293
 30
0.0
  0
VERTEX
  5
D6A
100
AcDbEntity
  8
1
100
AcDbVertex
100
AcDb2dVertex
 10
-17.244918
 20
399.568513
 30
0.0
  0
VERTEX
  5
D6B
100
AcDbEntity
  8
1
100
AcDbVertex
100
AcDb2dVertex
 10
-18.654258
 20
398.374343
 30
0.0
  0
VERTEX
  5
D6C
100
AcDbEntity
  8
1
100
AcDbVertex
100
AcDb2dVertex
 10
-20.096048
 20
397.202763
 30
0.0
  0
VERTEX
  5
D6D
100
AcDbEntity
  8
1
100
AcDbVertex
100
AcDb2dVertex
 10
-21.570298
 20
396.053793
 30
0.0
  0
VERTEX
  5
D6E
100
AcDbEntity
  8
1
100
AcDbVertex
100
AcDb2dVertex
 10
-21.570298
 20
396.053793
 30
0.0
  0
VERTEX
  5
D6F
100
AcDbEntity
  8
1
100
AcDbVertex
100
AcDb2dVertex
 10
-23.087858
 20
394.912843
 30
0.0
  0
VERTEX
  5
D70
100
AcDbEntity
  8
1
100
AcDbVertex
100
AcDb2dVertex
 10
-24.654768
 20
393.771813
 30
0.0
  0
VERTEX
  5
D71
100
AcDbEntity
  8
1
100
AcDbVertex
100
AcDb2dVertex
 10
-26.263788
 20
392.640433
 30
0.0
  0
VERTEX
  5
D72
100
AcDbEntity
  8
1
100
AcDbVertex
100
AcDb2dVertex
 10
-27.907688
 20
391.528423
 30
0.0
  0
VERTEX
  5
D73
100
AcDbEntity
  8
1
100
AcDbVertex
100
AcDb2dVertex
 10
-29.579198
 20
390.445483
 30
0.0
  0
VERTEX
  5
D74
100
AcDbEntity
  8
1
100
AcDbVertex
100
AcDb2dVertex
 10
-31.271078
 20
389.401353
 30
0.0
  0
VERTEX
  5
D75
100
AcDbEntity
  8
1
100
AcDbVertex
100
AcDb2dVertex
 10
-32.976098
 20
388.405743
 30
0.0
  0
VERTEX
  5
D76
100
AcDbEntity
  8
1
100
AcDbVertex
100
AcDb2dVertex
 10
-34.687008
 20
387.468363
 30
0.0
  0
VERTEX
  5
D77
100
AcDbEntity
  8
1
100
AcDbVertex
100
AcDb2dVertex
 10
-36.396548
 20
386.598953
 30
0.0
  0
VERTEX
  5
D78
100
AcDbEntity
  8
1
100
AcDbVertex
100
AcDb2dVertex
 10
-38.097498
 20
385.807213
 30
0.0
  0
VERTEX
  5
D79
100
AcDbEntity
  8
1
100
AcDbVertex
100
AcDb2dVertex
 10
-39.795868
 20
385.085053
 30
0.0
  0
VERTEX
  5
D7A
100
AcDbEntity
  8
1
100
AcDbVertex
100
AcDb2dVertex
 10
-41.502548
 20
384.417903
 30
0.0
  0
VERTEX
  5
D7B
100
AcDbEntity
  8
1
100
AcDbVertex
100
AcDb2dVertex
 10
-43.217528
 20
383.805743
 30
0.0
  0
VERTEX
  5
D7C
100
AcDbEntity
  8
1
100
AcDbVertex
100
AcDb2dVertex
 10
-44.940808
 20
383.248583
 30
0.0
  0
VERTEX
  5
D7D
100
AcDbEntity
  8
1
100
AcDbVertex
100
AcDb2dVertex
 10
-46.672398
 20
382.746423
 30
0.0
  0
VERTEX
  5
D7E
100
AcDbEntity
  8
1
100
AcDbVertex
100
AcDb2dVertex
 10
-48.412278
 20
382.299273
 30
0.0
  0
VERTEX
  5
D7F
100
AcDbEntity
  8
1
100
AcDbVertex
100
AcDb2dVertex
 10
-50.160468
 20
381.907113
 30
0.0
  0
VERTEX
  5
D80
100
AcDbEntity
  8
1
100
AcDbVertex
100
AcDb2dVertex
 10
-51.916948
 20
381.569953
 30
0.0
  0
VERTEX
  5
D81
100
AcDbEntity
  8
1
100
AcDbVertex
100
AcDb2dVertex
 10
-53.681738
 20
381.287793
 30
0.0
  0
VERTEX
  5
D82
100
AcDbEntity
  8
1
100
AcDbVertex
100
AcDb2dVertex
 10
-55.454828
 20
381.060643
 30
0.0
  0
SEQEND
  5
D83
100
AcDbEntity
  8
1
  0
LWPOLYLINE
  5
D84
100
AcDbEntity
  8
1
  6
DOT
100
AcDbPolyline
 90
        4
 70
     1
 10
-168.288158
 20
332.143973
 10
-149.954828
 20
332.143973
 10
-149.954828
 20
329.393973
 10
-168.288158
 20
329.393973
  0
LWPOLYLINE
  5
D8A
100
AcDbEntity
  8
1
100
AcDbPolyline
 90
        4
 70
     0
 10
-166.454828
 20
332.143973
 10
-168.288158
 20
332.143973
 10
-168.288158
 20
329.393973
 10
-166.454828
 20
329.393973
  0
LINE
  5
D90
100
AcDbEntity
  8
1
100
AcDbLine
 10
-176.621498
 20
393.477303
 30
0.0
 11
-255.038158
 21
391.643973
 31
0.0
  0
INSERT
  5
D91
100
AcDbEntity
  8
1
100
AcDbBlockReference
  2
NO_186328153
 10
-297.288158
 20
389.227303
 30
0.0
 41
10.0
 42
10.0
 43
10.0
  0
LWPOLYLINE
  5
D92
100
AcDbEntity
  8
1
100
AcDbPolyline
 90
       21
 70
     0
 10
-255.204828
 20
391.477303
 10
-256.185088
 20
391.462603
 10
-257.133658
 20
391.441113
 10
-258.050538
 20
391.412843
 10
-258.935718
 20
391.377783
 10
-259.789208
 20
391.335933
 10
-260.610998
 20
391.287303
 10
-261.401088
 20
391.231893
 10
-262.159498
 20
391.169683
 10
-262.886208
 20
391.100703
 10
-263.581218
 20
391.024923
 10
-264.244538
 20
390.942363
 10
-264.876158
 20
390.853023
 10
-265.476088
 20
390.756893
 10
-266.044328
 20
390.653973
 10
-266.580868
 20
390.544273
 10
-267.085718
 20
390.427783
 10
-267.558868
 20
390.304513
 10
-268.000328
 20
390.174453
 10
-268.410088
 20
390.037603
 10
-268.788158
 20
389.893973
  0
LINE
  5
DA9
100
AcDbEntity
  8
1
  6
DOT
100
AcDbLine
 10
-256.788158
 20
391.227303
 30
0.0
 11
-256.788158
 21
350.727303
 31
0.0
  0
LWPOLYLINE
  5
DAA
100
AcDbEntity
  8
1
100
AcDbPolyline
 90
        4
 70
     1
 10
167.628502
 20
371.560643
 10
167.628502
 20
374.143973
 10
256.461842
 20
374.143973
 10
256.461842
 20
371.560643
  0
LINE
  5
DB0
100
AcDbEntity
  8
1
100
AcDbLine
 10
-269.038158
 20
389.893973
 30
0.0
 11
-269.038158
 21
359.727303
 31
0.0
  0
LINE
  5
DB1
100
AcDbEntity
  8
1
  6
DOT
100
AcDbLine
 10
0.295172
 20
334.810643
 30
0.0
 11
213.628502
 21
366.310643
 31
0.0
  0
POLYLINE
  5
DB2
100
AcDbEntity
  8
1
100
AcDb2dPolyline
 66
     1
 10
0.0
 20
0.0
 30
0.0
 70
     1
  0
VERTEX
  5
DB3
100
AcDbEntity
  8
1
100
AcDbVertex
100
AcDb2dVertex
 10
-23.871488
 20
333.727313
 30
0.0
  0
VERTEX
  5
DB4
100
AcDbEntity
  8
1
100
AcDbVertex
100
AcDb2dVertex
 10
-23.871488
 20
331.244673
 30
0.0
  0
VERTEX
  5
DB5
100
AcDbEntity
  8
1
100
AcDbVertex
100
AcDb2dVertex
 10
-2.454828
 20
328.310643
 30
0.0
  0
VERTEX
  5
DB6
100
AcDbEntity
  8
1
100
AcDbVertex
100
AcDb2dVertex
 10
-2.454828
 20
330.793283
 30
0.0
  0
VERTEX
  5
DB7
100
AcDbEntity
  8
1
100
AcDbVertex
100
AcDb2dVertex
 10
-23.871488
 20
333.727313
 30
0.0
  0
VERTEX
  5
DB8
100
AcDbEntity
  8
1
100
AcDbVertex
100
AcDb2dVertex
 10
-23.871488
 20
333.727313
 30
0.0
  0
SEQEND
  5
DB9
100
AcDbEntity
  8
1
  0
LINE
  5
DBA
100
AcDbEntity
  8
1
100
AcDbLine
 10
-23.871498
 20
333.060643
 30
0.0
 11
-2.704828
 21
329.977303
 31
0.0
  0
LINE
  5
DBB
100
AcDbEntity
  8
1
100
AcDbLine
 10
-23.871498
 20
332.143973
 30
0.0
 11
-2.454828
 21
329.227303
 31
0.0
  0
LINE
  5
DBC
100
AcDbEntity
  8
1
100
AcDbLine
 10
250.461842
 20
404.143973
 30
0.0
 11
245.045172
 21
374.727303
 31
0.0
  0
LINE
  5
DBD
100
AcDbEntity
  8
1
100
AcDbLine
 10
255.461842
 20
367.893973
 30
0.0
 11
255.461842
 21
371.560643
 31
0.0
  0
LINE
  5
DBE
100
AcDbEntity
  8
1
100
AcDbLine
 10
258.878502
 20
374.227303
 30
0.0
 11
269.045172
 21
374.227303
 31
0.0
  0
LINE
  5
DBF
100
AcDbEntity
  8
1
100
AcDbLine
 10
175.378502
 20
429.727303
 30
0.0
 11
148.211842
 21
392.143973
 31
0.0
  0
LINE
  5
DC0
100
AcDbEntity
  8
1
100
AcDbLine
 10
142.961842
 20
411.393973
 30
0.0
 11
162.711842
 21
412.477303
 31
0.0
  0
POLYLINE
  5
DC2
100
AcDbEntity
  8
1
100
AcDb2dPolyline
 66
     1
 10
0.0
 20
0.0
 30
0.0
  0
VERTEX
  5
DC3
100
AcDbEntity
  8
1
100
AcDbVertex
100
AcDb2dVertex
 10
-269.121498
 20
359.643973
 30
0.0
  0
VERTEX
  5
DC4
100
AcDbEntity
  8
1
100
AcDbVertex
100
AcDb2dVertex
 10
-266.799078
 20
357.693773
 30
0.0
  0
VERTEX
  5
DC5
100
AcDbEntity
  8
1
100
AcDbVertex
100
AcDb2dVertex
 10
-264.360428
 20
355.794193
 30
0.0
  0
VERTEX
  5
DC6
100
AcDbEntity
  8
1
100
AcDbVertex
100
AcDb2dVertex
 10
-261.805548
 20
353.945223
 30
0.0
  0
VERTEX
  5
DC7
100
AcDbEntity
  8
1
100
AcDbVertex
100
AcDb2dVertex
 10
-259.134428
 20
352.146873
 30
0.0
  0
VERTEX
  5
DC8
100
AcDbEntity
  8
1
100
AcDbVertex
100
AcDb2dVertex
 10
-256.347078
 20
350.399133
 30
0.0
  0
VERTEX
  5
DC9
100
AcDbEntity
  8
1
100
AcDbVertex
100
AcDb2dVertex
 10
-253.443488
 20
348.702013
 30
0.0
  0
VERTEX
  5
DCA
100
AcDbEntity
  8
1
100
AcDbVertex
100
AcDb2dVertex
 10
-250.423668
 20
347.055503
 30
0.0
  0
VERTEX
  5
DCB
100
AcDbEntity
  8
1
100
AcDbVertex
100
AcDb2dVertex
 10
-247.287608
 20
345.459613
 30
0.0
  0
VERTEX
  5
DCC
100
AcDbEntity
  8
1
100
AcDbVertex
100
AcDb2dVertex
 10
-244.035328
 20
343.914333
 30
0.0
  0
VERTEX
  5
DCD
100
AcDbEntity
  8
1
100
AcDbVertex
100
AcDb2dVertex
 10
-240.666798
 20
342.419673
 30
0.0
  0
VERTEX
  5
DCE
100
AcDbEntity
  8
1
100
AcDbVertex
100
AcDb2dVertex
 10
-240.666798
 20
342.419673
 30
0.0
  0
VERTEX
  5
DCF
100
AcDbEntity
  8
1
100
AcDbVertex
100
AcDb2dVertex
 10
-237.181368
 20
340.955913
 30
0.0
  0
VERTEX
  5
DD0
100
AcDbEntity
  8
1
100
AcDbVertex
100
AcDb2dVertex
 10
-233.578638
 20
339.512093
 30
0.0
  0
VERTEX
  5
DD1
100
AcDbEntity
  8
1
100
AcDbVertex
100
AcDb2dVertex
 10
-229.859078
 20
338.101363
 30
0.0
  0
VERTEX
  5
DD2
100
AcDbEntity
  8
1
100
AcDbVertex
100
AcDb2dVertex
 10
-226.023128
 20
336.736863
 30
0.0
  0
VERTEX
  5
DD3
100
AcDbEntity
  8
1
100
AcDbVertex
100
AcDb2dVertex
 10
-222.071248
 20
335.431743
 30
0.0
  0
VERTEX
  5
DD4
100
AcDbEntity
  8
1
100
AcDbVertex
100
AcDb2dVertex
 10
-218.003878
 20
334.199153
 30
0.0
  0
VERTEX
  5
DD5
100
AcDbEntity
  8
1
100
AcDbVertex
100
AcDb2dVertex
 10
-213.821498
 20
333.052223
 30
0.0
  0
VERTEX
  5
DD6
100
AcDbEntity
  8
1
100
AcDbVertex
100
AcDb2dVertex
 10
-209.524538
 20
332.004113
 30
0.0
  0
VERTEX
  5
DD7
100
AcDbEntity
  8
1
100
AcDbVertex
100
AcDb2dVertex
 10
-205.113458
 20
331.067953
 30
0.0
  0
VERTEX
  5
DD8
100
AcDbEntity
  8
1
100
AcDbVertex
100
AcDb2dVertex
 10
-200.588708
 20
330.256903
 30
0.0
  0
VERTEX
  5
DD9
100
AcDbEntity
  8
1
100
AcDbVertex
100
AcDb2dVertex
 10
-195.949908
 20
329.559993
 30
0.0
  0
VERTEX
  5
DDA
100
AcDbEntity
  8
1
100
AcDbVertex
100
AcDb2dVertex
 10
-191.196388
 20
328.957523
 30
0.0
  0
VERTEX
  5
DDB
100
AcDbEntity
  8
1
100
AcDbVertex
100
AcDb2dVertex
 10
-186.328148
 20
328.449483
 30
0.0
  0
VERTEX
  5
DDC
100
AcDbEntity
  8
1
100
AcDbVertex
100
AcDb2dVertex
 10
-181.345178
 20
328.035873
 30
0.0
  0
VERTEX
  5
DDD
100
AcDbEntity
  8
1
100
AcDbVertex
100
AcDb2dVertex
 10
-176.247488
 20
327.716693
 30
0.0
  0
VERTEX
  5
DDE
100
AcDbEntity
  8
1
100
AcDbVertex
100
AcDb2dVertex
 10
-171.035068
 20
327.491943
 30
0.0
  0
VERTEX
  5
DDF
100
AcDbEntity
  8
1
100
AcDbVertex
100
AcDb2dVertex
 10
-165.707928
 20
327.361633
 30
0.0
  0
VERTEX
  5
DE0
100
AcDbEntity
  8
1
100
AcDbVertex
100
AcDb2dVertex
 10
-160.266068
 20
327.325753
 30
0.0
  0
VERTEX
  5
DE1
100
AcDbEntity
  8
1
100
AcDbVertex
100
AcDb2dVertex
 10
-154.709468
 20
327.384293
 30
0.0
  0
VERTEX
  5
DE2
100
AcDbEntity
  8
1
100
AcDbVertex
100
AcDb2dVertex
 10
-149.038158
 20
327.537273
 30
0.0
  0
SEQEND
  5
DE3
100
AcDbEntity
  8
1
  0
POLYLINE
  5
DE4
100
AcDbEntity
  8
1
100
AcDb2dPolyline
 66
     1
 10
0.0
 20
0.0
 30
0.0
 70
     1
  0
VERTEX
  5
DE5
100
AcDbEntity
  8
1
100
AcDbVertex
100
AcDb2dVertex
 10
-269.288158
 20
389.880683
 30
0.0
  0
VERTEX
  5
DE6
100
AcDbEntity
  8
1
100
AcDbVertex
100
AcDb2dVertex
 10
-269.288158
 20
359.660493
 30
0.0
  0
VERTEX
  5
DE7
100
AcDbEntity
  8
1
100
AcDbVertex
100
AcDb2dVertex
 10
-266.704828
 20
357.393973
 30
0.0
  0
VERTEX
  5
DE8
100
AcDbEntity
  8
1
100
AcDbVertex
100
AcDb2dVertex
 10
-266.704828
 20
390.560643
 30
0.0
  0
VERTEX
  5
DE9
100
AcDbEntity
  8
1
100
AcDbVertex
100
AcDb2dVertex
 10
-269.288158
 20
389.880683
 30
0.0
  0
VERTEX
  5
DEA
100
AcDbEntity
  8
1
100
AcDbVertex
100
AcDb2dVertex
 10
-269.288158
 20
389.880683
 30
0.0
  0
SEQEND
  5
DEB
100
AcDbEntity
  8
1
  0
INSERT
  5
DF1
100
AcDbEntity
  8
1
100
AcDbBlockReference
  2
NO_186328159
 10
-278.617563
 20
387.650105
 30
0.0
 41
10.0
 42
10.0
 43
10.0
  0
LINE
  5
DF4
100
AcDbEntity
  8
1
100
AcDbLine
 10
28.378502
 20
513.893973
 30
0.0
 11
28.378502
 21
456.143973
 31
0.0
  0
LWPOLYLINE
  5
DF5
100
AcDbEntity
  8
1
100
AcDbPolyline
 90
        3
 70
     0
 10
155.211852
 20
488.810643
 10
28.336842
 20
513.893973
 10
-98.538158
 20
488.810643
  0
POLYLINE
  5
DFA
100
AcDbEntity
  8
1
100
AcDb2dPolyline
 66
     1
 10
0.0
 20
0.0
 30
0.0
  0
VERTEX
  5
DFB
100
AcDbEntity
  8
1
100
AcDbVertex
100
AcDb2dVertex
 10
-98.538158
 20
488.810643
 30
0.0
  0
VERTEX
  5
DFC
100
AcDbEntity
  8
1
100
AcDbVertex
100
AcDb2dVertex
 10
-100.137438
 20
488.535223
 30
0.0
  0
VERTEX
  5
DFD
100
AcDbEntity
  8
1
100
AcDbVertex
100
AcDb2dVertex
 10
-101.665908
 20
488.258323
 30
0.0
  0
VERTEX
  5
DFE
100
AcDbEntity
  8
1
100
AcDbVertex
100
AcDb2dVertex
 10
-103.123568
 20
487.979943
 30
0.0
  0
VERTEX
  5
DFF
100
AcDbEntity
  8
1
100
AcDbVertex
100
AcDb2dVertex
 10
-104.510408
 20
487.700073
 30
0.0
  0
VERTEX
  5
E00
100
AcDbEntity
  8
1
100
AcDbVertex
100
AcDb2dVertex
 10
-105.826448
 20
487.418723
 30
0.0
  0
VERTEX
  5
E01
100
AcDbEntity
  8
1
100
AcDbVertex
100
AcDb2dVertex
 10
-107.071668
 20
487.135883
 30
0.0
  0
VERTEX
  5
E02
100
AcDbEntity
  8
1
100
AcDbVertex
100
AcDb2dVertex
 10
-108.246088
 20
486.851553
 30
0.0
  0
VERTEX
  5
E03
100
AcDbEntity
  8
1
100
AcDbVertex
100
AcDb2dVertex
 10
-109.349688
 20
486.565753
 30
0.0
  0
VERTEX
  5
E04
100
AcDbEntity
  8
1
100
AcDbVertex
100
AcDb2dVertex
 10
-110.382478
 20
486.278453
 30
0.0
  0
VERTEX
  5
E05
100
AcDbEntity
  8
1
100
AcDbVertex
100
AcDb2dVertex
 10
-111.344448
 20
485.989683
 30
0.0
  0
VERTEX
  5
E06
100
AcDbEntity
  8
1
100
AcDbVertex
100
AcDb2dVertex
 10
-111.344448
 20
485.989683
 30
0.0
  0
VERTEX
  5
E07
100
AcDbEntity
  8
1
100
AcDbVertex
100
AcDb2dVertex
 10
-112.212568
 20
485.708103
 30
0.0
  0
VERTEX
  5
E08
100
AcDbEntity
  8
1
100
AcDbVertex
100
AcDb2dVertex
 10
-112.974018
 20
485.438553
 30
0.0
  0
VERTEX
  5
E09
100
AcDbEntity
  8
1
100
AcDbVertex
100
AcDb2dVertex
 10
-113.644158
 20
485.175233
 30
0.0
  0
VERTEX
  5
E0A
100
AcDbEntity
  8
1
100
AcDbVertex
100
AcDb2dVertex
 10
-114.238378
 20
484.912373
 30
0.0
  0
VERTEX
  5
E0B
100
AcDbEntity
  8
1
100
AcDbVertex
100
AcDb2dVertex
 10
-114.772018
 20
484.644153
 30
0.0
  0
VERTEX
  5
E0C
100
AcDbEntity
  8
1
100
AcDbVertex
100
AcDb2dVertex
 10
-115.260468
 20
484.364803
 30
0.0
  0
VERTEX
  5
E0D
100
AcDbEntity
  8
1
100
AcDbVertex
100
AcDb2dVertex
 10
-115.719078
 20
484.068533
 30
0.0
  0
VERTEX
  5
E0E
100
AcDbEntity
  8
1
100
AcDbVertex
100
AcDb2dVertex
 10
-116.163238
 20
483.749543
 30
0.0
  0
VERTEX
  5
E0F
100
AcDbEntity
  8
1
100
AcDbVertex
100
AcDb2dVertex
 10
-116.608288
 20
483.402043
 30
0.0
  0
VERTEX
  5
E10
100
AcDbEntity
  8
1
100
AcDbVertex
100
AcDb2dVertex
 10
-117.069618
 20
483.020243
 30
0.0
  0
VERTEX
  5
E11
100
AcDbEntity
  8
1
100
AcDbVertex
100
AcDb2dVertex
 10
-117.543228
 20
482.604633
 30
0.0
  0
VERTEX
  5
E12
100
AcDbEntity
  8
1
100
AcDbVertex
100
AcDb2dVertex
 10
-118.010958
 20
482.161483
 30
0.0
  0
VERTEX
  5
E13
100
AcDbEntity
  8
1
100
AcDbVertex
100
AcDb2dVertex
 10
-118.466938
 20
481.693693
 30
0.0
  0
VERTEX
  5
E14
100
AcDbEntity
  8
1
100
AcDbVertex
100
AcDb2dVertex
 10
-118.905288
 20
481.204143
 30
0.0
  0
VERTEX
  5
E15
100
AcDbEntity
  8
1
100
AcDbVertex
100
AcDb2dVertex
 10
-119.320138
 20
480.695743
 30
0.0
  0
VERTEX
  5
E16
100
AcDbEntity
  8
1
100
AcDbVertex
100
AcDb2dVertex
 10
-119.705608
 20
480.171373
 30
0.0
  0
VERTEX
  5
E17
100
AcDbEntity
  8
1
100
AcDbVertex
100
AcDb2dVertex
 10
-120.055818
 20
479.633943
 30
0.0
  0
VERTEX
  5
E18
100
AcDbEntity
  8
1
100
AcDbVertex
100
AcDb2dVertex
 10
-120.364908
 20
479.086343
 30
0.0
  0
VERTEX
  5
E19
100
AcDbEntity
  8
1
100
AcDbVertex
100
AcDb2dVertex
 10
-120.626978
 20
478.531463
 30
0.0
  0
VERTEX
  5
E1A
100
AcDbEntity
  8
1
100
AcDbVertex
100
AcDb2dVertex
 10
-120.836178
 20
477.972213
 30
0.0
  0
VERTEX
  5
E1B
100
AcDbEntity
  8
1
100
AcDbVertex
100
AcDb2dVertex
 10
-120.997388
 20
477.406163
 30
0.0
  0
VERTEX
  5
E1C
100
AcDbEntity
  8
1
100
AcDbVertex
100
AcDb2dVertex
 10
-121.119418
 20
476.828983
 30
0.0
  0
VERTEX
  5
E1D
100
AcDbEntity
  8
1
100
AcDbVertex
100
AcDb2dVertex
 10
-121.202288
 20
476.240663
 30
0.0
  0
VERTEX
  5
E1E
100
AcDbEntity
  8
1
100
AcDbVertex
100
AcDb2dVertex
 10
-121.245978
 20
475.641203
 30
0.0
  0
VERTEX
  5
E1F
100
AcDbEntity
  8
1
100
AcDbVertex
100
AcDb2dVertex
 10
-121.250498
 20
475.030623
 30
0.0
  0
VERTEX
  5
E20
100
AcDbEntity
  8
1
100
AcDbVertex
100
AcDb2dVertex
 10
-121.215848
 20
474.408893
 30
0.0
  0
VERTEX
  5
E21
100
AcDbEntity
  8
1
100
AcDbVertex
100
AcDb2dVertex
 10
-121.142018
 20
473.776033
 30
0.0
  0
VERTEX
  5
E22
100
AcDbEntity
  8
1
100
AcDbVertex
100
AcDb2dVertex
 10
-121.029018
 20
473.132033
 30
0.0
  0
VERTEX
  5
E23
100
AcDbEntity
  8
1
100
AcDbVertex
100
AcDb2dVertex
 10
-120.876858
 20
472.476903
 30
0.0
  0
VERTEX
  5
E24
100
AcDbEntity
  8
1
100
AcDbVertex
100
AcDb2dVertex
 10
-120.685508
 20
471.810643
 30
0.0
  0
SEQEND
  5
E25
100
AcDbEntity
  8
1
  0
POLYLINE
  5
E26
100
AcDbEntity
  8
1
100
AcDb2dPolyline
 66
     1
 10
0.0
 20
0.0
 30
0.0
  0
VERTEX
  5
E27
100
AcDbEntity
  8
1
100
AcDbVertex
100
AcDb2dVertex
 10
155.295172
 20
488.810643
 30
0.0
  0
VERTEX
  5
E28
100
AcDbEntity
  8
1
100
AcDbVertex
100
AcDb2dVertex
 10
156.894452
 20
488.535223
 30
0.0
  0
VERTEX
  5
E29
100
AcDbEntity
  8
1
100
AcDbVertex
100
AcDb2dVertex
 10
158.422922
 20
488.258323
 30
0.0
  0
VERTEX
  5
E2A
100
AcDbEntity
  8
1
100
AcDbVertex
100
AcDb2dVertex
 10
159.880582
 20
487.979943
 30
0.0
  0
VERTEX
  5
E2B
100
AcDbEntity
  8
1
100
AcDbVertex
100
AcDb2dVertex
 10
161.267422
 20
487.700073
 30
0.0
  0
VERTEX
  5
E2C
100
AcDbEntity
  8
1
100
AcDbVertex
100
AcDb2dVertex
 10
162.583462
 20
487.418723
 30
0.0
  0
VERTEX
  5
E2D
100
AcDbEntity
  8
1
100
AcDbVertex
100
AcDb2dVertex
 10
163.828682
 20
487.135883
 30
0.0
  0
VERTEX
  5
E2E
100
AcDbEntity
  8
1
100
AcDbVertex
100
AcDb2dVertex
 10
165.003092
 20
486.851553
 30
0.0
  0
VERTEX
  5
E2F
100
AcDbEntity
  8
1
100
AcDbVertex
100
AcDb2dVertex
 10
166.106692
 20
486.565753
 30
0.0
  0
VERTEX
  5
E30
100
AcDbEntity
  8
1
100
AcDbVertex
100
AcDb2dVertex
 10
167.139482
 20
486.278453
 30
0.0
  0
VERTEX
  5
E31
100
AcDbEntity
  8
1
100
AcDbVertex
100
AcDb2dVertex
 10
168.101462
 20
485.989683
 30
0.0
  0
VERTEX
  5
E32
100
AcDbEntity
  8
1
100
AcDbVertex
100
AcDb2dVertex
 10
168.101462
 20
485.989683
 30
0.0
  0
VERTEX
  5
E33
100
AcDbEntity
  8
1
100
AcDbVertex
100
AcDb2dVertex
 10
168.969582
 20
485.708103
 30
0.0
  0
VERTEX
  5
E34
100
AcDbEntity
  8
1
100
AcDbVertex
100
AcDb2dVertex
 10
169.731022
 20
485.438553
 30
0.0
  0
VERTEX
  5
E35
100
AcDbEntity
  8
1
100
AcDbVertex
100
AcDb2dVertex
 10
170.401172
 20
485.175233
 30
0.0
  0
VERTEX
  5
E36
100
AcDbEntity
  8
1
100
AcDbVertex
100
AcDb2dVertex
 10
170.995382
 20
484.912373
 30
0.0
  0
VERTEX
  5
E37
100
AcDbEntity
  8
1
100
AcDbVertex
100
AcDb2dVertex
 10
171.529032
 20
484.644153
 30
0.0
  0
VERTEX
  5
E38
100
AcDbEntity
  8
1
100
AcDbVertex
100
AcDb2dVertex
 10
172.017472
 20
484.364803
 30
0.0
  0
VERTEX
  5
E39
100
AcDbEntity
  8
1
100
AcDbVertex
100
AcDb2dVertex
 10
172.476092
 20
484.068533
 30
0.0
  0
VERTEX
  5
E3A
100
AcDbEntity
  8
1
100
AcDbVertex
100
AcDb2dVertex
 10
172.920242
 20
483.749543
 30
0.0
  0
VERTEX
  5
E3B
100
AcDbEntity
  8
1
100
AcDbVertex
100
AcDb2dVertex
 10
173.365302
 20
483.402043
 30
0.0
  0
VERTEX
  5
E3C
100
AcDbEntity
  8
1
100
AcDbVertex
100
AcDb2dVertex
 10
173.826632
 20
483.020243
 30
0.0
  0
VERTEX
  5
E3D
100
AcDbEntity
  8
1
100
AcDbVertex
100
AcDb2dVertex
 10
174.300232
 20
482.604633
 30
0.0
  0
VERTEX
  5
E3E
100
AcDbEntity
  8
1
100
AcDbVertex
100
AcDb2dVertex
 10
174.767962
 20
482.161483
 30
0.0
  0
VERTEX
  5
E3F
100
AcDbEntity
  8
1
100
AcDbVertex
100
AcDb2dVertex
 10
175.223942
 20
481.693693
 30
0.0
  0
VERTEX
  5
E40
100
AcDbEntity
  8
1
100
AcDbVertex
100
AcDb2dVertex
 10
175.662302
 20
481.204143
 30
0.0
  0
VERTEX
  5
E41
100
AcDbEntity
  8
1
100
AcDbVertex
100
AcDb2dVertex
 10
176.077142
 20
480.695743
 30
0.0
  0
VERTEX
  5
E42
100
AcDbEntity
  8
1
100
AcDbVertex
100
AcDb2dVertex
 10
176.462612
 20
480.171373
 30
0.0
  0
VERTEX
  5
E43
100
AcDbEntity
  8
1
100
AcDbVertex
100
AcDb2dVertex
 10
176.812832
 20
479.633943
 30
0.0
  0
VERTEX
  5
E44
100
AcDbEntity
  8
1
100
AcDbVertex
100
AcDb2dVertex
 10
177.121912
 20
479.086343
 30
0.0
  0
VERTEX
  5
E45
100
AcDbEntity
  8
1
100
AcDbVertex
100
AcDb2dVertex
 10
177.383992
 20
478.531463
 30
0.0
  0
VERTEX
  5
E46
100
AcDbEntity
  8
1
100
AcDbVertex
100
AcDb2dVertex
 10
177.593182
 20
477.972213
 30
0.0
  0
VERTEX
  5
E47
100
AcDbEntity
  8
1
100
AcDbVertex
100
AcDb2dVertex
 10
177.754392
 20
477.406163
 30
0.0
  0
VERTEX
  5
E48
100
AcDbEntity
  8
1
100
AcDbVertex
100
AcDb2dVertex
 10
177.876432
 20
476.828983
 30
0.0
  0
VERTEX
  5
E49
100
AcDbEntity
  8
1
100
AcDbVertex
100
AcDb2dVertex
 10
177.959292
 20
476.240663
 30
0.0
  0
VERTEX
  5
E4A
100
AcDbEntity
  8
1
100
AcDbVertex
100
AcDb2dVertex
 10
178.002982
 20
475.641203
 30
0.0
  0
VERTEX
  5
E4B
100
AcDbEntity
  8
1
100
AcDbVertex
100
AcDb2dVertex
 10
178.007502
 20
475.030623
 30
0.0
  0
VERTEX
  5
E4C
100
AcDbEntity
  8
1
100
AcDbVertex
100
AcDb2dVertex
 10
177.972852
 20
474.408893
 30
0.0
  0
VERTEX
  5
E4D
100
AcDbEntity
  8
1
100
AcDbVertex
100
AcDb2dVertex
 10
177.899032
 20
473.776033
 30
0.0
  0
VERTEX
  5
E4E
100
AcDbEntity
  8
1
100
AcDbVertex
100
AcDb2dVertex
 10
177.786032
 20
473.132033
 30
0.0
  0
VERTEX
  5
E4F
100
AcDbEntity
  8
1
100
AcDbVertex
100
AcDb2dVertex
 10
177.633862
 20
472.476903
 30
0.0
  0
VERTEX
  5
E50
100
AcDbEntity
  8
1
100
AcDbVertex
100
AcDb2dVertex
 10
177.442522
 20
471.810643
 30
0.0
  0
SEQEND
  5
E51
100
AcDbEntity
  8
1
  0
POLYLINE
  5
E52
100
AcDbEntity
  8
1
100
AcDb2dPolyline
 66
     1
 10
0.0
 20
0.0
 30
0.0
 70
     1
  0
VERTEX
  5
E53
100
AcDbEntity
  8
1
100
AcDbVertex
100
AcDb2dVertex
 10
-120.727498
 20
471.878341
 30
0.0
  0
VERTEX
  5
E54
100
AcDbEntity
  8
1
100
AcDbVertex
100
AcDb2dVertex
 10
-109.665838
 20
456.268771
 30
0.0
  0
VERTEX
  5
E55
100
AcDbEntity
  8
1
100
AcDbVertex
100
AcDb2dVertex
 10
20.816622
 20
456.268771
 30
0.0
  0
VERTEX
  5
E56
100
AcDbEntity
  8
1
100
AcDbVertex
100
AcDb2dVertex
 10
25.105842
 20
423.711671
 30
0.0
  0
VERTEX
  5
E57
100
AcDbEntity
  8
1
100
AcDbVertex
100
AcDb2dVertex
 10
-111.697568
 20
434.192381
 30
0.0
  0
VERTEX
  5
E58
100
AcDbEntity
  8
1
100
AcDbVertex
100
AcDb2dVertex
 10
-120.727498
 20
471.878341
 30
0.0
  0
VERTEX
  5
E59
100
AcDbEntity
  8
1
100
AcDbVertex
100
AcDb2dVertex
 10
-120.727498
 20
471.878341
 30
0.0
  0
SEQEND
  5
E5A
100
AcDbEntity
  8
1
  0
LINE
  5
E5B
100
AcDbEntity
  8
1
100
AcDbLine
 10
20.878502
 20
456.143973
 30
0.0
 11
36.045172
 21
456.143973
 31
0.0
  0
LWPOLYLINE
  5
E66
100
AcDbEntity
  8
1
100
AcDbPolyline
 90
        3
 70
     0
 10
29.211842
 20
456.143973
 10
57.878502
 20
456.143973
 10
57.878502
 20
440.727303
  0
LWPOLYLINE
  5
E6B
100
AcDbEntity
  8
1
 48
100.0
100
AcDbPolyline
 90
        3
 70
     0
 10
29.211842
 20
456.143973
 10
57.878502
 20
456.143973
 10
57.878502
 20
440.727303
  0
POLYLINE
  5
E70
100
AcDbEntity
  8
1
100
AcDb2dPolyline
 66
     1
 10
0.0
 20
0.0
 30
0.0
 70
     1
  0
VERTEX
  5
E71
100
AcDbEntity
  8
1
100
AcDbVertex
100
AcDb2dVertex
 10
177.295172
 20
471.810643
 30
0.0
  0
VERTEX
  5
E72
100
AcDbEntity
  8
1
100
AcDbVertex
100
AcDb2dVertex
 10
166.233512
 20
456.201073
 30
0.0
  0
VERTEX
  5
E73
100
AcDbEntity
  8
1
100
AcDbVertex
100
AcDb2dVertex
 10
35.751052
 20
456.201073
 30
0.0
  0
VERTEX
  5
E74
100
AcDbEntity
  8
1
100
AcDbVertex
100
AcDb2dVertex
 10
31.461842
 20
423.643973
 30
0.0
  0
VERTEX
  5
E75
100
AcDbEntity
  8
1
100
AcDbVertex
100
AcDb2dVertex
 10
168.265242
 20
434.124683
 30
0.0
  0
VERTEX
  5
E76
100
AcDbEntity
  8
1
100
AcDbVertex
100
AcDb2dVertex
 10
177.295172
 20
471.810643
 30
0.0
  0
VERTEX
  5
E77
100
AcDbEntity
  8
1
100
AcDbVertex
100
AcDb2dVertex
 10
177.295172
 20
471.810643
 30
0.0
  0
SEQEND
  5
E78
100
AcDbEntity
  8
1
  0
MTEXT
  5
E7C
100
AcDbEntity
  8
0
  6
CONTINUOUS
100
AcDbMText
 10
46.078154
 20
494.220167
 30
0.0
 40
2.0
 41
58.951
 71
     1
 72
     5
  1
3.0mm sheet balsa
  7
TXT
  0
INSERT
  5
E82
100
AcDbEntity
  8
0
  6
CONTINUOUS
100
AcDbBlockReference
  2
A$C1C7533D0
 10
142.457668
 20
404.10275
 30
0.0
 41
10.0
 42
10.0
 43
10.0
  0
MTEXT
  5
E83
100
AcDbEntity
  8
0
  6
CONTINUOUS
100
AcDbMText
 10
23.558597
 20
364.279338
 30
0.0
 40
2.0
 41
57.391
 71
     1
 72
     5
  1
3 X 9mm balsa
  7
TXT
  0
MTEXT
  5
E84
100
AcDbEntity
  8
0
  6
CONTINUOUS
100
AcDbMText
 10
-1.394026
 20
321.900355
 30
0.0
 40
2.0
 41
47.722
 71
     1
 72
     5
  1
3.0 mm ply wing bolt plate
  7
TXT
  0
MTEXT
  5
E85
100
AcDbEntity
  8
0
  6
CONTINUOUS
100
AcDbMText
 10
-48.117689
 20
352.749761
 30
0.0
 40
2.0
 41
31.503
 71
     1
 72
     5
  1
3.0 mm balsa sheet wing seet doubler
  7
TXT
  0
MTEXT
  5
E86
100
AcDbEntity
  8
0
  6
CONTINUOUS
100
AcDbMText
 10
-257.719739
 20
330.31383
 30
0.0
 40
2.0
 41
31.815
 71
     1
 72
     5
  1
12.0 mm balsa block
  7
TXT
  0
INSERT
  5
E87
100
AcDbEntity
  8
1
100
AcDbBlockReference
  2
NO_186328104
 10
-284.871498
 20
301.810643
 30
0.0
 41
10.0
 42
10.0
 43
10.0
  0
MTEXT
  5
E8C
100
AcDbEntity
  8
0
  6
CONTINUOUS
100
AcDbMText
 10
-277.993746
 20
293.450715
 30
0.0
 40
2.0
 41
0.0
 71
     1
 72
     5
  1
F1
  7
TXT
  0
MTEXT
  5
E8D
100
AcDbEntity
  8
0
  6
CONTINUOUS
100
AcDbMText
 10
-278.617563
 20
268.521902
 30
0.0
 40
2.0
 41
8.422
 71
     1
 72
     5
  1
F2
  7
TXT
  0
MTEXT
  5
E8E
100
AcDbEntity
  8
0
  6
CONTINUOUS
100
AcDbMText
 10
-178.183246
 20
248.89046
 30
0.0
 40
2.0
 41
21.834
 71
     1
 72
     5
  1
F3
  7
TXT
  0
MTEXT
  5
E8F
100
AcDbEntity
  8
0
  6
CONTINUOUS
100
AcDbMText
 10
-86.794258
 20
230.81707
 30
0.0
 40
2.0
 41
5.302
 71
     1
 72
     5
  1
F4
  7
TXT
  0
MTEXT
  5
E90
100
AcDbEntity
  8
0
  6
CONTINUOUS
100
AcDbMText
 10
-175.99989
 20
292.827494
 30
0.0
 40
2.0
 41
4.679
 71
     1
 72
     5
  1
F3a
  7
TXT
  0
MTEXT
  5
E91
100
AcDbEntity
  8
0
  6
CONTINUOUS
100
AcDbMText
 10
-86.170441
 20
288.776562
 30
0.0
 40
2.0
 41
11.852
 71
     1
 72
     5
  1
F4a
  7
TXT
  0
INSERT
  5
E97
100
AcDbEntity
  8
0
  6
CONTINUOUS
100
AcDbBlockReference
  2
A$C129E0784
 10
-271.443682
 20
392.324258
 30
0.0
 41
10.0
 42
10.0
 43
10.0
  0
INSERT
  5
E9E
100
AcDbEntity
  8
0
  6
CONTINUOUS
100
AcDbBlockReference
  2
A$C420C7865
 10
-262.398356
 20
393.570698
 30
0.0
 41
10.0
 42
10.0
 43
10.0
  0
INSERT
  5
EA4
100
AcDbEntity
  8
0
  6
CONTINUOUS
100
AcDbBlockReference
  2
A$C702B0AD5
 10
-176.623707
 20
380.483071
 30
0.0
 41
10.0
 42
10.0
 43
10.0
  0
INSERT
  5
EAA
100
AcDbEntity
  8
0
  6
CONTINUOUS
100
AcDbBlockReference
  2
A$C7D9842FC
 10
-2.267242
 20
382.664342
 30
0.0
 41
10.0
 42
10.0
 43
10.0
  0
INSERT
  5
EB0
100
AcDbEntity
  8
0
  6
CONTINUOUS
100
AcDbBlockReference
  2
A$C27F66F06
 10
-171.633182
 20
341.095427
 30
0.0
 41
10.0
 42
10.0
 43
10.0
  0
INSERT
  5
EBF
100
AcDbEntity
  8
0
  6
CONTINUOUS
100
AcDbBlockReference
  2
A$C6141051F
 10
1.225944
 20
343.930958
 30
0.0
 41
10.0
 42
10.0
 43
10.0
  0
INSERT
  5
EC0
100
AcDbEntity
  8
1
100
AcDbBlockReference
  2
NO_186327866
 10
107.664282
 20
115.143973
 30
0.0
 41
10.0
 42
10.0
 43
10.0
  0
INSERT
  5
EC2
100
AcDbEntity
  8
1
100
AcDbBlockReference
  2
NO_186327882
 10
-279.204828
 20
114.844673
 30
0.0
 41
10.0
 42
10.0
 43
10.0
  0
LWPOLYLINE
  5
EC3
100
AcDbEntity
  8
1
100
AcDbPolyline
 90
        4
 70
     1
 10
8.007042
 20
63.139913
 10
206.341542
 20
63.139913
 10
206.341542
 20
60.446173
 10
8.007042
 20
60.446173
  0
POLYLINE
  5
EC9
100
AcDbEntity
  8
1
100
AcDb2dPolyline
 66
     1
 10
0.0
 20
0.0
 30
0.0
 70
     1
  0
VERTEX
  5
ECA
100
AcDbEntity
  8
1
100
AcDbVertex
100
AcDb2dVertex
 10
107.890432
 20
115.143973
 30
0.0
  0
VERTEX
  5
ECB
100
AcDbEntity
  8
1
100
AcDbVertex
100
AcDb2dVertex
 10
-265.334228
 20
90.750703
 30
0.0
  0
VERTEX
  5
ECC
100
AcDbEntity
  8
1
100
AcDbVertex
100
AcDb2dVertex
 10
-265.334228
 20
0.660213
 30
0.0
  0
VERTEX
  5
ECD
100
AcDbEntity
  8
1
100
AcDbVertex
100
AcDb2dVertex
 10
107.890432
 20
-45.432597
 30
0.0
  0
VERTEX
  5
ECE
100
AcDbEntity
  8
1
100
AcDbVertex
100
AcDb2dVertex
 10
107.890432
 20
115.143973
 30
0.0
  0
VERTEX
  5
ECF
100
AcDbEntity
  8
1
100
AcDbVertex
100
AcDb2dVertex
 10
107.890432
 20
115.143973
 30
0.0
  0
SEQEND
  5
ED0
100
AcDbEntity
  8
1
  0
LINE
  5
ED1
100
AcDbEntity
  8
1
100
AcDbLine
 10
-265.108078
 20
23.182833
 30
0.0
 11
107.739672
 21
-22.835147
 31
0.0
  0
LINE
  5
ED2
100
AcDbEntity
  8
1
100
AcDbLine
 10
-265.334228
 20
17.121933
 30
0.0
 11
107.513512
 21
-28.671577
 31
0.0
  0
LINE
  5
ED3
100
AcDbEntity
  8
1
100
AcDbLine
 10
62.509452
 20
-23.284107
 30
0.0
 11
62.509452
 21
-39.895477
 31
0.0
  0
POLYLINE
  5
ED4
100
AcDbEntity
  8
1
  6
DOT
100
AcDb2dPolyline
 66
     1
 10
0.0
 20
0.0
 30
0.0
 70
     1
  0
VERTEX
  5
ED5
100
AcDbEntity
  8
1
  6
DOT
100
AcDbVertex
100
AcDb2dVertex
 10
49.844992
 20
-28.447097
 30
0.0
  0
VERTEX
  5
ED6
100
AcDbEntity
  8
1
  6
DOT
100
AcDbVertex
100
AcDb2dVertex
 10
49.844992
 20
-21.263797
 30
0.0
  0
VERTEX
  5
ED7
100
AcDbEntity
  8
1
  6
DOT
100
AcDbVertex
100
AcDb2dVertex
 10
98.467472
 20
-27.324707
 30
0.0
  0
VERTEX
  5
ED8
100
AcDbEntity
  8
1
  6
DOT
100
AcDbVertex
100
AcDb2dVertex
 10
98.467472
 20
-27.998137
 30
0.0
  0
VERTEX
  5
ED9
100
AcDbEntity
  8
1
  6
DOT
100
AcDbVertex
100
AcDb2dVertex
 10
50.523442
 20
-22.012057
 30
0.0
  0
VERTEX
  5
EDA
100
AcDbEntity
  8
1
  6
DOT
100
AcDbVertex
100
AcDb2dVertex
 10
50.523442
 20
-28.521927
 30
0.0
  0
VERTEX
  5
EDB
100
AcDbEntity
  8
1
  6
DOT
100
AcDbVertex
100
AcDb2dVertex
 10
49.844992
 20
-28.447097
 30
0.0
  0
VERTEX
  5
EDC
100
AcDbEntity
  8
1
  6
DOT
100
AcDbVertex
100
AcDb2dVertex
 10
49.844992
 20
-28.447097
 30
0.0
  0
SEQEND
  5
EDD
100
AcDbEntity
  8
1
  6
DOT
  0
LINE
  5
EDE
100
AcDbEntity
  8
1
100
AcDbLine
 10
-238.271478
 20
13.530283
 30
0.0
 11
-238.271478
 21
-2.856607
 31
0.0
  0
LINE
  5
EE1
100
AcDbEntity
  8
1
100
AcDbLine
 10
-265.560378
 20
85.363233
 30
0.0
 11
107.438132
 21
109.606853
 31
0.0
  0
MTEXT
  5
EE5
100
AcDbEntity
  8
0
  6
CONTINUOUS
100
AcDbMText
 10
26.178568
 20
97.198389
 30
0.0
 40
2.0
 41
40.548
 71
     1
 72
     5
  1
6mm balsa LE.
  7
TXT
  0
MTEXT
  5
EE6
100
AcDbEntity
  8
0
  6
CONTINUOUS
100
AcDbMText
 10
11.830809
 20
54.258875
 30
0.0
 40
2.0
 41
37.117
 71
     1
 72
     5
  1
3mm ply spar
  7
TXT
  0
MTEXT
  5
EE7
100
AcDbEntity
  8
0
  6
CONTINUOUS
100
AcDbMText
 10
-74.567654
 20
14.684382
 30
0.0
 40
2.0
 41
42.108
 71
     1
 72
     5
  1
6mm sheet TE.
  7
TXT
  0
MTEXT
  5
EE8
100
AcDbEntity
  8
0
  6
CONTINUOUS
100
AcDbMText
 10
-89.851138
 20
-27.694601
 30
0.0
 40
2.0
 41
37.429
 71
     1
 72
     5
  1
6mm sheet aileron
  7
TXT
  0
MTEXT
  5
EE9
100
AcDbEntity
  8
0
  6
CONTINUOUS
100
AcDbMText
 10
-264.269798
 20
63.607179
 30
0.0
 40
2.0
 41
81.719518
 71
     1
 72
     5
  1
12mm Dihederal under each tip
  7
TXT
  0
MTEXT
  5
EEA
100
AcDbEntity
  8
0
  6
CONTINUOUS
100
AcDbMText
 10
146.844757
 20
205.253418
 30
0.0
 40
2.0
 41
109.48
 71
     1
 72
     5
  1
Wing tip tanks are made fron interlocking 1.5mm balsa formers and foam blocks sanded to shape 
  7
TXT
  0
INSERT
  5
EEB
100
AcDbEntity
  8
1
100
AcDbBlockReference
  2
NO_186328088
 10
-70.659677
 20
278.05064
 30
0.0
 41
10.0
 42
10.0
 43
10.0
  0
INSERT
  5
EEC
100
AcDbEntity
  8
1
100
AcDbBlockReference
  2
NO_186328093
 10
-74.739127
 20
316.47547
 30
0.0
 41
10.0
 42
10.0
 43
10.0
  0
MTEXT
  5
EEF
100
AcDbEntity
  8
0
  6
CONTINUOUS
100
AcDbMText
 10
125.103426
 20
322.561302
 30
0.0
 40
2.0
 41
24.640583
 71
     1
 72
     5
  1
Wing root
  7
TXT
  0
MTEXT
  5
EF0
100
AcDbEntity
  8
0
  6
CONTINUOUS
100
AcDbMText
 10
130.405859
 20
292.335115
 30
0.0
 40
2.0
 41
26.199986
 71
     1
 72
     5
  1
Wing tip
  7
TXT
  0
LINE
  5
EF2
100
AcDbEntity
  8
0
  6
CONTINUOUS
100
AcDbLine
 10
-1.038158
 20
456.143973
 30
0.0
 11
57.878502
 21
456.143973
 31
0.0
  0
LINE
  5
EF3
100
AcDbEntity
  8
0
  6
CONTINUOUS
100
AcDbLine
 10
57.878502
 20
456.143973
 30
0.0
 11
57.878502
 21
440.727303
 31
0.0
  0
ENDSEC
  0
SECTION
  2
OBJECTS
  0
DICTIONARY
  5
C
100
AcDbDictionary
  3
ACAD_GROUP
350
D
  3
ACAD_MLINESTYLE
350
1B
  0
DICTIONARY
  5
D
102
{ACAD_REACTORS
330
C
102
}
100
AcDbDictionary
  0
DICTIONARY
  5
1B
102
{ACAD_REACTORS
330
C
102
}
100
AcDbDictionary
  3
STANDARD
350
1C
  0
MLINESTYLE
  5
1C
102
{ACAD_REACTORS
330
1B
102
}
100
AcDbMlineStyle
  2
STANDARD
 70
     0
  3

 62
   256
 51
90.0
 52
90.0
 71
     2
 49
0.5
 62
   256
  6
BYLAYER
 49
-0.5
 62
   256
  6
BYLAYER
  0
DICTIONARY
  5
F55
102
{ACAD_REACTORS
330
C
102
}
100
AcDbDictionary
  0
ENDSEC
  0
EOF
