0
SECTION
2
HEADER
9
$LTSCALE
40
20.0000000
9
$LIMMIN
10
-150.0000000
20
-150.0000000
9
$LIMMAX
10
195.0000000
20
150.0000000
9
$EXTMIN
10
-82.4306183
20
-22.6792622
9
$EXTMAX
10
626.2970581
20
442.5606995
9
$SNAPMODE
70
0
9
$SNAPUNIT
10
10.0000000
20
10.0000000
9
$GRIDMODE
70
0
9
$GRIDUNIT
10
10.0000000
20
10.0000000
9
$ORTHOMODE
70
0
9
$TEXTSTYLE
7
txt
9
$CLAYER
8
1
9
$CECOLOR
62
1
9
$CELTYPE
6
CONTINUOUS
9
$PLINEWID
40
0.0000000
9
$OSMODE
70
0
9
$FILLMODE
70
1
9
$CHAMFERA
40
10.0000000
9
$CHAMFERB
40
10.0000000
9
$COORDS
70
1
9
$FILLETRAD
40
10.0000000
9
$INSBASE
10
0.0000000
20
0.0000000
9
$SPLFRAME
70
0
9
$SPLINESEGS
70
8
0
ENDSEC
0
SECTION
2
TABLES
0
TABLE
2
LTYPE
70
9
0
LTYPE
2
TRATTEGGIATA
70
0
3
__ __ __ __ __ __ __ __ __ __ __ __ __ __ __
72
65
73
2
40
0.7500000
49
0.5000000
49
-0.2500000
0
LTYPE
2
NASCOSTA
70
0
3
_ _ _ _ _ _ _ _ _ _ _ _ _ _ _ _ _ _ _ _ _ _ 
72
65
73
2
40
0.2500000
49
0.1250000
49
-0.1250000
0
LTYPE
2
LINEA-LINEETTA
70
0
3
____ _ ____ _ ____ _ ____ _ ____ _ ____ _ __
72
65
73
4
40
2.0000000
49
1.2500000
49
-0.2500000
49
0.2500000
49
-0.2500000
0
LTYPE
2
LINEA-LINEETTE
70
0
3
_____ _ _ _____ _ _ _____ _ _ _____ _ _ ____
72
65
73
6
40
2.5000000
49
1.2500000
49
-0.2500000
49
0.2500000
49
-0.2500000
49
0.2500000
49
-0.2500000
0
LTYPE
2
PUNTEGGIATA
70
0
3
............................................
72
65
73
2
40
0.2500000
49
0.0000000
49
-0.2500000
0
LTYPE
2
TRATTO-PUNTO
70
0
3
__ . __ . __ . __ . __ . __ . __ . __ . __ .
72
65
73
4
40
1.0000000
49
0.5000000
49
-0.2500000
49
0.0000000
49
-0.2500000
0
LTYPE
2
CONFINE
70
0
3
__ __ . __ __ . __ __ . __ __ . __ __ . __ _
72
65
73
6
40
1.7500000
49
0.5000000
49
-0.2500000
49
0.5000000
49
-0.2500000
49
0.0000000
49
-0.2500000
0
LTYPE
2
TRATTO-PUNTI
70
0
3
__ . . __ . . __ . . __ . . __ . . __ . . __
72
65
73
6
40
1.2500000
49
0.5000000
49
-0.2500000
49
0.0000000
49
-0.2500000
49
0.0000000
49
-0.2500000
0
LTYPE
2
PUNTI2
70
0
3
chiusa
72
65
73
2
40
0.1000000
49
0.0500000
49
-0.0500000
0
ENDTAB
0
TABLE
2
STYLE
70
1
0
STYLE
2
ROMAND9
70
0
40
0.0000000
41
1.0000000
50
0.0000000
71
0
42
0.0000000
3
ROMAND8
4

0
ENDTAB
0
TABLE
2
LAYER
70
10
0
LAYER
2
1
70
0
62
7
6
CONTINUOUS
0
LAYER
2
2
70
0
62
7
6
CONTINUOUS
0
LAYER
2
3
70
0
62
7
6
CONTINUOUS
0
LAYER
2
4
70
0
62
7
6
CONTINUOUS
0
LAYER
2
5
70
0
62
7
6
CONTINUOUS
0
LAYER
2
6
70
0
62
7
6
CONTINUOUS
0
LAYER
2
7
70
0
62
7
6
CONTINUOUS
0
LAYER
2
8
70
0
62
7
6
CONTINUOUS
0
LAYER
2
9
70
0
62
7
6
CONTINUOUS
0
LAYER
2
10
70
0
62
7
6
CONTINUOUS
0
ENDTAB
0
ENDSEC
0
SECTION
2
BLOCKS
0
BLOCK
8
0
2
CALABRDN-G1
70
0
10
0.0000000
20
0.0000000
0
POLYLINE
8
1
62
5
70
0
66
1
40
0.0000000
41
0.0000000
0
VERTEX
8
1
10
-82.4306183
20
210.5043488
0
VERTEX
8
1
10
-76.9792252
20
216.7508850
0
VERTEX
8
1
10
-70.3067780
20
221.4216003
0
VERTEX
8
1
10
-61.6325874
20
226.0923004
0
VERTEX
8
1
10
-52.9584045
20
229.4285431
0
VERTEX
8
1
10
-36.9445229
20
234.7664948
0
VERTEX
8
1
10
-15.5926819
20
239.4372101
0
VERTEX
8
1
10
9.0953865
20
243.4406738
0
VERTEX
8
1
10
49.1300926
20
247.4441681
0
VERTEX
8
1
10
80.4906006
20
250.1131439
0
VERTEX
8
1
10
103.8441772
20
251.4476166
0
VERTEX
8
1
10
124.5287857
20
252.1148529
0
VERTEX
8
1
10
139.8754272
20
252.7821198
0
VERTEX
8
1
10
146.5478668
20
253.4493561
0
VERTEX
8
1
10
155.2220612
20
259.4545593
0
VERTEX
8
1
10
167.2324677
20
270.1304932
0
VERTEX
8
1
10
176.5739136
20
274.1339722
0
VERTEX
8
1
10
188.5843048
20
276.1356812
0
VERTEX
8
1
10
203.2637024
20
276.8029480
0
VERTEX
8
1
10
221.2793274
20
276.1356812
0
VERTEX
8
1
10
243.9656525
20
273.4667358
0
VERTEX
8
1
10
285.3348083
20
266.7942505
0
VERTEX
8
1
10
318.0298767
20
260.7890625
0
VERTEX
8
1
10
376.0801697
20
251.4476166
0
VERTEX
8
1
10
422.7873230
20
245.4535065
0
VERTEX
8
1
10
448.8875122
20
242.4481354
0
VERTEX
8
1
10
470.2837219
20
241.1080933
0
VERTEX
8
1
10
505.6587830
20
240.1155396
0
VERTEX
8
1
10
606.2797241
20
239.4372101
0
SEQEND
8
1
0
POLYLINE
8
1
62
5
70
0
66
1
40
0.0000000
41
0.0000000
0
VERTEX
8
1
10
-82.4306183
20
210.5043488
0
VERTEX
8
1
10
-78.5341873
20
206.1916351
0
VERTEX
8
1
10
-74.6314468
20
203.0267944
0
VERTEX
8
1
10
-67.0943756
20
198.8260345
0
VERTEX
8
1
10
-51.8723030
20
193.7154694
0
VERTEX
8
1
10
-30.6516705
20
189.0612183
0
VERTEX
8
1
10
-2.9150238
20
185.3913116
0
VERTEX
8
1
10
18.4368191
20
182.7223206
0
VERTEX
8
1
10
55.1352959
20
180.7205963
0
VERTEX
8
1
10
81.1578522
20
179.3860931
0
VERTEX
8
1
10
110.5166397
20
179.3860931
0
VERTEX
8
1
10
138.5409393
20
179.3860931
0
VERTEX
8
1
10
196.5912476
20
179.3860931
0
VERTEX
8
1
10
248.6363831
20
179.3860931
0
VERTEX
8
1
10
306.6866760
20
182.0550690
0
VERTEX
8
1
10
352.0593567
20
184.7240601
0
VERTEX
8
1
10
410.1096497
20
188.7275238
0
VERTEX
8
1
10
474.1651917
20
194.0654907
0
VERTEX
8
1
10
537.5534668
20
200.0706940
0
VERTEX
8
1
10
586.9295654
20
206.0759125
0
VERTEX
8
1
10
604.9452515
20
209.4121246
0
VERTEX
8
1
10
618.9573364
20
213.4155884
0
SEQEND
8
1
0
POLYLINE
8
1
62
5
70
0
66
1
40
0.0000000
41
0.0000000
0
VERTEX
8
1
10
385.4215698
20
250.7813263
0
VERTEX
8
1
10
402.7699585
20
249.4468231
0
VERTEX
8
1
10
418.1166077
20
248.7795868
0
VERTEX
8
1
10
434.1304932
20
250.7813263
0
VERTEX
8
1
10
445.4736328
20
253.4503021
0
VERTEX
8
1
10
464.8237610
20
261.4572449
0
VERTEX
8
1
10
480.1704102
20
272.8004150
0
VERTEX
8
1
10
492.1807861
20
284.8108521
0
VERTEX
8
1
10
503.5239563
20
298.8229675
0
VERTEX
8
1
10
512.8654175
20
313.5023499
0
VERTEX
8
1
10
524.8757935
20
330.8507690
0
VERTEX
8
1
10
533.5499878
20
339.5249329
0
VERTEX
8
1
10
539.5551758
20
344.1956482
0
VERTEX
8
1
10
550.8983765
20
348.1991272
0
VERTEX
8
1
10
570.2484741
20
348.1991272
0
VERTEX
8
1
10
579.5899048
20
346.1973877
0
VERTEX
8
1
10
585.5950928
20
342.1939087
0
VERTEX
8
1
10
592.2675781
20
334.8541870
0
VERTEX
8
1
10
600.2745361
20
324.1782837
0
VERTEX
8
1
10
608.2814331
20
308.8316345
0
VERTEX
8
1
10
613.6193848
20
294.8195190
0
VERTEX
8
1
10
616.9556274
20
284.8108521
0
VERTEX
8
1
10
620.9591064
20
270.7986755
0
VERTEX
8
1
10
622.9608765
20
260.1227722
0
VERTEX
8
1
10
625.6298218
20
244.7761230
0
VERTEX
8
1
10
626.2970581
20
234.7492065
0
VERTEX
8
1
10
626.1038208
20
228.1788483
0
VERTEX
8
1
10
625.3745728
20
223.3477020
0
VERTEX
8
1
10
624.5213623
20
220.1245117
0
VERTEX
8
1
10
623.7629395
20
218.6076965
0
VERTEX
8
1
10
622.3410034
20
216.5221100
0
VERTEX
8
1
10
620.8242188
20
215.1001129
0
VERTEX
8
1
10
618.3594360
20
213.8677216
0
VERTEX
8
1
10
615.4205933
20
212.5405121
0
VERTEX
8
1
10
613.9985962
20
211.8769226
0
SEQEND
8
1
0
ENDBLK
8
0
0
BLOCK
8
0
2
CALABRDN-G2
70
0
10
0.0000000
20
0.0000000
0
INSERT
8
1
2
CALABRDN-G3
10
0.0000000
20
0.0000000
0
ENDBLK
8
0
0
BLOCK
8
0
2
CALABRDN-G3
70
0
10
0.0000000
20
0.0000000
0
POLYLINE
8
1
62
7
70
0
66
1
40
0.0000000
41
0.0000000
0
VERTEX
8
1
10
72.5693817
20
183.8670044
0
VERTEX
8
1
10
247.5693817
20
183.8670044
0
SEQEND
8
1
0
POLYLINE
8
1
62
7
70
0
66
1
40
0.0000000
41
0.0000000
0
VERTEX
8
1
10
247.5693817
20
184.0509949
0
VERTEX
8
1
10
247.5693817
20
184.0520020
0
VERTEX
8
1
10
247.5383759
20
184.0579987
0
VERTEX
8
1
10
247.4843750
20
184.0679932
0
VERTEX
8
1
10
247.4083862
20
184.0820007
0
VERTEX
8
1
10
247.3113861
20
184.1000061
0
VERTEX
8
1
10
247.1923828
20
184.1219940
0
VERTEX
8
1
10
247.0513763
20
184.1470032
0
VERTEX
8
1
10
246.8893890
20
184.1770020
0
VERTEX
8
1
10
246.7063751
20
184.2100067
0
VERTEX
8
1
10
246.5013885
20
184.2480011
0
VERTEX
8
1
10
246.2753754
20
184.2890015
0
VERTEX
8
1
10
246.0273743
20
184.3339996
0
VERTEX
8
1
10
245.7583771
20
184.3820038
0
VERTEX
8
1
10
245.4683838
20
184.4349976
0
VERTEX
8
1
10
245.1573792
20
184.4909973
0
VERTEX
8
1
10
244.8243866
20
184.5509949
0
VERTEX
8
1
10
244.4713745
20
184.6139984
0
VERTEX
8
1
10
244.0973816
20
184.6809998
0
VERTEX
8
1
10
243.7023773
20
184.7510071
0
VERTEX
8
1
10
243.2863770
20
184.8249969
0
VERTEX
8
1
10
242.8503876
20
184.9019928
0
VERTEX
8
1
10
242.3933868
20
184.9830017
0
VERTEX
8
1
10
241.9163818
20
185.0659943
0
VERTEX
8
1
10
241.4183807
20
185.1529999
0
VERTEX
8
1
10
240.9003754
20
185.2429962
0
VERTEX
8
1
10
240.3623810
20
185.3370056
0
VERTEX
8
1
10
239.8053741
20
185.4329987
0
VERTEX
8
1
10
239.2273865
20
185.5319977
0
VERTEX
8
1
10
238.6303864
20
185.6340027
0
VERTEX
8
1
10
238.0133820
20
185.7389984
0
VERTEX
8
1
10
237.3773804
20
185.8470001
0
VERTEX
8
1
10
236.7223816
20
185.9570007
0
VERTEX
8
1
10
236.0473785
20
186.0700073
0
VERTEX
8
1
10
235.3543854
20
186.1849976
0
VERTEX
8
1
10
234.6423798
20
186.3029938
0
VERTEX
8
1
10
233.9113770
20
186.4230042
0
VERTEX
8
1
10
233.1623840
20
186.5449982
0
VERTEX
8
1
10
232.3953857
20
186.6699982
0
VERTEX
8
1
10
231.6103821
20
186.7960052
0
VERTEX
8
1
10
230.8073883
20
186.9250031
0
VERTEX
8
1
10
229.9863892
20
187.0549927
0
VERTEX
8
1
10
229.1483765
20
187.1880035
0
VERTEX
8
1
10
228.2933807
20
187.3220062
0
VERTEX
8
1
10
227.4203796
20
187.4579926
0
VERTEX
8
1
10
226.5313873
20
187.5950012
0
VERTEX
8
1
10
225.6253815
20
187.7339935
0
VERTEX
8
1
10
224.7033844
20
187.8739929
0
VERTEX
8
1
10
223.7653809
20
188.0149994
0
VERTEX
8
1
10
222.8113861
20
188.1580048
0
VERTEX
8
1
10
221.8413849
20
188.3020020
0
VERTEX
8
1
10
220.8553772
20
188.4470062
0
VERTEX
8
1
10
219.8553772
20
188.5919952
0
VERTEX
8
1
10
218.8393860
20
188.7389984
0
VERTEX
8
1
10
217.8093872
20
188.8860016
0
VERTEX
8
1
10
216.7643890
20
189.0350037
0
VERTEX
8
1
10
215.7053833
20
189.1829987
0
VERTEX
8
1
10
214.6323853
20
189.3320007
0
VERTEX
8
1
10
213.5453796
20
189.4819946
0
VERTEX
8
1
10
212.4453888
20
189.6309967
0
VERTEX
8
1
10
211.3313751
20
189.7810059
0
VERTEX
8
1
10
210.2053833
20
189.9309998
0
VERTEX
8
1
10
209.0663757
20
190.0820007
0
VERTEX
8
1
10
207.9153748
20
190.2319946
0
VERTEX
8
1
10
206.7523804
20
190.3809967
0
VERTEX
8
1
10
205.5773773
20
190.5310059
0
VERTEX
8
1
10
204.3903809
20
190.6809998
0
VERTEX
8
1
10
203.1933746
20
190.8289948
0
VERTEX
8
1
10
201.9843750
20
190.9779968
0
VERTEX
8
1
10
200.7653809
20
191.1250000
0
VERTEX
8
1
10
199.5363770
20
191.2729950
0
VERTEX
8
1
10
198.2963867
20
191.4190063
0
VERTEX
8
1
10
197.0473785
20
191.5639954
0
VERTEX
8
1
10
195.7883759
20
191.7089996
0
VERTEX
8
1
10
194.5213776
20
191.8520050
0
VERTEX
8
1
10
193.2443848
20
191.9940033
0
VERTEX
8
1
10
191.9603882
20
192.1349945
0
VERTEX
8
1
10
190.6673889
20
192.2749939
0
VERTEX
8
1
10
189.3663788
20
192.4129944
0
VERTEX
8
1
10
188.0583801
20
192.5500031
0
VERTEX
8
1
10
186.7433777
20
192.6849976
0
VERTEX
8
1
10
185.4213867
20
192.8190002
0
VERTEX
8
1
10
184.0923767
20
192.9499969
0
VERTEX
8
1
10
182.7573853
20
193.0800018
0
VERTEX
8
1
10
181.4173889
20
193.2079926
0
VERTEX
8
1
10
180.0713806
20
193.3339996
0
VERTEX
8
1
10
178.7193756
20
193.4579926
0
VERTEX
8
1
10
177.3633881
20
193.5800018
0
VERTEX
8
1
10
176.0033875
20
193.6999969
0
VERTEX
8
1
10
174.6383820
20
193.8170013
0
VERTEX
8
1
10
173.2703857
20
193.9320068
0
VERTEX
8
1
10
171.8983765
20
194.0440063
0
VERTEX
8
1
10
170.5233765
20
194.1540070
0
VERTEX
8
1
10
169.1453857
20
194.2610016
0
VERTEX
8
1
10
167.7653809
20
194.3650055
0
VERTEX
8
1
10
166.3833771
20
194.4669952
0
VERTEX
8
1
10
164.9993744
20
194.5650024
0
VERTEX
8
1
10
163.6143799
20
194.6609955
0
VERTEX
8
1
10
162.2273865
20
194.7539978
0
VERTEX
8
1
10
160.8403778
20
194.8430023
0
VERTEX
8
1
10
159.4533844
20
194.9299927
0
VERTEX
8
1
10
158.0663757
20
195.0130005
0
VERTEX
8
1
10
156.6793823
20
195.0930023
0
VERTEX
8
1
10
155.2933807
20
195.1690063
0
VERTEX
8
1
10
153.9073792
20
195.2429962
0
VERTEX
8
1
10
152.5243835
20
195.3119965
0
VERTEX
8
1
10
151.1423798
20
195.3780060
0
VERTEX
8
1
10
149.7623749
20
195.4409943
0
VERTEX
8
1
10
148.3853760
20
195.4989929
0
VERTEX
8
1
10
147.0103760
20
195.5540009
0
VERTEX
8
1
10
145.6393890
20
195.6049957
0
VERTEX
8
1
10
144.2713776
20
195.6529999
0
VERTEX
8
1
10
142.9083862
20
195.6959991
0
VERTEX
8
1
10
141.5413818
20
195.7350006
0
VERTEX
8
1
10
140.1773834
20
195.7689972
0
VERTEX
8
1
10
138.8183899
20
195.7969971
0
VERTEX
8
1
10
137.4643860
20
195.8190002
0
VERTEX
8
1
10
136.1153870
20
195.8359985
0
VERTEX
8
1
10
134.7733765
20
195.8480072
0
VERTEX
8
1
10
133.4363708
20
195.8540039
0
VERTEX
8
1
10
132.1073914
20
195.8540039
0
VERTEX
8
1
10
130.7843781
20
195.8489990
0
VERTEX
8
1
10
129.4693909
20
195.8379974
0
VERTEX
8
1
10
128.1623840
20
195.8220062
0
VERTEX
8
1
10
126.8623810
20
195.8000031
0
VERTEX
8
1
10
125.5713806
20
195.7720032
0
VERTEX
8
1
10
124.2893829
20
195.7389984
0
VERTEX
8
1
10
123.0163803
20
195.6999969
0
VERTEX
8
1
10
121.7523804
20
195.6560059
0
VERTEX
8
1
10
120.4983826
20
195.6069946
0
VERTEX
8
1
10
119.2543793
20
195.5520020
0
VERTEX
8
1
10
118.0203781
20
195.4909973
0
VERTEX
8
1
10
116.7973785
20
195.4259949
0
VERTEX
8
1
10
115.5853806
20
195.3540039
0
VERTEX
8
1
10
114.3853836
20
195.2779999
0
VERTEX
8
1
10
113.1963806
20
195.1970062
0
VERTEX
8
1
10
112.0193787
20
195.1100006
0
VERTEX
8
1
10
110.8553848
20
195.0180054
0
VERTEX
8
1
10
109.7033844
20
194.9210052
0
VERTEX
8
1
10
108.5643845
20
194.8200073
0
VERTEX
8
1
10
107.4383850
20
194.7129974
0
VERTEX
8
1
10
106.3263855
20
194.6020050
0
VERTEX
8
1
10
105.2283783
20
194.4850006
0
VERTEX
8
1
10
104.1443787
20
194.3650055
0
VERTEX
8
1
10
103.0743790
20
194.2389984
0
VERTEX
8
1
10
102.0193787
20
194.1100006
0
VERTEX
8
1
10
100.9783783
20
193.9759979
0
VERTEX
8
1
10
99.9543839
20
193.8370056
0
VERTEX
8
1
10
98.9443817
20
193.6950073
0
VERTEX
8
1
10
97.9503784
20
193.5480042
0
VERTEX
8
1
10
96.9723816
20
193.3979950
0
VERTEX
8
1
10
96.0113831
20
193.2429962
0
VERTEX
8
1
10
95.0663834
20
193.0850067
0
VERTEX
8
1
10
94.1373825
20
192.9239960
0
VERTEX
8
1
10
93.2263794
20
192.7590027
0
VERTEX
8
1
10
92.3323822
20
192.5899963
0
VERTEX
8
1
10
91.4553833
20
192.4190063
0
VERTEX
8
1
10
90.5963821
20
192.2440033
0
VERTEX
8
1
10
89.7553787
20
192.0659943
0
VERTEX
8
1
10
88.9323807
20
191.8849945
0
VERTEX
8
1
10
88.1273804
20
191.7019958
0
VERTEX
8
1
10
87.3413849
20
191.5160065
0
VERTEX
8
1
10
86.5733795
20
191.3269958
0
VERTEX
8
1
10
85.8243790
20
191.1360016
0
VERTEX
8
1
10
85.0953827
20
190.9429932
0
VERTEX
8
1
10
84.3843842
20
190.7480011
0
VERTEX
8
1
10
83.6933823
20
190.5509949
0
VERTEX
8
1
10
83.0223846
20
190.3520050
0
VERTEX
8
1
10
82.3703842
20
190.1510010
0
VERTEX
8
1
10
81.7383804
20
189.9490051
0
VERTEX
8
1
10
81.1263809
20
189.7449951
0
VERTEX
8
1
10
80.5353851
20
189.5390015
0
VERTEX
8
1
10
79.9643784
20
189.3329926
0
VERTEX
8
1
10
79.4133835
20
189.1250000
0
VERTEX
8
1
10
78.8833847
20
188.9170074
0
VERTEX
8
1
10
78.3733826
20
188.7070007
0
VERTEX
8
1
10
77.8843842
20
188.4969940
0
VERTEX
8
1
10
77.4173813
20
188.2859955
0
VERTEX
8
1
10
76.9703827
20
188.0749969
0
VERTEX
8
1
10
76.5443802
20
187.8630066
0
VERTEX
8
1
10
76.1403809
20
187.6510010
0
VERTEX
8
1
10
75.7573853
20
187.4380035
0
VERTEX
8
1
10
75.3963776
20
187.2259979
0
VERTEX
8
1
10
75.0563812
20
187.0130005
0
VERTEX
8
1
10
74.7373810
20
186.8000031
0
VERTEX
8
1
10
74.4403839
20
186.5879974
0
VERTEX
8
1
10
74.1653824
20
186.3760071
0
VERTEX
8
1
10
73.9123840
20
186.1640015
0
VERTEX
8
1
10
73.6803818
20
185.9519958
0
VERTEX
8
1
10
73.4703827
20
185.7409973
0
VERTEX
8
1
10
73.2823792
20
185.5299988
0
VERTEX
8
1
10
73.1163788
20
185.3200073
0
VERTEX
8
1
10
72.9723816
20
185.1100006
0
VERTEX
8
1
10
72.8503799
20
184.9010010
0
VERTEX
8
1
10
72.7503815
20
184.6929932
0
VERTEX
8
1
10
72.6723785
20
184.4850006
0
VERTEX
8
1
10
72.6163788
20
184.2779999
0
VERTEX
8
1
10
72.5813828
20
184.0720062
0
VERTEX
8
1
10
72.5693817
20
183.8670044
0
VERTEX
8
1
10
72.5793762
20
183.6629944
0
SEQEND
8
1
0
ENDBLK
8
0
0
BLOCK
8
0
2
CALABRDN-G4
70
0
10
0.0000000
20
0.0000000
0
LINE
8
1
62
1
10
-82.4306183
20
390.9880676
11
72.5693817
21
390.9880676
0
LINE
8
1
62
1
10
-82.4306183
20
212.5043488
11
-82.4306183
21
393.4880676
0
LINE
8
1
62
1
10
72.5693817
20
212.5043488
11
72.5693817
21
393.4880676
0
LINE
8
1
62
1
10
-78.4306183
20
390.3214417
11
-82.4306183
21
390.9880676
0
LINE
8
1
62
1
10
-78.4306183
20
391.6546936
11
-82.4306183
21
390.9880676
0
LINE
8
1
62
1
10
68.5693817
20
390.3214417
11
72.5693817
21
390.9880676
0
LINE
8
1
62
1
10
68.5693817
20
391.6546936
11
72.5693817
21
390.9880676
0
TEXT
8
1
62
1
40
5.0000000
1
155.000
7
ROMAND9
72
0
10
-19.4544277
20
393.4880676
0
ENDBLK
8
0
0
BLOCK
8
0
2
CALABRDN-G5
70
0
10
0.0000000
20
0.0000000
0
LINE
8
1
62
1
10
247.5693817
20
390.9880676
11
72.5693817
21
390.9880676
0
LINE
8
1
62
1
10
247.5693817
20
186.0520020
11
247.5693817
21
393.4880676
0
LINE
8
1
62
1
10
72.5693817
20
185.8670044
11
72.5693817
21
393.4880676
0
LINE
8
1
62
1
10
243.5693817
20
391.6546936
11
247.5693817
21
390.9880676
0
LINE
8
1
62
1
10
243.5693817
20
390.3214417
11
247.5693817
21
390.9880676
0
LINE
8
1
62
1
10
76.5693817
20
391.6546936
11
72.5693817
21
390.9880676
0
LINE
8
1
62
1
10
76.5693817
20
390.3214417
11
72.5693817
21
390.9880676
0
TEXT
8
1
62
1
40
5.0000000
1
175.000
7
ROMAND9
72
0
10
145.5455780
20
393.4880676
0
ENDBLK
8
0
0
BLOCK
8
0
2
CALABRDN-G6
70
0
10
0.0000000
20
0.0000000
0
LINE
8
1
62
1
10
247.5693817
20
390.9880676
11
462.5693970
21
390.9880676
0
LINE
8
1
62
1
10
247.5693817
20
186.0509949
11
247.5693817
21
393.4880676
0
LINE
8
1
62
1
10
462.5693970
20
231.9936523
11
462.5693970
21
393.4880676
0
LINE
8
1
62
1
10
251.5693817
20
390.3214417
11
247.5693817
21
390.9880676
0
LINE
8
1
62
1
10
251.5693817
20
391.6546936
11
247.5693817
21
390.9880676
0
LINE
8
1
62
1
10
458.5693970
20
390.3214417
11
462.5693970
21
390.9880676
0
LINE
8
1
62
1
10
458.5693970
20
391.6546936
11
462.5693970
21
390.9880676
0
TEXT
8
1
62
1
40
5.0000000
1
215.000
7
ROMAND9
72
0
10
340.1884460
20
393.4880676
0
ENDBLK
8
0
0
BLOCK
8
0
2
CALABRDN-G7
70
0
10
0.0000000
20
0.0000000
0
LINE
8
1
62
1
10
462.5693970
20
390.9880676
11
587.5693359
21
390.9880676
0
LINE
8
1
62
1
10
462.5693970
20
231.9936523
11
462.5693970
21
393.4880676
0
LINE
8
1
62
1
10
587.5693359
20
231.9936523
11
587.5693359
21
393.4880676
0
LINE
8
1
62
1
10
466.5693970
20
390.3214417
11
462.5693970
21
390.9880676
0
LINE
8
1
62
1
10
466.5693970
20
391.6546936
11
462.5693970
21
390.9880676
0
LINE
8
1
62
1
10
583.5693359
20
390.3214417
11
587.5693359
21
390.9880676
0
LINE
8
1
62
1
10
583.5693359
20
391.6546936
11
587.5693359
21
390.9880676
0
TEXT
8
1
62
1
40
5.0000000
1
125.000
7
ROMAND9
72
0
10
510.5455627
20
393.4880676
0
ENDBLK
8
0
0
BLOCK
8
0
2
CALABRDN-G8
70
0
10
0.0000000
20
0.0000000
0
LINE
8
1
62
1
10
587.5693359
20
390.9880676
11
626.2970581
21
390.9880676
0
LINE
8
1
62
1
10
587.5693359
20
231.9936523
11
587.5693359
21
393.4880676
0
LINE
8
1
62
1
10
626.2970581
20
236.7492065
11
626.2970581
21
393.4880676
0
LINE
8
1
62
1
10
591.5693359
20
390.3214417
11
587.5693359
21
390.9880676
0
LINE
8
1
62
1
10
591.5693359
20
391.6546936
11
587.5693359
21
390.9880676
0
LINE
8
1
62
1
10
622.2970581
20
390.3214417
11
626.2970581
21
390.9880676
0
LINE
8
1
62
1
10
622.2970581
20
391.6546936
11
626.2970581
21
390.9880676
0
TEXT
8
1
62
1
40
5.0000000
1
38.728
7
ROMAND9
72
0
10
594.4332275
20
393.4880676
0
ENDBLK
8
0
0
BLOCK
8
0
2
CALABRDN-G9
70
0
10
0.0000000
20
0.0000000
0
LINE
8
1
62
1
10
-82.4306183
20
435.0606995
11
626.2970581
21
435.0606995
0
LINE
8
1
62
1
10
-82.4306183
20
212.5043488
11
-82.4306183
21
437.5606995
0
LINE
8
1
62
1
10
626.2970581
20
236.7492065
11
626.2970581
21
437.5606995
0
LINE
8
1
62
1
10
-78.4306183
20
434.3940735
11
-82.4306183
21
435.0606995
0
LINE
8
1
62
1
10
-78.4306183
20
435.7273254
11
-82.4306183
21
435.0606995
0
LINE
8
1
62
1
10
622.2970581
20
434.3940735
11
626.2970581
21
435.0606995
0
LINE
8
1
62
1
10
622.2970581
20
435.7273254
11
626.2970581
21
435.0606995
0
TEXT
8
1
62
1
40
5.0000000
1
708.728
7
ROMAND9
72
0
10
257.0522766
20
437.5606995
0
ENDBLK
8
0
0
ENDSEC
0
SECTION
2
ENTITIES
0
INSERT
8
1
2
CALABRDN-G1
10
0.0000000
20
0.0000000
0
LINE
8
1
62
1
10
-82.4306183
20
210.5043488
11
72.5693817
21
210.5043488
0
LINE
8
1
62
1
10
72.5693817
20
210.5043488
11
72.5693817
21
96.7165756
0
INSERT
8
1
2
CALABRDN-G2
10
0.0000000
20
0.0000000
0
LINE
8
1
62
1
10
247.5693817
20
184.0520020
11
462.5693970
21
184.0520020
0
LINE
8
1
62
1
10
462.5693970
20
184.0520020
11
462.5693970
21
324.3932800
0
POLYLINE
8
1
62
1
70
1
66
1
40
0.0000000
41
0.0000000
0
VERTEX
8
1
10
462.5693970
20
229.9936523
0
VERTEX
8
1
10
462.5693970
20
235.9936676
0
VERTEX
8
1
10
587.5693359
20
235.9936676
0
VERTEX
8
1
10
587.5693359
20
229.9936523
0
SEQEND
8
1
0
INSERT
8
1
2
CALABRDN-G4
10
0.0000000
20
0.0000000
0
INSERT
8
1
2
CALABRDN-G5
10
0.0000000
20
0.0000000
0
INSERT
8
1
2
CALABRDN-G6
10
0.0000000
20
0.0000000
0
INSERT
8
1
2
CALABRDN-G7
10
0.0000000
20
0.0000000
0
INSERT
8
1
2
CALABRDN-G8
10
0.0000000
20
0.0000000
0
INSERT
8
1
2
CALABRDN-G9
10
0.0000000
20
0.0000000
0
TEXT
8
1
62
1
40
5.0000000
1
Parte mobile deriva 57 mm nel punto max
7
ROMAND9
72
0
10
193.3790131
20
56.4368782
0
TEXT
8
1
62
1
40
5.0000000
1
Parte mobile quota 40 mm
7
ROMAND9
72
0
10
192.8028412
20
72.3812485
0
TEXT
8
1
62
1
40
5.0000000
1
Alettoni tutta larghezza 40 mm
7
ROMAND9
72
0
10
192.1350708
20
87.8219223
0
TEXT
8
1
62
1
40
5.0000000
1
AA fuori tutto 885 mm
7
ROMAND9
72
0
10
192.1350861
20
115.8681259
0
TEXT
8
1
62
1
40
5.0000000
1
Piano di quota f.t. 320 mm
7
ROMAND9
72
0
10
192.1350861
20
101.8450241
0
TEXT
8
1
62
1
40
5.0000000
1
Profilo NACA 2410 - DL a zero
7
ROMAND9
72
0
10
192.1350861
20
145.2498779
0
TEXT
8
1
62
1
40
5.0000000
1
Diedro a zero o leggermente negativo (si Š svergolata l'ala)
7
ROMAND9
72
0
10
192.1350861
20
129.0593872
0
TEXT
8
1
62
1
40
5.0000000
1
Peso in odv al primo collaudo 380 - 390 g - con questo peso resta in aria con un filo di gas
7
ROMAND9
72
0
10
193.4706116
20
43.7493095
0
TEXT
8
1
62
1
40
5.0000000
1

7
ROMAND9
72
0
10
193.4706116
20
35.6540718
0
TEXT
8
1
62
1
40
5.0000000
1
Motore: hi-model da 2600 kv per 35 g di peso
7
ROMAND9
72
0
10
193.4706116
20
27.5588341
0
TEXT
8
1
62
1
40
5.0000000
1

7
ROMAND9
72
0
10
193.4706116
20
19.4635944
0
TEXT
8
1
62
1
40
5.0000000
1
Elica APC E 6x5,5
7
ROMAND9
72
0
10
193.4706116
20
11.3683567
0
TEXT
8
1
62
1
40
5.0000000
1

7
ROMAND9
72
0
10
193.4706116
20
3.2731190
0
TEXT
8
1
62
1
40
5.0000000
1
Batterie J-tronik 2 celle da 1500 mAh
7
ROMAND9
72
0
10
193.4706116
20
-4.8221192
0
TEXT
8
1
62
1
40
5.0000000
1

7
ROMAND9
72
0
10
193.4706116
20
-12.9173574
0
TEXT
8
1
62
1
40
5.0000000
1
Peso in odv al BRDN circa 500 g di cui almeno 30 di zavorra
7
ROMAND9
72
0
10
193.4706116
20
-21.0125961
0
ENDSEC
0
EOF
