  0
SECTION
  2
HEADER
  9
$ACADVER
  1
AC1009
  9
$INSBASE
 10
0.0
 20
0.0
 30
0.0
  9
$EXTMIN
 10
-950.785032
 20
-954.362867
 30
0.0
  9
$EXTMAX
 10
1086.692846
 20
607.444265
 30
0.0
  9
$LIMMIN
 10
0.0
 20
0.0
  9
$LIMMAX
 10
12.0
 20
9.0
  9
$ORTHOMODE
 70
     0
  9
$REGENMODE
 70
     1
  9
$FILLMODE
 70
     1
  9
$QTEXTMODE
 70
     0
  9
$MIRRTEXT
 70
     1
  9
$DRAGMODE
 70
     2
  9
$LTSCALE
 40
50.0
  9
$OSMODE
 70
     0
  9
$ATTMODE
 70
     1
  9
$TEXTSIZE
 40
20.0
  9
$TRACEWID
 40
0.05
  9
$TEXTSTYLE
  7
STANDARD
  9
$CLAYER
  8
0
  9
$CELTYPE
  6
BYLAYER
  9
$CECOLOR
 62
   256
  9
$DIMSCALE
 40
100.0
  9
$DIMASZ
 40
0.18
  9
$DIMEXO
 40
0.0625
  9
$DIMDLI
 40
0.38
  9
$DIMRND
 40
0.0
  9
$DIMDLE
 40
0.0
  9
$DIMEXE
 40
0.18
  9
$DIMTP
 40
0.0
  9
$DIMTM
 40
0.0
  9
$DIMTXT
 40
0.18
  9
$DIMCEN
 40
0.09
  9
$DIMTSZ
 40
0.0
  9
$DIMTOL
 70
     0
  9
$DIMLIM
 70
     0
  9
$DIMTIH
 70
     1
  9
$DIMTOH
 70
     1
  9
$DIMSE1
 70
     0
  9
$DIMSE2
 70
     0
  9
$DIMTAD
 70
     0
  9
$DIMZIN
 70
     0
  9
$DIMBLK
  1

  9
$DIMASO
 70
     1
  9
$DIMSHO
 70
     1
  9
$DIMPOST
  1

  9
$DIMAPOST
  1

  9
$DIMALT
 70
     0
  9
$DIMALTD
 70
     2
  9
$DIMALTF
 40
25.4
  9
$DIMLFAC
 40
1.0
  9
$DIMTOFL
 70
     0
  9
$DIMTVP
 40
0.0
  9
$DIMTIX
 70
     0
  9
$DIMSOXD
 70
     0
  9
$DIMSAH
 70
     0
  9
$DIMBLK1
  1

  9
$DIMBLK2
  1

  9
$DIMSTYLE
  2
STANDARD
  9
$DIMCLRD
 70
     0
  9
$DIMCLRE
 70
     0
  9
$DIMCLRT
 70
     0
  9
$DIMTFAC
 40
1.0
  9
$DIMGAP
 40
0.09
  9
$LUNITS
 70
     2
  9
$LUPREC
 70
     4
  9
$SKETCHINC
 40
0.1
  9
$FILLETRAD
 40
20.0
  9
$AUNITS
 70
     0
  9
$AUPREC
 70
     0
  9
$MENU
  1
acad
  9
$ELEVATION
 40
0.0
  9
$PELEVATION
 40
0.0
  9
$THICKNESS
 40
0.0
  9
$LIMCHECK
 70
     0
  9
$BLIPMODE
 70
     1
  9
$CHAMFERA
 40
0.0
  9
$CHAMFERB
 40
0.0
  9
$SKPOLY
 70
     0
  9
$TDCREATE
 40
2450356.037746088
  9
$TDUPDATE
 40
2450356.037746088
  9
$TDINDWG
 40
0.0000000000
  9
$TDUSRTIMER
 40
0.0000000000
  9
$USRTIMER
 70
     1
  9
$ANGBASE
 50
0.0
  9
$ANGDIR
 70
     0
  9
$PDMODE
 70
     0
  9
$PDSIZE
 40
0.0
  9
$PLINEWID
 40
0.0
  9
$COORDS
 70
     1
  9
$SPLFRAME
 70
     0
  9
$SPLINETYPE
 70
     6
  9
$SPLINESEGS
 70
     8
  9
$ATTDIA
 70
     0
  9
$ATTREQ
 70
     1
  9
$HANDLING
 70
     1
  9
$HANDSEED
  5
10A6
  9
$SURFTAB1
 70
     6
  9
$SURFTAB2
 70
     6
  9
$SURFTYPE
 70
     6
  9
$SURFU
 70
     6
  9
$SURFV
 70
     6
  9
$UCSNAME
  2

  9
$UCSORG
 10
0.0
 20
0.0
 30
0.0
  9
$UCSXDIR
 10
1.0
 20
0.0
 30
0.0
  9
$UCSYDIR
 10
0.0
 20
1.0
 30
0.0
  9
$PUCSNAME
  2

  9
$PUCSORG
 10
0.0
 20
0.0
 30
0.0
  9
$PUCSXDIR
 10
1.0
 20
0.0
 30
0.0
  9
$PUCSYDIR
 10
0.0
 20
1.0
 30
0.0
  9
$USERI1
 70
     0
  9
$USERI2
 70
     0
  9
$USERI3
 70
     0
  9
$USERI4
 70
     0
  9
$USERI5
 70
     0
  9
$USERR1
 40
0.0
  9
$USERR2
 40
0.0
  9
$USERR3
 40
0.0
  9
$USERR4
 40
0.0
  9
$USERR5
 40
0.0
  9
$WORLDVIEW
 70
     1
  9
$SHADEDGE
 70
     3
  9
$SHADEDIF
 70
    70
  9
$TILEMODE
 70
     1
  9
$MAXACTVP
 70
    16
  9
$PINSBASE
 10
0.0
 20
0.0
 30
0.0
  9
$PLIMCHECK
 70
     0
  9
$PEXTMIN
 10
1.000000E+20
 20
1.000000E+20
 30
1.000000E+20
  9
$PEXTMAX
 10
-1.000000E+20
 20
-1.000000E+20
 30
-1.000000E+20
  9
$PLIMMIN
 10
0.0
 20
0.0
  9
$PLIMMAX
 10
12.0
 20
9.0
  9
$UNITMODE
 70
     0
  9
$VISRETAIN
 70
     0
  9
$PLINEGEN
 70
     0
  9
$PSLTSCALE
 70
     1
  9
$TREEDEPTH
 70
  3020
  9
$DWGCODEPAGE
  3
dummy
  0
ENDSEC
  0
SECTION
  2
TABLES
  0
TABLE
  2
VPORT
 70
     2
  0
VPORT
  2
*ACTIVE
 70
     0
 10
0.0
 20
0.0
 11
1.0
 21
1.0
 12
233.906431
 22
-127.978569
 13
0.0
 23
0.0
 14
1.0
 24
1.0
 15
0.0
 25
0.0
 16
0.0
 26
0.0
 36
1.0
 17
0.0
 27
0.0
 37
0.0
 40
1701.071911
 41
1.435955
 42
50.0
 43
0.0
 44
0.0
 50
0.0
 51
0.0
 71
     0
 72
   100
 73
     1
 74
     1
 75
     0
 76
     0
 77
     0
 78
     0
  0
ENDTAB
  0
TABLE
  2
LTYPE
 70
     2
  0
LTYPE
  2
CONTINUOUS
 70
    64
  3
Solid line
 72
    65
 73
     0
 40
0.0
  0
LTYPE
  2
DASHED
 70
    64
  3
__ __ __ __ __ __ __ __ __ __ __ __ __ __ __ __
 72
    65
 73
     2
 40
0.75
 49
0.5
 49
-0.25
  0
ENDTAB
  0
TABLE
  2
LAYER
 70
     5
  0
LAYER
  2
0
 70
     0
 62
     7
  6
CONTINUOUS
  0
LAYER
  2
CONTOUR
 70
    64
 62
     7
  6
CONTINUOUS
  0
LAYER
  2
BEM
 70
    64
 62
     3
  6
CONTINUOUS
  0
LAYER
  2
DEFPOINTS
 70
    64
 62
     7
  6
CONTINUOUS
  0
LAYER
  2
TEXT
 70
    64
 62
     7
  6
CONTINUOUS
  0
ENDTAB
  0
TABLE
  2
STYLE
 70
     1
  0
STYLE
  2
STANDARD
 70
     0
 40
0.0
 41
1.0
 50
0.0
 71
     0
 42
20.0
  3
txt
  4

  0
ENDTAB
  0
TABLE
  2
VIEW
 70
     0
  0
ENDTAB
  0
TABLE
  2
UCS
 70
     0
  0
ENDTAB
  0
TABLE
  2
APPID
 70
     1
  0
APPID
  2
ACAD
 70
    64
  0
ENDTAB
  0
TABLE
  2
DIMSTYLE
 70
     1
  0
DIMSTYLE
  2
STANDARD
 70
     0
  3

  4

  5

  6

  7

 40
1.0
 41
0.18
 42
0.0625
 43
0.38
 44
0.18
 45
0.0
 46
0.0
 47
0.0
 48
0.0
140
0.18
141
0.09
142
0.0
143
25.4
144
1.0
145
0.0
146
1.0
147
0.09
 71
     0
 72
     0
 73
     1
 74
     1
 75
     0
 76
     0
 77
     0
 78
     0
170
     0
171
     2
172
     0
173
     0
174
     0
175
     0
176
     0
177
     0
178
     0
  0
ENDTAB
  0
ENDSEC
  0
SECTION
  2
BLOCKS
  0
ENDSEC
  0
SECTION
  2
ENTITIES
  0
LINE
  8
CONTOUR
  5
2AF
 10
95.0
 20
310.321384
 30
0.0
 11
95.0
 21
0.0
 31
0.0
  0
LINE
  8
CONTOUR
  5
2B0
 10
95.0
 20
-300.0
 30
0.0
 11
0.0
 21
-300.0
 31
0.0
  0
LINE
  8
CONTOUR
  5
2B1
 10
-95.0
 20
-300.0
 30
0.0
 11
0.0
 21
-300.0
 31
0.0
  0
LINE
  8
CONTOUR
  5
2B2
 10
27.727843
 20
512.869433
 30
0.0
 11
79.852285
 21
386.673415
 31
0.0
  0
ARC
  8
CONTOUR
  5
2B3
 10
-105.0
 20
310.321384
 30
0.0
 40
200.0
 50
0.0
 51
22.442753
  0
LINE
  8
CONTOUR
  5
2B4
 10
-91.024507
 20
350.0
 30
0.0
 11
91.024507
 21
350.0
 31
0.0
  0
LINE
  8
CONTOUR
  5
2B5
 10
-27.727842
 20
512.869433
 30
0.0
 11
-79.852285
 21
386.673415
 31
0.0
  0
ARC
  8
CONTOUR
  5
2B6
 10
105.0
 20
310.321384
 30
0.0
 40
200.0
 50
157.557247
 51
180.0
  0
LINE
  8
CONTOUR
  5
2B7
 10
-95.0
 20
310.321384
 30
0.0
 11
-95.0
 21
0.0
 31
0.0
  0
ARC
  8
CONTOUR
  5
2B8
 10
0.000001
 20
501.416629
 30
0.0
 40
30.0
 50
22.442753
 51
157.557247
  0
LINE
  8
CONTOUR
  5
2B9
 10
95.0
 20
-300.0
 30
0.0
 11
45.615173
 21
-679.883287
 31
0.0
  0
LINE
  8
CONTOUR
  5
2BA
 10
-95.0
 20
-300.0
 30
0.0
 11
-45.615173
 21
-679.883287
 31
0.0
  0
LINE
  8
CONTOUR
  5
2BB
 10
-30.0
 20
-800.0
 30
0.0
 11
-5.0
 21
-800.0
 31
0.0
  0
LINE
  8
CONTOUR
  5
2BC
 10
-95.0
 20
-230.0
 30
0.0
 11
-95.0
 21
-300.0
 31
0.0
  0
LINE
  8
CONTOUR
  5
2BD
 10
95.0
 20
-230.0
 30
0.0
 11
95.0
 21
-300.0
 31
0.0
  0
LINE
  8
CONTOUR
  5
2BE
 10
-250.0
 20
0.0
 30
0.0
 11
-250.0
 21
-230.0
 31
0.0
  0
LINE
  8
CONTOUR
  5
2BF
 10
250.0
 20
0.0
 30
0.0
 11
250.0
 21
-230.0
 31
0.0
  0
LINE
  8
CONTOUR
  5
2C0
 10
5.0
 20
-671.083333
 30
0.0
 11
284.235067
 21
-731.584265
 31
0.0
  0
LINE
  8
CONTOUR
  5
2C1
 10
300.0
 20
-751.130727
 30
0.0
 11
300.0
 21
-800.0
 31
0.0
  0
LINE
  8
CONTOUR
  5
2C2
 10
300.0
 20
-800.0
 30
0.0
 11
5.0
 21
-800.0
 31
0.0
  0
LINE
  8
CONTOUR
  5
2C3
 10
-5.0
 20
-671.083333
 30
0.0
 11
-284.235067
 21
-731.584265
 31
0.0
  0
LINE
  8
CONTOUR
  5
2C4
 10
-300.0
 20
-800.0
 30
0.0
 11
-5.0
 21
-800.0
 31
0.0
  0
LINE
  8
CONTOUR
  5
2C5
 10
-300.0
 20
-751.130727
 30
0.0
 11
-300.0
 21
-800.0
 31
0.0
  0
LINE
  8
CONTOUR
  6
DASHED
  5
2C6
 10
-45.615173
 20
-679.883287
 30
0.0
 11
-30.0
 21
-800.0
 31
0.0
  0
LINE
  8
CONTOUR
  6
DASHED
  5
2C7
 10
45.615173
 20
-679.883287
 30
0.0
 11
30.0
 21
-800.0
 31
0.0
  0
LINE
  8
CONTOUR
  6
DASHED
  5
2C8
 10
-95.0
 20
0.0
 30
0.0
 11
-95.0
 21
-230.0
 31
0.0
  0
LINE
  8
CONTOUR
  6
DASHED
  5
2C9
 10
95.0
 20
0.0
 30
0.0
 11
95.0
 21
-230.0
 31
0.0
  0
LINE
  8
CONTOUR
  5
2CA
 10
300.0
 20
-800.0
 30
0.0
 11
300.0
 21
-830.0
 31
0.0
  0
LINE
  8
CONTOUR
  5
2CB
 10
300.0
 20
-830.0
 30
0.0
 11
0.0
 21
-860.0
 31
0.0
  0
LINE
  8
CONTOUR
  5
2CC
 10
-300.0
 20
-830.0
 30
0.0
 11
0.0
 21
-860.0
 31
0.0
  0
LINE
  8
CONTOUR
  5
2CD
 10
-300.0
 20
-800.0
 30
0.0
 11
-300.0
 21
-830.0
 31
0.0
  0
LINE
  8
CONTOUR
  5
2CE
 10
5.0
 20
-300.0
 30
0.0
 11
5.0
 21
-830.0
 31
0.0
  0
LINE
  8
CONTOUR
  5
2CF
 10
5.0
 20
-830.0
 30
0.0
 11
0.0
 21
-830.0
 31
0.0
  0
LINE
  8
CONTOUR
  5
2D0
 10
-5.0
 20
-830.0
 30
0.0
 11
0.0
 21
-830.0
 31
0.0
  0
LINE
  8
CONTOUR
  5
2D1
 10
-5.0
 20
-300.0
 30
0.0
 11
-5.0
 21
-830.0
 31
0.0
  0
LINE
  8
CONTOUR
  5
2D2
 10
5.0
 20
-800.0
 30
0.0
 11
30.0
 21
-800.0
 31
0.0
  0
ARC
  8
CONTOUR
  5
2D3
 10
-280.0
 20
-751.130727
 30
0.0
 40
20.0
 50
102.225123
 51
180.0
  0
ARC
  8
CONTOUR
  5
2D4
 10
280.0
 20
-751.130727
 30
0.0
 40
20.0
 50
0.0
 51
77.774877
  0
CIRCLE
  8
CONTOUR
  5
2D8
 10
66.890509
 20
-74.445512
 30
0.0
 40
5.0
  0
CIRCLE
  8
CONTOUR
  5
2D9
 10
-66.890509
 20
-74.445512
 30
0.0
 40
5.0
  0
LINE
  8
CONTOUR
  5
2DE
 10
700.0
 20
-300.0
 30
0.0
 11
700.0
 21
-800.0
 31
0.0
  0
LINE
  8
CONTOUR
  5
2DF
 10
700.0
 20
-800.0
 30
0.0
 11
700.0
 21
-830.0
 31
0.0
  0
LINE
  8
CONTOUR
  5
2E0
 10
700.0
 20
-830.0
 30
0.0
 11
962.130662
 21
-801.914572
 31
0.0
  0
LINE
  8
CONTOUR
  5
2E1
 10
980.0
 20
-782.028389
 30
0.0
 11
980.0
 21
-711.974829
 31
0.0
  0
LINE
  8
CONTOUR
  5
2E2
 10
969.444428
 20
-694.345229
 30
0.0
 11
700.0
 21
-550.0
 31
0.0
  0
LINE
  8
CONTOUR
  5
2E3
 10
700.0
 20
-300.0
 30
0.0
 11
756.0
 21
-580.0
 31
0.0
  0
ARC
  8
CONTOUR
  5
2E4
 10
960.0
 20
-711.974829
 30
0.0
 40
20.0
 50
0.0
 51
61.82141
  0
ARC
  8
CONTOUR
  5
2E5
 10
960.0
 20
-782.028389
 30
0.0
 40
20.0
 50
276.115504
 51
0.0
  0
LINE
  8
CONTOUR
  5
2ED
 10
700.0
 20
-300.0
 30
0.0
 11
510.0
 21
-300.0
 31
0.0
  0
LINE
  8
CONTOUR
  5
2EE
 10
510.0
 20
-300.0
 30
0.0
 11
640.0
 21
-800.0
 31
0.0
  0
LINE
  8
CONTOUR
  5
2EF
 10
640.0
 20
-800.0
 30
0.0
 11
690.0
 21
-800.0
 31
0.0
  0
LINE
  8
CONTOUR
  5
2F0
 10
700.0
 20
-670.0
 30
0.0
 11
690.0
 21
-670.0
 31
0.0
  0
LINE
  8
CONTOUR
  5
2F1
 10
690.0
 20
-670.0
 30
0.0
 11
690.0
 21
-860.0
 31
0.0
  0
LINE
  8
CONTOUR
  5
2F2
 10
690.0
 20
-860.0
 30
0.0
 11
700.0
 21
-860.0
 31
0.0
  0
LINE
  8
CONTOUR
  5
2F3
 10
700.0
 20
-860.0
 30
0.0
 11
700.0
 21
-670.0
 31
0.0
  0
LINE
  8
CONTOUR
  6
DASHED
  5
2F4
 10
700.0
 20
-300.0
 30
0.0
 11
700.0
 21
-221.804727
 31
0.0
  0
POLYLINE
  8
CONTOUR
  5
2F7
 66
     1
 10
0.0
 20
0.0
 30
0.0
 70
     1
  0
VERTEX
  8
CONTOUR
  5
2F8
 10
-935.945756
 20
-39.1969
 30
0.0
  0
VERTEX
  8
CONTOUR
  5
2F9
 10
-250.0
 20
0.0
 30
0.0
  0
VERTEX
  8
CONTOUR
  5
2FA
 10
0.0
 20
0.0
 30
0.0
  0
VERTEX
  8
CONTOUR
  5
2FB
 10
250.0
 20
0.0
 30
0.0
  0
VERTEX
  8
CONTOUR
  5
2FC
 10
935.945756
 20
-39.1969
 30
0.0
  0
VERTEX
  8
CONTOUR
  5
2FD
 10
939.603432
 20
-40.229699
 30
0.0
  0
VERTEX
  8
CONTOUR
  5
2FE
 10
940.342632
 20
-40.358099
 30
0.0
  0
VERTEX
  8
CONTOUR
  5
2FF
 10
941.108232
 20
-40.743299
 30
0.0
  0
VERTEX
  8
CONTOUR
  5
300
 10
941.935032
 20
-41.382899
 30
0.0
  0
VERTEX
  8
CONTOUR
  5
301
 10
942.785832
 20
-42.274499
 30
0.0
  0
VERTEX
  8
CONTOUR
  5
302
 10
943.625832
 20
-43.413299
 30
0.0
  0
VERTEX
  8
CONTOUR
  5
303
 10
944.435832
 20
-44.796899
 30
0.0
  0
VERTEX
  8
CONTOUR
  5
304
 10
945.215832
 20
-46.416899
 30
0.0
  0
VERTEX
  8
CONTOUR
  5
305
 10
945.979032
 20
-48.268499
 30
0.0
  0
VERTEX
  8
CONTOUR
  5
306
 10
946.730232
 20
-50.342099
 30
0.0
  0
VERTEX
  8
CONTOUR
  5
307
 10
947.465832
 20
-52.628099
 30
0.0
  0
VERTEX
  8
CONTOUR
  5
308
 10
948.164232
 20
-55.119299
 30
0.0
  0
VERTEX
  8
CONTOUR
  5
309
 10
948.795432
 20
-57.803699
 30
0.0
  0
VERTEX
  8
CONTOUR
  5
30A
 10
949.339032
 20
-60.669299
 30
0.0
  0
VERTEX
  8
CONTOUR
  5
30B
 10
949.783032
 20
-63.704099
 30
0.0
  0
VERTEX
  8
CONTOUR
  5
30C
 10
950.132232
 20
-66.894899
 30
0.0
  0
VERTEX
  8
CONTOUR
  5
30D
 10
950.398632
 20
-70.229699
 30
0.0
  0
VERTEX
  8
CONTOUR
  5
30E
 10
950.593032
 20
-73.692899
 30
0.0
  0
VERTEX
  8
CONTOUR
  5
30F
 10
950.722632
 20
-77.268899
 30
0.0
  0
VERTEX
  8
CONTOUR
  5
310
 10
950.785032
 20
-80.943299
 30
0.0
  0
VERTEX
  8
CONTOUR
  5
311
 10
950.777832
 20
-84.700499
 30
0.0
  0
VERTEX
  8
CONTOUR
  5
312
 10
950.557032
 20
-92.398499
 30
0.0
  0
VERTEX
  8
CONTOUR
  5
313
 10
950.066232
 20
-100.229699
 30
0.0
  0
VERTEX
  8
CONTOUR
  5
314
 10
949.329432
 20
-108.060899
 30
0.0
  0
VERTEX
  8
CONTOUR
  5
315
 10
948.386232
 20
-115.758899
 30
0.0
  0
VERTEX
  8
CONTOUR
  5
316
 10
947.289432
 20
-123.190499
 30
0.0
  0
VERTEX
  8
CONTOUR
  5
317
 10
946.097832
 20
-130.229699
 30
0.0
  0
VERTEX
  8
CONTOUR
  5
318
 10
944.876232
 20
-136.755299
 30
0.0
  0
VERTEX
  8
CONTOUR
  5
319
 10
943.683432
 20
-142.655699
 30
0.0
  0
VERTEX
  8
CONTOUR
  5
31A
 10
942.573432
 20
-147.831299
 30
0.0
  0
VERTEX
  8
CONTOUR
  5
31B
 10
941.590632
 20
-152.190899
 30
0.0
  0
VERTEX
  8
CONTOUR
  5
31C
 10
940.769832
 20
-155.662499
 30
0.0
  0
VERTEX
  8
CONTOUR
  5
31D
 10
940.141032
 20
-158.184899
 30
0.0
  0
VERTEX
  8
CONTOUR
  5
31E
 10
939.741432
 20
-159.716099
 30
0.0
  0
VERTEX
  8
CONTOUR
  5
31F
 10
939.379795
 20
-161.062021
 30
0.0
  0
VERTEX
  8
CONTOUR
  5
320
 10
250.0
 20
-230.0
 30
0.0
  0
VERTEX
  8
CONTOUR
  5
321
 10
0.0
 20
-230.0
 30
0.0
  0
VERTEX
  8
CONTOUR
  5
322
 10
-250.0
 20
-230.0
 30
0.0
  0
VERTEX
  8
CONTOUR
  5
323
 10
-939.379795
 20
-161.062021
 30
0.0
  0
VERTEX
  8
CONTOUR
  5
324
 10
-939.741432
 20
-159.716099
 30
0.0
  0
VERTEX
  8
CONTOUR
  5
325
 10
-940.141032
 20
-158.184899
 30
0.0
  0
VERTEX
  8
CONTOUR
  5
326
 10
-940.769832
 20
-155.662499
 30
0.0
  0
VERTEX
  8
CONTOUR
  5
327
 10
-941.590632
 20
-152.190899
 30
0.0
  0
VERTEX
  8
CONTOUR
  5
328
 10
-942.573432
 20
-147.831299
 30
0.0
  0
VERTEX
  8
CONTOUR
  5
329
 10
-943.683432
 20
-142.655699
 30
0.0
  0
VERTEX
  8
CONTOUR
  5
32A
 10
-944.876232
 20
-136.755299
 30
0.0
  0
VERTEX
  8
CONTOUR
  5
32B
 10
-946.097832
 20
-130.229699
 30
0.0
  0
VERTEX
  8
CONTOUR
  5
32C
 10
-947.289432
 20
-123.190499
 30
0.0
  0
VERTEX
  8
CONTOUR
  5
32D
 10
-948.386232
 20
-115.758899
 30
0.0
  0
VERTEX
  8
CONTOUR
  5
32E
 10
-949.329432
 20
-108.060899
 30
0.0
  0
VERTEX
  8
CONTOUR
  5
32F
 10
-950.066232
 20
-100.229699
 30
0.0
  0
VERTEX
  8
CONTOUR
  5
330
 10
-950.557032
 20
-92.398499
 30
0.0
  0
VERTEX
  8
CONTOUR
  5
331
 10
-950.777832
 20
-84.700499
 30
0.0
  0
VERTEX
  8
CONTOUR
  5
332
 10
-950.785032
 20
-80.943299
 30
0.0
  0
VERTEX
  8
CONTOUR
  5
333
 10
-950.722632
 20
-77.268899
 30
0.0
  0
VERTEX
  8
CONTOUR
  5
334
 10
-950.593032
 20
-73.692899
 30
0.0
  0
VERTEX
  8
CONTOUR
  5
335
 10
-950.398632
 20
-70.229699
 30
0.0
  0
VERTEX
  8
CONTOUR
  5
336
 10
-950.132232
 20
-66.894899
 30
0.0
  0
VERTEX
  8
CONTOUR
  5
337
 10
-949.783032
 20
-63.704099
 30
0.0
  0
VERTEX
  8
CONTOUR
  5
338
 10
-949.339032
 20
-60.669299
 30
0.0
  0
VERTEX
  8
CONTOUR
  5
339
 10
-948.795432
 20
-57.803699
 30
0.0
  0
VERTEX
  8
CONTOUR
  5
33A
 10
-948.164232
 20
-55.119299
 30
0.0
  0
VERTEX
  8
CONTOUR
  5
33B
 10
-947.465832
 20
-52.628099
 30
0.0
  0
VERTEX
  8
CONTOUR
  5
33C
 10
-946.730232
 20
-50.342099
 30
0.0
  0
VERTEX
  8
CONTOUR
  5
33D
 10
-945.979032
 20
-48.268499
 30
0.0
  0
VERTEX
  8
CONTOUR
  5
33E
 10
-945.215832
 20
-46.416899
 30
0.0
  0
VERTEX
  8
CONTOUR
  5
33F
 10
-944.435832
 20
-44.796899
 30
0.0
  0
VERTEX
  8
CONTOUR
  5
340
 10
-943.625832
 20
-43.413299
 30
0.0
  0
VERTEX
  8
CONTOUR
  5
341
 10
-942.785832
 20
-42.274499
 30
0.0
  0
VERTEX
  8
CONTOUR
  5
342
 10
-941.935032
 20
-41.382899
 30
0.0
  0
VERTEX
  8
CONTOUR
  5
343
 10
-941.108232
 20
-40.743299
 30
0.0
  0
VERTEX
  8
CONTOUR
  5
344
 10
-940.342632
 20
-40.358099
 30
0.0
  0
VERTEX
  8
CONTOUR
  5
345
 10
-939.603432
 20
-40.229699
 30
0.0
  0
SEQEND
  8
CONTOUR
  5
346
  0
LINE
  8
CONTOUR
  5
355
 10
-215.0
 20
0.0
 30
0.0
 11
-215.0
 21
50.0
 31
0.0
  0
LINE
  8
CONTOUR
  5
356
 10
-215.0
 20
50.0
 30
0.0
 11
-245.0
 21
50.0
 31
0.0
  0
LINE
  8
CONTOUR
  5
357
 10
-245.0
 20
50.0
 30
0.0
 11
-245.0
 21
0.0
 31
0.0
  0
LINE
  8
CONTOUR
  5
358
 10
-230.0
 20
65.0
 30
0.0
 11
-155.0
 21
65.0
 31
0.0
  0
LINE
  8
CONTOUR
  5
359
 10
-230.0
 20
65.0
 30
0.0
 11
-305.0
 21
65.0
 31
0.0
  0
LINE
  8
CONTOUR
  5
35A
 10
-230.0
 20
50.0
 30
0.0
 11
-230.0
 21
70.0
 31
0.0
  0
LINE
  8
CONTOUR
  5
35B
 10
-440.0
 20
65.0
 30
0.0
 11
-515.0
 21
65.0
 31
0.0
  0
LINE
  8
CONTOUR
  5
35C
 10
-440.0
 20
65.0
 30
0.0
 11
-365.0
 21
65.0
 31
0.0
  0
LINE
  8
CONTOUR
  5
35D
 10
-455.0
 20
50.0
 30
0.0
 11
-455.0
 21
-11.714286
 31
0.0
  0
LINE
  8
CONTOUR
  5
35E
 10
-425.0
 20
-10.0
 30
0.0
 11
-425.0
 21
50.0
 31
0.0
  0
LINE
  8
CONTOUR
  5
35F
 10
-425.0
 20
50.0
 30
0.0
 11
-455.0
 21
50.0
 31
0.0
  0
LINE
  8
CONTOUR
  5
360
 10
-440.0
 20
50.0
 30
0.0
 11
-440.0
 21
70.0
 31
0.0
  0
LINE
  8
CONTOUR
  5
361
 10
230.0
 20
65.0
 30
0.0
 11
305.0
 21
65.0
 31
0.0
  0
LINE
  8
CONTOUR
  5
362
 10
440.0
 20
65.0
 30
0.0
 11
365.0
 21
65.0
 31
0.0
  0
LINE
  8
CONTOUR
  5
363
 10
440.0
 20
65.0
 30
0.0
 11
515.0
 21
65.0
 31
0.0
  0
LINE
  8
CONTOUR
  5
364
 10
425.0
 20
-10.0
 30
0.0
 11
425.0
 21
50.0
 31
0.0
  0
LINE
  8
CONTOUR
  5
365
 10
455.0
 20
50.0
 30
0.0
 11
455.0
 21
-11.714286
 31
0.0
  0
LINE
  8
CONTOUR
  5
366
 10
425.0
 20
50.0
 30
0.0
 11
455.0
 21
50.0
 31
0.0
  0
LINE
  8
CONTOUR
  5
367
 10
440.0
 20
50.0
 30
0.0
 11
440.0
 21
70.0
 31
0.0
  0
LINE
  8
CONTOUR
  5
368
 10
230.0
 20
65.0
 30
0.0
 11
155.0
 21
65.0
 31
0.0
  0
LINE
  8
CONTOUR
  5
369
 10
245.0
 20
50.0
 30
0.0
 11
245.0
 21
0.0
 31
0.0
  0
LINE
  8
CONTOUR
  5
36A
 10
215.0
 20
0.0
 30
0.0
 11
215.0
 21
50.0
 31
0.0
  0
LINE
  8
CONTOUR
  5
36B
 10
215.0
 20
50.0
 30
0.0
 11
245.0
 21
50.0
 31
0.0
  0
LINE
  8
CONTOUR
  5
36C
 10
230.0
 20
50.0
 30
0.0
 11
230.0
 21
70.0
 31
0.0
  0
LINE
  8
CONTOUR
  5
370
 10
590.0
 20
-196.0
 30
0.0
 11
590.0
 21
-146.0
 31
0.0
  0
LINE
  8
CONTOUR
  5
371
 10
890.0
 20
-166.0
 30
0.0
 11
890.0
 21
-131.0
 31
0.0
  0
LINE
  8
CONTOUR
  5
372
 10
890.0
 20
-131.0
 30
0.0
 11
590.0
 21
-146.0
 31
0.0
  0
ARC
  8
CONTOUR
  5
377
 10
0.0
 20
350.0
 30
0.0
 40
80.03345
 50
0.0
 51
180.0
  0
POLYLINE
  8
TEXT
  5
386
 66
     1
 10
0.0
 20
0.0
 30
0.0
  0
VERTEX
  8
TEXT
  5
387
 10
-949.680419
 20
266.24861
 30
0.0
  0
VERTEX
  8
TEXT
  5
388
 10
-949.680419
 20
272.915277
 30
0.0
  0
VERTEX
  8
TEXT
  5
389
 10
-943.013752
 20
286.24861
 30
0.0
  0
VERTEX
  8
TEXT
  5
38A
 10
-936.347086
 20
272.915277
 30
0.0
  0
VERTEX
  8
TEXT
  5
38B
 10
-936.347086
 20
266.24861
 30
0.0
  0
SEQEND
  8
TEXT
  5
38C
  0
POLYLINE
  8
TEXT
  5
38D
 66
     1
 10
0.0
 20
0.0
 30
0.0
  0
VERTEX
  8
TEXT
  5
38E
 10
-949.680419
 20
272.915277
 30
0.0
  0
VERTEX
  8
TEXT
  5
38F
 10
-936.347086
 20
272.915277
 30
0.0
  0
SEQEND
  8
TEXT
  5
390
  0
POLYLINE
  8
TEXT
  5
393
 66
     1
 10
0.0
 20
0.0
 30
0.0
  0
VERTEX
  8
TEXT
  5
394
 10
-929.680419
 20
266.24861
 30
0.0
  0
VERTEX
  8
TEXT
  5
395
 10
-929.680419
 20
279.581943
 30
0.0
  0
SEQEND
  8
TEXT
  5
396
  0
POLYLINE
  8
TEXT
  5
397
 66
     1
 10
0.0
 20
0.0
 30
0.0
  0
VERTEX
  8
TEXT
  5
398
 10
-929.680419
 20
272.915277
 30
0.0
  0
VERTEX
  8
TEXT
  5
399
 10
-923.013752
 20
279.581943
 30
0.0
  0
VERTEX
  8
TEXT
  5
39A
 10
-919.680419
 20
279.581943
 30
0.0
  0
VERTEX
  8
TEXT
  5
39B
 10
-916.347086
 20
276.24861
 30
0.0
  0
VERTEX
  8
TEXT
  5
39C
 10
-916.347086
 20
266.24861
 30
0.0
  0
SEQEND
  8
TEXT
  5
39D
  0
POLYLINE
  8
TEXT
  5
3A0
 66
     1
 10
0.0
 20
0.0
 30
0.0
  0
VERTEX
  8
TEXT
  5
3A1
 10
-909.680419
 20
279.581943
 30
0.0
  0
VERTEX
  8
TEXT
  5
3A2
 10
-896.347086
 20
279.581943
 30
0.0
  0
SEQEND
  8
TEXT
  5
3A3
  0
POLYLINE
  8
TEXT
  5
3A4
 66
     1
 10
0.0
 20
0.0
 30
0.0
  0
VERTEX
  8
TEXT
  5
3A5
 10
-903.013752
 20
286.24861
 30
0.0
  0
VERTEX
  8
TEXT
  5
3A6
 10
-903.013752
 20
269.581943
 30
0.0
  0
VERTEX
  8
TEXT
  5
3A7
 10
-899.680419
 20
266.24861
 30
0.0
  0
VERTEX
  8
TEXT
  5
3A8
 10
-896.347086
 20
269.581943
 30
0.0
  0
SEQEND
  8
TEXT
  5
3A9
  0
POLYLINE
  8
TEXT
  5
3AC
 66
     1
 10
0.0
 20
0.0
 30
0.0
  0
VERTEX
  8
TEXT
  5
3AD
 10
-889.680419
 20
266.24861
 30
0.0
  0
VERTEX
  8
TEXT
  5
3AE
 10
-889.680419
 20
279.581943
 30
0.0
  0
SEQEND
  8
TEXT
  5
3AF
  0
POLYLINE
  8
TEXT
  5
3B0
 66
     1
 10
0.0
 20
0.0
 30
0.0
  0
VERTEX
  8
TEXT
  5
3B1
 10
-889.680419
 20
272.915277
 30
0.0
  0
VERTEX
  8
TEXT
  5
3B2
 10
-883.013752
 20
279.581943
 30
0.0
  0
VERTEX
  8
TEXT
  5
3B3
 10
-879.680419
 20
279.581943
 30
0.0
  0
VERTEX
  8
TEXT
  5
3B4
 10
-876.347086
 20
276.24861
 30
0.0
  0
SEQEND
  8
TEXT
  5
3B5
  0
POLYLINE
  8
TEXT
  5
3B8
 66
     1
 10
0.0
 20
0.0
 30
0.0
  0
VERTEX
  8
TEXT
  5
3B9
 10
-869.680419
 20
266.24861
 30
0.0
  0
VERTEX
  8
TEXT
  5
3BA
 10
-869.680419
 20
279.581943
 30
0.0
  0
SEQEND
  8
TEXT
  5
3BB
  0
POLYLINE
  8
TEXT
  5
3BC
 66
     1
 10
0.0
 20
0.0
 30
0.0
  0
VERTEX
  8
TEXT
  5
3BD
 10
-869.680419
 20
282.915277
 30
0.0
  0
VERTEX
  8
TEXT
  5
3BE
 10
-869.680419
 20
286.24861
 30
0.0
  0
SEQEND
  8
TEXT
  5
3BF
  0
POLYLINE
  8
TEXT
  5
3C2
 66
     1
 10
0.0
 20
0.0
 30
0.0
  0
VERTEX
  8
TEXT
  5
3C3
 10
-863.013752
 20
272.915277
 30
0.0
  0
VERTEX
  8
TEXT
  5
3C4
 10
-853.013752
 20
272.915277
 30
0.0
  0
VERTEX
  8
TEXT
  5
3C5
 10
-849.680419
 20
276.24861
 30
0.0
  0
VERTEX
  8
TEXT
  5
3C6
 10
-853.013752
 20
279.581943
 30
0.0
  0
VERTEX
  8
TEXT
  5
3C7
 10
-859.680419
 20
279.581943
 30
0.0
  0
VERTEX
  8
TEXT
  5
3C8
 10
-863.013752
 20
276.24861
 30
0.0
  0
VERTEX
  8
TEXT
  5
3C9
 10
-863.013752
 20
269.581943
 30
0.0
  0
VERTEX
  8
TEXT
  5
3CA
 10
-859.680419
 20
266.24861
 30
0.0
  0
VERTEX
  8
TEXT
  5
3CB
 10
-853.013752
 20
266.24861
 30
0.0
  0
SEQEND
  8
TEXT
  5
3CC
  0
POLYLINE
  8
TEXT
  5
3CF
 66
     1
 10
0.0
 20
0.0
 30
0.0
  0
VERTEX
  8
TEXT
  5
3D0
 10
-843.013752
 20
266.24861
 30
0.0
  0
VERTEX
  8
TEXT
  5
3D1
 10
-843.013752
 20
286.24861
 30
0.0
  0
SEQEND
  8
TEXT
  5
3D2
  0
POLYLINE
  8
TEXT
  5
3D3
 66
     1
 10
0.0
 20
0.0
 30
0.0
  0
VERTEX
  8
TEXT
  5
3D4
 10
-843.013752
 20
272.915277
 30
0.0
  0
VERTEX
  8
TEXT
  5
3D5
 10
-836.347086
 20
279.581943
 30
0.0
  0
VERTEX
  8
TEXT
  5
3D6
 10
-833.013752
 20
279.581943
 30
0.0
  0
VERTEX
  8
TEXT
  5
3D7
 10
-829.680419
 20
276.24861
 30
0.0
  0
VERTEX
  8
TEXT
  5
3D8
 10
-829.680419
 20
269.581943
 30
0.0
  0
VERTEX
  8
TEXT
  5
3D9
 10
-833.013752
 20
266.24861
 30
0.0
  0
VERTEX
  8
TEXT
  5
3DA
 10
-836.347086
 20
266.24861
 30
0.0
  0
VERTEX
  8
TEXT
  5
3DB
 10
-843.013752
 20
272.915277
 30
0.0
  0
SEQEND
  8
TEXT
  5
3DC
  0
POLYLINE
  8
TEXT
  5
3DF
 66
     1
 10
0.0
 20
0.0
 30
0.0
  0
VERTEX
  8
TEXT
  5
3E0
 10
-823.013752
 20
279.581943
 30
0.0
  0
VERTEX
  8
TEXT
  5
3E1
 10
-823.013752
 20
276.24861
 30
0.0
  0
SEQEND
  8
TEXT
  5
3E2
  0
POLYLINE
  8
TEXT
  5
3E3
 66
     1
 10
0.0
 20
0.0
 30
0.0
  0
VERTEX
  8
TEXT
  5
3E4
 10
-823.013752
 20
272.915277
 30
0.0
  0
VERTEX
  8
TEXT
  5
3E5
 10
-823.013752
 20
269.581943
 30
0.0
  0
SEQEND
  8
TEXT
  5
3E6
  0
POLYLINE
  8
TEXT
  5
3EB
 66
     1
 10
0.0
 20
0.0
 30
0.0
  0
VERTEX
  8
TEXT
  5
3EC
 10
-783.013752
 20
272.915277
 30
0.0
  0
VERTEX
  8
TEXT
  5
3ED
 10
-796.347086
 20
272.915277
 30
0.0
  0
VERTEX
  8
TEXT
  5
3EE
 10
-786.347086
 20
286.24861
 30
0.0
  0
VERTEX
  8
TEXT
  5
3EF
 10
-786.347086
 20
266.24861
 30
0.0
  0
SEQEND
  8
TEXT
  5
3F0
  0
POLYLINE
  8
TEXT
  5
3F5
 66
     1
 10
0.0
 20
0.0
 30
0.0
  0
VERTEX
  8
TEXT
  5
3F6
 10
-756.347086
 20
266.24861
 30
0.0
  0
VERTEX
  8
TEXT
  5
3F7
 10
-743.013752
 20
279.581943
 30
0.0
  0
SEQEND
  8
TEXT
  5
3F8
  0
POLYLINE
  8
TEXT
  5
3F9
 66
     1
 10
0.0
 20
0.0
 30
0.0
  0
VERTEX
  8
TEXT
  5
3FA
 10
-756.347086
 20
279.581943
 30
0.0
  0
VERTEX
  8
TEXT
  5
3FB
 10
-743.013752
 20
266.24861
 30
0.0
  0
SEQEND
  8
TEXT
  5
3FC
  0
POLYLINE
  8
TEXT
  5
401
 66
     1
 10
0.0
 20
0.0
 30
0.0
  0
VERTEX
  8
TEXT
  5
402
 10
-716.347086
 20
269.581943
 30
0.0
  0
VERTEX
  8
TEXT
  5
403
 10
-713.013752
 20
266.24861
 30
0.0
  0
VERTEX
  8
TEXT
  5
404
 10
-706.347086
 20
266.24861
 30
0.0
  0
VERTEX
  8
TEXT
  5
405
 10
-703.013752
 20
269.581943
 30
0.0
  0
VERTEX
  8
TEXT
  5
406
 10
-716.347086
 20
282.915277
 30
0.0
  0
VERTEX
  8
TEXT
  5
407
 10
-713.013752
 20
286.24861
 30
0.0
  0
VERTEX
  8
TEXT
  5
408
 10
-706.347086
 20
286.24861
 30
0.0
  0
VERTEX
  8
TEXT
  5
409
 10
-703.013752
 20
282.915277
 30
0.0
  0
SEQEND
  8
TEXT
  5
40A
  0
POLYLINE
  8
TEXT
  5
40D
 66
     1
 10
0.0
 20
0.0
 30
0.0
  0
VERTEX
  8
TEXT
  5
40E
 10
-696.347086
 20
259.581943
 30
0.0
  0
VERTEX
  8
TEXT
  5
40F
 10
-696.347086
 20
279.581943
 30
0.0
  0
SEQEND
  8
TEXT
  5
410
  0
POLYLINE
  8
TEXT
  5
411
 66
     1
 10
0.0
 20
0.0
 30
0.0
  0
VERTEX
  8
TEXT
  5
412
 10
-696.347086
 20
276.24861
 30
0.0
  0
VERTEX
  8
TEXT
  5
413
 10
-693.013752
 20
279.581943
 30
0.0
  0
VERTEX
  8
TEXT
  5
414
 10
-686.347086
 20
279.581943
 30
0.0
  0
VERTEX
  8
TEXT
  5
415
 10
-683.013752
 20
276.24861
 30
0.0
  0
VERTEX
  8
TEXT
  5
416
 10
-683.013752
 20
269.581943
 30
0.0
  0
VERTEX
  8
TEXT
  5
417
 10
-686.347086
 20
266.24861
 30
0.0
  0
VERTEX
  8
TEXT
  5
418
 10
-696.347086
 20
266.24861
 30
0.0
  0
SEQEND
  8
TEXT
  5
419
  0
POLYLINE
  8
TEXT
  5
41C
 66
     1
 10
0.0
 20
0.0
 30
0.0
  0
VERTEX
  8
TEXT
  5
41D
 10
-676.347086
 20
272.915277
 30
0.0
  0
VERTEX
  8
TEXT
  5
41E
 10
-666.347086
 20
272.915277
 30
0.0
  0
VERTEX
  8
TEXT
  5
41F
 10
-663.013752
 20
276.24861
 30
0.0
  0
VERTEX
  8
TEXT
  5
420
 10
-666.347086
 20
279.581943
 30
0.0
  0
VERTEX
  8
TEXT
  5
421
 10
-673.013752
 20
279.581943
 30
0.0
  0
VERTEX
  8
TEXT
  5
422
 10
-676.347086
 20
276.24861
 30
0.0
  0
VERTEX
  8
TEXT
  5
423
 10
-676.347086
 20
269.581943
 30
0.0
  0
VERTEX
  8
TEXT
  5
424
 10
-673.013752
 20
266.24861
 30
0.0
  0
VERTEX
  8
TEXT
  5
425
 10
-666.347086
 20
266.24861
 30
0.0
  0
SEQEND
  8
TEXT
  5
426
  0
POLYLINE
  8
TEXT
  5
429
 66
     1
 10
0.0
 20
0.0
 30
0.0
  0
VERTEX
  8
TEXT
  5
42A
 10
-656.347086
 20
272.915277
 30
0.0
  0
VERTEX
  8
TEXT
  5
42B
 10
-646.347086
 20
272.915277
 30
0.0
  0
VERTEX
  8
TEXT
  5
42C
 10
-643.013752
 20
276.24861
 30
0.0
  0
VERTEX
  8
TEXT
  5
42D
 10
-646.347086
 20
279.581943
 30
0.0
  0
VERTEX
  8
TEXT
  5
42E
 10
-653.013752
 20
279.581943
 30
0.0
  0
VERTEX
  8
TEXT
  5
42F
 10
-656.347086
 20
276.24861
 30
0.0
  0
VERTEX
  8
TEXT
  5
430
 10
-656.347086
 20
269.581943
 30
0.0
  0
VERTEX
  8
TEXT
  5
431
 10
-653.013752
 20
266.24861
 30
0.0
  0
VERTEX
  8
TEXT
  5
432
 10
-646.347086
 20
266.24861
 30
0.0
  0
SEQEND
  8
TEXT
  5
433
  0
POLYLINE
  8
TEXT
  5
436
 66
     1
 10
0.0
 20
0.0
 30
0.0
  0
VERTEX
  8
TEXT
  5
437
 10
-623.013752
 20
272.915277
 30
0.0
  0
VERTEX
  8
TEXT
  5
438
 10
-629.680419
 20
266.24861
 30
0.0
  0
VERTEX
  8
TEXT
  5
439
 10
-633.013752
 20
266.24861
 30
0.0
  0
VERTEX
  8
TEXT
  5
43A
 10
-636.347086
 20
269.581943
 30
0.0
  0
VERTEX
  8
TEXT
  5
43B
 10
-636.347086
 20
276.24861
 30
0.0
  0
VERTEX
  8
TEXT
  5
43C
 10
-633.013752
 20
279.581943
 30
0.0
  0
VERTEX
  8
TEXT
  5
43D
 10
-629.680419
 20
279.581943
 30
0.0
  0
VERTEX
  8
TEXT
  5
43E
 10
-623.013752
 20
272.915277
 30
0.0
  0
SEQEND
  8
TEXT
  5
43F
  0
POLYLINE
  8
TEXT
  5
440
 66
     1
 10
0.0
 20
0.0
 30
0.0
  0
VERTEX
  8
TEXT
  5
441
 10
-623.013752
 20
286.24861
 30
0.0
  0
VERTEX
  8
TEXT
  5
442
 10
-623.013752
 20
266.24861
 30
0.0
  0
SEQEND
  8
TEXT
  5
443
  0
POLYLINE
  8
TEXT
  5
448
 66
     1
 10
0.0
 20
0.0
 30
0.0
  0
VERTEX
  8
TEXT
  5
449
 10
-583.013752
 20
272.915277
 30
0.0
  0
VERTEX
  8
TEXT
  5
44A
 10
-596.347086
 20
272.915277
 30
0.0
  0
VERTEX
  8
TEXT
  5
44B
 10
-586.347086
 20
286.24861
 30
0.0
  0
VERTEX
  8
TEXT
  5
44C
 10
-586.347086
 20
266.24861
 30
0.0
  0
SEQEND
  8
TEXT
  5
44D
  0
POLYLINE
  8
TEXT
  5
450
 66
     1
 10
0.0
 20
0.0
 30
0.0
  0
VERTEX
  8
TEXT
  5
451
 10
-573.013752
 20
266.24861
 30
0.0
  0
VERTEX
  8
TEXT
  5
452
 10
-576.347086
 20
269.581943
 30
0.0
  0
VERTEX
  8
TEXT
  5
453
 10
-576.347086
 20
282.915277
 30
0.0
  0
VERTEX
  8
TEXT
  5
454
 10
-573.013752
 20
286.24861
 30
0.0
  0
VERTEX
  8
TEXT
  5
455
 10
-569.680419
 20
286.24861
 30
0.0
  0
VERTEX
  8
TEXT
  5
456
 10
-566.347086
 20
282.915277
 30
0.0
  0
VERTEX
  8
TEXT
  5
457
 10
-566.347086
 20
269.581943
 30
0.0
  0
VERTEX
  8
TEXT
  5
458
 10
-569.680419
 20
266.24861
 30
0.0
  0
VERTEX
  8
TEXT
  5
459
 10
-573.013752
 20
266.24861
 30
0.0
  0
SEQEND
  8
TEXT
  5
45A
  0
POLYLINE
  8
TEXT
  5
45D
 66
     1
 10
0.0
 20
0.0
 30
0.0
  0
VERTEX
  8
TEXT
  5
45E
 10
-556.347086
 20
266.24861
 30
0.0
  0
VERTEX
  8
TEXT
  5
45F
 10
-559.680419
 20
269.581943
 30
0.0
  0
VERTEX
  8
TEXT
  5
460
 10
-559.680419
 20
282.915277
 30
0.0
  0
VERTEX
  8
TEXT
  5
461
 10
-556.347086
 20
286.24861
 30
0.0
  0
VERTEX
  8
TEXT
  5
462
 10
-553.013752
 20
286.24861
 30
0.0
  0
VERTEX
  8
TEXT
  5
463
 10
-549.680419
 20
282.915277
 30
0.0
  0
VERTEX
  8
TEXT
  5
464
 10
-549.680419
 20
269.581943
 30
0.0
  0
VERTEX
  8
TEXT
  5
465
 10
-553.013752
 20
266.24861
 30
0.0
  0
VERTEX
  8
TEXT
  5
466
 10
-556.347086
 20
266.24861
 30
0.0
  0
SEQEND
  8
TEXT
  5
467
  0
POLYLINE
  8
TEXT
  5
46A
 66
     1
 10
0.0
 20
0.0
 30
0.0
  0
VERTEX
  8
TEXT
  5
46B
 10
-539.680419
 20
269.581943
 30
0.0
  0
VERTEX
  8
TEXT
  5
46C
 10
-539.680419
 20
266.24861
 30
0.0
  0
VERTEX
  8
TEXT
  5
46D
 10
-543.013752
 20
262.915277
 30
0.0
  0
SEQEND
  8
TEXT
  5
46E
  0
POLYLINE
  8
TEXT
  5
473
 66
     1
 10
0.0
 20
0.0
 30
0.0
  0
VERTEX
  8
TEXT
  5
474
 10
-513.013752
 20
276.24861
 30
0.0
  0
VERTEX
  8
TEXT
  5
475
 10
-503.013752
 20
276.24861
 30
0.0
  0
VERTEX
  8
TEXT
  5
476
 10
-499.680419
 20
272.915277
 30
0.0
  0
VERTEX
  8
TEXT
  5
477
 10
-499.680419
 20
269.581943
 30
0.0
  0
VERTEX
  8
TEXT
  5
478
 10
-503.013752
 20
266.24861
 30
0.0
  0
VERTEX
  8
TEXT
  5
479
 10
-509.680419
 20
266.24861
 30
0.0
  0
VERTEX
  8
TEXT
  5
47A
 10
-513.013752
 20
269.581943
 30
0.0
  0
VERTEX
  8
TEXT
  5
47B
 10
-513.013752
 20
279.581943
 30
0.0
  0
VERTEX
  8
TEXT
  5
47C
 10
-506.347086
 20
286.24861
 30
0.0
  0
VERTEX
  8
TEXT
  5
47D
 10
-503.013752
 20
286.24861
 30
0.0
  0
SEQEND
  8
TEXT
  5
47E
  0
POLYLINE
  8
TEXT
  5
481
 66
     1
 10
0.0
 20
0.0
 30
0.0
  0
VERTEX
  8
TEXT
  5
482
 10
-493.013752
 20
266.24861
 30
0.0
  0
VERTEX
  8
TEXT
  5
483
 10
-479.680419
 20
279.581943
 30
0.0
  0
SEQEND
  8
TEXT
  5
484
  0
POLYLINE
  8
TEXT
  5
485
 66
     1
 10
0.0
 20
0.0
 30
0.0
  0
VERTEX
  8
TEXT
  5
486
 10
-493.013752
 20
279.581943
 30
0.0
  0
VERTEX
  8
TEXT
  5
487
 10
-479.680419
 20
266.24861
 30
0.0
  0
SEQEND
  8
TEXT
  5
488
  0
POLYLINE
  8
TEXT
  5
48B
 66
     1
 10
0.0
 20
0.0
 30
0.0
  0
VERTEX
  8
TEXT
  5
48C
 10
-473.013752
 20
282.915277
 30
0.0
  0
VERTEX
  8
TEXT
  5
48D
 10
-469.680419
 20
286.24861
 30
0.0
  0
VERTEX
  8
TEXT
  5
48E
 10
-463.013752
 20
286.24861
 30
0.0
  0
VERTEX
  8
TEXT
  5
48F
 10
-459.680419
 20
282.915277
 30
0.0
  0
VERTEX
  8
TEXT
  5
490
 10
-459.680419
 20
279.581943
 30
0.0
  0
VERTEX
  8
TEXT
  5
491
 10
-463.013752
 20
276.24861
 30
0.0
  0
VERTEX
  8
TEXT
  5
492
 10
-466.347086
 20
276.24861
 30
0.0
  0
SEQEND
  8
TEXT
  5
493
  0
POLYLINE
  8
TEXT
  5
494
 66
     1
 10
0.0
 20
0.0
 30
0.0
  0
VERTEX
  8
TEXT
  5
495
 10
-463.013752
 20
276.24861
 30
0.0
  0
VERTEX
  8
TEXT
  5
496
 10
-459.680419
 20
272.915277
 30
0.0
  0
VERTEX
  8
TEXT
  5
497
 10
-459.680419
 20
269.581943
 30
0.0
  0
VERTEX
  8
TEXT
  5
498
 10
-463.013752
 20
266.24861
 30
0.0
  0
VERTEX
  8
TEXT
  5
499
 10
-469.680419
 20
266.24861
 30
0.0
  0
VERTEX
  8
TEXT
  5
49A
 10
-473.013752
 20
269.581943
 30
0.0
  0
SEQEND
  8
TEXT
  5
49B
  0
POLYLINE
  8
TEXT
  5
49E
 66
     1
 10
0.0
 20
0.0
 30
0.0
  0
VERTEX
  8
TEXT
  5
49F
 10
-449.680419
 20
269.581943
 30
0.0
  0
VERTEX
  8
TEXT
  5
4A0
 10
-449.680419
 20
266.24861
 30
0.0
  0
VERTEX
  8
TEXT
  5
4A1
 10
-453.013752
 20
262.915277
 30
0.0
  0
SEQEND
  8
TEXT
  5
4A2
  0
POLYLINE
  8
TEXT
  5
4A7
 66
     1
 10
0.0
 20
0.0
 30
0.0
  0
VERTEX
  8
TEXT
  5
4A8
 10
-423.013752
 20
282.915277
 30
0.0
  0
VERTEX
  8
TEXT
  5
4A9
 10
-419.680419
 20
286.24861
 30
0.0
  0
VERTEX
  8
TEXT
  5
4AA
 10
-419.680419
 20
266.24861
 30
0.0
  0
SEQEND
  8
TEXT
  5
4AB
  0
POLYLINE
  8
TEXT
  5
4AC
 66
     1
 10
0.0
 20
0.0
 30
0.0
  0
VERTEX
  8
TEXT
  5
4AD
 10
-423.013752
 20
266.24861
 30
0.0
  0
VERTEX
  8
TEXT
  5
4AE
 10
-416.347086
 20
266.24861
 30
0.0
  0
SEQEND
  8
TEXT
  5
4AF
  0
POLYLINE
  8
TEXT
  5
4B2
 66
     1
 10
0.0
 20
0.0
 30
0.0
  0
VERTEX
  8
TEXT
  5
4B3
 10
-406.347086
 20
266.24861
 30
0.0
  0
VERTEX
  8
TEXT
  5
4B4
 10
-409.680419
 20
269.581943
 30
0.0
  0
VERTEX
  8
TEXT
  5
4B5
 10
-409.680419
 20
282.915277
 30
0.0
  0
VERTEX
  8
TEXT
  5
4B6
 10
-406.347086
 20
286.24861
 30
0.0
  0
VERTEX
  8
TEXT
  5
4B7
 10
-403.013752
 20
286.24861
 30
0.0
  0
VERTEX
  8
TEXT
  5
4B8
 10
-399.680419
 20
282.915277
 30
0.0
  0
VERTEX
  8
TEXT
  5
4B9
 10
-399.680419
 20
269.581943
 30
0.0
  0
VERTEX
  8
TEXT
  5
4BA
 10
-403.013752
 20
266.24861
 30
0.0
  0
VERTEX
  8
TEXT
  5
4BB
 10
-406.347086
 20
266.24861
 30
0.0
  0
SEQEND
  8
TEXT
  5
4BC
  0
POLYLINE
  8
TEXT
  5
4C1
 66
     1
 10
0.0
 20
0.0
 30
0.0
  0
VERTEX
  8
TEXT
  5
4C2
 10
-373.013752
 20
266.24861
 30
0.0
  0
VERTEX
  8
TEXT
  5
4C3
 10
-359.680419
 20
279.581943
 30
0.0
  0
SEQEND
  8
TEXT
  5
4C4
  0
POLYLINE
  8
TEXT
  5
4C5
 66
     1
 10
0.0
 20
0.0
 30
0.0
  0
VERTEX
  8
TEXT
  5
4C6
 10
-373.013752
 20
279.581943
 30
0.0
  0
VERTEX
  8
TEXT
  5
4C7
 10
-359.680419
 20
266.24861
 30
0.0
  0
SEQEND
  8
TEXT
  5
4C8
  0
POLYLINE
  8
TEXT
  5
4CD
 66
     1
 10
0.0
 20
0.0
 30
0.0
  0
VERTEX
  8
TEXT
  5
4CE
 10
-333.013752
 20
282.915277
 30
0.0
  0
VERTEX
  8
TEXT
  5
4CF
 10
-329.680419
 20
286.24861
 30
0.0
  0
VERTEX
  8
TEXT
  5
4D0
 10
-329.680419
 20
266.24861
 30
0.0
  0
SEQEND
  8
TEXT
  5
4D1
  0
POLYLINE
  8
TEXT
  5
4D2
 66
     1
 10
0.0
 20
0.0
 30
0.0
  0
VERTEX
  8
TEXT
  5
4D3
 10
-333.013752
 20
266.24861
 30
0.0
  0
VERTEX
  8
TEXT
  5
4D4
 10
-326.347086
 20
266.24861
 30
0.0
  0
SEQEND
  8
TEXT
  5
4D5
  0
POLYLINE
  8
TEXT
  5
4D8
 66
     1
 10
0.0
 20
0.0
 30
0.0
  0
VERTEX
  8
TEXT
  5
4D9
 10
-319.680419
 20
266.24861
 30
0.0
  0
VERTEX
  8
TEXT
  5
4DA
 10
-319.680419
 20
269.581943
 30
0.0
  0
SEQEND
  8
TEXT
  5
4DB
  0
POLYLINE
  8
TEXT
  5
4DE
 66
     1
 10
0.0
 20
0.0
 30
0.0
  0
VERTEX
  8
TEXT
  5
4DF
 10
-313.013752
 20
286.24861
 30
0.0
  0
VERTEX
  8
TEXT
  5
4E0
 10
-299.680419
 20
286.24861
 30
0.0
  0
VERTEX
  8
TEXT
  5
4E1
 10
-309.680419
 20
266.24861
 30
0.0
  0
SEQEND
  8
TEXT
  5
4E2
  0
POLYLINE
  8
TEXT
  5
4E7
 66
     1
 10
0.0
 20
0.0
 30
0.0
  0
VERTEX
  8
TEXT
  5
4E8
 10
-273.013752
 20
266.24861
 30
0.0
  0
VERTEX
  8
TEXT
  5
4E9
 10
-273.013752
 20
272.915277
 30
0.0
  0
VERTEX
  8
TEXT
  5
4EA
 10
-266.347086
 20
286.24861
 30
0.0
  0
VERTEX
  8
TEXT
  5
4EB
 10
-259.680419
 20
272.915277
 30
0.0
  0
VERTEX
  8
TEXT
  5
4EC
 10
-259.680419
 20
266.24861
 30
0.0
  0
SEQEND
  8
TEXT
  5
4ED
  0
POLYLINE
  8
TEXT
  5
4EE
 66
     1
 10
0.0
 20
0.0
 30
0.0
  0
VERTEX
  8
TEXT
  5
4EF
 10
-273.013752
 20
272.915277
 30
0.0
  0
VERTEX
  8
TEXT
  5
4F0
 10
-259.680419
 20
272.915277
 30
0.0
  0
SEQEND
  8
TEXT
  5
4F1
  0
POLYLINE
  8
TEXT
  5
4F4
 66
     1
 10
0.0
 20
0.0
 30
0.0
  0
VERTEX
  8
TEXT
  5
4F5
 10
-253.013752
 20
266.24861
 30
0.0
  0
VERTEX
  8
TEXT
  5
4F6
 10
-253.013752
 20
286.24861
 30
0.0
  0
SEQEND
  8
TEXT
  5
4F7
  0
POLYLINE
  8
TEXT
  5
4F8
 66
     1
 10
0.0
 20
0.0
 30
0.0
  0
VERTEX
  8
TEXT
  5
4F9
 10
-253.013752
 20
272.915277
 30
0.0
  0
VERTEX
  8
TEXT
  5
4FA
 10
-246.347086
 20
279.581943
 30
0.0
  0
VERTEX
  8
TEXT
  5
4FB
 10
-243.013752
 20
279.581943
 30
0.0
  0
VERTEX
  8
TEXT
  5
4FC
 10
-239.680419
 20
276.24861
 30
0.0
  0
VERTEX
  8
TEXT
  5
4FD
 10
-239.680419
 20
266.24861
 30
0.0
  0
SEQEND
  8
TEXT
  5
4FE
  0
POLYLINE
  8
TEXT
  5
501
 66
     1
 10
0.0
 20
0.0
 30
0.0
  0
VERTEX
  8
TEXT
  5
502
 10
-939.680419
 20
337.253256
 30
0.0
  0
VERTEX
  8
TEXT
  5
503
 10
-936.347086
 20
337.253256
 30
0.0
  0
VERTEX
  8
TEXT
  5
504
 10
-936.347086
 20
327.253256
 30
0.0
  0
VERTEX
  8
TEXT
  5
505
 10
-946.347086
 20
327.253256
 30
0.0
  0
VERTEX
  8
TEXT
  5
506
 10
-949.680419
 20
330.58659
 30
0.0
  0
VERTEX
  8
TEXT
  5
507
 10
-949.680419
 20
343.919923
 30
0.0
  0
VERTEX
  8
TEXT
  5
508
 10
-946.347086
 20
347.253256
 30
0.0
  0
VERTEX
  8
TEXT
  5
509
 10
-936.347086
 20
347.253256
 30
0.0
  0
SEQEND
  8
TEXT
  5
50A
  0
POLYLINE
  8
TEXT
  5
50D
 66
     1
 10
0.0
 20
0.0
 30
0.0
  0
VERTEX
  8
TEXT
  5
50E
 10
-929.680419
 20
333.919923
 30
0.0
  0
VERTEX
  8
TEXT
  5
50F
 10
-919.680419
 20
333.919923
 30
0.0
  0
VERTEX
  8
TEXT
  5
510
 10
-916.347086
 20
337.253256
 30
0.0
  0
VERTEX
  8
TEXT
  5
511
 10
-919.680419
 20
340.58659
 30
0.0
  0
VERTEX
  8
TEXT
  5
512
 10
-926.347086
 20
340.58659
 30
0.0
  0
VERTEX
  8
TEXT
  5
513
 10
-929.680419
 20
337.253256
 30
0.0
  0
VERTEX
  8
TEXT
  5
514
 10
-929.680419
 20
330.58659
 30
0.0
  0
VERTEX
  8
TEXT
  5
515
 10
-926.347086
 20
327.253256
 30
0.0
  0
VERTEX
  8
TEXT
  5
516
 10
-919.680419
 20
327.253256
 30
0.0
  0
SEQEND
  8
TEXT
  5
517
  0
POLYLINE
  8
TEXT
  5
51A
 66
     1
 10
0.0
 20
0.0
 30
0.0
  0
VERTEX
  8
TEXT
  5
51B
 10
-909.680419
 20
327.253256
 30
0.0
  0
VERTEX
  8
TEXT
  5
51C
 10
-899.680419
 20
327.253256
 30
0.0
  0
VERTEX
  8
TEXT
  5
51D
 10
-896.347086
 20
330.58659
 30
0.0
  0
VERTEX
  8
TEXT
  5
51E
 10
-899.680419
 20
333.919923
 30
0.0
  0
VERTEX
  8
TEXT
  5
51F
 10
-906.347086
 20
333.919923
 30
0.0
  0
VERTEX
  8
TEXT
  5
520
 10
-909.680419
 20
337.253256
 30
0.0
  0
VERTEX
  8
TEXT
  5
521
 10
-906.347086
 20
340.58659
 30
0.0
  0
VERTEX
  8
TEXT
  5
522
 10
-896.347086
 20
340.58659
 30
0.0
  0
SEQEND
  8
TEXT
  5
523
  0
POLYLINE
  8
TEXT
  5
526
 66
     1
 10
0.0
 20
0.0
 30
0.0
  0
VERTEX
  8
TEXT
  5
527
 10
-883.013752
 20
327.253256
 30
0.0
  0
VERTEX
  8
TEXT
  5
528
 10
-886.347086
 20
327.253256
 30
0.0
  0
VERTEX
  8
TEXT
  5
529
 10
-889.680419
 20
330.58659
 30
0.0
  0
VERTEX
  8
TEXT
  5
52A
 10
-889.680419
 20
337.253256
 30
0.0
  0
VERTEX
  8
TEXT
  5
52B
 10
-886.347086
 20
340.58659
 30
0.0
  0
VERTEX
  8
TEXT
  5
52C
 10
-883.013752
 20
340.58659
 30
0.0
  0
VERTEX
  8
TEXT
  5
52D
 10
-879.680419
 20
337.253256
 30
0.0
  0
VERTEX
  8
TEXT
  5
52E
 10
-879.680419
 20
330.58659
 30
0.0
  0
VERTEX
  8
TEXT
  5
52F
 10
-883.013752
 20
327.253256
 30
0.0
  0
SEQEND
  8
TEXT
  5
530
  0
POLYLINE
  8
TEXT
  5
531
 66
     1
 10
0.0
 20
0.0
 30
0.0
  0
VERTEX
  8
TEXT
  5
532
 10
-879.680419
 20
330.58659
 30
0.0
  0
VERTEX
  8
TEXT
  5
533
 10
-876.347086
 20
327.253256
 30
0.0
  0
SEQEND
  8
TEXT
  5
534
  0
POLYLINE
  8
TEXT
  5
537
 66
     1
 10
0.0
 20
0.0
 30
0.0
  0
VERTEX
  8
TEXT
  5
538
 10
-869.680419
 20
327.253256
 30
0.0
  0
VERTEX
  8
TEXT
  5
539
 10
-869.680419
 20
340.58659
 30
0.0
  0
SEQEND
  8
TEXT
  5
53A
  0
POLYLINE
  8
TEXT
  5
53B
 66
     1
 10
0.0
 20
0.0
 30
0.0
  0
VERTEX
  8
TEXT
  5
53C
 10
-869.680419
 20
337.253256
 30
0.0
  0
VERTEX
  8
TEXT
  5
53D
 10
-866.347086
 20
340.58659
 30
0.0
  0
VERTEX
  8
TEXT
  5
53E
 10
-863.013752
 20
337.253256
 30
0.0
  0
VERTEX
  8
TEXT
  5
53F
 10
-863.013752
 20
333.919923
 30
0.0
  0
SEQEND
  8
TEXT
  5
540
  0
POLYLINE
  8
TEXT
  5
541
 66
     1
 10
0.0
 20
0.0
 30
0.0
  0
VERTEX
  8
TEXT
  5
542
 10
-863.013752
 20
337.253256
 30
0.0
  0
VERTEX
  8
TEXT
  5
543
 10
-859.680419
 20
340.58659
 30
0.0
  0
VERTEX
  8
TEXT
  5
544
 10
-856.347086
 20
337.253256
 30
0.0
  0
VERTEX
  8
TEXT
  5
545
 10
-856.347086
 20
327.253256
 30
0.0
  0
SEQEND
  8
TEXT
  5
546
  0
POLYLINE
  8
TEXT
  5
549
 66
     1
 10
0.0
 20
0.0
 30
0.0
  0
VERTEX
  8
TEXT
  5
54A
 10
-849.680419
 20
340.58659
 30
0.0
  0
VERTEX
  8
TEXT
  5
54B
 10
-836.347086
 20
340.58659
 30
0.0
  0
SEQEND
  8
TEXT
  5
54C
  0
POLYLINE
  8
TEXT
  5
54D
 66
     1
 10
0.0
 20
0.0
 30
0.0
  0
VERTEX
  8
TEXT
  5
54E
 10
-843.013752
 20
347.253256
 30
0.0
  0
VERTEX
  8
TEXT
  5
54F
 10
-843.013752
 20
330.58659
 30
0.0
  0
VERTEX
  8
TEXT
  5
550
 10
-839.680419
 20
327.253256
 30
0.0
  0
VERTEX
  8
TEXT
  5
551
 10
-836.347086
 20
330.58659
 30
0.0
  0
SEQEND
  8
TEXT
  5
552
  0
POLYLINE
  8
TEXT
  5
555
 66
     1
 10
0.0
 20
0.0
 30
0.0
  0
VERTEX
  8
TEXT
  5
556
 10
-829.680419
 20
337.253256
 30
0.0
  0
VERTEX
  8
TEXT
  5
557
 10
-819.680419
 20
337.253256
 30
0.0
  0
SEQEND
  8
TEXT
  5
558
  0
POLYLINE
  8
TEXT
  5
559
 66
     1
 10
0.0
 20
0.0
 30
0.0
  0
VERTEX
  8
TEXT
  5
55A
 10
-816.347086
 20
343.919923
 30
0.0
  0
VERTEX
  8
TEXT
  5
55B
 10
-819.680419
 20
347.253256
 30
0.0
  0
VERTEX
  8
TEXT
  5
55C
 10
-823.013752
 20
347.253256
 30
0.0
  0
VERTEX
  8
TEXT
  5
55D
 10
-826.347086
 20
343.919923
 30
0.0
  0
VERTEX
  8
TEXT
  5
55E
 10
-826.347086
 20
327.253256
 30
0.0
  0
SEQEND
  8
TEXT
  5
55F
  0
POLYLINE
  8
TEXT
  5
562
 66
     1
 10
0.0
 20
0.0
 30
0.0
  0
VERTEX
  8
TEXT
  5
563
 10
-809.680419
 20
347.253256
 30
0.0
  0
VERTEX
  8
TEXT
  5
564
 10
-809.680419
 20
330.58659
 30
0.0
  0
VERTEX
  8
TEXT
  5
565
 10
-806.347086
 20
327.253256
 30
0.0
  0
SEQEND
  8
TEXT
  5
566
  0
POLYLINE
  8
TEXT
  5
569
 66
     1
 10
0.0
 20
0.0
 30
0.0
  0
VERTEX
  8
TEXT
  5
56A
 10
-793.013752
 20
327.253256
 30
0.0
  0
VERTEX
  8
TEXT
  5
56B
 10
-796.347086
 20
327.253256
 30
0.0
  0
VERTEX
  8
TEXT
  5
56C
 10
-799.680419
 20
330.58659
 30
0.0
  0
VERTEX
  8
TEXT
  5
56D
 10
-799.680419
 20
337.253256
 30
0.0
  0
VERTEX
  8
TEXT
  5
56E
 10
-796.347086
 20
340.58659
 30
0.0
  0
VERTEX
  8
TEXT
  5
56F
 10
-793.013752
 20
340.58659
 30
0.0
  0
VERTEX
  8
TEXT
  5
570
 10
-789.680419
 20
337.253256
 30
0.0
  0
VERTEX
  8
TEXT
  5
571
 10
-789.680419
 20
330.58659
 30
0.0
  0
VERTEX
  8
TEXT
  5
572
 10
-793.013752
 20
327.253256
 30
0.0
  0
SEQEND
  8
TEXT
  5
573
  0
POLYLINE
  8
TEXT
  5
574
 66
     1
 10
0.0
 20
0.0
 30
0.0
  0
VERTEX
  8
TEXT
  5
575
 10
-789.680419
 20
330.58659
 30
0.0
  0
VERTEX
  8
TEXT
  5
576
 10
-786.347086
 20
327.253256
 30
0.0
  0
SEQEND
  8
TEXT
  5
577
  0
POLYLINE
  8
TEXT
  5
57A
 66
     1
 10
0.0
 20
0.0
 30
0.0
  0
VERTEX
  8
TEXT
  5
57B
 10
-779.680419
 20
333.919923
 30
0.0
  0
VERTEX
  8
TEXT
  5
57C
 10
-769.680419
 20
333.919923
 30
0.0
  0
VERTEX
  8
TEXT
  5
57D
 10
-766.347086
 20
337.253256
 30
0.0
  0
VERTEX
  8
TEXT
  5
57E
 10
-769.680419
 20
340.58659
 30
0.0
  0
VERTEX
  8
TEXT
  5
57F
 10
-776.347086
 20
340.58659
 30
0.0
  0
VERTEX
  8
TEXT
  5
580
 10
-779.680419
 20
337.253256
 30
0.0
  0
VERTEX
  8
TEXT
  5
581
 10
-779.680419
 20
330.58659
 30
0.0
  0
VERTEX
  8
TEXT
  5
582
 10
-776.347086
 20
327.253256
 30
0.0
  0
VERTEX
  8
TEXT
  5
583
 10
-769.680419
 20
327.253256
 30
0.0
  0
SEQEND
  8
TEXT
  5
584
  0
POLYLINE
  8
TEXT
  5
587
 66
     1
 10
0.0
 20
0.0
 30
0.0
  0
VERTEX
  8
TEXT
  5
588
 10
-746.347086
 20
340.58659
 30
0.0
  0
VERTEX
  8
TEXT
  5
589
 10
-756.347086
 20
340.58659
 30
0.0
  0
VERTEX
  8
TEXT
  5
58A
 10
-759.680419
 20
337.253256
 30
0.0
  0
VERTEX
  8
TEXT
  5
58B
 10
-759.680419
 20
330.58659
 30
0.0
  0
VERTEX
  8
TEXT
  5
58C
 10
-756.347086
 20
327.253256
 30
0.0
  0
VERTEX
  8
TEXT
  5
58D
 10
-746.347086
 20
327.253256
 30
0.0
  0
SEQEND
  8
TEXT
  5
58E
  0
POLYLINE
  8
TEXT
  5
591
 66
     1
 10
0.0
 20
0.0
 30
0.0
  0
VERTEX
  8
TEXT
  5
592
 10
-739.680419
 20
327.253256
 30
0.0
  0
VERTEX
  8
TEXT
  5
593
 10
-739.680419
 20
347.253256
 30
0.0
  0
SEQEND
  8
TEXT
  5
594
  0
POLYLINE
  8
TEXT
  5
595
 66
     1
 10
0.0
 20
0.0
 30
0.0
  0
VERTEX
  8
TEXT
  5
596
 10
-739.680419
 20
333.919923
 30
0.0
  0
VERTEX
  8
TEXT
  5
597
 10
-733.013752
 20
340.58659
 30
0.0
  0
VERTEX
  8
TEXT
  5
598
 10
-729.680419
 20
340.58659
 30
0.0
  0
VERTEX
  8
TEXT
  5
599
 10
-726.347086
 20
337.253256
 30
0.0
  0
VERTEX
  8
TEXT
  5
59A
 10
-726.347086
 20
327.253256
 30
0.0
  0
SEQEND
  8
TEXT
  5
59B
  0
POLYLINE
  8
TEXT
  5
59E
 66
     1
 10
0.0
 20
0.0
 30
0.0
  0
VERTEX
  8
TEXT
  5
59F
 10
-719.680419
 20
333.919923
 30
0.0
  0
VERTEX
  8
TEXT
  5
5A0
 10
-709.680419
 20
333.919923
 30
0.0
  0
VERTEX
  8
TEXT
  5
5A1
 10
-706.347086
 20
337.253256
 30
0.0
  0
VERTEX
  8
TEXT
  5
5A2
 10
-709.680419
 20
340.58659
 30
0.0
  0
VERTEX
  8
TEXT
  5
5A3
 10
-716.347086
 20
340.58659
 30
0.0
  0
VERTEX
  8
TEXT
  5
5A4
 10
-719.680419
 20
337.253256
 30
0.0
  0
VERTEX
  8
TEXT
  5
5A5
 10
-719.680419
 20
330.58659
 30
0.0
  0
VERTEX
  8
TEXT
  5
5A6
 10
-716.347086
 20
327.253256
 30
0.0
  0
VERTEX
  8
TEXT
  5
5A7
 10
-709.680419
 20
327.253256
 30
0.0
  0
SEQEND
  8
TEXT
  5
5A8
  0
POLYLINE
  8
TEXT
  5
5AB
 66
     1
 10
0.0
 20
0.0
 30
0.0
  0
VERTEX
  8
TEXT
  5
5AC
 10
-699.680419
 20
327.253256
 30
0.0
  0
VERTEX
  8
TEXT
  5
5AD
 10
-699.680419
 20
340.58659
 30
0.0
  0
SEQEND
  8
TEXT
  5
5AE
  0
POLYLINE
  8
TEXT
  5
5AF
 66
     1
 10
0.0
 20
0.0
 30
0.0
  0
VERTEX
  8
TEXT
  5
5B0
 10
-699.680419
 20
333.919923
 30
0.0
  0
VERTEX
  8
TEXT
  5
5B1
 10
-693.013752
 20
340.58659
 30
0.0
  0
VERTEX
  8
TEXT
  5
5B2
 10
-689.680419
 20
340.58659
 30
0.0
  0
VERTEX
  8
TEXT
  5
5B3
 10
-686.347086
 20
337.253256
 30
0.0
  0
VERTEX
  8
TEXT
  5
5B4
 10
-686.347086
 20
327.253256
 30
0.0
  0
SEQEND
  8
TEXT
  5
5B5
  0
POLYLINE
  8
TEXT
  5
5B8
 66
     1
 10
0.0
 20
0.0
 30
0.0
  0
VERTEX
  8
TEXT
  5
5B9
 10
-679.680419
 20
327.253256
 30
0.0
  0
VERTEX
  8
TEXT
  5
5BA
 10
-679.680419
 20
347.253256
 30
0.0
  0
SEQEND
  8
TEXT
  5
5BB
  0
POLYLINE
  8
TEXT
  5
5BC
 66
     1
 10
0.0
 20
0.0
 30
0.0
  0
VERTEX
  8
TEXT
  5
5BD
 10
-679.680419
 20
333.919923
 30
0.0
  0
VERTEX
  8
TEXT
  5
5BE
 10
-673.013752
 20
340.58659
 30
0.0
  0
VERTEX
  8
TEXT
  5
5BF
 10
-669.680419
 20
340.58659
 30
0.0
  0
VERTEX
  8
TEXT
  5
5C0
 10
-666.347086
 20
337.253256
 30
0.0
  0
VERTEX
  8
TEXT
  5
5C1
 10
-666.347086
 20
330.58659
 30
0.0
  0
VERTEX
  8
TEXT
  5
5C2
 10
-669.680419
 20
327.253256
 30
0.0
  0
VERTEX
  8
TEXT
  5
5C3
 10
-673.013752
 20
327.253256
 30
0.0
  0
VERTEX
  8
TEXT
  5
5C4
 10
-679.680419
 20
333.919923
 30
0.0
  0
SEQEND
  8
TEXT
  5
5C5
  0
POLYLINE
  8
TEXT
  5
5C8
 66
     1
 10
0.0
 20
0.0
 30
0.0
  0
VERTEX
  8
TEXT
  5
5C9
 10
-659.680419
 20
333.919923
 30
0.0
  0
VERTEX
  8
TEXT
  5
5CA
 10
-649.680419
 20
333.919923
 30
0.0
  0
VERTEX
  8
TEXT
  5
5CB
 10
-646.347086
 20
337.253256
 30
0.0
  0
VERTEX
  8
TEXT
  5
5CC
 10
-649.680419
 20
340.58659
 30
0.0
  0
VERTEX
  8
TEXT
  5
5CD
 10
-656.347086
 20
340.58659
 30
0.0
  0
VERTEX
  8
TEXT
  5
5CE
 10
-659.680419
 20
337.253256
 30
0.0
  0
VERTEX
  8
TEXT
  5
5CF
 10
-659.680419
 20
330.58659
 30
0.0
  0
VERTEX
  8
TEXT
  5
5D0
 10
-656.347086
 20
327.253256
 30
0.0
  0
VERTEX
  8
TEXT
  5
5D1
 10
-649.680419
 20
327.253256
 30
0.0
  0
SEQEND
  8
TEXT
  5
5D2
  0
POLYLINE
  8
TEXT
  5
5D5
 66
     1
 10
0.0
 20
0.0
 30
0.0
  0
VERTEX
  8
TEXT
  5
5D6
 10
-639.680419
 20
347.253256
 30
0.0
  0
VERTEX
  8
TEXT
  5
5D7
 10
-639.680419
 20
330.58659
 30
0.0
  0
VERTEX
  8
TEXT
  5
5D8
 10
-636.347086
 20
327.253256
 30
0.0
  0
SEQEND
  8
TEXT
  5
5D9
  0
POLYLINE
  8
TEXT
  5
5DC
 66
     1
 10
0.0
 20
0.0
 30
0.0
  0
VERTEX
  8
TEXT
  5
5DD
 10
-623.013752
 20
327.253256
 30
0.0
  0
VERTEX
  8
TEXT
  5
5DE
 10
-626.347086
 20
327.253256
 30
0.0
  0
VERTEX
  8
TEXT
  5
5DF
 10
-629.680419
 20
330.58659
 30
0.0
  0
VERTEX
  8
TEXT
  5
5E0
 10
-629.680419
 20
337.253256
 30
0.0
  0
VERTEX
  8
TEXT
  5
5E1
 10
-626.347086
 20
340.58659
 30
0.0
  0
VERTEX
  8
TEXT
  5
5E2
 10
-623.013752
 20
340.58659
 30
0.0
  0
VERTEX
  8
TEXT
  5
5E3
 10
-619.680419
 20
337.253256
 30
0.0
  0
VERTEX
  8
TEXT
  5
5E4
 10
-619.680419
 20
330.58659
 30
0.0
  0
VERTEX
  8
TEXT
  5
5E5
 10
-623.013752
 20
327.253256
 30
0.0
  0
SEQEND
  8
TEXT
  5
5E6
  0
POLYLINE
  8
TEXT
  5
5E7
 66
     1
 10
0.0
 20
0.0
 30
0.0
  0
VERTEX
  8
TEXT
  5
5E8
 10
-619.680419
 20
330.58659
 30
0.0
  0
VERTEX
  8
TEXT
  5
5E9
 10
-616.347086
 20
327.253256
 30
0.0
  0
SEQEND
  8
TEXT
  5
5EA
  0
POLYLINE
  8
TEXT
  5
5ED
 66
     1
 10
0.0
 20
0.0
 30
0.0
  0
VERTEX
  8
TEXT
  5
5EE
 10
-609.680419
 20
327.253256
 30
0.0
  0
VERTEX
  8
TEXT
  5
5EF
 10
-599.680419
 20
327.253256
 30
0.0
  0
VERTEX
  8
TEXT
  5
5F0
 10
-596.347086
 20
330.58659
 30
0.0
  0
VERTEX
  8
TEXT
  5
5F1
 10
-599.680419
 20
333.919923
 30
0.0
  0
VERTEX
  8
TEXT
  5
5F2
 10
-606.347086
 20
333.919923
 30
0.0
  0
VERTEX
  8
TEXT
  5
5F3
 10
-609.680419
 20
337.253256
 30
0.0
  0
VERTEX
  8
TEXT
  5
5F4
 10
-606.347086
 20
340.58659
 30
0.0
  0
VERTEX
  8
TEXT
  5
5F5
 10
-596.347086
 20
340.58659
 30
0.0
  0
SEQEND
  8
TEXT
  5
5F6
  0
POLYLINE
  8
TEXT
  5
5F9
 66
     1
 10
0.0
 20
0.0
 30
0.0
  0
VERTEX
  8
TEXT
  5
5FA
 10
-589.680419
 20
340.58659
 30
0.0
  0
VERTEX
  8
TEXT
  5
5FB
 10
-576.347086
 20
340.58659
 30
0.0
  0
SEQEND
  8
TEXT
  5
5FC
  0
POLYLINE
  8
TEXT
  5
5FD
 66
     1
 10
0.0
 20
0.0
 30
0.0
  0
VERTEX
  8
TEXT
  5
5FE
 10
-583.013752
 20
347.253256
 30
0.0
  0
VERTEX
  8
TEXT
  5
5FF
 10
-583.013752
 20
330.58659
 30
0.0
  0
VERTEX
  8
TEXT
  5
600
 10
-579.680419
 20
327.253256
 30
0.0
  0
VERTEX
  8
TEXT
  5
601
 10
-576.347086
 20
330.58659
 30
0.0
  0
SEQEND
  8
TEXT
  5
602
  0
POLYLINE
  8
TEXT
  5
605
 66
     1
 10
0.0
 20
0.0
 30
0.0
  0
VERTEX
  8
TEXT
  5
606
 10
-569.680419
 20
340.58659
 30
0.0
  0
VERTEX
  8
TEXT
  5
607
 10
-569.680419
 20
330.58659
 30
0.0
  0
VERTEX
  8
TEXT
  5
608
 10
-566.347086
 20
327.253256
 30
0.0
  0
VERTEX
  8
TEXT
  5
609
 10
-563.013752
 20
327.253256
 30
0.0
  0
VERTEX
  8
TEXT
  5
60A
 10
-556.347086
 20
333.919923
 30
0.0
  0
SEQEND
  8
TEXT
  5
60B
  0
POLYLINE
  8
TEXT
  5
60C
 66
     1
 10
0.0
 20
0.0
 30
0.0
  0
VERTEX
  8
TEXT
  5
60D
 10
-556.347086
 20
340.58659
 30
0.0
  0
VERTEX
  8
TEXT
  5
60E
 10
-556.347086
 20
327.253256
 30
0.0
  0
SEQEND
  8
TEXT
  5
60F
  0
POLYLINE
  8
TEXT
  5
612
 66
     1
 10
0.0
 20
0.0
 30
0.0
  0
VERTEX
  8
TEXT
  5
613
 10
-549.680419
 20
327.253256
 30
0.0
  0
VERTEX
  8
TEXT
  5
614
 10
-549.680419
 20
340.58659
 30
0.0
  0
SEQEND
  8
TEXT
  5
615
  0
POLYLINE
  8
TEXT
  5
616
 66
     1
 10
0.0
 20
0.0
 30
0.0
  0
VERTEX
  8
TEXT
  5
617
 10
-549.680419
 20
333.919923
 30
0.0
  0
VERTEX
  8
TEXT
  5
618
 10
-543.013752
 20
340.58659
 30
0.0
  0
VERTEX
  8
TEXT
  5
619
 10
-539.680419
 20
340.58659
 30
0.0
  0
VERTEX
  8
TEXT
  5
61A
 10
-536.347086
 20
337.253256
 30
0.0
  0
VERTEX
  8
TEXT
  5
61B
 10
-536.347086
 20
327.253256
 30
0.0
  0
SEQEND
  8
TEXT
  5
61C
  0
POLYLINE
  8
TEXT
  5
61F
 66
     1
 10
0.0
 20
0.0
 30
0.0
  0
VERTEX
  8
TEXT
  5
620
 10
-529.680419
 20
323.919923
 30
0.0
  0
VERTEX
  8
TEXT
  5
621
 10
-526.347086
 20
320.58659
 30
0.0
  0
VERTEX
  8
TEXT
  5
622
 10
-519.680419
 20
320.58659
 30
0.0
  0
VERTEX
  8
TEXT
  5
623
 10
-516.347086
 20
323.919923
 30
0.0
  0
VERTEX
  8
TEXT
  5
624
 10
-516.347086
 20
337.253256
 30
0.0
  0
VERTEX
  8
TEXT
  5
625
 10
-519.680419
 20
340.58659
 30
0.0
  0
VERTEX
  8
TEXT
  5
626
 10
-526.347086
 20
340.58659
 30
0.0
  0
VERTEX
  8
TEXT
  5
627
 10
-529.680419
 20
337.253256
 30
0.0
  0
VERTEX
  8
TEXT
  5
628
 10
-529.680419
 20
330.58659
 30
0.0
  0
VERTEX
  8
TEXT
  5
629
 10
-526.347086
 20
327.253256
 30
0.0
  0
VERTEX
  8
TEXT
  5
62A
 10
-516.347086
 20
327.253256
 30
0.0
  0
SEQEND
  8
TEXT
  5
62B
  0
POLYLINE
  8
TEXT
  5
62E
 66
     1
 10
0.0
 20
0.0
 30
0.0
  0
VERTEX
  8
TEXT
  5
62F
 10
-509.680419
 20
340.58659
 30
0.0
  0
VERTEX
  8
TEXT
  5
630
 10
-509.680419
 20
337.253256
 30
0.0
  0
SEQEND
  8
TEXT
  5
631
  0
POLYLINE
  8
TEXT
  5
632
 66
     1
 10
0.0
 20
0.0
 30
0.0
  0
VERTEX
  8
TEXT
  5
633
 10
-509.680419
 20
333.919923
 30
0.0
  0
VERTEX
  8
TEXT
  5
634
 10
-509.680419
 20
330.58659
 30
0.0
  0
SEQEND
  8
TEXT
  5
635
  0
POLYLINE
  8
TEXT
  5
638
 66
     1
 10
0.0
 20
0.0
 30
0.0
  0
VERTEX
  8
TEXT
  5
639
 10
-949.680419
 20
518.004628
 30
0.0
  0
VERTEX
  8
TEXT
  5
63A
 10
-949.680419
 20
568.004628
 30
0.0
  0
SEQEND
  8
TEXT
  5
63B
  0
POLYLINE
  8
TEXT
  5
63C
 66
     1
 10
0.0
 20
0.0
 30
0.0
  0
VERTEX
  8
TEXT
  5
63D
 10
-949.680419
 20
543.004628
 30
0.0
  0
VERTEX
  8
TEXT
  5
63E
 10
-916.347086
 20
543.004628
 30
0.0
  0
SEQEND
  8
TEXT
  5
63F
  0
POLYLINE
  8
TEXT
  5
640
 66
     1
 10
0.0
 20
0.0
 30
0.0
  0
VERTEX
  8
TEXT
  5
641
 10
-916.347086
 20
568.004628
 30
0.0
  0
VERTEX
  8
TEXT
  5
642
 10
-916.347086
 20
518.004628
 30
0.0
  0
SEQEND
  8
TEXT
  5
643
  0
POLYLINE
  8
TEXT
  5
646
 66
     1
 10
0.0
 20
0.0
 30
0.0
  0
VERTEX
  8
TEXT
  5
647
 10
-899.680419
 20
518.004628
 30
0.0
  0
VERTEX
  8
TEXT
  5
648
 10
-899.680419
 20
568.004628
 30
0.0
  0
VERTEX
  8
TEXT
  5
649
 10
-866.347086
 20
568.004628
 30
0.0
  0
SEQEND
  8
TEXT
  5
64A
  0
POLYLINE
  8
TEXT
  5
64B
 66
     1
 10
0.0
 20
0.0
 30
0.0
  0
VERTEX
  8
TEXT
  5
64C
 10
-899.680419
 20
543.004628
 30
0.0
  0
VERTEX
  8
TEXT
  5
64D
 10
-883.013752
 20
543.004628
 30
0.0
  0
SEQEND
  8
TEXT
  5
64E
  0
POLYLINE
  8
TEXT
  5
64F
 66
     1
 10
0.0
 20
0.0
 30
0.0
  0
VERTEX
  8
TEXT
  5
650
 10
-899.680419
 20
518.004628
 30
0.0
  0
VERTEX
  8
TEXT
  5
651
 10
-866.347086
 20
518.004628
 30
0.0
  0
SEQEND
  8
TEXT
  5
652
  0
POLYLINE
  8
TEXT
  5
655
 66
     1
 10
0.0
 20
0.0
 30
0.0
  0
VERTEX
  8
TEXT
  5
656
 10
-849.680419
 20
518.004628
 30
0.0
  0
VERTEX
  8
TEXT
  5
657
 10
-849.680419
 20
568.004628
 30
0.0
  0
VERTEX
  8
TEXT
  5
658
 10
-824.680419
 20
568.004628
 30
0.0
  0
VERTEX
  8
TEXT
  5
659
 10
-816.347086
 20
559.671295
 30
0.0
  0
VERTEX
  8
TEXT
  5
65A
 10
-816.347086
 20
551.337961
 30
0.0
  0
VERTEX
  8
TEXT
  5
65B
 10
-824.680419
 20
543.004628
 30
0.0
  0
VERTEX
  8
TEXT
  5
65C
 10
-849.680419
 20
543.004628
 30
0.0
  0
SEQEND
  8
TEXT
  5
65D
  0
POLYLINE
  8
TEXT
  5
65E
 66
     1
 10
0.0
 20
0.0
 30
0.0
  0
VERTEX
  8
TEXT
  5
65F
 10
-841.347086
 20
543.004628
 30
0.0
  0
VERTEX
  8
TEXT
  5
660
 10
-816.347086
 20
518.004628
 30
0.0
  0
SEQEND
  8
TEXT
  5
661
  0
POLYLINE
  8
TEXT
  5
664
 66
     1
 10
0.0
 20
0.0
 30
0.0
  0
VERTEX
  8
TEXT
  5
665
 10
-766.347086
 20
526.337961
 30
0.0
  0
VERTEX
  8
TEXT
  5
666
 10
-774.680419
 20
518.004628
 30
0.0
  0
VERTEX
  8
TEXT
  5
667
 10
-791.347086
 20
518.004628
 30
0.0
  0
VERTEX
  8
TEXT
  5
668
 10
-799.680419
 20
526.337961
 30
0.0
  0
VERTEX
  8
TEXT
  5
669
 10
-799.680419
 20
559.671295
 30
0.0
  0
VERTEX
  8
TEXT
  5
66A
 10
-791.347086
 20
568.004628
 30
0.0
  0
VERTEX
  8
TEXT
  5
66B
 10
-774.680419
 20
568.004628
 30
0.0
  0
VERTEX
  8
TEXT
  5
66C
 10
-766.347086
 20
559.671295
 30
0.0
  0
SEQEND
  8
TEXT
  5
66D
  0
POLYLINE
  8
TEXT
  5
670
 66
     1
 10
0.0
 20
0.0
 30
0.0
  0
VERTEX
  8
TEXT
  5
671
 10
-749.680419
 20
568.004628
 30
0.0
  0
VERTEX
  8
TEXT
  5
672
 10
-749.680419
 20
526.337961
 30
0.0
  0
VERTEX
  8
TEXT
  5
673
 10
-741.347086
 20
518.004628
 30
0.0
  0
VERTEX
  8
TEXT
  5
674
 10
-724.680419
 20
518.004628
 30
0.0
  0
VERTEX
  8
TEXT
  5
675
 10
-716.347086
 20
526.337961
 30
0.0
  0
VERTEX
  8
TEXT
  5
676
 10
-716.347086
 20
568.004628
 30
0.0
  0
SEQEND
  8
TEXT
  5
677
  0
POLYLINE
  8
TEXT
  5
67A
 66
     1
 10
0.0
 20
0.0
 30
0.0
  0
VERTEX
  8
TEXT
  5
67B
 10
-699.680419
 20
568.004628
 30
0.0
  0
VERTEX
  8
TEXT
  5
67C
 10
-699.680419
 20
518.004628
 30
0.0
  0
VERTEX
  8
TEXT
  5
67D
 10
-666.347086
 20
518.004628
 30
0.0
  0
SEQEND
  8
TEXT
  5
67E
  0
POLYLINE
  8
TEXT
  5
681
 66
     1
 10
0.0
 20
0.0
 30
0.0
  0
VERTEX
  8
TEXT
  5
682
 10
-649.680419
 20
518.004628
 30
0.0
  0
VERTEX
  8
TEXT
  5
683
 10
-649.680419
 20
568.004628
 30
0.0
  0
VERTEX
  8
TEXT
  5
684
 10
-616.347086
 20
568.004628
 30
0.0
  0
SEQEND
  8
TEXT
  5
685
  0
POLYLINE
  8
TEXT
  5
686
 66
     1
 10
0.0
 20
0.0
 30
0.0
  0
VERTEX
  8
TEXT
  5
687
 10
-649.680419
 20
543.004628
 30
0.0
  0
VERTEX
  8
TEXT
  5
688
 10
-633.013752
 20
543.004628
 30
0.0
  0
SEQEND
  8
TEXT
  5
689
  0
POLYLINE
  8
TEXT
  5
68A
 66
     1
 10
0.0
 20
0.0
 30
0.0
  0
VERTEX
  8
TEXT
  5
68B
 10
-649.680419
 20
518.004628
 30
0.0
  0
VERTEX
  8
TEXT
  5
68C
 10
-616.347086
 20
518.004628
 30
0.0
  0
SEQEND
  8
TEXT
  5
68D
  0
POLYLINE
  8
TEXT
  5
690
 66
     1
 10
0.0
 20
0.0
 30
0.0
  0
VERTEX
  8
TEXT
  5
691
 10
-599.680419
 20
526.337961
 30
0.0
  0
VERTEX
  8
TEXT
  5
692
 10
-591.347086
 20
518.004628
 30
0.0
  0
VERTEX
  8
TEXT
  5
693
 10
-574.680419
 20
518.004628
 30
0.0
  0
VERTEX
  8
TEXT
  5
694
 10
-566.347086
 20
526.337961
 30
0.0
  0
VERTEX
  8
TEXT
  5
695
 10
-599.680419
 20
559.671295
 30
0.0
  0
VERTEX
  8
TEXT
  5
696
 10
-591.347086
 20
568.004628
 30
0.0
  0
VERTEX
  8
TEXT
  5
697
 10
-574.680419
 20
568.004628
 30
0.0
  0
VERTEX
  8
TEXT
  5
698
 10
-566.347086
 20
559.671295
 30
0.0
  0
SEQEND
  8
TEXT
  5
699
  0
POLYLINE
  8
TEXT
  5
69E
 66
     1
 10
0.0
 20
0.0
 30
0.0
  0
VERTEX
  8
TEXT
  5
69F
 10
-466.347086
 20
526.337961
 30
0.0
  0
VERTEX
  8
TEXT
  5
6A0
 10
-474.680419
 20
518.004628
 30
0.0
  0
VERTEX
  8
TEXT
  5
6A1
 10
-491.347086
 20
518.004628
 30
0.0
  0
VERTEX
  8
TEXT
  5
6A2
 10
-499.680419
 20
526.337961
 30
0.0
  0
VERTEX
  8
TEXT
  5
6A3
 10
-499.680419
 20
559.671295
 30
0.0
  0
VERTEX
  8
TEXT
  5
6A4
 10
-491.347086
 20
568.004628
 30
0.0
  0
VERTEX
  8
TEXT
  5
6A5
 10
-474.680419
 20
568.004628
 30
0.0
  0
VERTEX
  8
TEXT
  5
6A6
 10
-466.347086
 20
559.671295
 30
0.0
  0
SEQEND
  8
TEXT
  5
6A7
  0
POLYLINE
  8
TEXT
  5
6AA
 66
     1
 10
0.0
 20
0.0
 30
0.0
  0
VERTEX
  8
TEXT
  5
6AB
 10
-449.680419
 20
543.004628
 30
0.0
  0
VERTEX
  8
TEXT
  5
6AC
 10
-416.347086
 20
543.004628
 30
0.0
  0
SEQEND
  8
TEXT
  5
6AD
  0
POLYLINE
  8
TEXT
  5
6B0
 66
     1
 10
0.0
 20
0.0
 30
0.0
  0
VERTEX
  8
TEXT
  5
6B1
 10
-399.680419
 20
559.671295
 30
0.0
  0
VERTEX
  8
TEXT
  5
6B2
 10
-391.347086
 20
568.004628
 30
0.0
  0
VERTEX
  8
TEXT
  5
6B3
 10
-391.347086
 20
518.004628
 30
0.0
  0
SEQEND
  8
TEXT
  5
6B4
  0
POLYLINE
  8
TEXT
  5
6B5
 66
     1
 10
0.0
 20
0.0
 30
0.0
  0
VERTEX
  8
TEXT
  5
6B6
 10
-399.680419
 20
518.004628
 30
0.0
  0
VERTEX
  8
TEXT
  5
6B7
 10
-383.013752
 20
518.004628
 30
0.0
  0
SEQEND
  8
TEXT
  5
6B8
  0
POLYLINE
  8
TEXT
  5
6BB
 66
     1
 10
0.0
 20
0.0
 30
0.0
  0
VERTEX
  8
TEXT
  5
6BC
 10
-366.347086
 20
559.671295
 30
0.0
  0
VERTEX
  8
TEXT
  5
6BD
 10
-358.013752
 20
568.004628
 30
0.0
  0
VERTEX
  8
TEXT
  5
6BE
 10
-341.347086
 20
568.004628
 30
0.0
  0
VERTEX
  8
TEXT
  5
6BF
 10
-333.013752
 20
559.671295
 30
0.0
  0
VERTEX
  8
TEXT
  5
6C0
 10
-333.013752
 20
551.337961
 30
0.0
  0
VERTEX
  8
TEXT
  5
6C1
 10
-341.347086
 20
543.004628
 30
0.0
  0
VERTEX
  8
TEXT
  5
6C2
 10
-349.680419
 20
543.004628
 30
0.0
  0
SEQEND
  8
TEXT
  5
6C3
  0
POLYLINE
  8
TEXT
  5
6C4
 66
     1
 10
0.0
 20
0.0
 30
0.0
  0
VERTEX
  8
TEXT
  5
6C5
 10
-341.347086
 20
543.004628
 30
0.0
  0
VERTEX
  8
TEXT
  5
6C6
 10
-333.013752
 20
534.671295
 30
0.0
  0
VERTEX
  8
TEXT
  5
6C7
 10
-333.013752
 20
526.337961
 30
0.0
  0
VERTEX
  8
TEXT
  5
6C8
 10
-341.347086
 20
518.004628
 30
0.0
  0
VERTEX
  8
TEXT
  5
6C9
 10
-358.013752
 20
518.004628
 30
0.0
  0
VERTEX
  8
TEXT
  5
6CA
 10
-366.347086
 20
526.337961
 30
0.0
  0
SEQEND
  8
TEXT
  5
6CB
  0
POLYLINE
  8
TEXT
  5
6CE
 66
     1
 10
0.0
 20
0.0
 30
0.0
  0
VERTEX
  8
TEXT
  5
6CF
 10
-308.013752
 20
518.004628
 30
0.0
  0
VERTEX
  8
TEXT
  5
6D0
 10
-316.347086
 20
526.337961
 30
0.0
  0
VERTEX
  8
TEXT
  5
6D1
 10
-316.347086
 20
559.671295
 30
0.0
  0
VERTEX
  8
TEXT
  5
6D2
 10
-308.013752
 20
568.004628
 30
0.0
  0
VERTEX
  8
TEXT
  5
6D3
 10
-299.680419
 20
568.004628
 30
0.0
  0
VERTEX
  8
TEXT
  5
6D4
 10
-291.347086
 20
559.671295
 30
0.0
  0
VERTEX
  8
TEXT
  5
6D5
 10
-291.347086
 20
526.337961
 30
0.0
  0
VERTEX
  8
TEXT
  5
6D6
 10
-299.680419
 20
518.004628
 30
0.0
  0
VERTEX
  8
TEXT
  5
6D7
 10
-308.013752
 20
518.004628
 30
0.0
  0
SEQEND
  8
TEXT
  5
6D8
  0
POLYLINE
  8
TEXT
  5
6DB
 66
     1
 10
0.0
 20
0.0
 30
0.0
  0
VERTEX
  8
TEXT
  5
6DC
 10
-949.680419
 20
360.58659
 30
0.0
  0
VERTEX
  8
TEXT
  5
6DD
 10
-949.680419
 20
380.58659
 30
0.0
  0
SEQEND
  8
TEXT
  5
6DE
  0
POLYLINE
  8
TEXT
  5
6DF
 66
     1
 10
0.0
 20
0.0
 30
0.0
  0
VERTEX
  8
TEXT
  5
6E0
 10
-949.680419
 20
370.58659
 30
0.0
  0
VERTEX
  8
TEXT
  5
6E1
 10
-936.347086
 20
370.58659
 30
0.0
  0
SEQEND
  8
TEXT
  5
6E2
  0
POLYLINE
  8
TEXT
  5
6E3
 66
     1
 10
0.0
 20
0.0
 30
0.0
  0
VERTEX
  8
TEXT
  5
6E4
 10
-936.347086
 20
380.58659
 30
0.0
  0
VERTEX
  8
TEXT
  5
6E5
 10
-936.347086
 20
360.58659
 30
0.0
  0
SEQEND
  8
TEXT
  5
6E6
  0
POLYLINE
  8
TEXT
  5
6E9
 66
     1
 10
0.0
 20
0.0
 30
0.0
  0
VERTEX
  8
TEXT
  5
6EA
 10
-919.680419
 20
360.58659
 30
0.0
  0
VERTEX
  8
TEXT
  5
6EB
 10
-926.347086
 20
360.58659
 30
0.0
  0
VERTEX
  8
TEXT
  5
6EC
 10
-929.680419
 20
363.919923
 30
0.0
  0
VERTEX
  8
TEXT
  5
6ED
 10
-929.680419
 20
370.58659
 30
0.0
  0
VERTEX
  8
TEXT
  5
6EE
 10
-926.347086
 20
373.919923
 30
0.0
  0
VERTEX
  8
TEXT
  5
6EF
 10
-919.680419
 20
373.919923
 30
0.0
  0
VERTEX
  8
TEXT
  5
6F0
 10
-916.347086
 20
370.58659
 30
0.0
  0
VERTEX
  8
TEXT
  5
6F1
 10
-916.347086
 20
363.919923
 30
0.0
  0
VERTEX
  8
TEXT
  5
6F2
 10
-919.680419
 20
360.58659
 30
0.0
  0
SEQEND
  8
TEXT
  5
6F3
  0
POLYLINE
  8
TEXT
  5
6F6
 66
     1
 10
0.0
 20
0.0
 30
0.0
  0
VERTEX
  8
TEXT
  5
6F7
 10
-909.680419
 20
367.253256
 30
0.0
  0
VERTEX
  8
TEXT
  5
6F8
 10
-899.680419
 20
367.253256
 30
0.0
  0
VERTEX
  8
TEXT
  5
6F9
 10
-896.347086
 20
370.58659
 30
0.0
  0
VERTEX
  8
TEXT
  5
6FA
 10
-899.680419
 20
373.919923
 30
0.0
  0
VERTEX
  8
TEXT
  5
6FB
 10
-906.347086
 20
373.919923
 30
0.0
  0
VERTEX
  8
TEXT
  5
6FC
 10
-909.680419
 20
370.58659
 30
0.0
  0
VERTEX
  8
TEXT
  5
6FD
 10
-909.680419
 20
363.919923
 30
0.0
  0
VERTEX
  8
TEXT
  5
6FE
 10
-906.347086
 20
360.58659
 30
0.0
  0
VERTEX
  8
TEXT
  5
6FF
 10
-899.680419
 20
360.58659
 30
0.0
  0
SEQEND
  8
TEXT
  5
700
  0
POLYLINE
  8
TEXT
  5
703
 66
     1
 10
0.0
 20
0.0
 30
0.0
  0
VERTEX
  8
TEXT
  5
704
 10
-889.680419
 20
360.58659
 30
0.0
  0
VERTEX
  8
TEXT
  5
705
 10
-889.680419
 20
380.58659
 30
0.0
  0
SEQEND
  8
TEXT
  5
706
  0
POLYLINE
  8
TEXT
  5
707
 66
     1
 10
0.0
 20
0.0
 30
0.0
  0
VERTEX
  8
TEXT
  5
708
 10
-889.680419
 20
367.253256
 30
0.0
  0
VERTEX
  8
TEXT
  5
709
 10
-883.013752
 20
373.919923
 30
0.0
  0
VERTEX
  8
TEXT
  5
70A
 10
-879.680419
 20
373.919923
 30
0.0
  0
VERTEX
  8
TEXT
  5
70B
 10
-876.347086
 20
370.58659
 30
0.0
  0
VERTEX
  8
TEXT
  5
70C
 10
-876.347086
 20
360.58659
 30
0.0
  0
SEQEND
  8
TEXT
  5
70D
  0
POLYLINE
  8
TEXT
  5
710
 66
     1
 10
0.0
 20
0.0
 30
0.0
  0
VERTEX
  8
TEXT
  5
711
 10
-869.680419
 20
367.253256
 30
0.0
  0
VERTEX
  8
TEXT
  5
712
 10
-859.680419
 20
367.253256
 30
0.0
  0
VERTEX
  8
TEXT
  5
713
 10
-856.347086
 20
370.58659
 30
0.0
  0
VERTEX
  8
TEXT
  5
714
 10
-859.680419
 20
373.919923
 30
0.0
  0
VERTEX
  8
TEXT
  5
715
 10
-866.347086
 20
373.919923
 30
0.0
  0
VERTEX
  8
TEXT
  5
716
 10
-869.680419
 20
370.58659
 30
0.0
  0
VERTEX
  8
TEXT
  5
717
 10
-869.680419
 20
363.919923
 30
0.0
  0
VERTEX
  8
TEXT
  5
718
 10
-866.347086
 20
360.58659
 30
0.0
  0
VERTEX
  8
TEXT
  5
719
 10
-859.680419
 20
360.58659
 30
0.0
  0
SEQEND
  8
TEXT
  5
71A
  0
POLYLINE
  8
TEXT
  5
71D
 66
     1
 10
0.0
 20
0.0
 30
0.0
  0
VERTEX
  8
TEXT
  5
71E
 10
-849.680419
 20
360.58659
 30
0.0
  0
VERTEX
  8
TEXT
  5
71F
 10
-849.680419
 20
373.919923
 30
0.0
  0
SEQEND
  8
TEXT
  5
720
  0
POLYLINE
  8
TEXT
  5
721
 66
     1
 10
0.0
 20
0.0
 30
0.0
  0
VERTEX
  8
TEXT
  5
722
 10
-849.680419
 20
367.253256
 30
0.0
  0
VERTEX
  8
TEXT
  5
723
 10
-843.013752
 20
373.919923
 30
0.0
  0
VERTEX
  8
TEXT
  5
724
 10
-839.680419
 20
373.919923
 30
0.0
  0
VERTEX
  8
TEXT
  5
725
 10
-836.347086
 20
370.58659
 30
0.0
  0
VERTEX
  8
TEXT
  5
726
 10
-836.347086
 20
360.58659
 30
0.0
  0
SEQEND
  8
TEXT
  5
727
  0
POLYLINE
  8
TEXT
  5
72A
 66
     1
 10
0.0
 20
0.0
 30
0.0
  0
VERTEX
  8
TEXT
  5
72B
 10
-829.680419
 20
380.58659
 30
0.0
  0
VERTEX
  8
TEXT
  5
72C
 10
-829.680419
 20
363.919923
 30
0.0
  0
VERTEX
  8
TEXT
  5
72D
 10
-826.347086
 20
360.58659
 30
0.0
  0
SEQEND
  8
TEXT
  5
72E
  0
POLYLINE
  8
TEXT
  5
731
 66
     1
 10
0.0
 20
0.0
 30
0.0
  0
VERTEX
  8
TEXT
  5
732
 10
-819.680419
 20
367.253256
 30
0.0
  0
VERTEX
  8
TEXT
  5
733
 10
-809.680419
 20
367.253256
 30
0.0
  0
VERTEX
  8
TEXT
  5
734
 10
-806.347086
 20
370.58659
 30
0.0
  0
VERTEX
  8
TEXT
  5
735
 10
-809.680419
 20
373.919923
 30
0.0
  0
VERTEX
  8
TEXT
  5
736
 10
-816.347086
 20
373.919923
 30
0.0
  0
VERTEX
  8
TEXT
  5
737
 10
-819.680419
 20
370.58659
 30
0.0
  0
VERTEX
  8
TEXT
  5
738
 10
-819.680419
 20
363.919923
 30
0.0
  0
VERTEX
  8
TEXT
  5
739
 10
-816.347086
 20
360.58659
 30
0.0
  0
VERTEX
  8
TEXT
  5
73A
 10
-809.680419
 20
360.58659
 30
0.0
  0
SEQEND
  8
TEXT
  5
73B
  0
POLYLINE
  8
TEXT
  5
73E
 66
     1
 10
0.0
 20
0.0
 30
0.0
  0
VERTEX
  8
TEXT
  5
73F
 10
-799.680419
 20
360.58659
 30
0.0
  0
VERTEX
  8
TEXT
  5
740
 10
-799.680419
 20
373.919923
 30
0.0
  0
SEQEND
  8
TEXT
  5
741
  0
POLYLINE
  8
TEXT
  5
742
 66
     1
 10
0.0
 20
0.0
 30
0.0
  0
VERTEX
  8
TEXT
  5
743
 10
-799.680419
 20
377.253256
 30
0.0
  0
VERTEX
  8
TEXT
  5
744
 10
-799.680419
 20
380.58659
 30
0.0
  0
SEQEND
  8
TEXT
  5
745
  0
POLYLINE
  8
TEXT
  5
748
 66
     1
 10
0.0
 20
0.0
 30
0.0
  0
VERTEX
  8
TEXT
  5
749
 10
-793.013752
 20
373.919923
 30
0.0
  0
VERTEX
  8
TEXT
  5
74A
 10
-779.680419
 20
373.919923
 30
0.0
  0
SEQEND
  8
TEXT
  5
74B
  0
POLYLINE
  8
TEXT
  5
74C
 66
     1
 10
0.0
 20
0.0
 30
0.0
  0
VERTEX
  8
TEXT
  5
74D
 10
-786.347086
 20
380.58659
 30
0.0
  0
VERTEX
  8
TEXT
  5
74E
 10
-786.347086
 20
363.919923
 30
0.0
  0
VERTEX
  8
TEXT
  5
74F
 10
-783.013752
 20
360.58659
 30
0.0
  0
VERTEX
  8
TEXT
  5
750
 10
-779.680419
 20
363.919923
 30
0.0
  0
SEQEND
  8
TEXT
  5
751
  0
POLYLINE
  8
TEXT
  5
754
 66
     1
 10
0.0
 20
0.0
 30
0.0
  0
VERTEX
  8
TEXT
  5
755
 10
-773.013752
 20
373.919923
 30
0.0
  0
VERTEX
  8
TEXT
  5
756
 10
-769.680419
 20
360.58659
 30
0.0
  0
VERTEX
  8
TEXT
  5
757
 10
-766.347086
 20
373.919923
 30
0.0
  0
VERTEX
  8
TEXT
  5
758
 10
-763.013752
 20
360.58659
 30
0.0
  0
VERTEX
  8
TEXT
  5
759
 10
-759.680419
 20
373.919923
 30
0.0
  0
SEQEND
  8
TEXT
  5
75A
  0
POLYLINE
  8
TEXT
  5
75D
 66
     1
 10
0.0
 20
0.0
 30
0.0
  0
VERTEX
  8
TEXT
  5
75E
 10
-753.013752
 20
367.253256
 30
0.0
  0
VERTEX
  8
TEXT
  5
75F
 10
-743.013752
 20
367.253256
 30
0.0
  0
VERTEX
  8
TEXT
  5
760
 10
-739.680419
 20
370.58659
 30
0.0
  0
VERTEX
  8
TEXT
  5
761
 10
-743.013752
 20
373.919923
 30
0.0
  0
VERTEX
  8
TEXT
  5
762
 10
-749.680419
 20
373.919923
 30
0.0
  0
VERTEX
  8
TEXT
  5
763
 10
-753.013752
 20
370.58659
 30
0.0
  0
VERTEX
  8
TEXT
  5
764
 10
-753.013752
 20
363.919923
 30
0.0
  0
VERTEX
  8
TEXT
  5
765
 10
-749.680419
 20
360.58659
 30
0.0
  0
VERTEX
  8
TEXT
  5
766
 10
-743.013752
 20
360.58659
 30
0.0
  0
SEQEND
  8
TEXT
  5
767
  0
POLYLINE
  8
TEXT
  5
76A
 66
     1
 10
0.0
 20
0.0
 30
0.0
  0
VERTEX
  8
TEXT
  5
76B
 10
-733.013752
 20
360.58659
 30
0.0
  0
VERTEX
  8
TEXT
  5
76C
 10
-733.013752
 20
373.919923
 30
0.0
  0
SEQEND
  8
TEXT
  5
76D
  0
POLYLINE
  8
TEXT
  5
76E
 66
     1
 10
0.0
 20
0.0
 30
0.0
  0
VERTEX
  8
TEXT
  5
76F
 10
-733.013752
 20
367.253256
 30
0.0
  0
VERTEX
  8
TEXT
  5
770
 10
-726.347086
 20
373.919923
 30
0.0
  0
VERTEX
  8
TEXT
  5
771
 10
-723.013752
 20
373.919923
 30
0.0
  0
VERTEX
  8
TEXT
  5
772
 10
-719.680419
 20
370.58659
 30
0.0
  0
SEQEND
  8
TEXT
  5
773
  0
POLYLINE
  8
TEXT
  5
776
 66
     1
 10
0.0
 20
0.0
 30
0.0
  0
VERTEX
  8
TEXT
  5
777
 10
-713.013752
 20
360.58659
 30
0.0
  0
VERTEX
  8
TEXT
  5
778
 10
-713.013752
 20
380.58659
 30
0.0
  0
SEQEND
  8
TEXT
  5
779
  0
POLYLINE
  8
TEXT
  5
77A
 66
     1
 10
0.0
 20
0.0
 30
0.0
  0
VERTEX
  8
TEXT
  5
77B
 10
-713.013752
 20
367.253256
 30
0.0
  0
VERTEX
  8
TEXT
  5
77C
 10
-706.347086
 20
367.253256
 30
0.0
  0
VERTEX
  8
TEXT
  5
77D
 10
-699.680419
 20
373.919923
 30
0.0
  0
SEQEND
  8
TEXT
  5
77E
  0
POLYLINE
  8
TEXT
  5
77F
 66
     1
 10
0.0
 20
0.0
 30
0.0
  0
VERTEX
  8
TEXT
  5
780
 10
-706.347086
 20
367.253256
 30
0.0
  0
VERTEX
  8
TEXT
  5
781
 10
-699.680419
 20
360.58659
 30
0.0
  0
SEQEND
  8
TEXT
  5
782
  0
POLYLINE
  8
TEXT
  5
785
 66
     1
 10
0.0
 20
0.0
 30
0.0
  0
VERTEX
  8
TEXT
  5
786
 10
-693.013752
 20
360.58659
 30
0.0
  0
VERTEX
  8
TEXT
  5
787
 10
-683.013752
 20
360.58659
 30
0.0
  0
VERTEX
  8
TEXT
  5
788
 10
-679.680419
 20
363.919923
 30
0.0
  0
VERTEX
  8
TEXT
  5
789
 10
-683.013752
 20
367.253256
 30
0.0
  0
VERTEX
  8
TEXT
  5
78A
 10
-689.680419
 20
367.253256
 30
0.0
  0
VERTEX
  8
TEXT
  5
78B
 10
-693.013752
 20
370.58659
 30
0.0
  0
VERTEX
  8
TEXT
  5
78C
 10
-689.680419
 20
373.919923
 30
0.0
  0
VERTEX
  8
TEXT
  5
78D
 10
-679.680419
 20
373.919923
 30
0.0
  0
SEQEND
  8
TEXT
  5
78E
  0
POLYLINE
  8
TEXT
  5
791
 66
     1
 10
0.0
 20
0.0
 30
0.0
  0
VERTEX
  8
TEXT
  5
792
 10
-673.013752
 20
360.58659
 30
0.0
  0
VERTEX
  8
TEXT
  5
793
 10
-673.013752
 20
373.919923
 30
0.0
  0
SEQEND
  8
TEXT
  5
794
  0
POLYLINE
  8
TEXT
  5
795
 66
     1
 10
0.0
 20
0.0
 30
0.0
  0
VERTEX
  8
TEXT
  5
796
 10
-673.013752
 20
377.253256
 30
0.0
  0
VERTEX
  8
TEXT
  5
797
 10
-673.013752
 20
380.58659
 30
0.0
  0
SEQEND
  8
TEXT
  5
798
  0
POLYLINE
  8
TEXT
  5
79B
 66
     1
 10
0.0
 20
0.0
 30
0.0
  0
VERTEX
  8
TEXT
  5
79C
 10
-666.347086
 20
360.58659
 30
0.0
  0
VERTEX
  8
TEXT
  5
79D
 10
-666.347086
 20
373.919923
 30
0.0
  0
SEQEND
  8
TEXT
  5
79E
  0
POLYLINE
  8
TEXT
  5
79F
 66
     1
 10
0.0
 20
0.0
 30
0.0
  0
VERTEX
  8
TEXT
  5
7A0
 10
-666.347086
 20
367.253256
 30
0.0
  0
VERTEX
  8
TEXT
  5
7A1
 10
-659.680419
 20
373.919923
 30
0.0
  0
VERTEX
  8
TEXT
  5
7A2
 10
-656.347086
 20
373.919923
 30
0.0
  0
VERTEX
  8
TEXT
  5
7A3
 10
-653.013752
 20
370.58659
 30
0.0
  0
VERTEX
  8
TEXT
  5
7A4
 10
-653.013752
 20
360.58659
 30
0.0
  0
SEQEND
  8
TEXT
  5
7A5
  0
POLYLINE
  8
TEXT
  5
7A8
 66
     1
 10
0.0
 20
0.0
 30
0.0
  0
VERTEX
  8
TEXT
  5
7A9
 10
-646.347086
 20
360.58659
 30
0.0
  0
VERTEX
  8
TEXT
  5
7AA
 10
-646.347086
 20
380.58659
 30
0.0
  0
SEQEND
  8
TEXT
  5
7AB
  0
POLYLINE
  8
TEXT
  5
7AC
 66
     1
 10
0.0
 20
0.0
 30
0.0
  0
VERTEX
  8
TEXT
  5
7AD
 10
-646.347086
 20
367.253256
 30
0.0
  0
VERTEX
  8
TEXT
  5
7AE
 10
-639.680419
 20
373.919923
 30
0.0
  0
VERTEX
  8
TEXT
  5
7AF
 10
-636.347086
 20
373.919923
 30
0.0
  0
VERTEX
  8
TEXT
  5
7B0
 10
-633.013752
 20
370.58659
 30
0.0
  0
VERTEX
  8
TEXT
  5
7B1
 10
-633.013752
 20
360.58659
 30
0.0
  0
SEQEND
  8
TEXT
  5
7B2
  0
POLYLINE
  8
TEXT
  5
7B5
 66
     1
 10
0.0
 20
0.0
 30
0.0
  0
VERTEX
  8
TEXT
  5
7B6
 10
-619.680419
 20
360.58659
 30
0.0
  0
VERTEX
  8
TEXT
  5
7B7
 10
-623.013752
 20
360.58659
 30
0.0
  0
VERTEX
  8
TEXT
  5
7B8
 10
-626.347086
 20
363.919923
 30
0.0
  0
VERTEX
  8
TEXT
  5
7B9
 10
-626.347086
 20
370.58659
 30
0.0
  0
VERTEX
  8
TEXT
  5
7BA
 10
-623.013752
 20
373.919923
 30
0.0
  0
VERTEX
  8
TEXT
  5
7BB
 10
-619.680419
 20
373.919923
 30
0.0
  0
VERTEX
  8
TEXT
  5
7BC
 10
-616.347086
 20
370.58659
 30
0.0
  0
VERTEX
  8
TEXT
  5
7BD
 10
-616.347086
 20
363.919923
 30
0.0
  0
VERTEX
  8
TEXT
  5
7BE
 10
-619.680419
 20
360.58659
 30
0.0
  0
SEQEND
  8
TEXT
  5
7BF
  0
POLYLINE
  8
TEXT
  5
7C0
 66
     1
 10
0.0
 20
0.0
 30
0.0
  0
VERTEX
  8
TEXT
  5
7C1
 10
-616.347086
 20
363.919923
 30
0.0
  0
VERTEX
  8
TEXT
  5
7C2
 10
-613.013752
 20
360.58659
 30
0.0
  0
SEQEND
  8
TEXT
  5
7C3
  0
POLYLINE
  8
TEXT
  5
7C6
 66
     1
 10
0.0
 20
0.0
 30
0.0
  0
VERTEX
  8
TEXT
  5
7C7
 10
-606.347086
 20
380.58659
 30
0.0
  0
VERTEX
  8
TEXT
  5
7C8
 10
-606.347086
 20
363.919923
 30
0.0
  0
VERTEX
  8
TEXT
  5
7C9
 10
-603.013752
 20
360.58659
 30
0.0
  0
SEQEND
  8
TEXT
  5
7CA
  0
POLYLINE
  8
TEXT
  5
7CD
 66
     1
 10
0.0
 20
0.0
 30
0.0
  0
VERTEX
  8
TEXT
  5
7CE
 10
-596.347086
 20
373.919923
 30
0.0
  0
VERTEX
  8
TEXT
  5
7CF
 10
-583.013752
 20
373.919923
 30
0.0
  0
SEQEND
  8
TEXT
  5
7D0
  0
POLYLINE
  8
TEXT
  5
7D1
 66
     1
 10
0.0
 20
0.0
 30
0.0
  0
VERTEX
  8
TEXT
  5
7D2
 10
-589.680419
 20
380.58659
 30
0.0
  0
VERTEX
  8
TEXT
  5
7D3
 10
-589.680419
 20
363.919923
 30
0.0
  0
VERTEX
  8
TEXT
  5
7D4
 10
-586.347086
 20
360.58659
 30
0.0
  0
VERTEX
  8
TEXT
  5
7D5
 10
-583.013752
 20
363.919923
 30
0.0
  0
SEQEND
  8
TEXT
  5
7D6
  0
POLYLINE
  8
TEXT
  5
7D9
 66
     1
 10
0.0
 20
0.0
 30
0.0
  0
VERTEX
  8
TEXT
  5
7DA
 10
-576.347086
 20
373.919923
 30
0.0
  0
VERTEX
  8
TEXT
  5
7DB
 10
-576.347086
 20
370.58659
 30
0.0
  0
SEQEND
  8
TEXT
  5
7DC
  0
POLYLINE
  8
TEXT
  5
7DD
 66
     1
 10
0.0
 20
0.0
 30
0.0
  0
VERTEX
  8
TEXT
  5
7DE
 10
-576.347086
 20
367.253256
 30
0.0
  0
VERTEX
  8
TEXT
  5
7DF
 10
-576.347086
 20
363.919923
 30
0.0
  0
SEQEND
  8
TEXT
  5
7E0
  0
POLYLINE
  8
TEXT
  5
7E3
 66
     1
 10
0.0
 20
0.0
 30
0.0
  0
VERTEX
  8
TEXT
  5
7E4
 10
-949.680419
 20
393.919923
 30
0.0
  0
VERTEX
  8
TEXT
  5
7E5
 10
-949.680419
 20
413.919923
 30
0.0
  0
VERTEX
  8
TEXT
  5
7E6
 10
-936.347086
 20
413.919923
 30
0.0
  0
SEQEND
  8
TEXT
  5
7E7
  0
POLYLINE
  8
TEXT
  5
7E8
 66
     1
 10
0.0
 20
0.0
 30
0.0
  0
VERTEX
  8
TEXT
  5
7E9
 10
-949.680419
 20
403.919923
 30
0.0
  0
VERTEX
  8
TEXT
  5
7EA
 10
-943.013752
 20
403.919923
 30
0.0
  0
SEQEND
  8
TEXT
  5
7EB
  0
POLYLINE
  8
TEXT
  5
7EE
 66
     1
 10
0.0
 20
0.0
 30
0.0
  0
VERTEX
  8
TEXT
  5
7EF
 10
-929.680419
 20
413.919923
 30
0.0
  0
VERTEX
  8
TEXT
  5
7F0
 10
-929.680419
 20
397.253256
 30
0.0
  0
VERTEX
  8
TEXT
  5
7F1
 10
-926.347086
 20
393.919923
 30
0.0
  0
SEQEND
  8
TEXT
  5
7F2
  0
POLYLINE
  8
TEXT
  5
7F5
 66
     1
 10
0.0
 20
0.0
 30
0.0
  0
VERTEX
  8
TEXT
  5
7F6
 10
-919.680419
 20
407.253256
 30
0.0
  0
VERTEX
  8
TEXT
  5
7F7
 10
-919.680419
 20
397.253256
 30
0.0
  0
VERTEX
  8
TEXT
  5
7F8
 10
-916.347086
 20
393.919923
 30
0.0
  0
VERTEX
  8
TEXT
  5
7F9
 10
-913.013752
 20
393.919923
 30
0.0
  0
VERTEX
  8
TEXT
  5
7FA
 10
-906.347086
 20
400.58659
 30
0.0
  0
SEQEND
  8
TEXT
  5
7FB
  0
POLYLINE
  8
TEXT
  5
7FC
 66
     1
 10
0.0
 20
0.0
 30
0.0
  0
VERTEX
  8
TEXT
  5
7FD
 10
-906.347086
 20
407.253256
 30
0.0
  0
VERTEX
  8
TEXT
  5
7FE
 10
-906.347086
 20
393.919923
 30
0.0
  0
SEQEND
  8
TEXT
  5
7FF
  0
POLYLINE
  8
TEXT
  5
802
 66
     1
 10
0.0
 20
0.0
 30
0.0
  0
VERTEX
  8
TEXT
  5
803
 10
-899.680419
 20
400.58659
 30
0.0
  0
VERTEX
  8
TEXT
  5
804
 10
-889.680419
 20
400.58659
 30
0.0
  0
VERTEX
  8
TEXT
  5
805
 10
-886.347086
 20
403.919923
 30
0.0
  0
VERTEX
  8
TEXT
  5
806
 10
-889.680419
 20
407.253256
 30
0.0
  0
VERTEX
  8
TEXT
  5
807
 10
-896.347086
 20
407.253256
 30
0.0
  0
VERTEX
  8
TEXT
  5
808
 10
-899.680419
 20
403.919923
 30
0.0
  0
VERTEX
  8
TEXT
  5
809
 10
-899.680419
 20
397.253256
 30
0.0
  0
VERTEX
  8
TEXT
  5
80A
 10
-896.347086
 20
393.919923
 30
0.0
  0
VERTEX
  8
TEXT
  5
80B
 10
-889.680419
 20
393.919923
 30
0.0
  0
SEQEND
  8
TEXT
  5
80C
  0
POLYLINE
  8
TEXT
  5
80F
 66
     1
 10
0.0
 20
0.0
 30
0.0
  0
VERTEX
  8
TEXT
  5
810
 10
-879.680419
 20
390.58659
 30
0.0
  0
VERTEX
  8
TEXT
  5
811
 10
-876.347086
 20
387.253256
 30
0.0
  0
VERTEX
  8
TEXT
  5
812
 10
-869.680419
 20
387.253256
 30
0.0
  0
VERTEX
  8
TEXT
  5
813
 10
-866.347086
 20
390.58659
 30
0.0
  0
VERTEX
  8
TEXT
  5
814
 10
-866.347086
 20
403.919923
 30
0.0
  0
VERTEX
  8
TEXT
  5
815
 10
-869.680419
 20
407.253256
 30
0.0
  0
VERTEX
  8
TEXT
  5
816
 10
-876.347086
 20
407.253256
 30
0.0
  0
VERTEX
  8
TEXT
  5
817
 10
-879.680419
 20
403.919923
 30
0.0
  0
VERTEX
  8
TEXT
  5
818
 10
-879.680419
 20
397.253256
 30
0.0
  0
VERTEX
  8
TEXT
  5
819
 10
-876.347086
 20
393.919923
 30
0.0
  0
VERTEX
  8
TEXT
  5
81A
 10
-866.347086
 20
393.919923
 30
0.0
  0
SEQEND
  8
TEXT
  5
81B
  0
POLYLINE
  8
TEXT
  5
81E
 66
     1
 10
0.0
 20
0.0
 30
0.0
  0
VERTEX
  8
TEXT
  5
81F
 10
-859.680419
 20
400.58659
 30
0.0
  0
VERTEX
  8
TEXT
  5
820
 10
-849.680419
 20
400.58659
 30
0.0
  0
VERTEX
  8
TEXT
  5
821
 10
-846.347086
 20
403.919923
 30
0.0
  0
VERTEX
  8
TEXT
  5
822
 10
-849.680419
 20
407.253256
 30
0.0
  0
VERTEX
  8
TEXT
  5
823
 10
-856.347086
 20
407.253256
 30
0.0
  0
VERTEX
  8
TEXT
  5
824
 10
-859.680419
 20
403.919923
 30
0.0
  0
VERTEX
  8
TEXT
  5
825
 10
-859.680419
 20
397.253256
 30
0.0
  0
VERTEX
  8
TEXT
  5
826
 10
-856.347086
 20
393.919923
 30
0.0
  0
VERTEX
  8
TEXT
  5
827
 10
-849.680419
 20
393.919923
 30
0.0
  0
SEQEND
  8
TEXT
  5
828
  0
POLYLINE
  8
TEXT
  5
82B
 66
     1
 10
0.0
 20
0.0
 30
0.0
  0
VERTEX
  8
TEXT
  5
82C
 10
-839.680419
 20
413.919923
 30
0.0
  0
VERTEX
  8
TEXT
  5
82D
 10
-839.680419
 20
397.253256
 30
0.0
  0
VERTEX
  8
TEXT
  5
82E
 10
-836.347086
 20
393.919923
 30
0.0
  0
SEQEND
  8
TEXT
  5
82F
  0
POLYLINE
  8
TEXT
  5
832
 66
     1
 10
0.0
 20
0.0
 30
0.0
  0
VERTEX
  8
TEXT
  5
833
 10
-829.680419
 20
393.919923
 30
0.0
  0
VERTEX
  8
TEXT
  5
834
 10
-829.680419
 20
407.253256
 30
0.0
  0
SEQEND
  8
TEXT
  5
835
  0
POLYLINE
  8
TEXT
  5
836
 66
     1
 10
0.0
 20
0.0
 30
0.0
  0
VERTEX
  8
TEXT
  5
837
 10
-829.680419
 20
410.58659
 30
0.0
  0
VERTEX
  8
TEXT
  5
838
 10
-829.680419
 20
413.919923
 30
0.0
  0
SEQEND
  8
TEXT
  5
839
  0
POLYLINE
  8
TEXT
  5
83C
 66
     1
 10
0.0
 20
0.0
 30
0.0
  0
VERTEX
  8
TEXT
  5
83D
 10
-823.013752
 20
393.919923
 30
0.0
  0
VERTEX
  8
TEXT
  5
83E
 10
-823.013752
 20
407.253256
 30
0.0
  0
SEQEND
  8
TEXT
  5
83F
  0
POLYLINE
  8
TEXT
  5
840
 66
     1
 10
0.0
 20
0.0
 30
0.0
  0
VERTEX
  8
TEXT
  5
841
 10
-823.013752
 20
400.58659
 30
0.0
  0
VERTEX
  8
TEXT
  5
842
 10
-816.347086
 20
407.253256
 30
0.0
  0
VERTEX
  8
TEXT
  5
843
 10
-813.013752
 20
407.253256
 30
0.0
  0
VERTEX
  8
TEXT
  5
844
 10
-809.680419
 20
403.919923
 30
0.0
  0
VERTEX
  8
TEXT
  5
845
 10
-809.680419
 20
393.919923
 30
0.0
  0
SEQEND
  8
TEXT
  5
846
  0
POLYLINE
  8
TEXT
  5
849
 66
     1
 10
0.0
 20
0.0
 30
0.0
  0
VERTEX
  8
TEXT
  5
84A
 10
-803.013752
 20
393.919923
 30
0.0
  0
VERTEX
  8
TEXT
  5
84B
 10
-803.013752
 20
413.919923
 30
0.0
  0
SEQEND
  8
TEXT
  5
84C
  0
POLYLINE
  8
TEXT
  5
84D
 66
     1
 10
0.0
 20
0.0
 30
0.0
  0
VERTEX
  8
TEXT
  5
84E
 10
-803.013752
 20
400.58659
 30
0.0
  0
VERTEX
  8
TEXT
  5
84F
 10
-796.347086
 20
407.253256
 30
0.0
  0
VERTEX
  8
TEXT
  5
850
 10
-793.013752
 20
407.253256
 30
0.0
  0
VERTEX
  8
TEXT
  5
851
 10
-789.680419
 20
403.919923
 30
0.0
  0
VERTEX
  8
TEXT
  5
852
 10
-789.680419
 20
393.919923
 30
0.0
  0
SEQEND
  8
TEXT
  5
853
  0
POLYLINE
  8
TEXT
  5
856
 66
     1
 10
0.0
 20
0.0
 30
0.0
  0
VERTEX
  8
TEXT
  5
857
 10
-776.347086
 20
393.919923
 30
0.0
  0
VERTEX
  8
TEXT
  5
858
 10
-779.680419
 20
393.919923
 30
0.0
  0
VERTEX
  8
TEXT
  5
859
 10
-783.013752
 20
397.253256
 30
0.0
  0
VERTEX
  8
TEXT
  5
85A
 10
-783.013752
 20
403.919923
 30
0.0
  0
VERTEX
  8
TEXT
  5
85B
 10
-779.680419
 20
407.253256
 30
0.0
  0
VERTEX
  8
TEXT
  5
85C
 10
-776.347086
 20
407.253256
 30
0.0
  0
VERTEX
  8
TEXT
  5
85D
 10
-773.013752
 20
403.919923
 30
0.0
  0
VERTEX
  8
TEXT
  5
85E
 10
-773.013752
 20
397.253256
 30
0.0
  0
VERTEX
  8
TEXT
  5
85F
 10
-776.347086
 20
393.919923
 30
0.0
  0
SEQEND
  8
TEXT
  5
860
  0
POLYLINE
  8
TEXT
  5
861
 66
     1
 10
0.0
 20
0.0
 30
0.0
  0
VERTEX
  8
TEXT
  5
862
 10
-773.013752
 20
397.253256
 30
0.0
  0
VERTEX
  8
TEXT
  5
863
 10
-769.680419
 20
393.919923
 30
0.0
  0
SEQEND
  8
TEXT
  5
864
  0
POLYLINE
  8
TEXT
  5
867
 66
     1
 10
0.0
 20
0.0
 30
0.0
  0
VERTEX
  8
TEXT
  5
868
 10
-763.013752
 20
413.919923
 30
0.0
  0
VERTEX
  8
TEXT
  5
869
 10
-763.013752
 20
397.253256
 30
0.0
  0
VERTEX
  8
TEXT
  5
86A
 10
-759.680419
 20
393.919923
 30
0.0
  0
SEQEND
  8
TEXT
  5
86B
  0
POLYLINE
  8
TEXT
  5
86E
 66
     1
 10
0.0
 20
0.0
 30
0.0
  0
VERTEX
  8
TEXT
  5
86F
 10
-753.013752
 20
407.253256
 30
0.0
  0
VERTEX
  8
TEXT
  5
870
 10
-739.680419
 20
407.253256
 30
0.0
  0
SEQEND
  8
TEXT
  5
871
  0
POLYLINE
  8
TEXT
  5
872
 66
     1
 10
0.0
 20
0.0
 30
0.0
  0
VERTEX
  8
TEXT
  5
873
 10
-746.347086
 20
413.919923
 30
0.0
  0
VERTEX
  8
TEXT
  5
874
 10
-746.347086
 20
397.253256
 30
0.0
  0
VERTEX
  8
TEXT
  5
875
 10
-743.013752
 20
393.919923
 30
0.0
  0
VERTEX
  8
TEXT
  5
876
 10
-739.680419
 20
397.253256
 30
0.0
  0
SEQEND
  8
TEXT
  5
877
  0
POLYLINE
  8
TEXT
  5
87A
 66
     1
 10
0.0
 20
0.0
 30
0.0
  0
VERTEX
  8
TEXT
  5
87B
 10
-733.013752
 20
407.253256
 30
0.0
  0
VERTEX
  8
TEXT
  5
87C
 10
-733.013752
 20
403.919923
 30
0.0
  0
SEQEND
  8
TEXT
  5
87D
  0
POLYLINE
  8
TEXT
  5
87E
 66
     1
 10
0.0
 20
0.0
 30
0.0
  0
VERTEX
  8
TEXT
  5
87F
 10
-733.013752
 20
400.58659
 30
0.0
  0
VERTEX
  8
TEXT
  5
880
 10
-733.013752
 20
397.253256
 30
0.0
  0
SEQEND
  8
TEXT
  5
881
  0
POLYLINE
  8
TEXT
  5
884
 66
     1
 10
0.0
 20
0.0
 30
0.0
  0
VERTEX
  8
TEXT
  5
885
 10
-939.680419
 20
437.253256
 30
0.0
  0
VERTEX
  8
TEXT
  5
886
 10
-936.347086
 20
437.253256
 30
0.0
  0
VERTEX
  8
TEXT
  5
887
 10
-936.347086
 20
427.253256
 30
0.0
  0
VERTEX
  8
TEXT
  5
888
 10
-946.347086
 20
427.253256
 30
0.0
  0
VERTEX
  8
TEXT
  5
889
 10
-949.680419
 20
430.58659
 30
0.0
  0
VERTEX
  8
TEXT
  5
88A
 10
-949.680419
 20
443.919923
 30
0.0
  0
VERTEX
  8
TEXT
  5
88B
 10
-946.347086
 20
447.253256
 30
0.0
  0
VERTEX
  8
TEXT
  5
88C
 10
-936.347086
 20
447.253256
 30
0.0
  0
SEQEND
  8
TEXT
  5
88D
  0
POLYLINE
  8
TEXT
  5
890
 66
     1
 10
0.0
 20
0.0
 30
0.0
  0
VERTEX
  8
TEXT
  5
891
 10
-929.680419
 20
433.919923
 30
0.0
  0
VERTEX
  8
TEXT
  5
892
 10
-919.680419
 20
433.919923
 30
0.0
  0
VERTEX
  8
TEXT
  5
893
 10
-916.347086
 20
437.253256
 30
0.0
  0
VERTEX
  8
TEXT
  5
894
 10
-919.680419
 20
440.58659
 30
0.0
  0
VERTEX
  8
TEXT
  5
895
 10
-926.347086
 20
440.58659
 30
0.0
  0
VERTEX
  8
TEXT
  5
896
 10
-929.680419
 20
437.253256
 30
0.0
  0
VERTEX
  8
TEXT
  5
897
 10
-929.680419
 20
430.58659
 30
0.0
  0
VERTEX
  8
TEXT
  5
898
 10
-926.347086
 20
427.253256
 30
0.0
  0
VERTEX
  8
TEXT
  5
899
 10
-919.680419
 20
427.253256
 30
0.0
  0
SEQEND
  8
TEXT
  5
89A
  0
POLYLINE
  8
TEXT
  5
89D
 66
     1
 10
0.0
 20
0.0
 30
0.0
  0
VERTEX
  8
TEXT
  5
89E
 10
-909.680419
 20
440.58659
 30
0.0
  0
VERTEX
  8
TEXT
  5
89F
 10
-906.347086
 20
427.253256
 30
0.0
  0
VERTEX
  8
TEXT
  5
8A0
 10
-903.013752
 20
440.58659
 30
0.0
  0
VERTEX
  8
TEXT
  5
8A1
 10
-899.680419
 20
427.253256
 30
0.0
  0
VERTEX
  8
TEXT
  5
8A2
 10
-896.347086
 20
440.58659
 30
0.0
  0
SEQEND
  8
TEXT
  5
8A3
  0
POLYLINE
  8
TEXT
  5
8A6
 66
     1
 10
0.0
 20
0.0
 30
0.0
  0
VERTEX
  8
TEXT
  5
8A7
 10
-889.680419
 20
427.253256
 30
0.0
  0
VERTEX
  8
TEXT
  5
8A8
 10
-889.680419
 20
440.58659
 30
0.0
  0
SEQEND
  8
TEXT
  5
8A9
  0
POLYLINE
  8
TEXT
  5
8AA
 66
     1
 10
0.0
 20
0.0
 30
0.0
  0
VERTEX
  8
TEXT
  5
8AB
 10
-889.680419
 20
443.919923
 30
0.0
  0
VERTEX
  8
TEXT
  5
8AC
 10
-889.680419
 20
447.253256
 30
0.0
  0
SEQEND
  8
TEXT
  5
8AD
  0
POLYLINE
  8
TEXT
  5
8B0
 66
     1
 10
0.0
 20
0.0
 30
0.0
  0
VERTEX
  8
TEXT
  5
8B1
 10
-869.680419
 20
440.58659
 30
0.0
  0
VERTEX
  8
TEXT
  5
8B2
 10
-879.680419
 20
440.58659
 30
0.0
  0
VERTEX
  8
TEXT
  5
8B3
 10
-883.013752
 20
437.253256
 30
0.0
  0
VERTEX
  8
TEXT
  5
8B4
 10
-883.013752
 20
430.58659
 30
0.0
  0
VERTEX
  8
TEXT
  5
8B5
 10
-879.680419
 20
427.253256
 30
0.0
  0
VERTEX
  8
TEXT
  5
8B6
 10
-869.680419
 20
427.253256
 30
0.0
  0
SEQEND
  8
TEXT
  5
8B7
  0
POLYLINE
  8
TEXT
  5
8BA
 66
     1
 10
0.0
 20
0.0
 30
0.0
  0
VERTEX
  8
TEXT
  5
8BB
 10
-863.013752
 20
427.253256
 30
0.0
  0
VERTEX
  8
TEXT
  5
8BC
 10
-863.013752
 20
447.253256
 30
0.0
  0
SEQEND
  8
TEXT
  5
8BD
  0
POLYLINE
  8
TEXT
  5
8BE
 66
     1
 10
0.0
 20
0.0
 30
0.0
  0
VERTEX
  8
TEXT
  5
8BF
 10
-863.013752
 20
433.919923
 30
0.0
  0
VERTEX
  8
TEXT
  5
8C0
 10
-856.347086
 20
440.58659
 30
0.0
  0
VERTEX
  8
TEXT
  5
8C1
 10
-853.013752
 20
440.58659
 30
0.0
  0
VERTEX
  8
TEXT
  5
8C2
 10
-849.680419
 20
437.253256
 30
0.0
  0
VERTEX
  8
TEXT
  5
8C3
 10
-849.680419
 20
427.253256
 30
0.0
  0
SEQEND
  8
TEXT
  5
8C4
  0
POLYLINE
  8
TEXT
  5
8C7
 66
     1
 10
0.0
 20
0.0
 30
0.0
  0
VERTEX
  8
TEXT
  5
8C8
 10
-843.013752
 20
440.58659
 30
0.0
  0
VERTEX
  8
TEXT
  5
8C9
 10
-829.680419
 20
440.58659
 30
0.0
  0
SEQEND
  8
TEXT
  5
8CA
  0
POLYLINE
  8
TEXT
  5
8CB
 66
     1
 10
0.0
 20
0.0
 30
0.0
  0
VERTEX
  8
TEXT
  5
8CC
 10
-836.347086
 20
447.253256
 30
0.0
  0
VERTEX
  8
TEXT
  5
8CD
 10
-836.347086
 20
430.58659
 30
0.0
  0
VERTEX
  8
TEXT
  5
8CE
 10
-833.013752
 20
427.253256
 30
0.0
  0
VERTEX
  8
TEXT
  5
8CF
 10
-829.680419
 20
430.58659
 30
0.0
  0
SEQEND
  8
TEXT
  5
8D0
  0
POLYLINE
  8
TEXT
  5
8D3
 66
     1
 10
0.0
 20
0.0
 30
0.0
  0
VERTEX
  8
TEXT
  5
8D4
 10
-823.013752
 20
440.58659
 30
0.0
  0
VERTEX
  8
TEXT
  5
8D5
 10
-823.013752
 20
437.253256
 30
0.0
  0
SEQEND
  8
TEXT
  5
8D6
  0
POLYLINE
  8
TEXT
  5
8D7
 66
     1
 10
0.0
 20
0.0
 30
0.0
  0
VERTEX
  8
TEXT
  5
8D8
 10
-823.013752
 20
433.919923
 30
0.0
  0
VERTEX
  8
TEXT
  5
8D9
 10
-823.013752
 20
430.58659
 30
0.0
  0
SEQEND
  8
TEXT
  5
8DA
  0
POLYLINE
  8
TEXT
  5
8DD
 66
     1
 10
0.0
 20
0.0
 30
0.0
  0
VERTEX
  8
TEXT
  5
8DE
 10
-949.680419
 20
460.58659
 30
0.0
  0
VERTEX
  8
TEXT
  5
8DF
 10
-949.680419
 20
480.58659
 30
0.0
  0
VERTEX
  8
TEXT
  5
8E0
 10
-943.013752
 20
467.253256
 30
0.0
  0
VERTEX
  8
TEXT
  5
8E1
 10
-936.347086
 20
480.58659
 30
0.0
  0
VERTEX
  8
TEXT
  5
8E2
 10
-936.347086
 20
460.58659
 30
0.0
  0
SEQEND
  8
TEXT
  5
8E3
  0
POLYLINE
  8
TEXT
  5
8E6
 66
     1
 10
0.0
 20
0.0
 30
0.0
  0
VERTEX
  8
TEXT
  5
8E7
 10
-923.013752
 20
460.58659
 30
0.0
  0
VERTEX
  8
TEXT
  5
8E8
 10
-926.347086
 20
460.58659
 30
0.0
  0
VERTEX
  8
TEXT
  5
8E9
 10
-929.680419
 20
463.919923
 30
0.0
  0
VERTEX
  8
TEXT
  5
8EA
 10
-929.680419
 20
470.58659
 30
0.0
  0
VERTEX
  8
TEXT
  5
8EB
 10
-926.347086
 20
473.919923
 30
0.0
  0
VERTEX
  8
TEXT
  5
8EC
 10
-923.013752
 20
473.919923
 30
0.0
  0
VERTEX
  8
TEXT
  5
8ED
 10
-919.680419
 20
470.58659
 30
0.0
  0
VERTEX
  8
TEXT
  5
8EE
 10
-919.680419
 20
463.919923
 30
0.0
  0
VERTEX
  8
TEXT
  5
8EF
 10
-923.013752
 20
460.58659
 30
0.0
  0
SEQEND
  8
TEXT
  5
8F0
  0
POLYLINE
  8
TEXT
  5
8F1
 66
     1
 10
0.0
 20
0.0
 30
0.0
  0
VERTEX
  8
TEXT
  5
8F2
 10
-919.680419
 20
463.919923
 30
0.0
  0
VERTEX
  8
TEXT
  5
8F3
 10
-916.347086
 20
460.58659
 30
0.0
  0
SEQEND
  8
TEXT
  5
8F4
  0
POLYLINE
  8
TEXT
  5
8F7
 66
     1
 10
0.0
 20
0.0
 30
0.0
  0
VERTEX
  8
TEXT
  5
8F8
 10
-909.680419
 20
460.58659
 30
0.0
  0
VERTEX
  8
TEXT
  5
8F9
 10
-899.680419
 20
460.58659
 30
0.0
  0
VERTEX
  8
TEXT
  5
8FA
 10
-896.347086
 20
463.919923
 30
0.0
  0
VERTEX
  8
TEXT
  5
8FB
 10
-899.680419
 20
467.253256
 30
0.0
  0
VERTEX
  8
TEXT
  5
8FC
 10
-906.347086
 20
467.253256
 30
0.0
  0
VERTEX
  8
TEXT
  5
8FD
 10
-909.680419
 20
470.58659
 30
0.0
  0
VERTEX
  8
TEXT
  5
8FE
 10
-906.347086
 20
473.919923
 30
0.0
  0
VERTEX
  8
TEXT
  5
8FF
 10
-896.347086
 20
473.919923
 30
0.0
  0
SEQEND
  8
TEXT
  5
900
  0
POLYLINE
  8
TEXT
  5
903
 66
     1
 10
0.0
 20
0.0
 30
0.0
  0
VERTEX
  8
TEXT
  5
904
 10
-889.680419
 20
460.58659
 30
0.0
  0
VERTEX
  8
TEXT
  5
905
 10
-879.680419
 20
460.58659
 30
0.0
  0
VERTEX
  8
TEXT
  5
906
 10
-876.347086
 20
463.919923
 30
0.0
  0
VERTEX
  8
TEXT
  5
907
 10
-879.680419
 20
467.253256
 30
0.0
  0
VERTEX
  8
TEXT
  5
908
 10
-886.347086
 20
467.253256
 30
0.0
  0
VERTEX
  8
TEXT
  5
909
 10
-889.680419
 20
470.58659
 30
0.0
  0
VERTEX
  8
TEXT
  5
90A
 10
-886.347086
 20
473.919923
 30
0.0
  0
VERTEX
  8
TEXT
  5
90B
 10
-876.347086
 20
473.919923
 30
0.0
  0
SEQEND
  8
TEXT
  5
90C
  0
POLYLINE
  8
TEXT
  5
90F
 66
     1
 10
0.0
 20
0.0
 30
0.0
  0
VERTEX
  8
TEXT
  5
910
 10
-869.680419
 20
473.919923
 30
0.0
  0
VERTEX
  8
TEXT
  5
911
 10
-856.347086
 20
473.919923
 30
0.0
  0
SEQEND
  8
TEXT
  5
912
  0
POLYLINE
  8
TEXT
  5
913
 66
     1
 10
0.0
 20
0.0
 30
0.0
  0
VERTEX
  8
TEXT
  5
914
 10
-863.013752
 20
480.58659
 30
0.0
  0
VERTEX
  8
TEXT
  5
915
 10
-863.013752
 20
463.919923
 30
0.0
  0
VERTEX
  8
TEXT
  5
916
 10
-859.680419
 20
460.58659
 30
0.0
  0
VERTEX
  8
TEXT
  5
917
 10
-856.347086
 20
463.919923
 30
0.0
  0
SEQEND
  8
TEXT
  5
918
  0
POLYLINE
  8
TEXT
  5
91B
 66
     1
 10
0.0
 20
0.0
 30
0.0
  0
VERTEX
  8
TEXT
  5
91C
 10
-843.013752
 20
460.58659
 30
0.0
  0
VERTEX
  8
TEXT
  5
91D
 10
-846.347086
 20
460.58659
 30
0.0
  0
VERTEX
  8
TEXT
  5
91E
 10
-849.680419
 20
463.919923
 30
0.0
  0
VERTEX
  8
TEXT
  5
91F
 10
-849.680419
 20
470.58659
 30
0.0
  0
VERTEX
  8
TEXT
  5
920
 10
-846.347086
 20
473.919923
 30
0.0
  0
VERTEX
  8
TEXT
  5
921
 10
-843.013752
 20
473.919923
 30
0.0
  0
VERTEX
  8
TEXT
  5
922
 10
-839.680419
 20
470.58659
 30
0.0
  0
VERTEX
  8
TEXT
  5
923
 10
-839.680419
 20
463.919923
 30
0.0
  0
VERTEX
  8
TEXT
  5
924
 10
-843.013752
 20
460.58659
 30
0.0
  0
SEQEND
  8
TEXT
  5
925
  0
POLYLINE
  8
TEXT
  5
926
 66
     1
 10
0.0
 20
0.0
 30
0.0
  0
VERTEX
  8
TEXT
  5
927
 10
-839.680419
 20
463.919923
 30
0.0
  0
VERTEX
  8
TEXT
  5
928
 10
-836.347086
 20
460.58659
 30
0.0
  0
SEQEND
  8
TEXT
  5
929
  0
POLYLINE
  8
TEXT
  5
92C
 66
     1
 10
0.0
 20
0.0
 30
0.0
  0
VERTEX
  8
TEXT
  5
92D
 10
-829.680419
 20
460.58659
 30
0.0
  0
VERTEX
  8
TEXT
  5
92E
 10
-829.680419
 20
480.58659
 30
0.0
  0
SEQEND
  8
TEXT
  5
92F
  0
POLYLINE
  8
TEXT
  5
930
 66
     1
 10
0.0
 20
0.0
 30
0.0
  0
VERTEX
  8
TEXT
  5
931
 10
-829.680419
 20
467.253256
 30
0.0
  0
VERTEX
  8
TEXT
  5
932
 10
-823.013752
 20
473.919923
 30
0.0
  0
VERTEX
  8
TEXT
  5
933
 10
-819.680419
 20
473.919923
 30
0.0
  0
VERTEX
  8
TEXT
  5
934
 10
-816.347086
 20
470.58659
 30
0.0
  0
VERTEX
  8
TEXT
  5
935
 10
-816.347086
 20
463.919923
 30
0.0
  0
VERTEX
  8
TEXT
  5
936
 10
-819.680419
 20
460.58659
 30
0.0
  0
VERTEX
  8
TEXT
  5
937
 10
-823.013752
 20
460.58659
 30
0.0
  0
VERTEX
  8
TEXT
  5
938
 10
-829.680419
 20
467.253256
 30
0.0
  0
SEQEND
  8
TEXT
  5
939
  0
POLYLINE
  8
TEXT
  5
93C
 66
     1
 10
0.0
 20
0.0
 30
0.0
  0
VERTEX
  8
TEXT
  5
93D
 10
-809.680419
 20
473.919923
 30
0.0
  0
VERTEX
  8
TEXT
  5
93E
 10
-809.680419
 20
470.58659
 30
0.0
  0
SEQEND
  8
TEXT
  5
93F
  0
POLYLINE
  8
TEXT
  5
940
 66
     1
 10
0.0
 20
0.0
 30
0.0
  0
VERTEX
  8
TEXT
  5
941
 10
-809.680419
 20
467.253256
 30
0.0
  0
VERTEX
  8
TEXT
  5
942
 10
-809.680419
 20
463.919923
 30
0.0
  0
SEQEND
  8
TEXT
  5
943
  0
POLYLINE
  8
TEXT
  5
946
 66
     1
 10
0.0
 20
0.0
 30
0.0
  0
VERTEX
  8
TEXT
  5
947
 10
-472.487177
 20
343.919923
 30
0.0
  0
VERTEX
  8
TEXT
  5
948
 10
-469.153844
 20
347.253256
 30
0.0
  0
VERTEX
  8
TEXT
  5
949
 10
-462.487177
 20
347.253256
 30
0.0
  0
VERTEX
  8
TEXT
  5
94A
 10
-459.153844
 20
343.919923
 30
0.0
  0
VERTEX
  8
TEXT
  5
94B
 10
-459.153844
 20
340.58659
 30
0.0
  0
VERTEX
  8
TEXT
  5
94C
 10
-462.487177
 20
337.253256
 30
0.0
  0
VERTEX
  8
TEXT
  5
94D
 10
-465.820511
 20
337.253256
 30
0.0
  0
SEQEND
  8
TEXT
  5
94E
  0
POLYLINE
  8
TEXT
  5
94F
 66
     1
 10
0.0
 20
0.0
 30
0.0
  0
VERTEX
  8
TEXT
  5
950
 10
-462.487177
 20
337.253256
 30
0.0
  0
VERTEX
  8
TEXT
  5
951
 10
-459.153844
 20
333.919923
 30
0.0
  0
VERTEX
  8
TEXT
  5
952
 10
-459.153844
 20
330.58659
 30
0.0
  0
VERTEX
  8
TEXT
  5
953
 10
-462.487177
 20
327.253256
 30
0.0
  0
VERTEX
  8
TEXT
  5
954
 10
-469.153844
 20
327.253256
 30
0.0
  0
VERTEX
  8
TEXT
  5
955
 10
-472.487177
 20
330.58659
 30
0.0
  0
SEQEND
  8
TEXT
  5
956
  0
POLYLINE
  8
TEXT
  5
959
 66
     1
 10
0.0
 20
0.0
 30
0.0
  0
VERTEX
  8
TEXT
  5
95A
 10
-452.487177
 20
343.919923
 30
0.0
  0
VERTEX
  8
TEXT
  5
95B
 10
-449.153844
 20
347.253256
 30
0.0
  0
VERTEX
  8
TEXT
  5
95C
 10
-449.153844
 20
327.253256
 30
0.0
  0
SEQEND
  8
TEXT
  5
95D
  0
POLYLINE
  8
TEXT
  5
95E
 66
     1
 10
0.0
 20
0.0
 30
0.0
  0
VERTEX
  8
TEXT
  5
95F
 10
-452.487177
 20
327.253256
 30
0.0
  0
VERTEX
  8
TEXT
  5
960
 10
-445.820511
 20
327.253256
 30
0.0
  0
SEQEND
  8
TEXT
  5
961
  0
POLYLINE
  8
TEXT
  5
964
 66
     1
 10
0.0
 20
0.0
 30
0.0
  0
VERTEX
  8
TEXT
  5
965
 10
-439.153844
 20
327.253256
 30
0.0
  0
VERTEX
  8
TEXT
  5
966
 10
-439.153844
 20
330.58659
 30
0.0
  0
SEQEND
  8
TEXT
  5
967
  0
POLYLINE
  8
TEXT
  5
96A
 66
     1
 10
0.0
 20
0.0
 30
0.0
  0
VERTEX
  8
TEXT
  5
96B
 10
-419.153844
 20
333.919923
 30
0.0
  0
VERTEX
  8
TEXT
  5
96C
 10
-432.487177
 20
333.919923
 30
0.0
  0
VERTEX
  8
TEXT
  5
96D
 10
-422.487177
 20
347.253256
 30
0.0
  0
VERTEX
  8
TEXT
  5
96E
 10
-422.487177
 20
327.253256
 30
0.0
  0
SEQEND
  8
TEXT
  5
96F
  0
POLYLINE
  8
TEXT
  5
974
 66
     1
 10
0.0
 20
0.0
 30
0.0
  0
VERTEX
  8
TEXT
  5
975
 10
-392.487177
 20
323.919923
 30
0.0
  0
VERTEX
  8
TEXT
  5
976
 10
-389.153844
 20
320.58659
 30
0.0
  0
VERTEX
  8
TEXT
  5
977
 10
-382.487177
 20
320.58659
 30
0.0
  0
VERTEX
  8
TEXT
  5
978
 10
-379.153844
 20
323.919923
 30
0.0
  0
VERTEX
  8
TEXT
  5
979
 10
-379.153844
 20
337.253256
 30
0.0
  0
VERTEX
  8
TEXT
  5
97A
 10
-382.487177
 20
340.58659
 30
0.0
  0
VERTEX
  8
TEXT
  5
97B
 10
-389.153844
 20
340.58659
 30
0.0
  0
VERTEX
  8
TEXT
  5
97C
 10
-392.487177
 20
337.253256
 30
0.0
  0
VERTEX
  8
TEXT
  5
97D
 10
-392.487177
 20
330.58659
 30
0.0
  0
VERTEX
  8
TEXT
  5
97E
 10
-389.153844
 20
327.253256
 30
0.0
  0
VERTEX
  8
TEXT
  5
97F
 10
-379.153844
 20
327.253256
 30
0.0
  0
SEQEND
  8
TEXT
  5
980
  0
POLYLINE
  8
TEXT
  5
983
 66
     1
 10
0.0
 20
0.0
 30
0.0
  0
VERTEX
  8
TEXT
  5
984
 10
-372.487177
 20
327.253256
 30
0.0
  0
VERTEX
  8
TEXT
  5
985
 10
-359.153844
 20
347.253256
 30
0.0
  0
SEQEND
  8
TEXT
  5
986
  0
POLYLINE
  8
TEXT
  5
989
 66
     1
 10
0.0
 20
0.0
 30
0.0
  0
VERTEX
  8
TEXT
  5
98A
 10
-339.153844
 20
320.58659
 30
0.0
  0
VERTEX
  8
TEXT
  5
98B
 10
-339.153844
 20
340.58659
 30
0.0
  0
SEQEND
  8
TEXT
  5
98C
  0
POLYLINE
  8
TEXT
  5
98D
 66
     1
 10
0.0
 20
0.0
 30
0.0
  0
VERTEX
  8
TEXT
  5
98E
 10
-339.153844
 20
337.253256
 30
0.0
  0
VERTEX
  8
TEXT
  5
98F
 10
-342.487177
 20
340.58659
 30
0.0
  0
VERTEX
  8
TEXT
  5
990
 10
-349.153844
 20
340.58659
 30
0.0
  0
VERTEX
  8
TEXT
  5
991
 10
-352.487177
 20
337.253256
 30
0.0
  0
VERTEX
  8
TEXT
  5
992
 10
-352.487177
 20
330.58659
 30
0.0
  0
VERTEX
  8
TEXT
  5
993
 10
-349.153844
 20
327.253256
 30
0.0
  0
VERTEX
  8
TEXT
  5
994
 10
-339.153844
 20
327.253256
 30
0.0
  0
SEQEND
  8
TEXT
  5
995
  0
POLYLINE
  8
TEXT
  5
998
 66
     1
 10
0.0
 20
0.0
 30
0.0
  0
VERTEX
  8
TEXT
  5
999
 10
-319.153844
 20
333.919923
 30
0.0
  0
VERTEX
  8
TEXT
  5
99A
 10
-325.820511
 20
327.253256
 30
0.0
  0
VERTEX
  8
TEXT
  5
99B
 10
-329.153844
 20
327.253256
 30
0.0
  0
VERTEX
  8
TEXT
  5
99C
 10
-332.487177
 20
330.58659
 30
0.0
  0
VERTEX
  8
TEXT
  5
99D
 10
-332.487177
 20
337.253256
 30
0.0
  0
VERTEX
  8
TEXT
  5
99E
 10
-329.153844
 20
340.58659
 30
0.0
  0
VERTEX
  8
TEXT
  5
99F
 10
-325.820511
 20
340.58659
 30
0.0
  0
VERTEX
  8
TEXT
  5
9A0
 10
-319.153844
 20
333.919923
 30
0.0
  0
SEQEND
  8
TEXT
  5
9A1
  0
POLYLINE
  8
TEXT
  5
9A2
 66
     1
 10
0.0
 20
0.0
 30
0.0
  0
VERTEX
  8
TEXT
  5
9A3
 10
-319.153844
 20
347.253256
 30
0.0
  0
VERTEX
  8
TEXT
  5
9A4
 10
-319.153844
 20
327.253256
 30
0.0
  0
SEQEND
  8
TEXT
  5
9A5
  0
POLYLINE
  8
TEXT
  5
9A8
 66
     1
 10
0.0
 20
0.0
 30
0.0
  0
VERTEX
  8
TEXT
  5
9A9
 10
-312.487177
 20
327.253256
 30
0.0
  0
VERTEX
  8
TEXT
  5
9AA
 10
-312.487177
 20
340.58659
 30
0.0
  0
SEQEND
  8
TEXT
  5
9AB
  0
POLYLINE
  8
TEXT
  5
9AC
 66
     1
 10
0.0
 20
0.0
 30
0.0
  0
VERTEX
  8
TEXT
  5
9AD
 10
-312.487177
 20
337.253256
 30
0.0
  0
VERTEX
  8
TEXT
  5
9AE
 10
-309.153844
 20
340.58659
 30
0.0
  0
VERTEX
  8
TEXT
  5
9AF
 10
-305.820511
 20
337.253256
 30
0.0
  0
VERTEX
  8
TEXT
  5
9B0
 10
-305.820511
 20
333.919923
 30
0.0
  0
SEQEND
  8
TEXT
  5
9B1
  0
POLYLINE
  8
TEXT
  5
9B2
 66
     1
 10
0.0
 20
0.0
 30
0.0
  0
VERTEX
  8
TEXT
  5
9B3
 10
-305.820511
 20
337.253256
 30
0.0
  0
VERTEX
  8
TEXT
  5
9B4
 10
-302.487177
 20
340.58659
 30
0.0
  0
VERTEX
  8
TEXT
  5
9B5
 10
-299.153844
 20
337.253256
 30
0.0
  0
VERTEX
  8
TEXT
  5
9B6
 10
-299.153844
 20
327.253256
 30
0.0
  0
SEQEND
  8
TEXT
  5
9B7
  0
POLYLINE
  8
TEXT
  5
9BA
 66
     1
 10
0.0
 20
0.0
 30
0.0
  0
VERTEX
  8
TEXT
  5
9BB
 10
-469.153844
 20
360.58659
 30
0.0
  0
VERTEX
  8
TEXT
  5
9BC
 10
-472.487177
 20
363.919923
 30
0.0
  0
VERTEX
  8
TEXT
  5
9BD
 10
-472.487177
 20
367.253256
 30
0.0
  0
VERTEX
  8
TEXT
  5
9BE
 10
-469.153844
 20
370.58659
 30
0.0
  0
VERTEX
  8
TEXT
  5
9BF
 10
-462.487177
 20
370.58659
 30
0.0
  0
VERTEX
  8
TEXT
  5
9C0
 10
-459.153844
 20
373.919923
 30
0.0
  0
VERTEX
  8
TEXT
  5
9C1
 10
-459.153844
 20
377.253256
 30
0.0
  0
VERTEX
  8
TEXT
  5
9C2
 10
-462.487177
 20
380.58659
 30
0.0
  0
VERTEX
  8
TEXT
  5
9C3
 10
-469.153844
 20
380.58659
 30
0.0
  0
VERTEX
  8
TEXT
  5
9C4
 10
-472.487177
 20
377.253256
 30
0.0
  0
VERTEX
  8
TEXT
  5
9C5
 10
-472.487177
 20
373.919923
 30
0.0
  0
VERTEX
  8
TEXT
  5
9C6
 10
-469.153844
 20
370.58659
 30
0.0
  0
SEQEND
  8
TEXT
  5
9C7
  0
POLYLINE
  8
TEXT
  5
9C8
 66
     1
 10
0.0
 20
0.0
 30
0.0
  0
VERTEX
  8
TEXT
  5
9C9
 10
-462.487177
 20
370.58659
 30
0.0
  0
VERTEX
  8
TEXT
  5
9CA
 10
-459.153844
 20
367.253256
 30
0.0
  0
VERTEX
  8
TEXT
  5
9CB
 10
-459.153844
 20
363.919923
 30
0.0
  0
VERTEX
  8
TEXT
  5
9CC
 10
-462.487177
 20
360.58659
 30
0.0
  0
VERTEX
  8
TEXT
  5
9CD
 10
-469.153844
 20
360.58659
 30
0.0
  0
SEQEND
  8
TEXT
  5
9CE
  0
POLYLINE
  8
TEXT
  5
9D1
 66
     1
 10
0.0
 20
0.0
 30
0.0
  0
VERTEX
  8
TEXT
  5
9D2
 10
-452.487177
 20
360.58659
 30
0.0
  0
VERTEX
  8
TEXT
  5
9D3
 10
-452.487177
 20
363.919923
 30
0.0
  0
SEQEND
  8
TEXT
  5
9D4
  0
POLYLINE
  8
TEXT
  5
9D7
 66
     1
 10
0.0
 20
0.0
 30
0.0
  0
VERTEX
  8
TEXT
  5
9D8
 10
-445.820511
 20
370.58659
 30
0.0
  0
VERTEX
  8
TEXT
  5
9D9
 10
-435.820511
 20
370.58659
 30
0.0
  0
VERTEX
  8
TEXT
  5
9DA
 10
-432.487177
 20
367.253256
 30
0.0
  0
VERTEX
  8
TEXT
  5
9DB
 10
-432.487177
 20
363.919923
 30
0.0
  0
VERTEX
  8
TEXT
  5
9DC
 10
-435.820511
 20
360.58659
 30
0.0
  0
VERTEX
  8
TEXT
  5
9DD
 10
-442.487177
 20
360.58659
 30
0.0
  0
VERTEX
  8
TEXT
  5
9DE
 10
-445.820511
 20
363.919923
 30
0.0
  0
VERTEX
  8
TEXT
  5
9DF
 10
-445.820511
 20
373.919923
 30
0.0
  0
VERTEX
  8
TEXT
  5
9E0
 10
-439.153844
 20
380.58659
 30
0.0
  0
VERTEX
  8
TEXT
  5
9E1
 10
-435.820511
 20
380.58659
 30
0.0
  0
SEQEND
  8
TEXT
  5
9E2
  0
POLYLINE
  8
TEXT
  5
9E7
 66
     1
 10
0.0
 20
0.0
 30
0.0
  0
VERTEX
  8
TEXT
  5
9E8
 10
-392.487177
 20
353.919923
 30
0.0
  0
VERTEX
  8
TEXT
  5
9E9
 10
-392.487177
 20
373.919923
 30
0.0
  0
SEQEND
  8
TEXT
  5
9EA
  0
POLYLINE
  8
TEXT
  5
9EB
 66
     1
 10
0.0
 20
0.0
 30
0.0
  0
VERTEX
  8
TEXT
  5
9EC
 10
-392.487177
 20
370.58659
 30
0.0
  0
VERTEX
  8
TEXT
  5
9ED
 10
-395.820511
 20
373.919923
 30
0.0
  0
VERTEX
  8
TEXT
  5
9EE
 10
-402.487177
 20
373.919923
 30
0.0
  0
VERTEX
  8
TEXT
  5
9EF
 10
-405.820511
 20
370.58659
 30
0.0
  0
VERTEX
  8
TEXT
  5
9F0
 10
-405.820511
 20
363.919923
 30
0.0
  0
VERTEX
  8
TEXT
  5
9F1
 10
-402.487177
 20
360.58659
 30
0.0
  0
VERTEX
  8
TEXT
  5
9F2
 10
-392.487177
 20
360.58659
 30
0.0
  0
SEQEND
  8
TEXT
  5
9F3
  0
POLYLINE
  8
TEXT
  5
9F6
 66
     1
 10
0.0
 20
0.0
 30
0.0
  0
VERTEX
  8
TEXT
  5
9F7
 10
-372.487177
 20
367.253256
 30
0.0
  0
VERTEX
  8
TEXT
  5
9F8
 10
-379.153844
 20
360.58659
 30
0.0
  0
VERTEX
  8
TEXT
  5
9F9
 10
-382.487177
 20
360.58659
 30
0.0
  0
VERTEX
  8
TEXT
  5
9FA
 10
-385.820511
 20
363.919923
 30
0.0
  0
VERTEX
  8
TEXT
  5
9FB
 10
-385.820511
 20
370.58659
 30
0.0
  0
VERTEX
  8
TEXT
  5
9FC
 10
-382.487177
 20
373.919923
 30
0.0
  0
VERTEX
  8
TEXT
  5
9FD
 10
-379.153844
 20
373.919923
 30
0.0
  0
VERTEX
  8
TEXT
  5
9FE
 10
-372.487177
 20
367.253256
 30
0.0
  0
SEQEND
  8
TEXT
  5
9FF
  0
POLYLINE
  8
TEXT
  5
A00
 66
     1
 10
0.0
 20
0.0
 30
0.0
  0
VERTEX
  8
TEXT
  5
A01
 10
-372.487177
 20
380.58659
 30
0.0
  0
VERTEX
  8
TEXT
  5
A02
 10
-372.487177
 20
360.58659
 30
0.0
  0
SEQEND
  8
TEXT
  5
A03
  0
POLYLINE
  8
TEXT
  5
A06
 66
     1
 10
0.0
 20
0.0
 30
0.0
  0
VERTEX
  8
TEXT
  5
A07
 10
-365.820511
 20
360.58659
 30
0.0
  0
VERTEX
  8
TEXT
  5
A08
 10
-365.820511
 20
373.919923
 30
0.0
  0
SEQEND
  8
TEXT
  5
A09
  0
POLYLINE
  8
TEXT
  5
A0A
 66
     1
 10
0.0
 20
0.0
 30
0.0
  0
VERTEX
  8
TEXT
  5
A0B
 10
-365.820511
 20
370.58659
 30
0.0
  0
VERTEX
  8
TEXT
  5
A0C
 10
-362.487177
 20
373.919923
 30
0.0
  0
VERTEX
  8
TEXT
  5
A0D
 10
-359.153844
 20
370.58659
 30
0.0
  0
VERTEX
  8
TEXT
  5
A0E
 10
-359.153844
 20
367.253256
 30
0.0
  0
SEQEND
  8
TEXT
  5
A0F
  0
POLYLINE
  8
TEXT
  5
A10
 66
     1
 10
0.0
 20
0.0
 30
0.0
  0
VERTEX
  8
TEXT
  5
A11
 10
-359.153844
 20
370.58659
 30
0.0
  0
VERTEX
  8
TEXT
  5
A12
 10
-355.820511
 20
373.919923
 30
0.0
  0
VERTEX
  8
TEXT
  5
A13
 10
-352.487177
 20
370.58659
 30
0.0
  0
VERTEX
  8
TEXT
  5
A14
 10
-352.487177
 20
360.58659
 30
0.0
  0
SEQEND
  8
TEXT
  5
A15
  0
POLYLINE
  8
TEXT
  5
A18
 66
     1
 10
0.0
 20
0.0
 30
0.0
  0
VERTEX
  8
TEXT
  5
A19
 10
-472.487177
 20
410.58659
 30
0.0
  0
VERTEX
  8
TEXT
  5
A1A
 10
-469.153844
 20
413.919923
 30
0.0
  0
VERTEX
  8
TEXT
  5
A1B
 10
-462.487177
 20
413.919923
 30
0.0
  0
VERTEX
  8
TEXT
  5
A1C
 10
-459.153844
 20
410.58659
 30
0.0
  0
VERTEX
  8
TEXT
  5
A1D
 10
-459.153844
 20
407.253256
 30
0.0
  0
VERTEX
  8
TEXT
  5
A1E
 10
-462.487177
 20
403.919923
 30
0.0
  0
VERTEX
  8
TEXT
  5
A1F
 10
-465.820511
 20
403.919923
 30
0.0
  0
SEQEND
  8
TEXT
  5
A20
  0
POLYLINE
  8
TEXT
  5
A21
 66
     1
 10
0.0
 20
0.0
 30
0.0
  0
VERTEX
  8
TEXT
  5
A22
 10
-462.487177
 20
403.919923
 30
0.0
  0
VERTEX
  8
TEXT
  5
A23
 10
-459.153844
 20
400.58659
 30
0.0
  0
VERTEX
  8
TEXT
  5
A24
 10
-459.153844
 20
397.253256
 30
0.0
  0
VERTEX
  8
TEXT
  5
A25
 10
-462.487177
 20
393.919923
 30
0.0
  0
VERTEX
  8
TEXT
  5
A26
 10
-469.153844
 20
393.919923
 30
0.0
  0
VERTEX
  8
TEXT
  5
A27
 10
-472.487177
 20
397.253256
 30
0.0
  0
SEQEND
  8
TEXT
  5
A28
  0
POLYLINE
  8
TEXT
  5
A2B
 66
     1
 10
0.0
 20
0.0
 30
0.0
  0
VERTEX
  8
TEXT
  5
A2C
 10
-452.487177
 20
403.919923
 30
0.0
  0
VERTEX
  8
TEXT
  5
A2D
 10
-442.487177
 20
403.919923
 30
0.0
  0
VERTEX
  8
TEXT
  5
A2E
 10
-439.153844
 20
400.58659
 30
0.0
  0
VERTEX
  8
TEXT
  5
A2F
 10
-439.153844
 20
397.253256
 30
0.0
  0
VERTEX
  8
TEXT
  5
A30
 10
-442.487177
 20
393.919923
 30
0.0
  0
VERTEX
  8
TEXT
  5
A31
 10
-449.153844
 20
393.919923
 30
0.0
  0
VERTEX
  8
TEXT
  5
A32
 10
-452.487177
 20
397.253256
 30
0.0
  0
VERTEX
  8
TEXT
  5
A33
 10
-452.487177
 20
407.253256
 30
0.0
  0
VERTEX
  8
TEXT
  5
A34
 10
-445.820511
 20
413.919923
 30
0.0
  0
VERTEX
  8
TEXT
  5
A35
 10
-442.487177
 20
413.919923
 30
0.0
  0
SEQEND
  8
TEXT
  5
A36
  0
POLYLINE
  8
TEXT
  5
A3B
 66
     1
 10
0.0
 20
0.0
 30
0.0
  0
VERTEX
  8
TEXT
  5
A3C
 10
-399.153844
 20
387.253256
 30
0.0
  0
VERTEX
  8
TEXT
  5
A3D
 10
-399.153844
 20
407.253256
 30
0.0
  0
SEQEND
  8
TEXT
  5
A3E
  0
POLYLINE
  8
TEXT
  5
A3F
 66
     1
 10
0.0
 20
0.0
 30
0.0
  0
VERTEX
  8
TEXT
  5
A40
 10
-399.153844
 20
403.919923
 30
0.0
  0
VERTEX
  8
TEXT
  5
A41
 10
-402.487177
 20
407.253256
 30
0.0
  0
VERTEX
  8
TEXT
  5
A42
 10
-409.153844
 20
407.253256
 30
0.0
  0
VERTEX
  8
TEXT
  5
A43
 10
-412.487177
 20
403.919923
 30
0.0
  0
VERTEX
  8
TEXT
  5
A44
 10
-412.487177
 20
397.253256
 30
0.0
  0
VERTEX
  8
TEXT
  5
A45
 10
-409.153844
 20
393.919923
 30
0.0
  0
VERTEX
  8
TEXT
  5
A46
 10
-399.153844
 20
393.919923
 30
0.0
  0
SEQEND
  8
TEXT
  5
A47
  0
POLYLINE
  8
TEXT
  5
A4A
 66
     1
 10
0.0
 20
0.0
 30
0.0
  0
VERTEX
  8
TEXT
  5
A4B
 10
-379.153844
 20
400.58659
 30
0.0
  0
VERTEX
  8
TEXT
  5
A4C
 10
-385.820511
 20
393.919923
 30
0.0
  0
VERTEX
  8
TEXT
  5
A4D
 10
-389.153844
 20
393.919923
 30
0.0
  0
VERTEX
  8
TEXT
  5
A4E
 10
-392.487177
 20
397.253256
 30
0.0
  0
VERTEX
  8
TEXT
  5
A4F
 10
-392.487177
 20
403.919923
 30
0.0
  0
VERTEX
  8
TEXT
  5
A50
 10
-389.153844
 20
407.253256
 30
0.0
  0
VERTEX
  8
TEXT
  5
A51
 10
-385.820511
 20
407.253256
 30
0.0
  0
VERTEX
  8
TEXT
  5
A52
 10
-379.153844
 20
400.58659
 30
0.0
  0
SEQEND
  8
TEXT
  5
A53
  0
POLYLINE
  8
TEXT
  5
A54
 66
     1
 10
0.0
 20
0.0
 30
0.0
  0
VERTEX
  8
TEXT
  5
A55
 10
-379.153844
 20
413.919923
 30
0.0
  0
VERTEX
  8
TEXT
  5
A56
 10
-379.153844
 20
393.919923
 30
0.0
  0
SEQEND
  8
TEXT
  5
A57
  0
POLYLINE
  8
TEXT
  5
A5A
 66
     1
 10
0.0
 20
0.0
 30
0.0
  0
VERTEX
  8
TEXT
  5
A5B
 10
-372.487177
 20
393.919923
 30
0.0
  0
VERTEX
  8
TEXT
  5
A5C
 10
-372.487177
 20
407.253256
 30
0.0
  0
SEQEND
  8
TEXT
  5
A5D
  0
POLYLINE
  8
TEXT
  5
A5E
 66
     1
 10
0.0
 20
0.0
 30
0.0
  0
VERTEX
  8
TEXT
  5
A5F
 10
-372.487177
 20
403.919923
 30
0.0
  0
VERTEX
  8
TEXT
  5
A60
 10
-369.153844
 20
407.253256
 30
0.0
  0
VERTEX
  8
TEXT
  5
A61
 10
-365.820511
 20
403.919923
 30
0.0
  0
VERTEX
  8
TEXT
  5
A62
 10
-365.820511
 20
400.58659
 30
0.0
  0
SEQEND
  8
TEXT
  5
A63
  0
POLYLINE
  8
TEXT
  5
A64
 66
     1
 10
0.0
 20
0.0
 30
0.0
  0
VERTEX
  8
TEXT
  5
A65
 10
-365.820511
 20
403.919923
 30
0.0
  0
VERTEX
  8
TEXT
  5
A66
 10
-362.487177
 20
407.253256
 30
0.0
  0
VERTEX
  8
TEXT
  5
A67
 10
-359.153844
 20
403.919923
 30
0.0
  0
VERTEX
  8
TEXT
  5
A68
 10
-359.153844
 20
393.919923
 30
0.0
  0
SEQEND
  8
TEXT
  5
A69
  0
POLYLINE
  8
TEXT
  5
A6C
 66
     1
 10
0.0
 20
0.0
 30
0.0
  0
VERTEX
  8
TEXT
  5
A6D
 10
-472.487177
 20
443.919923
 30
0.0
  0
VERTEX
  8
TEXT
  5
A6E
 10
-469.153844
 20
447.253256
 30
0.0
  0
VERTEX
  8
TEXT
  5
A6F
 10
-469.153844
 20
427.253256
 30
0.0
  0
SEQEND
  8
TEXT
  5
A70
  0
POLYLINE
  8
TEXT
  5
A71
 66
     1
 10
0.0
 20
0.0
 30
0.0
  0
VERTEX
  8
TEXT
  5
A72
 10
-472.487177
 20
427.253256
 30
0.0
  0
VERTEX
  8
TEXT
  5
A73
 10
-465.820511
 20
427.253256
 30
0.0
  0
SEQEND
  8
TEXT
  5
A74
  0
POLYLINE
  8
TEXT
  5
A77
 66
     1
 10
0.0
 20
0.0
 30
0.0
  0
VERTEX
  8
TEXT
  5
A78
 10
-459.153844
 20
427.253256
 30
0.0
  0
VERTEX
  8
TEXT
  5
A79
 10
-459.153844
 20
430.58659
 30
0.0
  0
SEQEND
  8
TEXT
  5
A7A
  0
POLYLINE
  8
TEXT
  5
A7D
 66
     1
 10
0.0
 20
0.0
 30
0.0
  0
VERTEX
  8
TEXT
  5
A7E
 10
-439.153844
 20
433.919923
 30
0.0
  0
VERTEX
  8
TEXT
  5
A7F
 10
-452.487177
 20
433.919923
 30
0.0
  0
VERTEX
  8
TEXT
  5
A80
 10
-442.487177
 20
447.253256
 30
0.0
  0
VERTEX
  8
TEXT
  5
A81
 10
-442.487177
 20
427.253256
 30
0.0
  0
SEQEND
  8
TEXT
  5
A82
  0
POLYLINE
  8
TEXT
  5
A85
 66
     1
 10
0.0
 20
0.0
 30
0.0
  0
VERTEX
  8
TEXT
  5
A86
 10
-432.487177
 20
437.253256
 30
0.0
  0
VERTEX
  8
TEXT
  5
A87
 10
-419.153844
 20
437.253256
 30
0.0
  0
SEQEND
  8
TEXT
  5
A88
  0
POLYLINE
  8
TEXT
  5
A8B
 66
     1
 10
0.0
 20
0.0
 30
0.0
  0
VERTEX
  8
TEXT
  5
A8C
 10
-412.487177
 20
443.919923
 30
0.0
  0
VERTEX
  8
TEXT
  5
A8D
 10
-409.153844
 20
447.253256
 30
0.0
  0
VERTEX
  8
TEXT
  5
A8E
 10
-409.153844
 20
427.253256
 30
0.0
  0
SEQEND
  8
TEXT
  5
A8F
  0
POLYLINE
  8
TEXT
  5
A90
 66
     1
 10
0.0
 20
0.0
 30
0.0
  0
VERTEX
  8
TEXT
  5
A91
 10
-412.487177
 20
427.253256
 30
0.0
  0
VERTEX
  8
TEXT
  5
A92
 10
-405.820511
 20
427.253256
 30
0.0
  0
SEQEND
  8
TEXT
  5
A93
  0
POLYLINE
  8
TEXT
  5
A96
 66
     1
 10
0.0
 20
0.0
 30
0.0
  0
VERTEX
  8
TEXT
  5
A97
 10
-399.153844
 20
427.253256
 30
0.0
  0
VERTEX
  8
TEXT
  5
A98
 10
-399.153844
 20
430.58659
 30
0.0
  0
SEQEND
  8
TEXT
  5
A99
  0
POLYLINE
  8
TEXT
  5
A9C
 66
     1
 10
0.0
 20
0.0
 30
0.0
  0
VERTEX
  8
TEXT
  5
A9D
 10
-389.153844
 20
427.253256
 30
0.0
  0
VERTEX
  8
TEXT
  5
A9E
 10
-392.487177
 20
430.58659
 30
0.0
  0
VERTEX
  8
TEXT
  5
A9F
 10
-392.487177
 20
433.919923
 30
0.0
  0
VERTEX
  8
TEXT
  5
AA0
 10
-389.153844
 20
437.253256
 30
0.0
  0
VERTEX
  8
TEXT
  5
AA1
 10
-382.487177
 20
437.253256
 30
0.0
  0
VERTEX
  8
TEXT
  5
AA2
 10
-379.153844
 20
440.58659
 30
0.0
  0
VERTEX
  8
TEXT
  5
AA3
 10
-379.153844
 20
443.919923
 30
0.0
  0
VERTEX
  8
TEXT
  5
AA4
 10
-382.487177
 20
447.253256
 30
0.0
  0
VERTEX
  8
TEXT
  5
AA5
 10
-389.153844
 20
447.253256
 30
0.0
  0
VERTEX
  8
TEXT
  5
AA6
 10
-392.487177
 20
443.919923
 30
0.0
  0
VERTEX
  8
TEXT
  5
AA7
 10
-392.487177
 20
440.58659
 30
0.0
  0
VERTEX
  8
TEXT
  5
AA8
 10
-389.153844
 20
437.253256
 30
0.0
  0
SEQEND
  8
TEXT
  5
AA9
  0
POLYLINE
  8
TEXT
  5
AAA
 66
     1
 10
0.0
 20
0.0
 30
0.0
  0
VERTEX
  8
TEXT
  5
AAB
 10
-382.487177
 20
437.253256
 30
0.0
  0
VERTEX
  8
TEXT
  5
AAC
 10
-379.153844
 20
433.919923
 30
0.0
  0
VERTEX
  8
TEXT
  5
AAD
 10
-379.153844
 20
430.58659
 30
0.0
  0
VERTEX
  8
TEXT
  5
AAE
 10
-382.487177
 20
427.253256
 30
0.0
  0
VERTEX
  8
TEXT
  5
AAF
 10
-389.153844
 20
427.253256
 30
0.0
  0
SEQEND
  8
TEXT
  5
AB0
  0
POLYLINE
  8
TEXT
  5
AB5
 66
     1
 10
0.0
 20
0.0
 30
0.0
  0
VERTEX
  8
TEXT
  5
AB6
 10
-352.487177
 20
427.253256
 30
0.0
  0
VERTEX
  8
TEXT
  5
AB7
 10
-352.487177
 20
447.253256
 30
0.0
  0
SEQEND
  8
TEXT
  5
AB8
  0
POLYLINE
  8
TEXT
  5
AB9
 66
     1
 10
0.0
 20
0.0
 30
0.0
  0
VERTEX
  8
TEXT
  5
ABA
 10
-352.487177
 20
433.919923
 30
0.0
  0
VERTEX
  8
TEXT
  5
ABB
 10
-345.820511
 20
433.919923
 30
0.0
  0
VERTEX
  8
TEXT
  5
ABC
 10
-339.153844
 20
440.58659
 30
0.0
  0
SEQEND
  8
TEXT
  5
ABD
  0
POLYLINE
  8
TEXT
  5
ABE
 66
     1
 10
0.0
 20
0.0
 30
0.0
  0
VERTEX
  8
TEXT
  5
ABF
 10
-345.820511
 20
433.919923
 30
0.0
  0
VERTEX
  8
TEXT
  5
AC0
 10
-339.153844
 20
427.253256
 30
0.0
  0
SEQEND
  8
TEXT
  5
AC1
  0
POLYLINE
  8
TEXT
  5
AC4
 66
     1
 10
0.0
 20
0.0
 30
0.0
  0
VERTEX
  8
TEXT
  5
AC5
 10
-332.487177
 20
423.919923
 30
0.0
  0
VERTEX
  8
TEXT
  5
AC6
 10
-329.153844
 20
420.58659
 30
0.0
  0
VERTEX
  8
TEXT
  5
AC7
 10
-322.487177
 20
420.58659
 30
0.0
  0
VERTEX
  8
TEXT
  5
AC8
 10
-319.153844
 20
423.919923
 30
0.0
  0
VERTEX
  8
TEXT
  5
AC9
 10
-319.153844
 20
437.253256
 30
0.0
  0
VERTEX
  8
TEXT
  5
ACA
 10
-322.487177
 20
440.58659
 30
0.0
  0
VERTEX
  8
TEXT
  5
ACB
 10
-329.153844
 20
440.58659
 30
0.0
  0
VERTEX
  8
TEXT
  5
ACC
 10
-332.487177
 20
437.253256
 30
0.0
  0
VERTEX
  8
TEXT
  5
ACD
 10
-332.487177
 20
430.58659
 30
0.0
  0
VERTEX
  8
TEXT
  5
ACE
 10
-329.153844
 20
427.253256
 30
0.0
  0
VERTEX
  8
TEXT
  5
ACF
 10
-319.153844
 20
427.253256
 30
0.0
  0
SEQEND
  8
TEXT
  5
AD0
  0
POLYLINE
  8
TEXT
  5
AD3
 66
     1
 10
0.0
 20
0.0
 30
0.0
  0
VERTEX
  8
TEXT
  5
AD4
 10
-472.487177
 20
477.253256
 30
0.0
  0
VERTEX
  8
TEXT
  5
AD5
 10
-469.153844
 20
480.58659
 30
0.0
  0
VERTEX
  8
TEXT
  5
AD6
 10
-469.153844
 20
460.58659
 30
0.0
  0
SEQEND
  8
TEXT
  5
AD7
  0
POLYLINE
  8
TEXT
  5
AD8
 66
     1
 10
0.0
 20
0.0
 30
0.0
  0
VERTEX
  8
TEXT
  5
AD9
 10
-472.487177
 20
460.58659
 30
0.0
  0
VERTEX
  8
TEXT
  5
ADA
 10
-465.820511
 20
460.58659
 30
0.0
  0
SEQEND
  8
TEXT
  5
ADB
  0
POLYLINE
  8
TEXT
  5
ADE
 66
     1
 10
0.0
 20
0.0
 30
0.0
  0
VERTEX
  8
TEXT
  5
ADF
 10
-459.153844
 20
473.919923
 30
0.0
  0
VERTEX
  8
TEXT
  5
AE0
 10
-459.153844
 20
470.58659
 30
0.0
  0
SEQEND
  8
TEXT
  5
AE1
  0
POLYLINE
  8
TEXT
  5
AE2
 66
     1
 10
0.0
 20
0.0
 30
0.0
  0
VERTEX
  8
TEXT
  5
AE3
 10
-459.153844
 20
467.253256
 30
0.0
  0
VERTEX
  8
TEXT
  5
AE4
 10
-459.153844
 20
463.919923
 30
0.0
  0
SEQEND
  8
TEXT
  5
AE5
  0
POLYLINE
  8
TEXT
  5
AE8
 66
     1
 10
0.0
 20
0.0
 30
0.0
  0
VERTEX
  8
TEXT
  5
AE9
 10
-452.487177
 20
477.253256
 30
0.0
  0
VERTEX
  8
TEXT
  5
AEA
 10
-449.153844
 20
480.58659
 30
0.0
  0
VERTEX
  8
TEXT
  5
AEB
 10
-442.487177
 20
480.58659
 30
0.0
  0
VERTEX
  8
TEXT
  5
AEC
 10
-439.153844
 20
477.253256
 30
0.0
  0
VERTEX
  8
TEXT
  5
AED
 10
-439.153844
 20
473.919923
 30
0.0
  0
VERTEX
  8
TEXT
  5
AEE
 10
-442.487177
 20
470.58659
 30
0.0
  0
VERTEX
  8
TEXT
  5
AEF
 10
-449.153844
 20
470.58659
 30
0.0
  0
VERTEX
  8
TEXT
  5
AF0
 10
-452.487177
 20
467.253256
 30
0.0
  0
VERTEX
  8
TEXT
  5
AF1
 10
-452.487177
 20
460.58659
 30
0.0
  0
VERTEX
  8
TEXT
  5
AF2
 10
-439.153844
 20
460.58659
 30
0.0
  0
SEQEND
  8
TEXT
  5
AF3
  0
POLYLINE
  8
TEXT
  5
AF6
 66
     1
 10
0.0
 20
0.0
 30
0.0
  0
VERTEX
  8
TEXT
  5
AF7
 10
-432.487177
 20
477.253256
 30
0.0
  0
VERTEX
  8
TEXT
  5
AF8
 10
-429.153844
 20
480.58659
 30
0.0
  0
VERTEX
  8
TEXT
  5
AF9
 10
-422.487177
 20
480.58659
 30
0.0
  0
VERTEX
  8
TEXT
  5
AFA
 10
-419.153844
 20
477.253256
 30
0.0
  0
VERTEX
  8
TEXT
  5
AFB
 10
-419.153844
 20
473.919923
 30
0.0
  0
VERTEX
  8
TEXT
  5
AFC
 10
-422.487177
 20
470.58659
 30
0.0
  0
VERTEX
  8
TEXT
  5
AFD
 10
-429.153844
 20
470.58659
 30
0.0
  0
VERTEX
  8
TEXT
  5
AFE
 10
-432.487177
 20
467.253256
 30
0.0
  0
VERTEX
  8
TEXT
  5
AFF
 10
-432.487177
 20
460.58659
 30
0.0
  0
VERTEX
  8
TEXT
  5
B00
 10
-419.153844
 20
460.58659
 30
0.0
  0
SEQEND
  8
TEXT
  5
B01
  0
LINE
  8
BEM
  6
BYBLOCK
  5
B02
 10
-95.0
 20
316.571384
 30
0.0
 11
-95.0
 21
607.444265
 31
0.0
  0
LINE
  8
BEM
  6
BYBLOCK
  5
B03
 10
95.0
 20
316.571384
 30
0.0
 11
95.0
 21
607.444265
 31
0.0
  0
LINE
  8
BEM
  6
BYBLOCK
  5
B04
 10
-77.0
 20
589.444265
 30
0.0
 11
-28.5
 21
589.444265
 31
0.0
  0
LINE
  8
BEM
  6
BYBLOCK
  5
B05
 10
77.0
 20
589.444265
 30
0.0
 11
28.5
 21
589.444265
 31
0.0
  0
SOLID
  8
BEM
  6
BYBLOCK
  5
B06
 10
-77.0
 20
592.444265
 30
0.0
 11
-77.0
 21
586.444265
 31
0.0
 12
-95.0
 22
589.444265
 32
0.0
 13
-95.0
 23
589.444265
 33
0.0
  0
SOLID
  8
BEM
  6
BYBLOCK
  5
B07
 10
77.0
 20
592.444265
 30
0.0
 11
77.0
 21
586.444265
 31
0.0
 12
95.0
 22
589.444265
 32
0.0
 13
95.0
 23
589.444265
 33
0.0
  0
POINT
  8
DEFPOINTS
  6
BYBLOCK
 62
     0
  5
B09
 10
-95.0
 20
310.321384
 30
0.0
  0
POINT
  8
DEFPOINTS
  6
BYBLOCK
 62
     0
  5
B0A
 10
95.0
 20
310.321384
 30
0.0
  0
POINT
  8
DEFPOINTS
  6
BYBLOCK
 62
     0
  5
B0B
 10
95.0
 20
589.444265
 30
0.0
  0
LINE
  8
BEM
  6
BYBLOCK
  5
B0C
 10
-300.0
 20
-836.25
 30
0.0
 11
-300.0
 21
-954.362867
 31
0.0
  0
LINE
  8
BEM
  6
BYBLOCK
  5
B0D
 10
300.0
 20
-836.25
 30
0.0
 11
300.0
 21
-954.362867
 31
0.0
  0
LINE
  8
BEM
  6
BYBLOCK
  5
B0E
 10
-282.0
 20
-936.362867
 30
0.0
 11
-30.0
 21
-936.362867
 31
0.0
  0
LINE
  8
BEM
  6
BYBLOCK
  5
B0F
 10
282.0
 20
-936.362867
 30
0.0
 11
30.0
 21
-936.362867
 31
0.0
  0
SOLID
  8
BEM
  6
BYBLOCK
  5
B10
 10
-282.0
 20
-933.362867
 30
0.0
 11
-282.0
 21
-939.362867
 31
0.0
 12
-300.0
 22
-936.362867
 32
0.0
 13
-300.0
 23
-936.362867
 33
0.0
  0
SOLID
  8
BEM
  6
BYBLOCK
  5
B11
 10
282.0
 20
-933.362867
 30
0.0
 11
282.0
 21
-939.362867
 31
0.0
 12
300.0
 22
-936.362867
 32
0.0
 13
300.0
 23
-936.362867
 33
0.0
  0
POINT
  8
DEFPOINTS
  6
BYBLOCK
 62
     0
  5
B13
 10
-300.0
 20
-830.0
 30
0.0
  0
POINT
  8
DEFPOINTS
  6
BYBLOCK
 62
     0
  5
B14
 10
300.0
 20
-830.0
 30
0.0
  0
POINT
  8
DEFPOINTS
  6
BYBLOCK
 62
     0
  5
B15
 10
300.0
 20
-936.362867
 30
0.0
  0
LINE
  8
BEM
  6
BYBLOCK
  5
B16
 10
8.746838
 20
531.254944
 30
0.0
 11
179.561249
 21
531.254944
 31
0.0
  0
LINE
  8
BEM
  6
BYBLOCK
  5
B17
 10
97.274507
 20
350.0
 30
0.0
 11
179.561249
 21
350.0
 31
0.0
  0
LINE
  8
BEM
  6
BYBLOCK
  5
B18
 10
161.561249
 20
513.254944
 30
0.0
 11
161.561249
 21
458.627472
 31
0.0
  0
LINE
  8
BEM
  6
BYBLOCK
  5
B19
 10
161.561249
 20
368.0
 30
0.0
 11
161.561249
 21
422.627472
 31
0.0
  0
SOLID
  8
BEM
  6
BYBLOCK
  5
B1A
 10
158.561249
 20
513.254944
 30
0.0
 11
164.561249
 21
513.254944
 31
0.0
 12
161.561249
 22
531.254944
 32
0.0
 13
161.561249
 23
531.254944
 33
0.0
  0
SOLID
  8
BEM
  6
BYBLOCK
  5
B1B
 10
158.561249
 20
368.0
 30
0.0
 11
164.561249
 21
368.0
 31
0.0
 12
161.561249
 22
350.0
 32
0.0
 13
161.561249
 23
350.0
 33
0.0
  0
POINT
  8
DEFPOINTS
  6
BYBLOCK
 62
     0
  5
B1D
 10
2.496838
 20
531.254944
 30
0.0
  0
POINT
  8
DEFPOINTS
  6
BYBLOCK
 62
     0
  5
B1E
 10
91.024507
 20
350.0
 30
0.0
  0
POINT
  8
DEFPOINTS
  6
BYBLOCK
 62
     0
  5
B1F
 10
161.561249
 20
350.0
 30
0.0
  0
LINE
  8
BEM
  6
BYBLOCK
  5
B20
 10
-949.680419
 20
-74.218014
 30
0.0
 11
-949.680419
 21
145.120281
 31
0.0
  0
LINE
  8
BEM
  6
BYBLOCK
  5
B21
 10
950.255639
 20
-74.218014
 30
0.0
 11
950.255639
 21
145.120281
 31
0.0
  0
LINE
  8
BEM
  6
BYBLOCK
  5
B22
 10
-931.680419
 20
127.120281
 30
0.0
 11
-35.71239
 21
127.120281
 31
0.0
  0
LINE
  8
BEM
  6
BYBLOCK
  5
B23
 10
932.255639
 20
127.120281
 30
0.0
 11
36.28761
 21
127.120281
 31
0.0
  0
SOLID
  8
BEM
  6
BYBLOCK
  5
B24
 10
-931.680419
 20
130.120281
 30
0.0
 11
-931.680419
 21
124.120281
 31
0.0
 12
-949.680419
 22
127.120281
 32
0.0
 13
-949.680419
 23
127.120281
 33
0.0
  0
SOLID
  8
BEM
  6
BYBLOCK
  5
B25
 10
932.255639
 20
130.120281
 30
0.0
 11
932.255639
 21
124.120281
 31
0.0
 12
950.255639
 22
127.120281
 32
0.0
 13
950.255639
 23
127.120281
 33
0.0
  0
POINT
  8
DEFPOINTS
  6
BYBLOCK
 62
     0
  5
B27
 10
-949.680419
 20
-80.468014
 30
0.0
  0
POINT
  8
DEFPOINTS
  6
BYBLOCK
 62
     0
  5
B28
 10
950.255639
 20
-80.468014
 30
0.0
  0
POINT
  8
DEFPOINTS
  6
BYBLOCK
 62
     0
  5
B29
 10
950.255639
 20
127.120281
 30
0.0
  0
LINE
  8
BEM
  6
BYBLOCK
  5
B2A
 10
-250.0
 20
-236.25
 30
0.0
 11
-250.0
 21
-281.764062
 31
0.0
  0
LINE
  8
BEM
  6
BYBLOCK
  5
B2B
 10
250.0
 20
-236.25
 30
0.0
 11
250.0
 21
-281.764062
 31
0.0
  0
LINE
  8
BEM
  6
BYBLOCK
  5
B2C
 10
-232.0
 20
-263.764062
 30
0.0
 11
-30.0
 21
-263.764062
 31
0.0
  0
LINE
  8
BEM
  6
BYBLOCK
  5
B2D
 10
232.0
 20
-263.764062
 30
0.0
 11
30.0
 21
-263.764062
 31
0.0
  0
SOLID
  8
BEM
  6
BYBLOCK
  5
B2E
 10
-232.0
 20
-260.764062
 30
0.0
 11
-232.0
 21
-266.764062
 31
0.0
 12
-250.0
 22
-263.764062
 32
0.0
 13
-250.0
 23
-263.764062
 33
0.0
  0
SOLID
  8
BEM
  6
BYBLOCK
  5
B2F
 10
232.0
 20
-260.764062
 30
0.0
 11
232.0
 21
-266.764062
 31
0.0
 12
250.0
 22
-263.764062
 32
0.0
 13
250.0
 23
-263.764062
 33
0.0
  0
POINT
  8
DEFPOINTS
  6
BYBLOCK
 62
     0
  5
B31
 10
-250.0
 20
-230.0
 30
0.0
  0
POINT
  8
DEFPOINTS
  6
BYBLOCK
 62
     0
  5
B32
 10
250.0
 20
-230.0
 30
0.0
  0
POINT
  8
DEFPOINTS
  6
BYBLOCK
 62
     0
  5
B33
 10
250.0
 20
-263.764062
 30
0.0
  0
LINE
  8
BEM
  6
BYBLOCK
  5
B34
 10
-30.0
 20
-806.25
 30
0.0
 11
-30.0
 21
-842.69414
 31
0.0
  0
LINE
  8
BEM
  6
BYBLOCK
  5
B35
 10
30.0
 20
-806.25
 30
0.0
 11
30.0
 21
-842.69414
 31
0.0
  0
LINE
  8
BEM
  6
BYBLOCK
  5
B36
 10
-48.0
 20
-824.69414
 30
0.0
 11
-66.0
 21
-824.69414
 31
0.0
  0
LINE
  8
BEM
  6
BYBLOCK
  5
B37
 10
48.0
 20
-824.69414
 30
0.0
 11
66.0
 21
-824.69414
 31
0.0
  0
SOLID
  8
BEM
  6
BYBLOCK
  5
B38
 10
-48.0
 20
-821.69414
 30
0.0
 11
-48.0
 21
-827.69414
 31
0.0
 12
-30.0
 22
-824.69414
 32
0.0
 13
-30.0
 23
-824.69414
 33
0.0
  0
SOLID
  8
BEM
  6
BYBLOCK
  5
B39
 10
48.0
 20
-821.69414
 30
0.0
 11
48.0
 21
-827.69414
 31
0.0
 12
30.0
 22
-824.69414
 32
0.0
 13
30.0
 23
-824.69414
 33
0.0
  0
POINT
  8
DEFPOINTS
  6
BYBLOCK
 62
     0
  5
B3B
 10
-30.0
 20
-800.0
 30
0.0
  0
POINT
  8
DEFPOINTS
  6
BYBLOCK
 62
     0
  5
B3C
 10
30.0
 20
-800.0
 30
0.0
  0
POINT
  8
DEFPOINTS
  6
BYBLOCK
 62
     0
  5
B3D
 10
30.0
 20
-824.69414
 30
0.0
  0
LINE
  8
BEM
  6
BYBLOCK
  5
B3E
 10
6.25
 20
-860.0
 30
0.0
 11
361.374981
 21
-860.0
 31
0.0
  0
LINE
  8
BEM
  6
BYBLOCK
  5
B3F
 10
306.25
 20
-800.0
 30
0.0
 11
361.374981
 21
-800.0
 31
0.0
  0
LINE
  8
BEM
  6
BYBLOCK
  5
B40
 10
343.374981
 20
-878.0
 30
0.0
 11
343.374981
 21
-896.0
 31
0.0
  0
LINE
  8
BEM
  6
BYBLOCK
  5
B41
 10
343.374981
 20
-782.0
 30
0.0
 11
343.374981
 21
-764.0
 31
0.0
  0
LINE
  8
BEM
  6
BYBLOCK
  5
B42
 10
343.374981
 20
-764.0
 30
0.0
 11
361.374981
 21
-764.0
 31
0.0
  0
SOLID
  8
BEM
  6
BYBLOCK
  5
B43
 10
340.374981
 20
-878.0
 30
0.0
 11
346.374981
 21
-878.0
 31
0.0
 12
343.374981
 22
-860.0
 32
0.0
 13
343.374981
 23
-860.0
 33
0.0
  0
SOLID
  8
BEM
  6
BYBLOCK
  5
B44
 10
340.374981
 20
-782.0
 30
0.0
 11
346.374981
 21
-782.0
 31
0.0
 12
343.374981
 22
-800.0
 32
0.0
 13
343.374981
 23
-800.0
 33
0.0
  0
POINT
  8
DEFPOINTS
  6
BYBLOCK
 62
     0
  5
B46
 10
0.0
 20
-860.0
 30
0.0
  0
POINT
  8
DEFPOINTS
  6
BYBLOCK
 62
     0
  5
B47
 10
300.0
 20
-800.0
 30
0.0
  0
POINT
  8
DEFPOINTS
  6
BYBLOCK
 62
     0
  5
B48
 10
343.374981
 20
-800.0
 30
0.0
  0
LINE
  8
BEM
  6
BYBLOCK
  5
B49
 10
-250.0
 20
-236.25
 30
0.0
 11
-250.0
 21
-281.764062
 31
0.0
  0
LINE
  8
BEM
  6
BYBLOCK
  5
B4A
 10
-949.680419
 20
-99.96833
 30
0.0
 11
-949.680419
 21
-281.764062
 31
0.0
  0
LINE
  8
BEM
  6
BYBLOCK
  5
B4B
 10
-268.0
 20
-263.764062
 30
0.0
 11
-569.84021
 21
-263.764062
 31
0.0
  0
LINE
  8
BEM
  6
BYBLOCK
  5
B4C
 10
-931.680419
 20
-263.764062
 30
0.0
 11
-629.84021
 21
-263.764062
 31
0.0
  0
SOLID
  8
BEM
  6
BYBLOCK
  5
B4D
 10
-268.0
 20
-260.764062
 30
0.0
 11
-268.0
 21
-266.764062
 31
0.0
 12
-250.0
 22
-263.764062
 32
0.0
 13
-250.0
 23
-263.764062
 33
0.0
  0
SOLID
  8
BEM
  6
BYBLOCK
  5
B4E
 10
-931.680419
 20
-260.764062
 30
0.0
 11
-931.680419
 21
-266.764062
 31
0.0
 12
-949.680419
 22
-263.764062
 32
0.0
 13
-949.680419
 23
-263.764062
 33
0.0
  0
POINT
  8
DEFPOINTS
  6
BYBLOCK
 62
     0
  5
B50
 10
-250.0
 20
-230.0
 30
0.0
  0
POINT
  8
DEFPOINTS
  6
BYBLOCK
 62
     0
  5
B51
 10
-949.680419
 20
-93.71833
 30
0.0
  0
POINT
  8
DEFPOINTS
  6
BYBLOCK
 62
     0
  5
B52
 10
-949.680419
 20
-263.764062
 30
0.0
  0
LINE
  8
BEM
  6
BYBLOCK
  5
B53
 10
-97.274507
 20
350.0
 30
0.0
 11
-177.275938
 21
350.0
 31
0.0
  0
LINE
  8
BEM
  6
BYBLOCK
  5
B54
 10
-101.25
 20
-300.0
 30
0.0
 11
-177.275938
 21
-300.0
 31
0.0
  0
LINE
  8
BEM
  6
BYBLOCK
  5
B55
 10
-159.275938
 20
332.0
 30
0.0
 11
-159.275938
 21
43.0
 31
0.0
  0
LINE
  8
BEM
  6
BYBLOCK
  5
B56
 10
-159.275938
 20
-282.0
 30
0.0
 11
-159.275938
 21
7.0
 31
0.0
  0
SOLID
  8
BEM
  6
BYBLOCK
  5
B57
 10
-162.275938
 20
332.0
 30
0.0
 11
-156.275938
 21
332.0
 31
0.0
 12
-159.275938
 22
350.0
 32
0.0
 13
-159.275938
 23
350.0
 33
0.0
  0
SOLID
  8
BEM
  6
BYBLOCK
  5
B58
 10
-162.275938
 20
-282.0
 30
0.0
 11
-156.275938
 21
-282.0
 31
0.0
 12
-159.275938
 22
-300.0
 32
0.0
 13
-159.275938
 23
-300.0
 33
0.0
  0
POINT
  8
DEFPOINTS
  6
BYBLOCK
 62
     0
  5
B5A
 10
-91.024507
 20
350.0
 30
0.0
  0
POINT
  8
DEFPOINTS
  6
BYBLOCK
 62
     0
  5
B5B
 10
-95.0
 20
-300.0
 30
0.0
  0
POINT
  8
DEFPOINTS
  6
BYBLOCK
 62
     0
  5
B5C
 10
-159.275938
 20
-300.0
 30
0.0
  0
LINE
  8
BEM
  6
BYBLOCK
  5
B5D
 10
-101.25
 20
-300.0
 30
0.0
 11
-177.275938
 21
-300.0
 31
0.0
  0
LINE
  8
BEM
  6
BYBLOCK
  5
B5E
 10
-165.026808
 20
-800.401891
 30
0.0
 11
-177.275938
 21
-800.401891
 31
0.0
  0
LINE
  8
BEM
  6
BYBLOCK
  5
B5F
 10
-159.275938
 20
-318.0
 30
0.0
 11
-159.275938
 21
-532.200946
 31
0.0
  0
LINE
  8
BEM
  6
BYBLOCK
  5
B60
 10
-159.275938
 20
-782.401891
 30
0.0
 11
-159.275938
 21
-568.200946
 31
0.0
  0
SOLID
  8
BEM
  6
BYBLOCK
  5
B61
 10
-162.275938
 20
-318.0
 30
0.0
 11
-156.275938
 21
-318.0
 31
0.0
 12
-159.275938
 22
-300.0
 32
0.0
 13
-159.275938
 23
-300.0
 33
0.0
  0
SOLID
  8
BEM
  6
BYBLOCK
  5
B62
 10
-162.275938
 20
-782.401891
 30
0.0
 11
-156.275938
 21
-782.401891
 31
0.0
 12
-159.275938
 22
-800.401891
 32
0.0
 13
-159.275938
 23
-800.401891
 33
0.0
  0
POINT
  8
DEFPOINTS
  6
BYBLOCK
 62
     0
  5
B64
 10
-95.0
 20
-300.0
 30
0.0
  0
POINT
  8
DEFPOINTS
  6
BYBLOCK
 62
     0
  5
B65
 10
-158.776808
 20
-800.401891
 30
0.0
  0
POINT
  8
DEFPOINTS
  6
BYBLOCK
 62
     0
  5
B66
 10
-159.275938
 20
-800.401891
 30
0.0
  0
LINE
  8
BEM
  6
BYBLOCK
  5
B67
 10
-306.25
 20
-800.0
 30
0.0
 11
-421.133096
 21
-800.0
 31
0.0
  0
LINE
  8
BEM
  6
BYBLOCK
  5
B68
 10
-11.25
 20
-671.083333
 30
0.0
 11
-421.133096
 21
-671.083333
 31
0.0
  0
LINE
  8
BEM
  6
BYBLOCK
  5
B69
 10
-403.133096
 20
-782.0
 30
0.0
 11
-403.133096
 21
-753.541667
 31
0.0
  0
LINE
  8
BEM
  6
BYBLOCK
  5
B6A
 10
-403.133096
 20
-689.083333
 30
0.0
 11
-403.133096
 21
-717.541667
 31
0.0
  0
SOLID
  8
BEM
  6
BYBLOCK
  5
B6B
 10
-406.133096
 20
-782.0
 30
0.0
 11
-400.133096
 21
-782.0
 31
0.0
 12
-403.133096
 22
-800.0
 32
0.0
 13
-403.133096
 23
-800.0
 33
0.0
  0
SOLID
  8
BEM
  6
BYBLOCK
  5
B6C
 10
-406.133096
 20
-689.083333
 30
0.0
 11
-400.133096
 21
-689.083333
 31
0.0
 12
-403.133096
 22
-671.083333
 32
0.0
 13
-403.133096
 23
-671.083333
 33
0.0
  0
POINT
  8
DEFPOINTS
  6
BYBLOCK
 62
     0
  5
B6E
 10
-300.0
 20
-800.0
 30
0.0
  0
POINT
  8
DEFPOINTS
  6
BYBLOCK
 62
     0
  5
B6F
 10
-5.0
 20
-671.083333
 30
0.0
  0
POINT
  8
DEFPOINTS
  6
BYBLOCK
 62
     0
  5
B70
 10
-403.133096
 20
-671.083333
 30
0.0
  0
LINE
  8
BEM
  6
BYBLOCK
  5
B71
 10
-306.25
 20
-800.0
 30
0.0
 11
-372.216614
 21
-800.0
 31
0.0
  0
LINE
  8
BEM
  6
BYBLOCK
  5
B72
 10
-307.29652
 20
-737.755393
 30
0.0
 11
-372.216614
 21
-737.755393
 31
0.0
  0
LINE
  8
BEM
  6
BYBLOCK
  5
B73
 10
-354.216614
 20
-818.0
 30
0.0
 11
-354.216614
 21
-836.0
 31
0.0
  0
LINE
  8
BEM
  6
BYBLOCK
  5
B74
 10
-354.216614
 20
-719.755393
 30
0.0
 11
-354.216614
 21
-701.755393
 31
0.0
  0
LINE
  8
BEM
  6
BYBLOCK
  5
B75
 10
-354.216614
 20
-701.755393
 30
0.0
 11
-336.216614
 21
-701.755393
 31
0.0
  0
SOLID
  8
BEM
  6
BYBLOCK
  5
B76
 10
-357.216614
 20
-818.0
 30
0.0
 11
-351.216614
 21
-818.0
 31
0.0
 12
-354.216614
 22
-800.0
 32
0.0
 13
-354.216614
 23
-800.0
 33
0.0
  0
SOLID
  8
BEM
  6
BYBLOCK
  5
B77
 10
-357.216614
 20
-719.755393
 30
0.0
 11
-351.216614
 21
-719.755393
 31
0.0
 12
-354.216614
 22
-737.755393
 32
0.0
 13
-354.216614
 23
-737.755393
 33
0.0
  0
POINT
  8
DEFPOINTS
  6
BYBLOCK
 62
     0
  5
B79
 10
-300.0
 20
-800.0
 30
0.0
  0
POINT
  8
DEFPOINTS
  6
BYBLOCK
 62
     0
  5
B7A
 10
-301.04652
 20
-737.755393
 30
0.0
  0
POINT
  8
DEFPOINTS
  6
BYBLOCK
 62
     0
  5
B7B
 10
-354.216614
 20
-737.755393
 30
0.0
  0
LINE
  8
BEM
  6
BYBLOCK
  5
B7C
 10
5.0
 20
-836.25
 30
0.0
 11
5.0
 21
-893.905417
 31
0.0
  0
LINE
  8
BEM
  6
BYBLOCK
  5
B7D
 10
-5.0
 20
-836.25
 30
0.0
 11
-5.0
 21
-893.905417
 31
0.0
  0
LINE
  8
BEM
  6
BYBLOCK
  5
B7E
 10
23.0
 20
-875.905417
 30
0.0
 11
41.0
 21
-875.905417
 31
0.0
  0
LINE
  8
BEM
  6
BYBLOCK
  5
B7F
 10
-23.0
 20
-875.905417
 30
0.0
 11
-41.0
 21
-875.905417
 31
0.0
  0
SOLID
  8
BEM
  6
BYBLOCK
  5
B80
 10
23.0
 20
-872.905417
 30
0.0
 11
23.0
 21
-878.905417
 31
0.0
 12
5.0
 22
-875.905417
 32
0.0
 13
5.0
 23
-875.905417
 33
0.0
  0
SOLID
  8
BEM
  6
BYBLOCK
  5
B81
 10
-23.0
 20
-872.905417
 30
0.0
 11
-23.0
 21
-878.905417
 31
0.0
 12
-5.0
 22
-875.905417
 32
0.0
 13
-5.0
 23
-875.905417
 33
0.0
  0
POINT
  8
DEFPOINTS
  6
BYBLOCK
 62
     0
  5
B83
 10
5.0
 20
-830.0
 30
0.0
  0
POINT
  8
DEFPOINTS
  6
BYBLOCK
 62
     0
  5
B84
 10
-5.0
 20
-830.0
 30
0.0
  0
POINT
  8
DEFPOINTS
  6
BYBLOCK
 62
     0
  5
B85
 10
-5.0
 20
-875.905417
 30
0.0
  0
LINE
  8
BEM
  6
BYBLOCK
  5
B86
 10
0.0
 20
-6.25
 30
0.0
 11
0.0
 21
-113.926718
 31
0.0
  0
LINE
  8
BEM
  6
BYBLOCK
  5
B87
 10
-440.0
 20
-16.25
 30
0.0
 11
-440.0
 21
-113.926718
 31
0.0
  0
LINE
  8
BEM
  6
BYBLOCK
  5
B88
 10
-18.0
 20
-95.926718
 30
0.0
 11
-188.5
 21
-95.926718
 31
0.0
  0
LINE
  8
BEM
  6
BYBLOCK
  5
B89
 10
-422.0
 20
-95.926718
 30
0.0
 11
-251.5
 21
-95.926718
 31
0.0
  0
SOLID
  8
BEM
  6
BYBLOCK
  5
B8A
 10
-18.0
 20
-92.926718
 30
0.0
 11
-18.0
 21
-98.926718
 31
0.0
 12
0.0
 22
-95.926718
 32
0.0
 13
0.0
 23
-95.926718
 33
0.0
  0
SOLID
  8
BEM
  6
BYBLOCK
  5
B8B
 10
-422.0
 20
-92.926718
 30
0.0
 11
-422.0
 21
-98.926718
 31
0.0
 12
-440.0
 22
-95.926718
 32
0.0
 13
-440.0
 23
-95.926718
 33
0.0
  0
POINT
  8
DEFPOINTS
  6
BYBLOCK
 62
     0
  5
B8D
 10
0.0
 20
0.0
 30
0.0
  0
POINT
  8
DEFPOINTS
  6
BYBLOCK
 62
     0
  5
B8E
 10
-440.0
 20
-10.0
 30
0.0
  0
POINT
  8
DEFPOINTS
  6
BYBLOCK
 62
     0
  5
B8F
 10
-440.0
 20
-95.926718
 30
0.0
  0
LINE
  8
BEM
  6
BYBLOCK
  5
B90
 10
0.0
 20
-6.25
 30
0.0
 11
0.0
 21
-65.342221
 31
0.0
  0
LINE
  8
BEM
  6
BYBLOCK
  5
B91
 10
-230.0
 20
-6.25
 30
0.0
 11
-230.0
 21
-65.342221
 31
0.0
  0
LINE
  8
BEM
  6
BYBLOCK
  5
B92
 10
-18.0
 20
-47.342221
 30
0.0
 11
-83.5
 21
-47.342221
 31
0.0
  0
LINE
  8
BEM
  6
BYBLOCK
  5
B93
 10
-212.0
 20
-47.342221
 30
0.0
 11
-146.5
 21
-47.342221
 31
0.0
  0
SOLID
  8
BEM
  6
BYBLOCK
  5
B94
 10
-18.0
 20
-44.342221
 30
0.0
 11
-18.0
 21
-50.342221
 31
0.0
 12
0.0
 22
-47.342221
 32
0.0
 13
0.0
 23
-47.342221
 33
0.0
  0
SOLID
  8
BEM
  6
BYBLOCK
  5
B95
 10
-212.0
 20
-44.342221
 30
0.0
 11
-212.0
 21
-50.342221
 31
0.0
 12
-230.0
 22
-47.342221
 32
0.0
 13
-230.0
 23
-47.342221
 33
0.0
  0
POINT
  8
DEFPOINTS
  6
BYBLOCK
 62
     0
  5
B97
 10
0.0
 20
0.0
 30
0.0
  0
POINT
  8
DEFPOINTS
  6
BYBLOCK
 62
     0
  5
B98
 10
-230.0
 20
0.0
 30
0.0
  0
POINT
  8
DEFPOINTS
  6
BYBLOCK
 62
     0
  5
B99
 10
-230.0
 20
-47.342221
 30
0.0
  0
LINE
  8
BEM
  6
BYBLOCK
  5
B9A
 10
155.311249
 20
-0.966111
 30
0.0
 11
143.561249
 21
-0.966111
 31
0.0
  0
LINE
  8
BEM
  6
BYBLOCK
  5
B9B
 10
155.311249
 20
-230.638272
 30
0.0
 11
143.561249
 21
-230.638272
 31
0.0
  0
LINE
  8
BEM
  6
BYBLOCK
  5
B9C
 10
161.561249
 20
-18.966111
 30
0.0
 11
161.561249
 21
-97.802192
 31
0.0
  0
LINE
  8
BEM
  6
BYBLOCK
  5
B9D
 10
161.561249
 20
-212.638272
 30
0.0
 11
161.561249
 21
-133.802192
 31
0.0
  0
SOLID
  8
BEM
  6
BYBLOCK
  5
B9E
 10
158.561249
 20
-18.966111
 30
0.0
 11
164.561249
 21
-18.966111
 31
0.0
 12
161.561249
 22
-0.966111
 32
0.0
 13
161.561249
 23
-0.966111
 33
0.0
  0
SOLID
  8
BEM
  6
BYBLOCK
  5
B9F
 10
158.561249
 20
-212.638272
 30
0.0
 11
164.561249
 21
-212.638272
 31
0.0
 12
161.561249
 22
-230.638272
 32
0.0
 13
161.561249
 23
-230.638272
 33
0.0
  0
POINT
  8
DEFPOINTS
  6
BYBLOCK
 62
     0
  5
BA1
 10
161.561249
 20
-0.966111
 30
0.0
  0
POINT
  8
DEFPOINTS
  6
BYBLOCK
 62
     0
  5
BA2
 10
161.561249
 20
-230.638272
 30
0.0
  0
POINT
  8
DEFPOINTS
  6
BYBLOCK
 62
     0
  5
BA3
 10
161.561249
 20
-230.638272
 30
0.0
  0
LINE
  8
BEM
  6
BYBLOCK
  5
BA4
 10
583.75
 20
-146.0
 30
0.0
 11
535.802991
 21
-146.0
 31
0.0
  0
LINE
  8
BEM
  6
BYBLOCK
  5
BA5
 10
583.75
 20
-196.0
 30
0.0
 11
535.802991
 21
-196.0
 31
0.0
  0
LINE
  8
BEM
  6
BYBLOCK
  5
BA6
 10
553.802991
 20
-128.0
 30
0.0
 11
553.802991
 21
-110.0
 31
0.0
  0
LINE
  8
BEM
  6
BYBLOCK
  5
BA7
 10
553.802991
 20
-214.0
 30
0.0
 11
553.802991
 21
-232.0
 31
0.0
  0
LINE
  8
BEM
  6
BYBLOCK
  5
BA8
 10
553.802991
 20
-232.0
 30
0.0
 11
535.802991
 21
-232.0
 31
0.0
  0
SOLID
  8
BEM
  6
BYBLOCK
  5
BA9
 10
550.802991
 20
-128.0
 30
0.0
 11
556.802991
 21
-128.0
 31
0.0
 12
553.802991
 22
-146.0
 32
0.0
 13
553.802991
 23
-146.0
 33
0.0
  0
SOLID
  8
BEM
  6
BYBLOCK
  5
BAA
 10
550.802991
 20
-214.0
 30
0.0
 11
556.802991
 21
-214.0
 31
0.0
 12
553.802991
 22
-196.0
 32
0.0
 13
553.802991
 23
-196.0
 33
0.0
  0
POINT
  8
DEFPOINTS
  6
BYBLOCK
 62
     0
  5
BAC
 10
590.0
 20
-146.0
 30
0.0
  0
POINT
  8
DEFPOINTS
  6
BYBLOCK
 62
     0
  5
BAD
 10
590.0
 20
-196.0
 30
0.0
  0
POINT
  8
DEFPOINTS
  6
BYBLOCK
 62
     0
  5
BAE
 10
553.802991
 20
-196.0
 30
0.0
  0
LINE
  8
BEM
  6
BYBLOCK
  5
BAF
 10
883.75
 20
-131.0
 30
0.0
 11
823.233239
 21
-131.0
 31
0.0
  0
LINE
  8
BEM
  6
BYBLOCK
  5
BB0
 10
883.75
 20
-166.0
 30
0.0
 11
823.233239
 21
-166.0
 31
0.0
  0
LINE
  8
BEM
  6
BYBLOCK
  5
BB1
 10
841.233239
 20
-113.0
 30
0.0
 11
841.233239
 21
-95.0
 31
0.0
  0
LINE
  8
BEM
  6
BYBLOCK
  5
BB2
 10
841.233239
 20
-184.0
 30
0.0
 11
841.233239
 21
-202.0
 31
0.0
  0
LINE
  8
BEM
  6
BYBLOCK
  5
BB3
 10
841.233239
 20
-202.0
 30
0.0
 11
823.233239
 21
-202.0
 31
0.0
  0
SOLID
  8
BEM
  6
BYBLOCK
  5
BB4
 10
838.233239
 20
-113.0
 30
0.0
 11
844.233239
 21
-113.0
 31
0.0
 12
841.233239
 22
-131.0
 32
0.0
 13
841.233239
 23
-131.0
 33
0.0
  0
SOLID
  8
BEM
  6
BYBLOCK
  5
BB5
 10
838.233239
 20
-184.0
 30
0.0
 11
844.233239
 21
-184.0
 31
0.0
 12
841.233239
 22
-166.0
 32
0.0
 13
841.233239
 23
-166.0
 33
0.0
  0
POINT
  8
DEFPOINTS
  6
BYBLOCK
 62
     0
  5
BB7
 10
890.0
 20
-131.0
 30
0.0
  0
POINT
  8
DEFPOINTS
  6
BYBLOCK
 62
     0
  5
BB8
 10
890.0
 20
-166.0
 30
0.0
  0
POINT
  8
DEFPOINTS
  6
BYBLOCK
 62
     0
  5
BB9
 10
841.233239
 20
-166.0
 30
0.0
  0
LINE
  8
BEM
  6
BYBLOCK
  5
BBA
 10
890.0
 20
-172.25
 30
0.0
 11
890.0
 21
-220.648476
 31
0.0
  0
LINE
  8
BEM
  6
BYBLOCK
  5
BBB
 10
950.596938
 20
-168.253105
 30
0.0
 11
950.596938
 21
-220.648476
 31
0.0
  0
LINE
  8
BEM
  6
BYBLOCK
  5
BBC
 10
872.0
 20
-202.648476
 30
0.0
 11
854.0
 21
-202.648476
 31
0.0
  0
LINE
  8
BEM
  6
BYBLOCK
  5
BBD
 10
968.596938
 20
-202.648476
 30
0.0
 11
986.596938
 21
-202.648476
 31
0.0
  0
SOLID
  8
BEM
  6
BYBLOCK
  5
BBE
 10
872.0
 20
-199.648476
 30
0.0
 11
872.0
 21
-205.648476
 31
0.0
 12
890.0
 22
-202.648476
 32
0.0
 13
890.0
 23
-202.648476
 33
0.0
  0
SOLID
  8
BEM
  6
BYBLOCK
  5
BBF
 10
968.596938
 20
-199.648476
 30
0.0
 11
968.596938
 21
-205.648476
 31
0.0
 12
950.596938
 22
-202.648476
 32
0.0
 13
950.596938
 23
-202.648476
 33
0.0
  0
POINT
  8
DEFPOINTS
  6
BYBLOCK
 62
     0
  5
BC1
 10
890.0
 20
-166.0
 30
0.0
  0
POINT
  8
DEFPOINTS
  6
BYBLOCK
 62
     0
  5
BC2
 10
950.596938
 20
-162.003105
 30
0.0
  0
POINT
  8
DEFPOINTS
  6
BYBLOCK
 62
     0
  5
BC3
 10
950.596938
 20
-202.648476
 30
0.0
  0
LINE
  8
BEM
  6
BYBLOCK
  5
BC4
 10
700.0
 20
-836.25
 30
0.0
 11
700.0
 21
-902.320565
 31
0.0
  0
LINE
  8
BEM
  6
BYBLOCK
  5
BC5
 10
690.0
 20
-866.25
 30
0.0
 11
690.0
 21
-902.320565
 31
0.0
  0
LINE
  8
BEM
  6
BYBLOCK
  5
BC6
 10
718.0
 20
-884.320565
 30
0.0
 11
736.0
 21
-884.320565
 31
0.0
  0
LINE
  8
BEM
  6
BYBLOCK
  5
BC7
 10
672.0
 20
-884.320565
 30
0.0
 11
654.0
 21
-884.320565
 31
0.0
  0
SOLID
  8
BEM
  6
BYBLOCK
  5
BC8
 10
718.0
 20
-881.320565
 30
0.0
 11
718.0
 21
-887.320565
 31
0.0
 12
700.0
 22
-884.320565
 32
0.0
 13
700.0
 23
-884.320565
 33
0.0
  0
SOLID
  8
BEM
  6
BYBLOCK
  5
BC9
 10
672.0
 20
-881.320565
 30
0.0
 11
672.0
 21
-887.320565
 31
0.0
 12
690.0
 22
-884.320565
 32
0.0
 13
690.0
 23
-884.320565
 33
0.0
  0
POINT
  8
DEFPOINTS
  6
BYBLOCK
 62
     0
  5
BCB
 10
700.0
 20
-830.0
 30
0.0
  0
POINT
  8
DEFPOINTS
  6
BYBLOCK
 62
     0
  5
BCC
 10
690.0
 20
-860.0
 30
0.0
  0
POINT
  8
DEFPOINTS
  6
BYBLOCK
 62
     0
  5
BCD
 10
690.0
 20
-884.320565
 30
0.0
  0
LINE
  8
BEM
  6
BYBLOCK
  5
BCE
 10
985.2256
 20
-800.401891
 30
0.0
 11
1056.624755
 21
-800.401891
 31
0.0
  0
LINE
  8
BEM
  6
BYBLOCK
  5
BCF
 10
706.25
 20
-830.0
 30
0.0
 11
1056.624755
 21
-830.0
 31
0.0
  0
LINE
  8
BEM
  6
BYBLOCK
  5
BD0
 10
1038.624755
 20
-782.401891
 30
0.0
 11
1038.624755
 21
-764.401891
 31
0.0
  0
LINE
  8
BEM
  6
BYBLOCK
  5
BD1
 10
1038.624755
 20
-848.0
 30
0.0
 11
1038.624755
 21
-866.0
 31
0.0
  0
LINE
  8
BEM
  6
BYBLOCK
  5
BD2
 10
1038.624755
 20
-866.0
 30
0.0
 11
1020.624755
 21
-866.0
 31
0.0
  0
SOLID
  8
BEM
  6
BYBLOCK
  5
BD3
 10
1035.624755
 20
-782.401891
 30
0.0
 11
1041.624755
 21
-782.401891
 31
0.0
 12
1038.624755
 22
-800.401891
 32
0.0
 13
1038.624755
 23
-800.401891
 33
0.0
  0
SOLID
  8
BEM
  6
BYBLOCK
  5
BD4
 10
1035.624755
 20
-848.0
 30
0.0
 11
1041.624755
 21
-848.0
 31
0.0
 12
1038.624755
 22
-830.0
 32
0.0
 13
1038.624755
 23
-830.0
 33
0.0
  0
POINT
  8
DEFPOINTS
  6
BYBLOCK
 62
     0
  5
BD6
 10
978.9756
 20
-800.401891
 30
0.0
  0
POINT
  8
DEFPOINTS
  6
BYBLOCK
 62
     0
  5
BD7
 10
700.0
 20
-830.0
 30
0.0
  0
POINT
  8
DEFPOINTS
  6
BYBLOCK
 62
     0
  5
BD8
 10
1038.624755
 20
-830.0
 30
0.0
  0
LINE
  8
BEM
  6
BYBLOCK
  5
BD9
 10
700.0
 20
-556.25
 30
0.0
 11
700.0
 21
-568.854261
 31
0.0
  0
LINE
  8
BEM
  6
BYBLOCK
  5
BDA
 10
749.215889
 20
-544.604261
 30
0.0
 11
749.215889
 21
-532.854261
 31
0.0
  0
LINE
  8
BEM
  6
BYBLOCK
  5
BDB
 10
682.0
 20
-550.854261
 30
0.0
 11
664.0
 21
-550.854261
 31
0.0
  0
LINE
  8
BEM
  6
BYBLOCK
  5
BDC
 10
767.215889
 20
-550.854261
 30
0.0
 11
785.215889
 21
-550.854261
 31
0.0
  0
SOLID
  8
BEM
  6
BYBLOCK
  5
BDD
 10
682.0
 20
-547.854261
 30
0.0
 11
682.0
 21
-553.854261
 31
0.0
 12
700.0
 22
-550.854261
 32
0.0
 13
700.0
 23
-550.854261
 33
0.0
  0
SOLID
  8
BEM
  6
BYBLOCK
  5
BDE
 10
767.215889
 20
-547.854261
 30
0.0
 11
767.215889
 21
-553.854261
 31
0.0
 12
749.215889
 22
-550.854261
 32
0.0
 13
749.215889
 23
-550.854261
 33
0.0
  0
POINT
  8
DEFPOINTS
  6
BYBLOCK
 62
     0
  5
BE0
 10
700.0
 20
-550.0
 30
0.0
  0
POINT
  8
DEFPOINTS
  6
BYBLOCK
 62
     0
  5
BE1
 10
749.215889
 20
-550.854261
 30
0.0
  0
POINT
  8
DEFPOINTS
  6
BYBLOCK
 62
     0
  5
BE2
 10
749.215889
 20
-550.854261
 30
0.0
  0
LINE
  8
BEM
  6
BYBLOCK
  5
BE3
 10
700.0
 20
-836.25
 30
0.0
 11
700.0
 21
-902.320565
 31
0.0
  0
LINE
  8
BEM
  6
BYBLOCK
  5
BE4
 10
980.0
 20
-788.278389
 30
0.0
 11
980.0
 21
-902.320565
 31
0.0
  0
LINE
  8
BEM
  6
BYBLOCK
  5
BE5
 10
718.0
 20
-884.320565
 30
0.0
 11
808.5
 21
-884.320565
 31
0.0
  0
LINE
  8
BEM
  6
BYBLOCK
  5
BE6
 10
962.0
 20
-884.320565
 30
0.0
 11
871.5
 21
-884.320565
 31
0.0
  0
SOLID
  8
BEM
  6
BYBLOCK
  5
BE7
 10
718.0
 20
-881.320565
 30
0.0
 11
718.0
 21
-887.320565
 31
0.0
 12
700.0
 22
-884.320565
 32
0.0
 13
700.0
 23
-884.320565
 33
0.0
  0
SOLID
  8
BEM
  6
BYBLOCK
  5
BE8
 10
962.0
 20
-881.320565
 30
0.0
 11
962.0
 21
-887.320565
 31
0.0
 12
980.0
 22
-884.320565
 32
0.0
 13
980.0
 23
-884.320565
 33
0.0
  0
POINT
  8
DEFPOINTS
  6
BYBLOCK
 62
     0
  5
BEA
 10
700.0
 20
-830.0
 30
0.0
  0
POINT
  8
DEFPOINTS
  6
BYBLOCK
 62
     0
  5
BEB
 10
980.0
 20
-782.028389
 30
0.0
  0
POINT
  8
DEFPOINTS
  6
BYBLOCK
 62
     0
  5
BEC
 10
980.0
 20
-884.320565
 30
0.0
  0
LINE
  8
BEM
  6
BYBLOCK
  5
BED
 10
693.75
 20
-550.0
 30
0.0
 11
629.591404
 21
-550.0
 31
0.0
  0
LINE
  8
BEM
  6
BYBLOCK
  5
BEE
 10
693.75
 20
-830.0
 30
0.0
 11
629.591404
 21
-830.0
 31
0.0
  0
LINE
  8
BEM
  6
BYBLOCK
  5
BEF
 10
647.591404
 20
-568.0
 30
0.0
 11
647.591404
 21
-672.0
 31
0.0
  0
LINE
  8
BEM
  6
BYBLOCK
  5
BF0
 10
647.591404
 20
-812.0
 30
0.0
 11
647.591404
 21
-708.0
 31
0.0
  0
SOLID
  8
BEM
  6
BYBLOCK
  5
BF1
 10
644.591404
 20
-568.0
 30
0.0
 11
650.591404
 21
-568.0
 31
0.0
 12
647.591404
 22
-550.0
 32
0.0
 13
647.591404
 23
-550.0
 33
0.0
  0
SOLID
  8
BEM
  6
BYBLOCK
  5
BF2
 10
644.591404
 20
-812.0
 30
0.0
 11
650.591404
 21
-812.0
 31
0.0
 12
647.591404
 22
-830.0
 32
0.0
 13
647.591404
 23
-830.0
 33
0.0
  0
POINT
  8
DEFPOINTS
  6
BYBLOCK
 62
     0
  5
BF4
 10
700.0
 20
-550.0
 30
0.0
  0
POINT
  8
DEFPOINTS
  6
BYBLOCK
 62
     0
  5
BF5
 10
700.0
 20
-830.0
 30
0.0
  0
POINT
  8
DEFPOINTS
  6
BYBLOCK
 62
     0
  5
BF6
 10
647.591404
 20
-830.0
 30
0.0
  0
LINE
  8
BEM
  6
BYBLOCK
  5
BF7
 10
306.25
 20
-800.0
 30
0.0
 11
444.320325
 21
-800.0
 31
0.0
  0
LINE
  8
BEM
  6
BYBLOCK
  5
BF8
 10
306.25
 20
-830.0
 30
0.0
 11
444.320325
 21
-830.0
 31
0.0
  0
LINE
  8
BEM
  6
BYBLOCK
  5
BF9
 10
426.320325
 20
-782.0
 30
0.0
 11
426.320325
 21
-764.0
 31
0.0
  0
LINE
  8
BEM
  6
BYBLOCK
  5
BFA
 10
426.320325
 20
-848.0
 30
0.0
 11
426.320325
 21
-866.0
 31
0.0
  0
LINE
  8
BEM
  6
BYBLOCK
  5
BFB
 10
426.320325
 20
-866.0
 30
0.0
 11
408.320325
 21
-866.0
 31
0.0
  0
SOLID
  8
BEM
  6
BYBLOCK
  5
BFC
 10
423.320325
 20
-782.0
 30
0.0
 11
429.320325
 21
-782.0
 31
0.0
 12
426.320325
 22
-800.0
 32
0.0
 13
426.320325
 23
-800.0
 33
0.0
  0
SOLID
  8
BEM
  6
BYBLOCK
  5
BFD
 10
423.320325
 20
-848.0
 30
0.0
 11
429.320325
 21
-848.0
 31
0.0
 12
426.320325
 22
-830.0
 32
0.0
 13
426.320325
 23
-830.0
 33
0.0
  0
POINT
  8
DEFPOINTS
  6
BYBLOCK
 62
     0
  5
BFF
 10
300.0
 20
-800.0
 30
0.0
  0
POINT
  8
DEFPOINTS
  6
BYBLOCK
 62
     0
  5
C00
 10
300.0
 20
-830.0
 30
0.0
  0
POINT
  8
DEFPOINTS
  6
BYBLOCK
 62
     0
  5
C01
 10
426.320325
 20
-830.0
 30
0.0
  0
LINE
  8
BEM
  6
BYBLOCK
  5
C02
 10
693.75
 20
-300.0
 30
0.0
 11
629.591404
 21
-300.0
 31
0.0
  0
LINE
  8
BEM
  6
BYBLOCK
  5
C03
 10
693.75
 20
-550.0
 30
0.0
 11
629.591404
 21
-550.0
 31
0.0
  0
LINE
  8
BEM
  6
BYBLOCK
  5
C04
 10
647.591404
 20
-318.0
 30
0.0
 11
647.591404
 21
-407.0
 31
0.0
  0
LINE
  8
BEM
  6
BYBLOCK
  5
C05
 10
647.591404
 20
-532.0
 30
0.0
 11
647.591404
 21
-443.0
 31
0.0
  0
SOLID
  8
BEM
  6
BYBLOCK
  5
C06
 10
644.591404
 20
-318.0
 30
0.0
 11
650.591404
 21
-318.0
 31
0.0
 12
647.591404
 22
-300.0
 32
0.0
 13
647.591404
 23
-300.0
 33
0.0
  0
SOLID
  8
BEM
  6
BYBLOCK
  5
C07
 10
644.591404
 20
-532.0
 30
0.0
 11
650.591404
 21
-532.0
 31
0.0
 12
647.591404
 22
-550.0
 32
0.0
 13
647.591404
 23
-550.0
 33
0.0
  0
POINT
  8
DEFPOINTS
  6
BYBLOCK
 62
     0
  5
C09
 10
700.0
 20
-300.0
 30
0.0
  0
POINT
  8
DEFPOINTS
  6
BYBLOCK
 62
     0
  5
C0A
 10
700.0
 20
-550.0
 30
0.0
  0
POINT
  8
DEFPOINTS
  6
BYBLOCK
 62
     0
  5
C0B
 10
647.591404
 20
-550.0
 30
0.0
  0
LINE
  8
BEM
  6
BYBLOCK
  5
C0C
 10
985.2256
 20
-698.816131
 30
0.0
 11
1056.624755
 21
-698.816131
 31
0.0
  0
LINE
  8
BEM
  6
BYBLOCK
  5
C0D
 10
985.2256
 20
-800.401891
 30
0.0
 11
1056.624755
 21
-800.401891
 31
0.0
  0
LINE
  8
BEM
  6
BYBLOCK
  5
C0E
 10
1038.624755
 20
-716.816131
 30
0.0
 11
1038.624755
 21
-731.609011
 31
0.0
  0
LINE
  8
BEM
  6
BYBLOCK
  5
C0F
 10
1038.624755
 20
-782.401891
 30
0.0
 11
1038.624755
 21
-767.609011
 31
0.0
  0
SOLID
  8
BEM
  6
BYBLOCK
  5
C10
 10
1035.624755
 20
-716.816131
 30
0.0
 11
1041.624755
 21
-716.816131
 31
0.0
 12
1038.624755
 22
-698.816131
 32
0.0
 13
1038.624755
 23
-698.816131
 33
0.0
  0
SOLID
  8
BEM
  6
BYBLOCK
  5
C11
 10
1035.624755
 20
-782.401891
 30
0.0
 11
1041.624755
 21
-782.401891
 31
0.0
 12
1038.624755
 22
-800.401891
 32
0.0
 13
1038.624755
 23
-800.401891
 33
0.0
  0
POINT
  8
DEFPOINTS
  6
BYBLOCK
 62
     0
  5
C13
 10
978.9756
 20
-698.816131
 30
0.0
  0
POINT
  8
DEFPOINTS
  6
BYBLOCK
 62
     0
  5
C14
 10
978.9756
 20
-800.401891
 30
0.0
  0
POINT
  8
DEFPOINTS
  6
BYBLOCK
 62
     0
  5
C15
 10
1038.624755
 20
-800.401891
 30
0.0
  0
LINE
  8
BEM
  6
BYBLOCK
  5
C16
 10
942.195756
 20
-39.1969
 30
0.0
 11
1050.692846
 21
-39.1969
 31
0.0
  0
LINE
  8
BEM
  6
BYBLOCK
  5
C17
 10
256.25
 20
0.0
 30
0.0
 11
1050.692846
 21
0.0
 31
0.0
  0
LINE
  8
BEM
  6
BYBLOCK
  5
C18
 10
1032.692846
 20
-57.1969
 30
0.0
 11
1032.692846
 21
-75.1969
 31
0.0
  0
LINE
  8
BEM
  6
BYBLOCK
  5
C19
 10
1032.692846
 20
18.0
 30
0.0
 11
1032.692846
 21
36.0
 31
0.0
  0
LINE
  8
BEM
  6
BYBLOCK
  5
C1A
 10
1032.692846
 20
36.0
 30
0.0
 11
1050.692846
 21
36.0
 31
0.0
  0
SOLID
  8
BEM
  6
BYBLOCK
  5
C1B
 10
1029.692846
 20
-57.1969
 30
0.0
 11
1035.692846
 21
-57.1969
 31
0.0
 12
1032.692846
 22
-39.1969
 32
0.0
 13
1032.692846
 23
-39.1969
 33
0.0
  0
SOLID
  8
BEM
  6
BYBLOCK
  5
C1C
 10
1029.692846
 20
18.0
 30
0.0
 11
1035.692846
 21
18.0
 31
0.0
 12
1032.692846
 22
0.0
 32
0.0
 13
1032.692846
 23
0.0
 33
0.0
  0
POINT
  8
DEFPOINTS
  6
BYBLOCK
 62
     0
  5
C1E
 10
935.945756
 20
-39.1969
 30
0.0
  0
POINT
  8
DEFPOINTS
  6
BYBLOCK
 62
     0
  5
C1F
 10
250.0
 20
0.0
 30
0.0
  0
POINT
  8
DEFPOINTS
  6
BYBLOCK
 62
     0
  5
C20
 10
1032.692846
 20
0.0
 30
0.0
  0
LINE
  8
BEM
  6
BYBLOCK
  5
C21
 10
590.0
 20
-139.75
 30
0.0
 11
590.0
 21
-83.868383
 31
0.0
  0
LINE
  8
BEM
  6
BYBLOCK
  5
C22
 10
890.0
 20
-124.75
 30
0.0
 11
890.0
 21
-83.868383
 31
0.0
  0
LINE
  8
BEM
  6
BYBLOCK
  5
C23
 10
608.0
 20
-101.868383
 30
0.0
 11
710.0
 21
-101.868383
 31
0.0
  0
LINE
  8
BEM
  6
BYBLOCK
  5
C24
 10
872.0
 20
-101.868383
 30
0.0
 11
770.0
 21
-101.868383
 31
0.0
  0
SOLID
  8
BEM
  6
BYBLOCK
  5
C25
 10
608.0
 20
-98.868383
 30
0.0
 11
608.0
 21
-104.868383
 31
0.0
 12
590.0
 22
-101.868383
 32
0.0
 13
590.0
 23
-101.868383
 33
0.0
  0
SOLID
  8
BEM
  6
BYBLOCK
  5
C26
 10
872.0
 20
-98.868383
 30
0.0
 11
872.0
 21
-104.868383
 31
0.0
 12
890.0
 22
-101.868383
 32
0.0
 13
890.0
 23
-101.868383
 33
0.0
  0
POINT
  8
DEFPOINTS
  6
BYBLOCK
 62
     0
  5
C28
 10
590.0
 20
-146.0
 30
0.0
  0
POINT
  8
DEFPOINTS
  6
BYBLOCK
 62
     0
  5
C29
 10
890.0
 20
-131.0
 30
0.0
  0
POINT
  8
DEFPOINTS
  6
BYBLOCK
 62
     0
  5
C2A
 10
890.0
 20
-101.868383
 30
0.0
  0
LINE
  8
BEM
  6
BYBLOCK
  5
C2B
 10
97.274507
 20
350.0
 30
0.0
 11
179.561249
 21
350.0
 31
0.0
  0
LINE
  8
BEM
  6
BYBLOCK
  5
C2C
 10
155.311249
 20
-0.966111
 30
0.0
 11
143.561249
 21
-0.966111
 31
0.0
  0
LINE
  8
BEM
  6
BYBLOCK
  5
C2D
 10
161.561249
 20
332.0
 30
0.0
 11
161.561249
 21
192.516944
 31
0.0
  0
LINE
  8
BEM
  6
BYBLOCK
  5
C2E
 10
161.561249
 20
17.033889
 30
0.0
 11
161.561249
 21
156.516944
 31
0.0
  0
SOLID
  8
BEM
  6
BYBLOCK
  5
C2F
 10
158.561249
 20
332.0
 30
0.0
 11
164.561249
 21
332.0
 31
0.0
 12
161.561249
 22
350.0
 32
0.0
 13
161.561249
 23
350.0
 33
0.0
  0
SOLID
  8
BEM
  6
BYBLOCK
  5
C30
 10
158.561249
 20
17.033889
 30
0.0
 11
164.561249
 21
17.033889
 31
0.0
 12
161.561249
 22
-0.966111
 32
0.0
 13
161.561249
 23
-0.966111
 33
0.0
  0
POINT
  8
DEFPOINTS
  6
BYBLOCK
 62
     0
  5
C32
 10
91.024507
 20
350.0
 30
0.0
  0
POINT
  8
DEFPOINTS
  6
BYBLOCK
 62
     0
  5
C33
 10
161.561249
 20
-0.966111
 30
0.0
  0
POINT
  8
DEFPOINTS
  6
BYBLOCK
 62
     0
  5
C34
 10
161.561249
 20
-0.966111
 30
0.0
  0
LINE
  8
BEM
  6
BYBLOCK
  5
C35
 10
942.195756
 20
-39.1969
 30
0.0
 11
1050.692846
 21
-39.1969
 31
0.0
  0
LINE
  8
BEM
  6
BYBLOCK
  5
C36
 10
945.629795
 20
-161.062021
 30
0.0
 11
1050.692846
 21
-161.062021
 31
0.0
  0
LINE
  8
BEM
  6
BYBLOCK
  5
C37
 10
1032.692846
 20
-57.1969
 30
0.0
 11
1032.692846
 21
-82.12946
 31
0.0
  0
LINE
  8
BEM
  6
BYBLOCK
  5
C38
 10
1032.692846
 20
-143.062021
 30
0.0
 11
1032.692846
 21
-118.12946
 31
0.0
  0
SOLID
  8
BEM
  6
BYBLOCK
  5
C39
 10
1029.692846
 20
-57.1969
 30
0.0
 11
1035.692846
 21
-57.1969
 31
0.0
 12
1032.692846
 22
-39.1969
 32
0.0
 13
1032.692846
 23
-39.1969
 33
0.0
  0
SOLID
  8
BEM
  6
BYBLOCK
  5
C3A
 10
1029.692846
 20
-143.062021
 30
0.0
 11
1035.692846
 21
-143.062021
 31
0.0
 12
1032.692846
 22
-161.062021
 32
0.0
 13
1032.692846
 23
-161.062021
 33
0.0
  0
POINT
  8
DEFPOINTS
  6
BYBLOCK
 62
     0
  5
C3C
 10
935.945756
 20
-39.1969
 30
0.0
  0
POINT
  8
DEFPOINTS
  6
BYBLOCK
 62
     0
  5
C3D
 10
939.379795
 20
-161.062021
 30
0.0
  0
POINT
  8
DEFPOINTS
  6
BYBLOCK
 62
     0
  5
C3E
 10
1032.692846
 20
-161.062021
 30
0.0
  0
POLYLINE
  8
BEM
  5
C41
 66
     1
 10
0.0
 20
0.0
 30
0.0
  0
VERTEX
  8
BEM
  5
C42
 10
-620.84021
 20
-254.764062
 30
0.0
  0
VERTEX
  8
BEM
  5
C43
 10
-608.84021
 20
-254.764062
 30
0.0
  0
VERTEX
  8
BEM
  5
C44
 10
-617.84021
 20
-272.764062
 30
0.0
  0
SEQEND
  8
BEM
  5
C45
  0
POLYLINE
  8
BEM
  5
C48
 66
     1
 10
0.0
 20
0.0
 30
0.0
  0
VERTEX
  8
BEM
  5
C49
 10
-599.84021
 20
-272.764062
 30
0.0
  0
VERTEX
  8
BEM
  5
C4A
 10
-602.84021
 20
-269.764062
 30
0.0
  0
VERTEX
  8
BEM
  5
C4B
 10
-602.84021
 20
-257.764062
 30
0.0
  0
VERTEX
  8
BEM
  5
C4C
 10
-599.84021
 20
-254.764062
 30
0.0
  0
VERTEX
  8
BEM
  5
C4D
 10
-596.84021
 20
-254.764062
 30
0.0
  0
VERTEX
  8
BEM
  5
C4E
 10
-593.84021
 20
-257.764062
 30
0.0
  0
VERTEX
  8
BEM
  5
C4F
 10
-593.84021
 20
-269.764062
 30
0.0
  0
VERTEX
  8
BEM
  5
C50
 10
-596.84021
 20
-272.764062
 30
0.0
  0
VERTEX
  8
BEM
  5
C51
 10
-599.84021
 20
-272.764062
 30
0.0
  0
SEQEND
  8
BEM
  5
C52
  0
POLYLINE
  8
BEM
  5
C55
 66
     1
 10
0.0
 20
0.0
 30
0.0
  0
VERTEX
  8
BEM
  5
C56
 10
-584.84021
 20
-272.764062
 30
0.0
  0
VERTEX
  8
BEM
  5
C57
 10
-587.84021
 20
-269.764062
 30
0.0
  0
VERTEX
  8
BEM
  5
C58
 10
-587.84021
 20
-257.764062
 30
0.0
  0
VERTEX
  8
BEM
  5
C59
 10
-584.84021
 20
-254.764062
 30
0.0
  0
VERTEX
  8
BEM
  5
C5A
 10
-581.84021
 20
-254.764062
 30
0.0
  0
VERTEX
  8
BEM
  5
C5B
 10
-578.84021
 20
-257.764062
 30
0.0
  0
VERTEX
  8
BEM
  5
C5C
 10
-578.84021
 20
-269.764062
 30
0.0
  0
VERTEX
  8
BEM
  5
C5D
 10
-581.84021
 20
-272.764062
 30
0.0
  0
VERTEX
  8
BEM
  5
C5E
 10
-584.84021
 20
-272.764062
 30
0.0
  0
SEQEND
  8
BEM
  5
C5F
  0
POLYLINE
  8
BEM
  5
C62
 66
     1
 10
0.0
 20
0.0
 30
0.0
  0
VERTEX
  8
BEM
  5
C63
 10
-422.633096
 20
-729.541667
 30
0.0
  0
VERTEX
  8
BEM
  5
C64
 10
-419.633096
 20
-726.541667
 30
0.0
  0
VERTEX
  8
BEM
  5
C65
 10
-419.633096
 20
-744.541667
 30
0.0
  0
SEQEND
  8
BEM
  5
C66
  0
POLYLINE
  8
BEM
  5
C67
 66
     1
 10
0.0
 20
0.0
 30
0.0
  0
VERTEX
  8
BEM
  5
C68
 10
-422.633096
 20
-744.541667
 30
0.0
  0
VERTEX
  8
BEM
  5
C69
 10
-416.633096
 20
-744.541667
 30
0.0
  0
SEQEND
  8
BEM
  5
C6A
  0
POLYLINE
  8
BEM
  5
C6D
 66
     1
 10
0.0
 20
0.0
 30
0.0
  0
VERTEX
  8
BEM
  5
C6E
 10
-410.633096
 20
-729.541667
 30
0.0
  0
VERTEX
  8
BEM
  5
C6F
 10
-407.633096
 20
-726.541667
 30
0.0
  0
VERTEX
  8
BEM
  5
C70
 10
-401.633096
 20
-726.541667
 30
0.0
  0
VERTEX
  8
BEM
  5
C71
 10
-398.633096
 20
-729.541667
 30
0.0
  0
VERTEX
  8
BEM
  5
C72
 10
-398.633096
 20
-732.541667
 30
0.0
  0
VERTEX
  8
BEM
  5
C73
 10
-401.633096
 20
-735.541667
 30
0.0
  0
VERTEX
  8
BEM
  5
C74
 10
-404.633096
 20
-735.541667
 30
0.0
  0
SEQEND
  8
BEM
  5
C75
  0
POLYLINE
  8
BEM
  5
C76
 66
     1
 10
0.0
 20
0.0
 30
0.0
  0
VERTEX
  8
BEM
  5
C77
 10
-401.633096
 20
-735.541667
 30
0.0
  0
VERTEX
  8
BEM
  5
C78
 10
-398.633096
 20
-738.541667
 30
0.0
  0
VERTEX
  8
BEM
  5
C79
 10
-398.633096
 20
-741.541667
 30
0.0
  0
VERTEX
  8
BEM
  5
C7A
 10
-401.633096
 20
-744.541667
 30
0.0
  0
VERTEX
  8
BEM
  5
C7B
 10
-407.633096
 20
-744.541667
 30
0.0
  0
VERTEX
  8
BEM
  5
C7C
 10
-410.633096
 20
-741.541667
 30
0.0
  0
SEQEND
  8
BEM
  5
C7D
  0
POLYLINE
  8
BEM
  5
C80
 66
     1
 10
0.0
 20
0.0
 30
0.0
  0
VERTEX
  8
BEM
  5
C81
 10
-389.633096
 20
-744.541667
 30
0.0
  0
VERTEX
  8
BEM
  5
C82
 10
-392.633096
 20
-741.541667
 30
0.0
  0
VERTEX
  8
BEM
  5
C83
 10
-392.633096
 20
-729.541667
 30
0.0
  0
VERTEX
  8
BEM
  5
C84
 10
-389.633096
 20
-726.541667
 30
0.0
  0
VERTEX
  8
BEM
  5
C85
 10
-386.633096
 20
-726.541667
 30
0.0
  0
VERTEX
  8
BEM
  5
C86
 10
-383.633096
 20
-729.541667
 30
0.0
  0
VERTEX
  8
BEM
  5
C87
 10
-383.633096
 20
-741.541667
 30
0.0
  0
VERTEX
  8
BEM
  5
C88
 10
-386.633096
 20
-744.541667
 30
0.0
  0
VERTEX
  8
BEM
  5
C89
 10
-389.633096
 20
-744.541667
 30
0.0
  0
SEQEND
  8
BEM
  5
C8A
  0
POLYLINE
  8
BEM
  5
C8D
 66
     1
 10
0.0
 20
0.0
 30
0.0
  0
VERTEX
  8
BEM
  5
C8E
 10
-327.216614
 20
-701.755393
 30
0.0
  0
VERTEX
  8
BEM
  5
C8F
 10
-318.216614
 20
-701.755393
 30
0.0
  0
VERTEX
  8
BEM
  5
C90
 10
-315.216614
 20
-704.755393
 30
0.0
  0
VERTEX
  8
BEM
  5
C91
 10
-315.216614
 20
-707.755393
 30
0.0
  0
VERTEX
  8
BEM
  5
C92
 10
-318.216614
 20
-710.755393
 30
0.0
  0
VERTEX
  8
BEM
  5
C93
 10
-324.216614
 20
-710.755393
 30
0.0
  0
VERTEX
  8
BEM
  5
C94
 10
-327.216614
 20
-707.755393
 30
0.0
  0
VERTEX
  8
BEM
  5
C95
 10
-327.216614
 20
-698.755393
 30
0.0
  0
VERTEX
  8
BEM
  5
C96
 10
-321.216614
 20
-692.755393
 30
0.0
  0
VERTEX
  8
BEM
  5
C97
 10
-318.216614
 20
-692.755393
 30
0.0
  0
SEQEND
  8
BEM
  5
C98
  0
POLYLINE
  8
BEM
  5
C9B
 66
     1
 10
0.0
 20
0.0
 30
0.0
  0
VERTEX
  8
BEM
  5
C9C
 10
-309.216614
 20
-707.755393
 30
0.0
  0
VERTEX
  8
BEM
  5
C9D
 10
-306.216614
 20
-710.755393
 30
0.0
  0
VERTEX
  8
BEM
  5
C9E
 10
-300.216614
 20
-710.755393
 30
0.0
  0
VERTEX
  8
BEM
  5
C9F
 10
-297.216614
 20
-707.755393
 30
0.0
  0
VERTEX
  8
BEM
  5
CA0
 10
-297.216614
 20
-701.755393
 30
0.0
  0
VERTEX
  8
BEM
  5
CA1
 10
-300.216614
 20
-698.755393
 30
0.0
  0
VERTEX
  8
BEM
  5
CA2
 10
-309.216614
 20
-698.755393
 30
0.0
  0
VERTEX
  8
BEM
  5
CA3
 10
-309.216614
 20
-692.755393
 30
0.0
  0
VERTEX
  8
BEM
  5
CA4
 10
-297.216614
 20
-692.755393
 30
0.0
  0
SEQEND
  8
BEM
  5
CA5
  0
POLYLINE
  8
BEM
  5
CA8
 66
     1
 10
0.0
 20
0.0
 30
0.0
  0
VERTEX
  8
BEM
  5
CA9
 10
-21.0
 20
-936.362867
 30
0.0
  0
VERTEX
  8
BEM
  5
CAA
 10
-12.0
 20
-936.362867
 30
0.0
  0
VERTEX
  8
BEM
  5
CAB
 10
-9.0
 20
-939.362867
 30
0.0
  0
VERTEX
  8
BEM
  5
CAC
 10
-9.0
 20
-942.362867
 30
0.0
  0
VERTEX
  8
BEM
  5
CAD
 10
-12.0
 20
-945.362867
 30
0.0
  0
VERTEX
  8
BEM
  5
CAE
 10
-18.0
 20
-945.362867
 30
0.0
  0
VERTEX
  8
BEM
  5
CAF
 10
-21.0
 20
-942.362867
 30
0.0
  0
VERTEX
  8
BEM
  5
CB0
 10
-21.0
 20
-933.362867
 30
0.0
  0
VERTEX
  8
BEM
  5
CB1
 10
-15.0
 20
-927.362867
 30
0.0
  0
VERTEX
  8
BEM
  5
CB2
 10
-12.0
 20
-927.362867
 30
0.0
  0
SEQEND
  8
BEM
  5
CB3
  0
POLYLINE
  8
BEM
  5
CB6
 66
     1
 10
0.0
 20
0.0
 30
0.0
  0
VERTEX
  8
BEM
  5
CB7
 10
0.0
 20
-945.362867
 30
0.0
  0
VERTEX
  8
BEM
  5
CB8
 10
-3.0
 20
-942.362867
 30
0.0
  0
VERTEX
  8
BEM
  5
CB9
 10
-3.0
 20
-930.362867
 30
0.0
  0
VERTEX
  8
BEM
  5
CBA
 10
0.0
 20
-927.362867
 30
0.0
  0
VERTEX
  8
BEM
  5
CBB
 10
3.0
 20
-927.362867
 30
0.0
  0
VERTEX
  8
BEM
  5
CBC
 10
6.0
 20
-930.362867
 30
0.0
  0
VERTEX
  8
BEM
  5
CBD
 10
6.0
 20
-942.362867
 30
0.0
  0
VERTEX
  8
BEM
  5
CBE
 10
3.0
 20
-945.362867
 30
0.0
  0
VERTEX
  8
BEM
  5
CBF
 10
0.0
 20
-945.362867
 30
0.0
  0
SEQEND
  8
BEM
  5
CC0
  0
POLYLINE
  8
BEM
  5
CC3
 66
     1
 10
0.0
 20
0.0
 30
0.0
  0
VERTEX
  8
BEM
  5
CC4
 10
15.0
 20
-945.362867
 30
0.0
  0
VERTEX
  8
BEM
  5
CC5
 10
12.0
 20
-942.362867
 30
0.0
  0
VERTEX
  8
BEM
  5
CC6
 10
12.0
 20
-930.362867
 30
0.0
  0
VERTEX
  8
BEM
  5
CC7
 10
15.0
 20
-927.362867
 30
0.0
  0
VERTEX
  8
BEM
  5
CC8
 10
18.0
 20
-927.362867
 30
0.0
  0
VERTEX
  8
BEM
  5
CC9
 10
21.0
 20
-930.362867
 30
0.0
  0
VERTEX
  8
BEM
  5
CCA
 10
21.0
 20
-942.362867
 30
0.0
  0
VERTEX
  8
BEM
  5
CCB
 10
18.0
 20
-945.362867
 30
0.0
  0
VERTEX
  8
BEM
  5
CCC
 10
15.0
 20
-945.362867
 30
0.0
  0
SEQEND
  8
BEM
  5
CCD
  0
POLYLINE
  8
BEM
  5
CD0
 66
     1
 10
0.0
 20
0.0
 30
0.0
  0
VERTEX
  8
BEM
  5
CD1
 10
-71.0
 20
-869.905417
 30
0.0
  0
VERTEX
  8
BEM
  5
CD2
 10
-68.0
 20
-866.905417
 30
0.0
  0
VERTEX
  8
BEM
  5
CD3
 10
-68.0
 20
-884.905417
 30
0.0
  0
SEQEND
  8
BEM
  5
CD4
  0
POLYLINE
  8
BEM
  5
CD5
 66
     1
 10
0.0
 20
0.0
 30
0.0
  0
VERTEX
  8
BEM
  5
CD6
 10
-71.0
 20
-884.905417
 30
0.0
  0
VERTEX
  8
BEM
  5
CD7
 10
-65.0
 20
-884.905417
 30
0.0
  0
SEQEND
  8
BEM
  5
CD8
  0
POLYLINE
  8
BEM
  5
CDB
 66
     1
 10
0.0
 20
0.0
 30
0.0
  0
VERTEX
  8
BEM
  5
CDC
 10
-56.0
 20
-884.905417
 30
0.0
  0
VERTEX
  8
BEM
  5
CDD
 10
-59.0
 20
-881.905417
 30
0.0
  0
VERTEX
  8
BEM
  5
CDE
 10
-59.0
 20
-869.905417
 30
0.0
  0
VERTEX
  8
BEM
  5
CDF
 10
-56.0
 20
-866.905417
 30
0.0
  0
VERTEX
  8
BEM
  5
CE0
 10
-53.0
 20
-866.905417
 30
0.0
  0
VERTEX
  8
BEM
  5
CE1
 10
-50.0
 20
-869.905417
 30
0.0
  0
VERTEX
  8
BEM
  5
CE2
 10
-50.0
 20
-881.905417
 30
0.0
  0
VERTEX
  8
BEM
  5
CE3
 10
-53.0
 20
-884.905417
 30
0.0
  0
VERTEX
  8
BEM
  5
CE4
 10
-56.0
 20
-884.905417
 30
0.0
  0
SEQEND
  8
BEM
  5
CE5
  0
POLYLINE
  8
BEM
  5
CE8
 66
     1
 10
0.0
 20
0.0
 30
0.0
  0
VERTEX
  8
BEM
  5
CE9
 10
-180.275938
 20
-556.200946
 30
0.0
  0
VERTEX
  8
BEM
  5
CEA
 10
-177.275938
 20
-559.200946
 30
0.0
  0
VERTEX
  8
BEM
  5
CEB
 10
-171.275938
 20
-559.200946
 30
0.0
  0
VERTEX
  8
BEM
  5
CEC
 10
-168.275938
 20
-556.200946
 30
0.0
  0
VERTEX
  8
BEM
  5
CED
 10
-168.275938
 20
-550.200946
 30
0.0
  0
VERTEX
  8
BEM
  5
CEE
 10
-171.275938
 20
-547.200946
 30
0.0
  0
VERTEX
  8
BEM
  5
CEF
 10
-180.275938
 20
-547.200946
 30
0.0
  0
VERTEX
  8
BEM
  5
CF0
 10
-180.275938
 20
-541.200946
 30
0.0
  0
VERTEX
  8
BEM
  5
CF1
 10
-168.275938
 20
-541.200946
 30
0.0
  0
SEQEND
  8
BEM
  5
CF2
  0
POLYLINE
  8
BEM
  5
CF5
 66
     1
 10
0.0
 20
0.0
 30
0.0
  0
VERTEX
  8
BEM
  5
CF6
 10
-159.275938
 20
-559.200946
 30
0.0
  0
VERTEX
  8
BEM
  5
CF7
 10
-162.275938
 20
-556.200946
 30
0.0
  0
VERTEX
  8
BEM
  5
CF8
 10
-162.275938
 20
-544.200946
 30
0.0
  0
VERTEX
  8
BEM
  5
CF9
 10
-159.275938
 20
-541.200946
 30
0.0
  0
VERTEX
  8
BEM
  5
CFA
 10
-156.275938
 20
-541.200946
 30
0.0
  0
VERTEX
  8
BEM
  5
CFB
 10
-153.275938
 20
-544.200946
 30
0.0
  0
VERTEX
  8
BEM
  5
CFC
 10
-153.275938
 20
-556.200946
 30
0.0
  0
VERTEX
  8
BEM
  5
CFD
 10
-156.275938
 20
-559.200946
 30
0.0
  0
VERTEX
  8
BEM
  5
CFE
 10
-159.275938
 20
-559.200946
 30
0.0
  0
SEQEND
  8
BEM
  5
CFF
  0
POLYLINE
  8
BEM
  5
D02
 66
     1
 10
0.0
 20
0.0
 30
0.0
  0
VERTEX
  8
BEM
  5
D03
 10
-144.275938
 20
-559.200946
 30
0.0
  0
VERTEX
  8
BEM
  5
D04
 10
-147.275938
 20
-556.200946
 30
0.0
  0
VERTEX
  8
BEM
  5
D05
 10
-147.275938
 20
-544.200946
 30
0.0
  0
VERTEX
  8
BEM
  5
D06
 10
-144.275938
 20
-541.200946
 30
0.0
  0
VERTEX
  8
BEM
  5
D07
 10
-141.275938
 20
-541.200946
 30
0.0
  0
VERTEX
  8
BEM
  5
D08
 10
-138.275938
 20
-544.200946
 30
0.0
  0
VERTEX
  8
BEM
  5
D09
 10
-138.275938
 20
-556.200946
 30
0.0
  0
VERTEX
  8
BEM
  5
D0A
 10
-141.275938
 20
-559.200946
 30
0.0
  0
VERTEX
  8
BEM
  5
D0B
 10
-144.275938
 20
-559.200946
 30
0.0
  0
SEQEND
  8
BEM
  5
D0C
  0
POLYLINE
  8
BEM
  5
D0F
 66
     1
 10
0.0
 20
0.0
 30
0.0
  0
VERTEX
  8
BEM
  5
D10
 10
-21.0
 20
-269.764062
 30
0.0
  0
VERTEX
  8
BEM
  5
D11
 10
-18.0
 20
-272.764062
 30
0.0
  0
VERTEX
  8
BEM
  5
D12
 10
-12.0
 20
-272.764062
 30
0.0
  0
VERTEX
  8
BEM
  5
D13
 10
-9.0
 20
-269.764062
 30
0.0
  0
VERTEX
  8
BEM
  5
D14
 10
-9.0
 20
-263.764062
 30
0.0
  0
VERTEX
  8
BEM
  5
D15
 10
-12.0
 20
-260.764062
 30
0.0
  0
VERTEX
  8
BEM
  5
D16
 10
-21.0
 20
-260.764062
 30
0.0
  0
VERTEX
  8
BEM
  5
D17
 10
-21.0
 20
-254.764062
 30
0.0
  0
VERTEX
  8
BEM
  5
D18
 10
-9.0
 20
-254.764062
 30
0.0
  0
SEQEND
  8
BEM
  5
D19
  0
POLYLINE
  8
BEM
  5
D1C
 66
     1
 10
0.0
 20
0.0
 30
0.0
  0
VERTEX
  8
BEM
  5
D1D
 10
0.0
 20
-272.764062
 30
0.0
  0
VERTEX
  8
BEM
  5
D1E
 10
-3.0
 20
-269.764062
 30
0.0
  0
VERTEX
  8
BEM
  5
D1F
 10
-3.0
 20
-257.764062
 30
0.0
  0
VERTEX
  8
BEM
  5
D20
 10
0.0
 20
-254.764062
 30
0.0
  0
VERTEX
  8
BEM
  5
D21
 10
3.0
 20
-254.764062
 30
0.0
  0
VERTEX
  8
BEM
  5
D22
 10
6.0
 20
-257.764062
 30
0.0
  0
VERTEX
  8
BEM
  5
D23
 10
6.0
 20
-269.764062
 30
0.0
  0
VERTEX
  8
BEM
  5
D24
 10
3.0
 20
-272.764062
 30
0.0
  0
VERTEX
  8
BEM
  5
D25
 10
0.0
 20
-272.764062
 30
0.0
  0
SEQEND
  8
BEM
  5
D26
  0
POLYLINE
  8
BEM
  5
D29
 66
     1
 10
0.0
 20
0.0
 30
0.0
  0
VERTEX
  8
BEM
  5
D2A
 10
15.0
 20
-272.764062
 30
0.0
  0
VERTEX
  8
BEM
  5
D2B
 10
12.0
 20
-269.764062
 30
0.0
  0
VERTEX
  8
BEM
  5
D2C
 10
12.0
 20
-257.764062
 30
0.0
  0
VERTEX
  8
BEM
  5
D2D
 10
15.0
 20
-254.764062
 30
0.0
  0
VERTEX
  8
BEM
  5
D2E
 10
18.0
 20
-254.764062
 30
0.0
  0
VERTEX
  8
BEM
  5
D2F
 10
21.0
 20
-257.764062
 30
0.0
  0
VERTEX
  8
BEM
  5
D30
 10
21.0
 20
-269.764062
 30
0.0
  0
VERTEX
  8
BEM
  5
D31
 10
18.0
 20
-272.764062
 30
0.0
  0
VERTEX
  8
BEM
  5
D32
 10
15.0
 20
-272.764062
 30
0.0
  0
SEQEND
  8
BEM
  5
D33
  0
POLYLINE
  8
BEM
  5
D36
 66
     1
 10
0.0
 20
0.0
 30
0.0
  0
VERTEX
  8
BEM
  5
D37
 10
-137.5
 20
-41.342221
 30
0.0
  0
VERTEX
  8
BEM
  5
D38
 10
-134.5
 20
-38.342221
 30
0.0
  0
VERTEX
  8
BEM
  5
D39
 10
-128.5
 20
-38.342221
 30
0.0
  0
VERTEX
  8
BEM
  5
D3A
 10
-125.5
 20
-41.342221
 30
0.0
  0
VERTEX
  8
BEM
  5
D3B
 10
-125.5
 20
-44.342221
 30
0.0
  0
VERTEX
  8
BEM
  5
D3C
 10
-128.5
 20
-47.342221
 30
0.0
  0
VERTEX
  8
BEM
  5
D3D
 10
-134.5
 20
-47.342221
 30
0.0
  0
VERTEX
  8
BEM
  5
D3E
 10
-137.5
 20
-50.342221
 30
0.0
  0
VERTEX
  8
BEM
  5
D3F
 10
-137.5
 20
-56.342221
 30
0.0
  0
VERTEX
  8
BEM
  5
D40
 10
-125.5
 20
-56.342221
 30
0.0
  0
SEQEND
  8
BEM
  5
D41
  0
POLYLINE
  8
BEM
  5
D44
 66
     1
 10
0.0
 20
0.0
 30
0.0
  0
VERTEX
  8
BEM
  5
D45
 10
-119.5
 20
-41.342221
 30
0.0
  0
VERTEX
  8
BEM
  5
D46
 10
-116.5
 20
-38.342221
 30
0.0
  0
VERTEX
  8
BEM
  5
D47
 10
-110.5
 20
-38.342221
 30
0.0
  0
VERTEX
  8
BEM
  5
D48
 10
-107.5
 20
-41.342221
 30
0.0
  0
VERTEX
  8
BEM
  5
D49
 10
-107.5
 20
-44.342221
 30
0.0
  0
VERTEX
  8
BEM
  5
D4A
 10
-110.5
 20
-47.342221
 30
0.0
  0
VERTEX
  8
BEM
  5
D4B
 10
-113.5
 20
-47.342221
 30
0.0
  0
SEQEND
  8
BEM
  5
D4C
  0
POLYLINE
  8
BEM
  5
D4D
 66
     1
 10
0.0
 20
0.0
 30
0.0
  0
VERTEX
  8
BEM
  5
D4E
 10
-110.5
 20
-47.342221
 30
0.0
  0
VERTEX
  8
BEM
  5
D4F
 10
-107.5
 20
-50.342221
 30
0.0
  0
VERTEX
  8
BEM
  5
D50
 10
-107.5
 20
-53.342221
 30
0.0
  0
VERTEX
  8
BEM
  5
D51
 10
-110.5
 20
-56.342221
 30
0.0
  0
VERTEX
  8
BEM
  5
D52
 10
-116.5
 20
-56.342221
 30
0.0
  0
VERTEX
  8
BEM
  5
D53
 10
-119.5
 20
-53.342221
 30
0.0
  0
SEQEND
  8
BEM
  5
D54
  0
POLYLINE
  8
BEM
  5
D57
 66
     1
 10
0.0
 20
0.0
 30
0.0
  0
VERTEX
  8
BEM
  5
D58
 10
-98.5
 20
-56.342221
 30
0.0
  0
VERTEX
  8
BEM
  5
D59
 10
-101.5
 20
-53.342221
 30
0.0
  0
VERTEX
  8
BEM
  5
D5A
 10
-101.5
 20
-41.342221
 30
0.0
  0
VERTEX
  8
BEM
  5
D5B
 10
-98.5
 20
-38.342221
 30
0.0
  0
VERTEX
  8
BEM
  5
D5C
 10
-95.5
 20
-38.342221
 30
0.0
  0
VERTEX
  8
BEM
  5
D5D
 10
-92.5
 20
-41.342221
 30
0.0
  0
VERTEX
  8
BEM
  5
D5E
 10
-92.5
 20
-53.342221
 30
0.0
  0
VERTEX
  8
BEM
  5
D5F
 10
-95.5
 20
-56.342221
 30
0.0
  0
VERTEX
  8
BEM
  5
D60
 10
-98.5
 20
-56.342221
 30
0.0
  0
SEQEND
  8
BEM
  5
D61
  0
POLYLINE
  8
BEM
  5
D64
 66
     1
 10
0.0
 20
0.0
 30
0.0
  0
VERTEX
  8
BEM
  5
D65
 10
-230.5
 20
-98.926718
 30
0.0
  0
VERTEX
  8
BEM
  5
D66
 10
-242.5
 20
-98.926718
 30
0.0
  0
VERTEX
  8
BEM
  5
D67
 10
-233.5
 20
-86.926718
 30
0.0
  0
VERTEX
  8
BEM
  5
D68
 10
-233.5
 20
-104.926718
 30
0.0
  0
SEQEND
  8
BEM
  5
D69
  0
POLYLINE
  8
BEM
  5
D6C
 66
     1
 10
0.0
 20
0.0
 30
0.0
  0
VERTEX
  8
BEM
  5
D6D
 10
-212.5
 20
-98.926718
 30
0.0
  0
VERTEX
  8
BEM
  5
D6E
 10
-224.5
 20
-98.926718
 30
0.0
  0
VERTEX
  8
BEM
  5
D6F
 10
-215.5
 20
-86.926718
 30
0.0
  0
VERTEX
  8
BEM
  5
D70
 10
-215.5
 20
-104.926718
 30
0.0
  0
SEQEND
  8
BEM
  5
D71
  0
POLYLINE
  8
BEM
  5
D74
 66
     1
 10
0.0
 20
0.0
 30
0.0
  0
VERTEX
  8
BEM
  5
D75
 10
-203.5
 20
-104.926718
 30
0.0
  0
VERTEX
  8
BEM
  5
D76
 10
-206.5
 20
-101.926718
 30
0.0
  0
VERTEX
  8
BEM
  5
D77
 10
-206.5
 20
-89.926718
 30
0.0
  0
VERTEX
  8
BEM
  5
D78
 10
-203.5
 20
-86.926718
 30
0.0
  0
VERTEX
  8
BEM
  5
D79
 10
-200.5
 20
-86.926718
 30
0.0
  0
VERTEX
  8
BEM
  5
D7A
 10
-197.5
 20
-89.926718
 30
0.0
  0
VERTEX
  8
BEM
  5
D7B
 10
-197.5
 20
-101.926718
 30
0.0
  0
VERTEX
  8
BEM
  5
D7C
 10
-200.5
 20
-104.926718
 30
0.0
  0
VERTEX
  8
BEM
  5
D7D
 10
-203.5
 20
-104.926718
 30
0.0
  0
SEQEND
  8
BEM
  5
D7E
  0
POLYLINE
  8
BEM
  5
D81
 66
     1
 10
0.0
 20
0.0
 30
0.0
  0
VERTEX
  8
BEM
  5
D82
 10
-181.775938
 20
25.0
 30
0.0
  0
VERTEX
  8
BEM
  5
D83
 10
-172.775938
 20
25.0
 30
0.0
  0
VERTEX
  8
BEM
  5
D84
 10
-169.775938
 20
22.0
 30
0.0
  0
VERTEX
  8
BEM
  5
D85
 10
-169.775938
 20
19.0
 30
0.0
  0
VERTEX
  8
BEM
  5
D86
 10
-172.775938
 20
16.0
 30
0.0
  0
VERTEX
  8
BEM
  5
D87
 10
-178.775938
 20
16.0
 30
0.0
  0
VERTEX
  8
BEM
  5
D88
 10
-181.775938
 20
19.0
 30
0.0
  0
VERTEX
  8
BEM
  5
D89
 10
-181.775938
 20
28.0
 30
0.0
  0
VERTEX
  8
BEM
  5
D8A
 10
-175.775938
 20
34.0
 30
0.0
  0
VERTEX
  8
BEM
  5
D8B
 10
-172.775938
 20
34.0
 30
0.0
  0
SEQEND
  8
BEM
  5
D8C
  0
POLYLINE
  8
BEM
  5
D8F
 66
     1
 10
0.0
 20
0.0
 30
0.0
  0
VERTEX
  8
BEM
  5
D90
 10
-163.775938
 20
19.0
 30
0.0
  0
VERTEX
  8
BEM
  5
D91
 10
-160.775938
 20
16.0
 30
0.0
  0
VERTEX
  8
BEM
  5
D92
 10
-154.775938
 20
16.0
 30
0.0
  0
VERTEX
  8
BEM
  5
D93
 10
-151.775938
 20
19.0
 30
0.0
  0
VERTEX
  8
BEM
  5
D94
 10
-151.775938
 20
25.0
 30
0.0
  0
VERTEX
  8
BEM
  5
D95
 10
-154.775938
 20
28.0
 30
0.0
  0
VERTEX
  8
BEM
  5
D96
 10
-163.775938
 20
28.0
 30
0.0
  0
VERTEX
  8
BEM
  5
D97
 10
-163.775938
 20
34.0
 30
0.0
  0
VERTEX
  8
BEM
  5
D98
 10
-151.775938
 20
34.0
 30
0.0
  0
SEQEND
  8
BEM
  5
D99
  0
POLYLINE
  8
BEM
  5
D9C
 66
     1
 10
0.0
 20
0.0
 30
0.0
  0
VERTEX
  8
BEM
  5
D9D
 10
-142.775938
 20
16.0
 30
0.0
  0
VERTEX
  8
BEM
  5
D9E
 10
-145.775938
 20
19.0
 30
0.0
  0
VERTEX
  8
BEM
  5
D9F
 10
-145.775938
 20
31.0
 30
0.0
  0
VERTEX
  8
BEM
  5
DA0
 10
-142.775938
 20
34.0
 30
0.0
  0
VERTEX
  8
BEM
  5
DA1
 10
-139.775938
 20
34.0
 30
0.0
  0
VERTEX
  8
BEM
  5
DA2
 10
-136.775938
 20
31.0
 30
0.0
  0
VERTEX
  8
BEM
  5
DA3
 10
-136.775938
 20
19.0
 30
0.0
  0
VERTEX
  8
BEM
  5
DA4
 10
-139.775938
 20
16.0
 30
0.0
  0
VERTEX
  8
BEM
  5
DA5
 10
-142.775938
 20
16.0
 30
0.0
  0
SEQEND
  8
BEM
  5
DA6
  0
POLYLINE
  8
BEM
  5
DA9
 66
     1
 10
0.0
 20
0.0
 30
0.0
  0
VERTEX
  8
BEM
  5
DAA
 10
-26.71239
 20
133.120281
 30
0.0
  0
VERTEX
  8
BEM
  5
DAB
 10
-23.71239
 20
136.120281
 30
0.0
  0
VERTEX
  8
BEM
  5
DAC
 10
-23.71239
 20
118.120281
 30
0.0
  0
SEQEND
  8
BEM
  5
DAD
  0
POLYLINE
  8
BEM
  5
DAE
 66
     1
 10
0.0
 20
0.0
 30
0.0
  0
VERTEX
  8
BEM
  5
DAF
 10
-26.71239
 20
118.120281
 30
0.0
  0
VERTEX
  8
BEM
  5
DB0
 10
-20.71239
 20
118.120281
 30
0.0
  0
SEQEND
  8
BEM
  5
DB1
  0
POLYLINE
  8
BEM
  5
DB4
 66
     1
 10
0.0
 20
0.0
 30
0.0
  0
VERTEX
  8
BEM
  5
DB5
 10
-11.71239
 20
118.120281
 30
0.0
  0
VERTEX
  8
BEM
  5
DB6
 10
-8.71239
 20
118.120281
 30
0.0
  0
VERTEX
  8
BEM
  5
DB7
 10
-2.71239
 20
124.120281
 30
0.0
  0
VERTEX
  8
BEM
  5
DB8
 10
-2.71239
 20
133.120281
 30
0.0
  0
VERTEX
  8
BEM
  5
DB9
 10
-5.71239
 20
136.120281
 30
0.0
  0
VERTEX
  8
BEM
  5
DBA
 10
-11.71239
 20
136.120281
 30
0.0
  0
VERTEX
  8
BEM
  5
DBB
 10
-14.71239
 20
133.120281
 30
0.0
  0
VERTEX
  8
BEM
  5
DBC
 10
-14.71239
 20
130.120281
 30
0.0
  0
VERTEX
  8
BEM
  5
DBD
 10
-11.71239
 20
127.120281
 30
0.0
  0
VERTEX
  8
BEM
  5
DBE
 10
-2.71239
 20
127.120281
 30
0.0
  0
SEQEND
  8
BEM
  5
DBF
  0
POLYLINE
  8
BEM
  5
DC2
 66
     1
 10
0.0
 20
0.0
 30
0.0
  0
VERTEX
  8
BEM
  5
DC3
 10
6.28761
 20
118.120281
 30
0.0
  0
VERTEX
  8
BEM
  5
DC4
 10
3.28761
 20
121.120281
 30
0.0
  0
VERTEX
  8
BEM
  5
DC5
 10
3.28761
 20
133.120281
 30
0.0
  0
VERTEX
  8
BEM
  5
DC6
 10
6.28761
 20
136.120281
 30
0.0
  0
VERTEX
  8
BEM
  5
DC7
 10
9.28761
 20
136.120281
 30
0.0
  0
VERTEX
  8
BEM
  5
DC8
 10
12.28761
 20
133.120281
 30
0.0
  0
VERTEX
  8
BEM
  5
DC9
 10
12.28761
 20
121.120281
 30
0.0
  0
VERTEX
  8
BEM
  5
DCA
 10
9.28761
 20
118.120281
 30
0.0
  0
VERTEX
  8
BEM
  5
DCB
 10
6.28761
 20
118.120281
 30
0.0
  0
SEQEND
  8
BEM
  5
DCC
  0
POLYLINE
  8
BEM
  5
DCF
 66
     1
 10
0.0
 20
0.0
 30
0.0
  0
VERTEX
  8
BEM
  5
DD0
 10
21.28761
 20
118.120281
 30
0.0
  0
VERTEX
  8
BEM
  5
DD1
 10
18.28761
 20
121.120281
 30
0.0
  0
VERTEX
  8
BEM
  5
DD2
 10
18.28761
 20
133.120281
 30
0.0
  0
VERTEX
  8
BEM
  5
DD3
 10
21.28761
 20
136.120281
 30
0.0
  0
VERTEX
  8
BEM
  5
DD4
 10
24.28761
 20
136.120281
 30
0.0
  0
VERTEX
  8
BEM
  5
DD5
 10
27.28761
 20
133.120281
 30
0.0
  0
VERTEX
  8
BEM
  5
DD6
 10
27.28761
 20
121.120281
 30
0.0
  0
VERTEX
  8
BEM
  5
DD7
 10
24.28761
 20
118.120281
 30
0.0
  0
VERTEX
  8
BEM
  5
DD8
 10
21.28761
 20
118.120281
 30
0.0
  0
SEQEND
  8
BEM
  5
DD9
  0
POLYLINE
  8
BEM
  5
DDC
 66
     1
 10
0.0
 20
0.0
 30
0.0
  0
VERTEX
  8
BEM
  5
DDD
 10
-19.5
 20
595.444265
 30
0.0
  0
VERTEX
  8
BEM
  5
DDE
 10
-16.5
 20
598.444265
 30
0.0
  0
VERTEX
  8
BEM
  5
DDF
 10
-16.5
 20
580.444265
 30
0.0
  0
SEQEND
  8
BEM
  5
DE0
  0
POLYLINE
  8
BEM
  5
DE1
 66
     1
 10
0.0
 20
0.0
 30
0.0
  0
VERTEX
  8
BEM
  5
DE2
 10
-19.5
 20
580.444265
 30
0.0
  0
VERTEX
  8
BEM
  5
DE3
 10
-13.5
 20
580.444265
 30
0.0
  0
SEQEND
  8
BEM
  5
DE4
  0
POLYLINE
  8
BEM
  5
DE7
 66
     1
 10
0.0
 20
0.0
 30
0.0
  0
VERTEX
  8
BEM
  5
DE8
 10
-4.5
 20
580.444265
 30
0.0
  0
VERTEX
  8
BEM
  5
DE9
 10
-1.5
 20
580.444265
 30
0.0
  0
VERTEX
  8
BEM
  5
DEA
 10
4.5
 20
586.444265
 30
0.0
  0
VERTEX
  8
BEM
  5
DEB
 10
4.5
 20
595.444265
 30
0.0
  0
VERTEX
  8
BEM
  5
DEC
 10
1.5
 20
598.444265
 30
0.0
  0
VERTEX
  8
BEM
  5
DED
 10
-4.5
 20
598.444265
 30
0.0
  0
VERTEX
  8
BEM
  5
DEE
 10
-7.5
 20
595.444265
 30
0.0
  0
VERTEX
  8
BEM
  5
DEF
 10
-7.5
 20
592.444265
 30
0.0
  0
VERTEX
  8
BEM
  5
DF0
 10
-4.5
 20
589.444265
 30
0.0
  0
VERTEX
  8
BEM
  5
DF1
 10
4.5
 20
589.444265
 30
0.0
  0
SEQEND
  8
BEM
  5
DF2
  0
POLYLINE
  8
BEM
  5
DF5
 66
     1
 10
0.0
 20
0.0
 30
0.0
  0
VERTEX
  8
BEM
  5
DF6
 10
13.5
 20
580.444265
 30
0.0
  0
VERTEX
  8
BEM
  5
DF7
 10
10.5
 20
583.444265
 30
0.0
  0
VERTEX
  8
BEM
  5
DF8
 10
10.5
 20
595.444265
 30
0.0
  0
VERTEX
  8
BEM
  5
DF9
 10
13.5
 20
598.444265
 30
0.0
  0
VERTEX
  8
BEM
  5
DFA
 10
16.5
 20
598.444265
 30
0.0
  0
VERTEX
  8
BEM
  5
DFB
 10
19.5
 20
595.444265
 30
0.0
  0
VERTEX
  8
BEM
  5
DFC
 10
19.5
 20
583.444265
 30
0.0
  0
VERTEX
  8
BEM
  5
DFD
 10
16.5
 20
580.444265
 30
0.0
  0
VERTEX
  8
BEM
  5
DFE
 10
13.5
 20
580.444265
 30
0.0
  0
SEQEND
  8
BEM
  5
DFF
  0
POLYLINE
  8
BEM
  5
E02
 66
     1
 10
0.0
 20
0.0
 30
0.0
  0
VERTEX
  8
BEM
  5
E03
 10
372.320325
 20
-860.0
 30
0.0
  0
VERTEX
  8
BEM
  5
E04
 10
375.320325
 20
-857.0
 30
0.0
  0
VERTEX
  8
BEM
  5
E05
 10
381.320325
 20
-857.0
 30
0.0
  0
VERTEX
  8
BEM
  5
E06
 10
384.320325
 20
-860.0
 30
0.0
  0
VERTEX
  8
BEM
  5
E07
 10
384.320325
 20
-863.0
 30
0.0
  0
VERTEX
  8
BEM
  5
E08
 10
381.320325
 20
-866.0
 30
0.0
  0
VERTEX
  8
BEM
  5
E09
 10
378.320325
 20
-866.0
 30
0.0
  0
SEQEND
  8
BEM
  5
E0A
  0
POLYLINE
  8
BEM
  5
E0B
 66
     1
 10
0.0
 20
0.0
 30
0.0
  0
VERTEX
  8
BEM
  5
E0C
 10
381.320325
 20
-866.0
 30
0.0
  0
VERTEX
  8
BEM
  5
E0D
 10
384.320325
 20
-869.0
 30
0.0
  0
VERTEX
  8
BEM
  5
E0E
 10
384.320325
 20
-872.0
 30
0.0
  0
VERTEX
  8
BEM
  5
E0F
 10
381.320325
 20
-875.0
 30
0.0
  0
VERTEX
  8
BEM
  5
E10
 10
375.320325
 20
-875.0
 30
0.0
  0
VERTEX
  8
BEM
  5
E11
 10
372.320325
 20
-872.0
 30
0.0
  0
SEQEND
  8
BEM
  5
E12
  0
POLYLINE
  8
BEM
  5
E15
 66
     1
 10
0.0
 20
0.0
 30
0.0
  0
VERTEX
  8
BEM
  5
E16
 10
393.320325
 20
-875.0
 30
0.0
  0
VERTEX
  8
BEM
  5
E17
 10
390.320325
 20
-872.0
 30
0.0
  0
VERTEX
  8
BEM
  5
E18
 10
390.320325
 20
-860.0
 30
0.0
  0
VERTEX
  8
BEM
  5
E19
 10
393.320325
 20
-857.0
 30
0.0
  0
VERTEX
  8
BEM
  5
E1A
 10
396.320325
 20
-857.0
 30
0.0
  0
VERTEX
  8
BEM
  5
E1B
 10
399.320325
 20
-860.0
 30
0.0
  0
VERTEX
  8
BEM
  5
E1C
 10
399.320325
 20
-872.0
 30
0.0
  0
VERTEX
  8
BEM
  5
E1D
 10
396.320325
 20
-875.0
 30
0.0
  0
VERTEX
  8
BEM
  5
E1E
 10
393.320325
 20
-875.0
 30
0.0
  0
SEQEND
  8
BEM
  5
E1F
  0
POLYLINE
  8
BEM
  5
E22
 66
     1
 10
0.0
 20
0.0
 30
0.0
  0
VERTEX
  8
BEM
  5
E23
 10
370.374981
 20
-764.0
 30
0.0
  0
VERTEX
  8
BEM
  5
E24
 10
379.374981
 20
-764.0
 30
0.0
  0
VERTEX
  8
BEM
  5
E25
 10
382.374981
 20
-767.0
 30
0.0
  0
VERTEX
  8
BEM
  5
E26
 10
382.374981
 20
-770.0
 30
0.0
  0
VERTEX
  8
BEM
  5
E27
 10
379.374981
 20
-773.0
 30
0.0
  0
VERTEX
  8
BEM
  5
E28
 10
373.374981
 20
-773.0
 30
0.0
  0
VERTEX
  8
BEM
  5
E29
 10
370.374981
 20
-770.0
 30
0.0
  0
VERTEX
  8
BEM
  5
E2A
 10
370.374981
 20
-761.0
 30
0.0
  0
VERTEX
  8
BEM
  5
E2B
 10
376.374981
 20
-755.0
 30
0.0
  0
VERTEX
  8
BEM
  5
E2C
 10
379.374981
 20
-755.0
 30
0.0
  0
SEQEND
  8
BEM
  5
E2D
  0
POLYLINE
  8
BEM
  5
E30
 66
     1
 10
0.0
 20
0.0
 30
0.0
  0
VERTEX
  8
BEM
  5
E31
 10
391.374981
 20
-773.0
 30
0.0
  0
VERTEX
  8
BEM
  5
E32
 10
388.374981
 20
-770.0
 30
0.0
  0
VERTEX
  8
BEM
  5
E33
 10
388.374981
 20
-758.0
 30
0.0
  0
VERTEX
  8
BEM
  5
E34
 10
391.374981
 20
-755.0
 30
0.0
  0
VERTEX
  8
BEM
  5
E35
 10
394.374981
 20
-755.0
 30
0.0
  0
VERTEX
  8
BEM
  5
E36
 10
397.374981
 20
-758.0
 30
0.0
  0
VERTEX
  8
BEM
  5
E37
 10
397.374981
 20
-770.0
 30
0.0
  0
VERTEX
  8
BEM
  5
E38
 10
394.374981
 20
-773.0
 30
0.0
  0
VERTEX
  8
BEM
  5
E39
 10
391.374981
 20
-773.0
 30
0.0
  0
SEQEND
  8
BEM
  5
E3A
  0
POLYLINE
  8
BEM
  5
E3D
 66
     1
 10
0.0
 20
0.0
 30
0.0
  0
VERTEX
  8
BEM
  5
E3E
 10
75.0
 20
-824.69414
 30
0.0
  0
VERTEX
  8
BEM
  5
E3F
 10
84.0
 20
-824.69414
 30
0.0
  0
VERTEX
  8
BEM
  5
E40
 10
87.0
 20
-827.69414
 30
0.0
  0
VERTEX
  8
BEM
  5
E41
 10
87.0
 20
-830.69414
 30
0.0
  0
VERTEX
  8
BEM
  5
E42
 10
84.0
 20
-833.69414
 30
0.0
  0
VERTEX
  8
BEM
  5
E43
 10
78.0
 20
-833.69414
 30
0.0
  0
VERTEX
  8
BEM
  5
E44
 10
75.0
 20
-830.69414
 30
0.0
  0
VERTEX
  8
BEM
  5
E45
 10
75.0
 20
-821.69414
 30
0.0
  0
VERTEX
  8
BEM
  5
E46
 10
81.0
 20
-815.69414
 30
0.0
  0
VERTEX
  8
BEM
  5
E47
 10
84.0
 20
-815.69414
 30
0.0
  0
SEQEND
  8
BEM
  5
E48
  0
POLYLINE
  8
BEM
  5
E4B
 66
     1
 10
0.0
 20
0.0
 30
0.0
  0
VERTEX
  8
BEM
  5
E4C
 10
96.0
 20
-833.69414
 30
0.0
  0
VERTEX
  8
BEM
  5
E4D
 10
93.0
 20
-830.69414
 30
0.0
  0
VERTEX
  8
BEM
  5
E4E
 10
93.0
 20
-818.69414
 30
0.0
  0
VERTEX
  8
BEM
  5
E4F
 10
96.0
 20
-815.69414
 30
0.0
  0
VERTEX
  8
BEM
  5
E50
 10
99.0
 20
-815.69414
 30
0.0
  0
VERTEX
  8
BEM
  5
E51
 10
102.0
 20
-818.69414
 30
0.0
  0
VERTEX
  8
BEM
  5
E52
 10
102.0
 20
-830.69414
 30
0.0
  0
VERTEX
  8
BEM
  5
E53
 10
99.0
 20
-833.69414
 30
0.0
  0
VERTEX
  8
BEM
  5
E54
 10
96.0
 20
-833.69414
 30
0.0
  0
SEQEND
  8
BEM
  5
E55
  0
POLYLINE
  8
BEM
  5
E58
 66
     1
 10
0.0
 20
0.0
 30
0.0
  0
VERTEX
  8
BEM
  5
E59
 10
624.0
 20
-878.320565
 30
0.0
  0
VERTEX
  8
BEM
  5
E5A
 10
627.0
 20
-875.320565
 30
0.0
  0
VERTEX
  8
BEM
  5
E5B
 10
627.0
 20
-893.320565
 30
0.0
  0
SEQEND
  8
BEM
  5
E5C
  0
POLYLINE
  8
BEM
  5
E5D
 66
     1
 10
0.0
 20
0.0
 30
0.0
  0
VERTEX
  8
BEM
  5
E5E
 10
624.0
 20
-893.320565
 30
0.0
  0
VERTEX
  8
BEM
  5
E5F
 10
630.0
 20
-893.320565
 30
0.0
  0
SEQEND
  8
BEM
  5
E60
  0
POLYLINE
  8
BEM
  5
E63
 66
     1
 10
0.0
 20
0.0
 30
0.0
  0
VERTEX
  8
BEM
  5
E64
 10
639.0
 20
-893.320565
 30
0.0
  0
VERTEX
  8
BEM
  5
E65
 10
636.0
 20
-890.320565
 30
0.0
  0
VERTEX
  8
BEM
  5
E66
 10
636.0
 20
-878.320565
 30
0.0
  0
VERTEX
  8
BEM
  5
E67
 10
639.0
 20
-875.320565
 30
0.0
  0
VERTEX
  8
BEM
  5
E68
 10
642.0
 20
-875.320565
 30
0.0
  0
VERTEX
  8
BEM
  5
E69
 10
645.0
 20
-878.320565
 30
0.0
  0
VERTEX
  8
BEM
  5
E6A
 10
645.0
 20
-890.320565
 30
0.0
  0
VERTEX
  8
BEM
  5
E6B
 10
642.0
 20
-893.320565
 30
0.0
  0
VERTEX
  8
BEM
  5
E6C
 10
639.0
 20
-893.320565
 30
0.0
  0
SEQEND
  8
BEM
  5
E6D
  0
POLYLINE
  8
BEM
  5
E70
 66
     1
 10
0.0
 20
0.0
 30
0.0
  0
VERTEX
  8
BEM
  5
E71
 10
625.091404
 20
-684.0
 30
0.0
  0
VERTEX
  8
BEM
  5
E72
 10
628.091404
 20
-681.0
 30
0.0
  0
VERTEX
  8
BEM
  5
E73
 10
634.091404
 20
-681.0
 30
0.0
  0
VERTEX
  8
BEM
  5
E74
 10
637.091404
 20
-684.0
 30
0.0
  0
VERTEX
  8
BEM
  5
E75
 10
637.091404
 20
-687.0
 30
0.0
  0
VERTEX
  8
BEM
  5
E76
 10
634.091404
 20
-690.0
 30
0.0
  0
VERTEX
  8
BEM
  5
E77
 10
628.091404
 20
-690.0
 30
0.0
  0
VERTEX
  8
BEM
  5
E78
 10
625.091404
 20
-693.0
 30
0.0
  0
VERTEX
  8
BEM
  5
E79
 10
625.091404
 20
-699.0
 30
0.0
  0
VERTEX
  8
BEM
  5
E7A
 10
637.091404
 20
-699.0
 30
0.0
  0
SEQEND
  8
BEM
  5
E7B
  0
POLYLINE
  8
BEM
  5
E7E
 66
     1
 10
0.0
 20
0.0
 30
0.0
  0
VERTEX
  8
BEM
  5
E7F
 10
646.091404
 20
-699.0
 30
0.0
  0
VERTEX
  8
BEM
  5
E80
 10
643.091404
 20
-696.0
 30
0.0
  0
VERTEX
  8
BEM
  5
E81
 10
643.091404
 20
-693.0
 30
0.0
  0
VERTEX
  8
BEM
  5
E82
 10
646.091404
 20
-690.0
 30
0.0
  0
VERTEX
  8
BEM
  5
E83
 10
652.091404
 20
-690.0
 30
0.0
  0
VERTEX
  8
BEM
  5
E84
 10
655.091404
 20
-687.0
 30
0.0
  0
VERTEX
  8
BEM
  5
E85
 10
655.091404
 20
-684.0
 30
0.0
  0
VERTEX
  8
BEM
  5
E86
 10
652.091404
 20
-681.0
 30
0.0
  0
VERTEX
  8
BEM
  5
E87
 10
646.091404
 20
-681.0
 30
0.0
  0
VERTEX
  8
BEM
  5
E88
 10
643.091404
 20
-684.0
 30
0.0
  0
VERTEX
  8
BEM
  5
E89
 10
643.091404
 20
-687.0
 30
0.0
  0
VERTEX
  8
BEM
  5
E8A
 10
646.091404
 20
-690.0
 30
0.0
  0
SEQEND
  8
BEM
  5
E8B
  0
POLYLINE
  8
BEM
  5
E8C
 66
     1
 10
0.0
 20
0.0
 30
0.0
  0
VERTEX
  8
BEM
  5
E8D
 10
652.091404
 20
-690.0
 30
0.0
  0
VERTEX
  8
BEM
  5
E8E
 10
655.091404
 20
-693.0
 30
0.0
  0
VERTEX
  8
BEM
  5
E8F
 10
655.091404
 20
-696.0
 30
0.0
  0
VERTEX
  8
BEM
  5
E90
 10
652.091404
 20
-699.0
 30
0.0
  0
VERTEX
  8
BEM
  5
E91
 10
646.091404
 20
-699.0
 30
0.0
  0
SEQEND
  8
BEM
  5
E92
  0
POLYLINE
  8
BEM
  5
E95
 66
     1
 10
0.0
 20
0.0
 30
0.0
  0
VERTEX
  8
BEM
  5
E96
 10
664.091404
 20
-699.0
 30
0.0
  0
VERTEX
  8
BEM
  5
E97
 10
661.091404
 20
-696.0
 30
0.0
  0
VERTEX
  8
BEM
  5
E98
 10
661.091404
 20
-684.0
 30
0.0
  0
VERTEX
  8
BEM
  5
E99
 10
664.091404
 20
-681.0
 30
0.0
  0
VERTEX
  8
BEM
  5
E9A
 10
667.091404
 20
-681.0
 30
0.0
  0
VERTEX
  8
BEM
  5
E9B
 10
670.091404
 20
-684.0
 30
0.0
  0
VERTEX
  8
BEM
  5
E9C
 10
670.091404
 20
-696.0
 30
0.0
  0
VERTEX
  8
BEM
  5
E9D
 10
667.091404
 20
-699.0
 30
0.0
  0
VERTEX
  8
BEM
  5
E9E
 10
664.091404
 20
-699.0
 30
0.0
  0
SEQEND
  8
BEM
  5
E9F
  0
POLYLINE
  8
BEM
  5
EA2
 66
     1
 10
0.0
 20
0.0
 30
0.0
  0
VERTEX
  8
BEM
  5
EA3
 10
625.091404
 20
-419.0
 30
0.0
  0
VERTEX
  8
BEM
  5
EA4
 10
628.091404
 20
-416.0
 30
0.0
  0
VERTEX
  8
BEM
  5
EA5
 10
634.091404
 20
-416.0
 30
0.0
  0
VERTEX
  8
BEM
  5
EA6
 10
637.091404
 20
-419.0
 30
0.0
  0
VERTEX
  8
BEM
  5
EA7
 10
637.091404
 20
-422.0
 30
0.0
  0
VERTEX
  8
BEM
  5
EA8
 10
634.091404
 20
-425.0
 30
0.0
  0
VERTEX
  8
BEM
  5
EA9
 10
628.091404
 20
-425.0
 30
0.0
  0
VERTEX
  8
BEM
  5
EAA
 10
625.091404
 20
-428.0
 30
0.0
  0
VERTEX
  8
BEM
  5
EAB
 10
625.091404
 20
-434.0
 30
0.0
  0
VERTEX
  8
BEM
  5
EAC
 10
637.091404
 20
-434.0
 30
0.0
  0
SEQEND
  8
BEM
  5
EAD
  0
POLYLINE
  8
BEM
  5
EB0
 66
     1
 10
0.0
 20
0.0
 30
0.0
  0
VERTEX
  8
BEM
  5
EB1
 10
643.091404
 20
-431.0
 30
0.0
  0
VERTEX
  8
BEM
  5
EB2
 10
646.091404
 20
-434.0
 30
0.0
  0
VERTEX
  8
BEM
  5
EB3
 10
652.091404
 20
-434.0
 30
0.0
  0
VERTEX
  8
BEM
  5
EB4
 10
655.091404
 20
-431.0
 30
0.0
  0
VERTEX
  8
BEM
  5
EB5
 10
655.091404
 20
-425.0
 30
0.0
  0
VERTEX
  8
BEM
  5
EB6
 10
652.091404
 20
-422.0
 30
0.0
  0
VERTEX
  8
BEM
  5
EB7
 10
643.091404
 20
-422.0
 30
0.0
  0
VERTEX
  8
BEM
  5
EB8
 10
643.091404
 20
-416.0
 30
0.0
  0
VERTEX
  8
BEM
  5
EB9
 10
655.091404
 20
-416.0
 30
0.0
  0
SEQEND
  8
BEM
  5
EBA
  0
POLYLINE
  8
BEM
  5
EBD
 66
     1
 10
0.0
 20
0.0
 30
0.0
  0
VERTEX
  8
BEM
  5
EBE
 10
664.091404
 20
-434.0
 30
0.0
  0
VERTEX
  8
BEM
  5
EBF
 10
661.091404
 20
-431.0
 30
0.0
  0
VERTEX
  8
BEM
  5
EC0
 10
661.091404
 20
-419.0
 30
0.0
  0
VERTEX
  8
BEM
  5
EC1
 10
664.091404
 20
-416.0
 30
0.0
  0
VERTEX
  8
BEM
  5
EC2
 10
667.091404
 20
-416.0
 30
0.0
  0
VERTEX
  8
BEM
  5
EC3
 10
670.091404
 20
-419.0
 30
0.0
  0
VERTEX
  8
BEM
  5
EC4
 10
670.091404
 20
-431.0
 30
0.0
  0
VERTEX
  8
BEM
  5
EC5
 10
667.091404
 20
-434.0
 30
0.0
  0
VERTEX
  8
BEM
  5
EC6
 10
664.091404
 20
-434.0
 30
0.0
  0
SEQEND
  8
BEM
  5
EC7
  0
POLYLINE
  8
BEM
  5
ECA
 66
     1
 10
0.0
 20
0.0
 30
0.0
  0
VERTEX
  8
BEM
  5
ECB
 10
499.802991
 20
-238.0
 30
0.0
  0
VERTEX
  8
BEM
  5
ECC
 10
502.802991
 20
-241.0
 30
0.0
  0
VERTEX
  8
BEM
  5
ECD
 10
508.802991
 20
-241.0
 30
0.0
  0
VERTEX
  8
BEM
  5
ECE
 10
511.802991
 20
-238.0
 30
0.0
  0
VERTEX
  8
BEM
  5
ECF
 10
511.802991
 20
-232.0
 30
0.0
  0
VERTEX
  8
BEM
  5
ED0
 10
508.802991
 20
-229.0
 30
0.0
  0
VERTEX
  8
BEM
  5
ED1
 10
499.802991
 20
-229.0
 30
0.0
  0
VERTEX
  8
BEM
  5
ED2
 10
499.802991
 20
-223.0
 30
0.0
  0
VERTEX
  8
BEM
  5
ED3
 10
511.802991
 20
-223.0
 30
0.0
  0
SEQEND
  8
BEM
  5
ED4
  0
POLYLINE
  8
BEM
  5
ED7
 66
     1
 10
0.0
 20
0.0
 30
0.0
  0
VERTEX
  8
BEM
  5
ED8
 10
520.802991
 20
-241.0
 30
0.0
  0
VERTEX
  8
BEM
  5
ED9
 10
517.802991
 20
-238.0
 30
0.0
  0
VERTEX
  8
BEM
  5
EDA
 10
517.802991
 20
-226.0
 30
0.0
  0
VERTEX
  8
BEM
  5
EDB
 10
520.802991
 20
-223.0
 30
0.0
  0
VERTEX
  8
BEM
  5
EDC
 10
523.802991
 20
-223.0
 30
0.0
  0
VERTEX
  8
BEM
  5
EDD
 10
526.802991
 20
-226.0
 30
0.0
  0
VERTEX
  8
BEM
  5
EDE
 10
526.802991
 20
-238.0
 30
0.0
  0
VERTEX
  8
BEM
  5
EDF
 10
523.802991
 20
-241.0
 30
0.0
  0
VERTEX
  8
BEM
  5
EE0
 10
520.802991
 20
-241.0
 30
0.0
  0
SEQEND
  8
BEM
  5
EE1
  0
POLYLINE
  8
BEM
  5
EE4
 66
     1
 10
0.0
 20
0.0
 30
0.0
  0
VERTEX
  8
BEM
  5
EE5
 10
1020.624755
 20
-743.609011
 30
0.0
  0
VERTEX
  8
BEM
  5
EE6
 10
1023.624755
 20
-740.609011
 30
0.0
  0
VERTEX
  8
BEM
  5
EE7
 10
1023.624755
 20
-758.609011
 30
0.0
  0
SEQEND
  8
BEM
  5
EE8
  0
POLYLINE
  8
BEM
  5
EE9
 66
     1
 10
0.0
 20
0.0
 30
0.0
  0
VERTEX
  8
BEM
  5
EEA
 10
1020.624755
 20
-758.609011
 30
0.0
  0
VERTEX
  8
BEM
  5
EEB
 10
1026.624755
 20
-758.609011
 30
0.0
  0
SEQEND
  8
BEM
  5
EEC
  0
POLYLINE
  8
BEM
  5
EEF
 66
     1
 10
0.0
 20
0.0
 30
0.0
  0
VERTEX
  8
BEM
  5
EF0
 10
1035.624755
 20
-758.609011
 30
0.0
  0
VERTEX
  8
BEM
  5
EF1
 10
1032.624755
 20
-755.609011
 30
0.0
  0
VERTEX
  8
BEM
  5
EF2
 10
1032.624755
 20
-743.609011
 30
0.0
  0
VERTEX
  8
BEM
  5
EF3
 10
1035.624755
 20
-740.609011
 30
0.0
  0
VERTEX
  8
BEM
  5
EF4
 10
1038.624755
 20
-740.609011
 30
0.0
  0
VERTEX
  8
BEM
  5
EF5
 10
1041.624755
 20
-743.609011
 30
0.0
  0
VERTEX
  8
BEM
  5
EF6
 10
1041.624755
 20
-755.609011
 30
0.0
  0
VERTEX
  8
BEM
  5
EF7
 10
1038.624755
 20
-758.609011
 30
0.0
  0
VERTEX
  8
BEM
  5
EF8
 10
1035.624755
 20
-758.609011
 30
0.0
  0
SEQEND
  8
BEM
  5
EF9
  0
POLYLINE
  8
BEM
  5
EFC
 66
     1
 10
0.0
 20
0.0
 30
0.0
  0
VERTEX
  8
BEM
  5
EFD
 10
1050.624755
 20
-758.609011
 30
0.0
  0
VERTEX
  8
BEM
  5
EFE
 10
1047.624755
 20
-755.609011
 30
0.0
  0
VERTEX
  8
BEM
  5
EFF
 10
1047.624755
 20
-743.609011
 30
0.0
  0
VERTEX
  8
BEM
  5
F00
 10
1050.624755
 20
-740.609011
 30
0.0
  0
VERTEX
  8
BEM
  5
F01
 10
1053.624755
 20
-740.609011
 30
0.0
  0
VERTEX
  8
BEM
  5
F02
 10
1056.624755
 20
-743.609011
 30
0.0
  0
VERTEX
  8
BEM
  5
F03
 10
1056.624755
 20
-755.609011
 30
0.0
  0
VERTEX
  8
BEM
  5
F04
 10
1053.624755
 20
-758.609011
 30
0.0
  0
VERTEX
  8
BEM
  5
F05
 10
1050.624755
 20
-758.609011
 30
0.0
  0
SEQEND
  8
BEM
  5
F06
  0
POLYLINE
  8
BEM
  5
F09
 66
     1
 10
0.0
 20
0.0
 30
0.0
  0
VERTEX
  8
BEM
  5
F0A
 10
817.5
 20
-878.320565
 30
0.0
  0
VERTEX
  8
BEM
  5
F0B
 10
820.5
 20
-875.320565
 30
0.0
  0
VERTEX
  8
BEM
  5
F0C
 10
826.5
 20
-875.320565
 30
0.0
  0
VERTEX
  8
BEM
  5
F0D
 10
829.5
 20
-878.320565
 30
0.0
  0
VERTEX
  8
BEM
  5
F0E
 10
829.5
 20
-881.320565
 30
0.0
  0
VERTEX
  8
BEM
  5
F0F
 10
826.5
 20
-884.320565
 30
0.0
  0
VERTEX
  8
BEM
  5
F10
 10
820.5
 20
-884.320565
 30
0.0
  0
VERTEX
  8
BEM
  5
F11
 10
817.5
 20
-887.320565
 30
0.0
  0
VERTEX
  8
BEM
  5
F12
 10
817.5
 20
-893.320565
 30
0.0
  0
VERTEX
  8
BEM
  5
F13
 10
829.5
 20
-893.320565
 30
0.0
  0
SEQEND
  8
BEM
  5
F14
  0
POLYLINE
  8
BEM
  5
F17
 66
     1
 10
0.0
 20
0.0
 30
0.0
  0
VERTEX
  8
BEM
  5
F18
 10
838.5
 20
-893.320565
 30
0.0
  0
VERTEX
  8
BEM
  5
F19
 10
835.5
 20
-890.320565
 30
0.0
  0
VERTEX
  8
BEM
  5
F1A
 10
835.5
 20
-887.320565
 30
0.0
  0
VERTEX
  8
BEM
  5
F1B
 10
838.5
 20
-884.320565
 30
0.0
  0
VERTEX
  8
BEM
  5
F1C
 10
844.5
 20
-884.320565
 30
0.0
  0
VERTEX
  8
BEM
  5
F1D
 10
847.5
 20
-881.320565
 30
0.0
  0
VERTEX
  8
BEM
  5
F1E
 10
847.5
 20
-878.320565
 30
0.0
  0
VERTEX
  8
BEM
  5
F1F
 10
844.5
 20
-875.320565
 30
0.0
  0
VERTEX
  8
BEM
  5
F20
 10
838.5
 20
-875.320565
 30
0.0
  0
VERTEX
  8
BEM
  5
F21
 10
835.5
 20
-878.320565
 30
0.0
  0
VERTEX
  8
BEM
  5
F22
 10
835.5
 20
-881.320565
 30
0.0
  0
VERTEX
  8
BEM
  5
F23
 10
838.5
 20
-884.320565
 30
0.0
  0
SEQEND
  8
BEM
  5
F24
  0
POLYLINE
  8
BEM
  5
F25
 66
     1
 10
0.0
 20
0.0
 30
0.0
  0
VERTEX
  8
BEM
  5
F26
 10
844.5
 20
-884.320565
 30
0.0
  0
VERTEX
  8
BEM
  5
F27
 10
847.5
 20
-887.320565
 30
0.0
  0
VERTEX
  8
BEM
  5
F28
 10
847.5
 20
-890.320565
 30
0.0
  0
VERTEX
  8
BEM
  5
F29
 10
844.5
 20
-893.320565
 30
0.0
  0
VERTEX
  8
BEM
  5
F2A
 10
838.5
 20
-893.320565
 30
0.0
  0
SEQEND
  8
BEM
  5
F2B
  0
POLYLINE
  8
BEM
  5
F2E
 66
     1
 10
0.0
 20
0.0
 30
0.0
  0
VERTEX
  8
BEM
  5
F2F
 10
856.5
 20
-893.320565
 30
0.0
  0
VERTEX
  8
BEM
  5
F30
 10
853.5
 20
-890.320565
 30
0.0
  0
VERTEX
  8
BEM
  5
F31
 10
853.5
 20
-878.320565
 30
0.0
  0
VERTEX
  8
BEM
  5
F32
 10
856.5
 20
-875.320565
 30
0.0
  0
VERTEX
  8
BEM
  5
F33
 10
859.5
 20
-875.320565
 30
0.0
  0
VERTEX
  8
BEM
  5
F34
 10
862.5
 20
-878.320565
 30
0.0
  0
VERTEX
  8
BEM
  5
F35
 10
862.5
 20
-890.320565
 30
0.0
  0
VERTEX
  8
BEM
  5
F36
 10
859.5
 20
-893.320565
 30
0.0
  0
VERTEX
  8
BEM
  5
F37
 10
856.5
 20
-893.320565
 30
0.0
  0
SEQEND
  8
BEM
  5
F38
  0
POLYLINE
  8
BEM
  5
F3B
 66
     1
 10
0.0
 20
0.0
 30
0.0
  0
VERTEX
  8
BEM
  5
F3C
 10
984.624755
 20
-860.0
 30
0.0
  0
VERTEX
  8
BEM
  5
F3D
 10
987.624755
 20
-857.0
 30
0.0
  0
VERTEX
  8
BEM
  5
F3E
 10
993.624755
 20
-857.0
 30
0.0
  0
VERTEX
  8
BEM
  5
F3F
 10
996.624755
 20
-860.0
 30
0.0
  0
VERTEX
  8
BEM
  5
F40
 10
996.624755
 20
-863.0
 30
0.0
  0
VERTEX
  8
BEM
  5
F41
 10
993.624755
 20
-866.0
 30
0.0
  0
VERTEX
  8
BEM
  5
F42
 10
990.624755
 20
-866.0
 30
0.0
  0
SEQEND
  8
BEM
  5
F43
  0
POLYLINE
  8
BEM
  5
F44
 66
     1
 10
0.0
 20
0.0
 30
0.0
  0
VERTEX
  8
BEM
  5
F45
 10
993.624755
 20
-866.0
 30
0.0
  0
VERTEX
  8
BEM
  5
F46
 10
996.624755
 20
-869.0
 30
0.0
  0
VERTEX
  8
BEM
  5
F47
 10
996.624755
 20
-872.0
 30
0.0
  0
VERTEX
  8
BEM
  5
F48
 10
993.624755
 20
-875.0
 30
0.0
  0
VERTEX
  8
BEM
  5
F49
 10
987.624755
 20
-875.0
 30
0.0
  0
VERTEX
  8
BEM
  5
F4A
 10
984.624755
 20
-872.0
 30
0.0
  0
SEQEND
  8
BEM
  5
F4B
  0
POLYLINE
  8
BEM
  5
F4E
 66
     1
 10
0.0
 20
0.0
 30
0.0
  0
VERTEX
  8
BEM
  5
F4F
 10
1005.624755
 20
-875.0
 30
0.0
  0
VERTEX
  8
BEM
  5
F50
 10
1002.624755
 20
-872.0
 30
0.0
  0
VERTEX
  8
BEM
  5
F51
 10
1002.624755
 20
-860.0
 30
0.0
  0
VERTEX
  8
BEM
  5
F52
 10
1005.624755
 20
-857.0
 30
0.0
  0
VERTEX
  8
BEM
  5
F53
 10
1008.624755
 20
-857.0
 30
0.0
  0
VERTEX
  8
BEM
  5
F54
 10
1011.624755
 20
-860.0
 30
0.0
  0
VERTEX
  8
BEM
  5
F55
 10
1011.624755
 20
-872.0
 30
0.0
  0
VERTEX
  8
BEM
  5
F56
 10
1008.624755
 20
-875.0
 30
0.0
  0
VERTEX
  8
BEM
  5
F57
 10
1005.624755
 20
-875.0
 30
0.0
  0
SEQEND
  8
BEM
  5
F58
  0
POLYLINE
  8
BEM
  5
F5B
 66
     1
 10
0.0
 20
0.0
 30
0.0
  0
VERTEX
  8
BEM
  5
F5C
 10
794.215889
 20
-556.854261
 30
0.0
  0
VERTEX
  8
BEM
  5
F5D
 10
797.215889
 20
-559.854261
 30
0.0
  0
VERTEX
  8
BEM
  5
F5E
 10
803.215889
 20
-559.854261
 30
0.0
  0
VERTEX
  8
BEM
  5
F5F
 10
806.215889
 20
-556.854261
 30
0.0
  0
VERTEX
  8
BEM
  5
F60
 10
806.215889
 20
-550.854261
 30
0.0
  0
VERTEX
  8
BEM
  5
F61
 10
803.215889
 20
-547.854261
 30
0.0
  0
VERTEX
  8
BEM
  5
F62
 10
794.215889
 20
-547.854261
 30
0.0
  0
VERTEX
  8
BEM
  5
F63
 10
794.215889
 20
-541.854261
 30
0.0
  0
VERTEX
  8
BEM
  5
F64
 10
806.215889
 20
-541.854261
 30
0.0
  0
SEQEND
  8
BEM
  5
F65
  0
POLYLINE
  8
BEM
  5
F68
 66
     1
 10
0.0
 20
0.0
 30
0.0
  0
VERTEX
  8
BEM
  5
F69
 10
815.215889
 20
-559.854261
 30
0.0
  0
VERTEX
  8
BEM
  5
F6A
 10
812.215889
 20
-556.854261
 30
0.0
  0
VERTEX
  8
BEM
  5
F6B
 10
812.215889
 20
-544.854261
 30
0.0
  0
VERTEX
  8
BEM
  5
F6C
 10
815.215889
 20
-541.854261
 30
0.0
  0
VERTEX
  8
BEM
  5
F6D
 10
818.215889
 20
-541.854261
 30
0.0
  0
VERTEX
  8
BEM
  5
F6E
 10
821.215889
 20
-544.854261
 30
0.0
  0
VERTEX
  8
BEM
  5
F6F
 10
821.215889
 20
-556.854261
 30
0.0
  0
VERTEX
  8
BEM
  5
F70
 10
818.215889
 20
-559.854261
 30
0.0
  0
VERTEX
  8
BEM
  5
F71
 10
815.215889
 20
-559.854261
 30
0.0
  0
SEQEND
  8
BEM
  5
F72
  0
POLYLINE
  8
BEM
  5
F75
 66
     1
 10
0.0
 20
0.0
 30
0.0
  0
VERTEX
  8
BEM
  5
F76
 10
784.233239
 20
-196.0
 30
0.0
  0
VERTEX
  8
BEM
  5
F77
 10
787.233239
 20
-193.0
 30
0.0
  0
VERTEX
  8
BEM
  5
F78
 10
793.233239
 20
-193.0
 30
0.0
  0
VERTEX
  8
BEM
  5
F79
 10
796.233239
 20
-196.0
 30
0.0
  0
VERTEX
  8
BEM
  5
F7A
 10
796.233239
 20
-199.0
 30
0.0
  0
VERTEX
  8
BEM
  5
F7B
 10
793.233239
 20
-202.0
 30
0.0
  0
VERTEX
  8
BEM
  5
F7C
 10
790.233239
 20
-202.0
 30
0.0
  0
SEQEND
  8
BEM
  5
F7D
  0
POLYLINE
  8
BEM
  5
F7E
 66
     1
 10
0.0
 20
0.0
 30
0.0
  0
VERTEX
  8
BEM
  5
F7F
 10
793.233239
 20
-202.0
 30
0.0
  0
VERTEX
  8
BEM
  5
F80
 10
796.233239
 20
-205.0
 30
0.0
  0
VERTEX
  8
BEM
  5
F81
 10
796.233239
 20
-208.0
 30
0.0
  0
VERTEX
  8
BEM
  5
F82
 10
793.233239
 20
-211.0
 30
0.0
  0
VERTEX
  8
BEM
  5
F83
 10
787.233239
 20
-211.0
 30
0.0
  0
VERTEX
  8
BEM
  5
F84
 10
784.233239
 20
-208.0
 30
0.0
  0
SEQEND
  8
BEM
  5
F85
  0
POLYLINE
  8
BEM
  5
F88
 66
     1
 10
0.0
 20
0.0
 30
0.0
  0
VERTEX
  8
BEM
  5
F89
 10
802.233239
 20
-208.0
 30
0.0
  0
VERTEX
  8
BEM
  5
F8A
 10
805.233239
 20
-211.0
 30
0.0
  0
VERTEX
  8
BEM
  5
F8B
 10
811.233239
 20
-211.0
 30
0.0
  0
VERTEX
  8
BEM
  5
F8C
 10
814.233239
 20
-208.0
 30
0.0
  0
VERTEX
  8
BEM
  5
F8D
 10
814.233239
 20
-202.0
 30
0.0
  0
VERTEX
  8
BEM
  5
F8E
 10
811.233239
 20
-199.0
 30
0.0
  0
VERTEX
  8
BEM
  5
F8F
 10
802.233239
 20
-199.0
 30
0.0
  0
VERTEX
  8
BEM
  5
F90
 10
802.233239
 20
-193.0
 30
0.0
  0
VERTEX
  8
BEM
  5
F91
 10
814.233239
 20
-193.0
 30
0.0
  0
SEQEND
  8
BEM
  5
F92
  0
POLYLINE
  8
BEM
  5
F95
 66
     1
 10
0.0
 20
0.0
 30
0.0
  0
VERTEX
  8
BEM
  5
F96
 10
995.596938
 20
-202.648476
 30
0.0
  0
VERTEX
  8
BEM
  5
F97
 10
1004.596938
 20
-202.648476
 30
0.0
  0
VERTEX
  8
BEM
  5
F98
 10
1007.596938
 20
-205.648476
 30
0.0
  0
VERTEX
  8
BEM
  5
F99
 10
1007.596938
 20
-208.648476
 30
0.0
  0
VERTEX
  8
BEM
  5
F9A
 10
1004.596938
 20
-211.648476
 30
0.0
  0
VERTEX
  8
BEM
  5
F9B
 10
998.596938
 20
-211.648476
 30
0.0
  0
VERTEX
  8
BEM
  5
F9C
 10
995.596938
 20
-208.648476
 30
0.0
  0
VERTEX
  8
BEM
  5
F9D
 10
995.596938
 20
-199.648476
 30
0.0
  0
VERTEX
  8
BEM
  5
F9E
 10
1001.596938
 20
-193.648476
 30
0.0
  0
VERTEX
  8
BEM
  5
F9F
 10
1004.596938
 20
-193.648476
 30
0.0
  0
SEQEND
  8
BEM
  5
FA0
  0
POLYLINE
  8
BEM
  5
FA3
 66
     1
 10
0.0
 20
0.0
 30
0.0
  0
VERTEX
  8
BEM
  5
FA4
 10
1016.596938
 20
-211.648476
 30
0.0
  0
VERTEX
  8
BEM
  5
FA5
 10
1013.596938
 20
-208.648476
 30
0.0
  0
VERTEX
  8
BEM
  5
FA6
 10
1013.596938
 20
-196.648476
 30
0.0
  0
VERTEX
  8
BEM
  5
FA7
 10
1016.596938
 20
-193.648476
 30
0.0
  0
VERTEX
  8
BEM
  5
FA8
 10
1019.596938
 20
-193.648476
 30
0.0
  0
VERTEX
  8
BEM
  5
FA9
 10
1022.596938
 20
-196.648476
 30
0.0
  0
VERTEX
  8
BEM
  5
FAA
 10
1022.596938
 20
-208.648476
 30
0.0
  0
VERTEX
  8
BEM
  5
FAB
 10
1019.596938
 20
-211.648476
 30
0.0
  0
VERTEX
  8
BEM
  5
FAC
 10
1016.596938
 20
-211.648476
 30
0.0
  0
SEQEND
  8
BEM
  5
FAD
  0
POLYLINE
  8
BEM
  5
FB0
 66
     1
 10
0.0
 20
0.0
 30
0.0
  0
VERTEX
  8
BEM
  5
FB1
 10
139.061249
 20
-109.802192
 30
0.0
  0
VERTEX
  8
BEM
  5
FB2
 10
142.061249
 20
-106.802192
 30
0.0
  0
VERTEX
  8
BEM
  5
FB3
 10
148.061249
 20
-106.802192
 30
0.0
  0
VERTEX
  8
BEM
  5
FB4
 10
151.061249
 20
-109.802192
 30
0.0
  0
VERTEX
  8
BEM
  5
FB5
 10
151.061249
 20
-112.802192
 30
0.0
  0
VERTEX
  8
BEM
  5
FB6
 10
148.061249
 20
-115.802192
 30
0.0
  0
VERTEX
  8
BEM
  5
FB7
 10
142.061249
 20
-115.802192
 30
0.0
  0
VERTEX
  8
BEM
  5
FB8
 10
139.061249
 20
-118.802192
 30
0.0
  0
VERTEX
  8
BEM
  5
FB9
 10
139.061249
 20
-124.802192
 30
0.0
  0
VERTEX
  8
BEM
  5
FBA
 10
151.061249
 20
-124.802192
 30
0.0
  0
SEQEND
  8
BEM
  5
FBB
  0
POLYLINE
  8
BEM
  5
FBE
 66
     1
 10
0.0
 20
0.0
 30
0.0
  0
VERTEX
  8
BEM
  5
FBF
 10
157.061249
 20
-109.802192
 30
0.0
  0
VERTEX
  8
BEM
  5
FC0
 10
160.061249
 20
-106.802192
 30
0.0
  0
VERTEX
  8
BEM
  5
FC1
 10
166.061249
 20
-106.802192
 30
0.0
  0
VERTEX
  8
BEM
  5
FC2
 10
169.061249
 20
-109.802192
 30
0.0
  0
VERTEX
  8
BEM
  5
FC3
 10
169.061249
 20
-112.802192
 30
0.0
  0
VERTEX
  8
BEM
  5
FC4
 10
166.061249
 20
-115.802192
 30
0.0
  0
VERTEX
  8
BEM
  5
FC5
 10
163.061249
 20
-115.802192
 30
0.0
  0
SEQEND
  8
BEM
  5
FC6
  0
POLYLINE
  8
BEM
  5
FC7
 66
     1
 10
0.0
 20
0.0
 30
0.0
  0
VERTEX
  8
BEM
  5
FC8
 10
166.061249
 20
-115.802192
 30
0.0
  0
VERTEX
  8
BEM
  5
FC9
 10
169.061249
 20
-118.802192
 30
0.0
  0
VERTEX
  8
BEM
  5
FCA
 10
169.061249
 20
-121.802192
 30
0.0
  0
VERTEX
  8
BEM
  5
FCB
 10
166.061249
 20
-124.802192
 30
0.0
  0
VERTEX
  8
BEM
  5
FCC
 10
160.061249
 20
-124.802192
 30
0.0
  0
VERTEX
  8
BEM
  5
FCD
 10
157.061249
 20
-121.802192
 30
0.0
  0
SEQEND
  8
BEM
  5
FCE
  0
POLYLINE
  8
BEM
  5
FD1
 66
     1
 10
0.0
 20
0.0
 30
0.0
  0
VERTEX
  8
BEM
  5
FD2
 10
178.061249
 20
-124.802192
 30
0.0
  0
VERTEX
  8
BEM
  5
FD3
 10
175.061249
 20
-121.802192
 30
0.0
  0
VERTEX
  8
BEM
  5
FD4
 10
175.061249
 20
-109.802192
 30
0.0
  0
VERTEX
  8
BEM
  5
FD5
 10
178.061249
 20
-106.802192
 30
0.0
  0
VERTEX
  8
BEM
  5
FD6
 10
181.061249
 20
-106.802192
 30
0.0
  0
VERTEX
  8
BEM
  5
FD7
 10
184.061249
 20
-109.802192
 30
0.0
  0
VERTEX
  8
BEM
  5
FD8
 10
184.061249
 20
-121.802192
 30
0.0
  0
VERTEX
  8
BEM
  5
FD9
 10
181.061249
 20
-124.802192
 30
0.0
  0
VERTEX
  8
BEM
  5
FDA
 10
178.061249
 20
-124.802192
 30
0.0
  0
SEQEND
  8
BEM
  5
FDB
  0
POLYLINE
  8
BEM
  5
FDE
 66
     1
 10
0.0
 20
0.0
 30
0.0
  0
VERTEX
  8
BEM
  5
FDF
 10
139.061249
 20
180.516944
 30
0.0
  0
VERTEX
  8
BEM
  5
FE0
 10
142.061249
 20
183.516944
 30
0.0
  0
VERTEX
  8
BEM
  5
FE1
 10
148.061249
 20
183.516944
 30
0.0
  0
VERTEX
  8
BEM
  5
FE2
 10
151.061249
 20
180.516944
 30
0.0
  0
VERTEX
  8
BEM
  5
FE3
 10
151.061249
 20
177.516944
 30
0.0
  0
VERTEX
  8
BEM
  5
FE4
 10
148.061249
 20
174.516944
 30
0.0
  0
VERTEX
  8
BEM
  5
FE5
 10
145.061249
 20
174.516944
 30
0.0
  0
SEQEND
  8
BEM
  5
FE6
  0
POLYLINE
  8
BEM
  5
FE7
 66
     1
 10
0.0
 20
0.0
 30
0.0
  0
VERTEX
  8
BEM
  5
FE8
 10
148.061249
 20
174.516944
 30
0.0
  0
VERTEX
  8
BEM
  5
FE9
 10
151.061249
 20
171.516944
 30
0.0
  0
VERTEX
  8
BEM
  5
FEA
 10
151.061249
 20
168.516944
 30
0.0
  0
VERTEX
  8
BEM
  5
FEB
 10
148.061249
 20
165.516944
 30
0.0
  0
VERTEX
  8
BEM
  5
FEC
 10
142.061249
 20
165.516944
 30
0.0
  0
VERTEX
  8
BEM
  5
FED
 10
139.061249
 20
168.516944
 30
0.0
  0
SEQEND
  8
BEM
  5
FEE
  0
POLYLINE
  8
BEM
  5
FF1
 66
     1
 10
0.0
 20
0.0
 30
0.0
  0
VERTEX
  8
BEM
  5
FF2
 10
157.061249
 20
168.516944
 30
0.0
  0
VERTEX
  8
BEM
  5
FF3
 10
160.061249
 20
165.516944
 30
0.0
  0
VERTEX
  8
BEM
  5
FF4
 10
166.061249
 20
165.516944
 30
0.0
  0
VERTEX
  8
BEM
  5
FF5
 10
169.061249
 20
168.516944
 30
0.0
  0
VERTEX
  8
BEM
  5
FF6
 10
169.061249
 20
174.516944
 30
0.0
  0
VERTEX
  8
BEM
  5
FF7
 10
166.061249
 20
177.516944
 30
0.0
  0
VERTEX
  8
BEM
  5
FF8
 10
157.061249
 20
177.516944
 30
0.0
  0
VERTEX
  8
BEM
  5
FF9
 10
157.061249
 20
183.516944
 30
0.0
  0
VERTEX
  8
BEM
  5
FFA
 10
169.061249
 20
183.516944
 30
0.0
  0
SEQEND
  8
BEM
  5
FFB
  0
POLYLINE
  8
BEM
  5
FFE
 66
     1
 10
0.0
 20
0.0
 30
0.0
  0
VERTEX
  8
BEM
  5
FFF
 10
178.061249
 20
165.516944
 30
0.0
  0
VERTEX
  8
BEM
  5
1000
 10
175.061249
 20
168.516944
 30
0.0
  0
VERTEX
  8
BEM
  5
1001
 10
175.061249
 20
180.516944
 30
0.0
  0
VERTEX
  8
BEM
  5
1002
 10
178.061249
 20
183.516944
 30
0.0
  0
VERTEX
  8
BEM
  5
1003
 10
181.061249
 20
183.516944
 30
0.0
  0
VERTEX
  8
BEM
  5
1004
 10
184.061249
 20
180.516944
 30
0.0
  0
VERTEX
  8
BEM
  5
1005
 10
184.061249
 20
168.516944
 30
0.0
  0
VERTEX
  8
BEM
  5
1006
 10
181.061249
 20
165.516944
 30
0.0
  0
VERTEX
  8
BEM
  5
1007
 10
178.061249
 20
165.516944
 30
0.0
  0
SEQEND
  8
BEM
  5
1008
  0
POLYLINE
  8
BEM
  5
100B
 66
     1
 10
0.0
 20
0.0
 30
0.0
  0
VERTEX
  8
BEM
  5
100C
 10
142.061249
 20
446.627472
 30
0.0
  0
VERTEX
  8
BEM
  5
100D
 10
145.061249
 20
449.627472
 30
0.0
  0
VERTEX
  8
BEM
  5
100E
 10
145.061249
 20
431.627472
 30
0.0
  0
SEQEND
  8
BEM
  5
100F
  0
POLYLINE
  8
BEM
  5
1010
 66
     1
 10
0.0
 20
0.0
 30
0.0
  0
VERTEX
  8
BEM
  5
1011
 10
142.061249
 20
431.627472
 30
0.0
  0
VERTEX
  8
BEM
  5
1012
 10
148.061249
 20
431.627472
 30
0.0
  0
SEQEND
  8
BEM
  5
1013
  0
POLYLINE
  8
BEM
  5
1016
 66
     1
 10
0.0
 20
0.0
 30
0.0
  0
VERTEX
  8
BEM
  5
1017
 10
157.061249
 20
431.627472
 30
0.0
  0
VERTEX
  8
BEM
  5
1018
 10
154.061249
 20
434.627472
 30
0.0
  0
VERTEX
  8
BEM
  5
1019
 10
154.061249
 20
437.627472
 30
0.0
  0
VERTEX
  8
BEM
  5
101A
 10
157.061249
 20
440.627472
 30
0.0
  0
VERTEX
  8
BEM
  5
101B
 10
163.061249
 20
440.627472
 30
0.0
  0
VERTEX
  8
BEM
  5
101C
 10
166.061249
 20
443.627472
 30
0.0
  0
VERTEX
  8
BEM
  5
101D
 10
166.061249
 20
446.627472
 30
0.0
  0
VERTEX
  8
BEM
  5
101E
 10
163.061249
 20
449.627472
 30
0.0
  0
VERTEX
  8
BEM
  5
101F
 10
157.061249
 20
449.627472
 30
0.0
  0
VERTEX
  8
BEM
  5
1020
 10
154.061249
 20
446.627472
 30
0.0
  0
VERTEX
  8
BEM
  5
1021
 10
154.061249
 20
443.627472
 30
0.0
  0
VERTEX
  8
BEM
  5
1022
 10
157.061249
 20
440.627472
 30
0.0
  0
SEQEND
  8
BEM
  5
1023
  0
POLYLINE
  8
BEM
  5
1024
 66
     1
 10
0.0
 20
0.0
 30
0.0
  0
VERTEX
  8
BEM
  5
1025
 10
163.061249
 20
440.627472
 30
0.0
  0
VERTEX
  8
BEM
  5
1026
 10
166.061249
 20
437.627472
 30
0.0
  0
VERTEX
  8
BEM
  5
1027
 10
166.061249
 20
434.627472
 30
0.0
  0
VERTEX
  8
BEM
  5
1028
 10
163.061249
 20
431.627472
 30
0.0
  0
VERTEX
  8
BEM
  5
1029
 10
157.061249
 20
431.627472
 30
0.0
  0
SEQEND
  8
BEM
  5
102A
  0
POLYLINE
  8
BEM
  5
102D
 66
     1
 10
0.0
 20
0.0
 30
0.0
  0
VERTEX
  8
BEM
  5
102E
 10
175.061249
 20
431.627472
 30
0.0
  0
VERTEX
  8
BEM
  5
102F
 10
172.061249
 20
434.627472
 30
0.0
  0
VERTEX
  8
BEM
  5
1030
 10
172.061249
 20
446.627472
 30
0.0
  0
VERTEX
  8
BEM
  5
1031
 10
175.061249
 20
449.627472
 30
0.0
  0
VERTEX
  8
BEM
  5
1032
 10
178.061249
 20
449.627472
 30
0.0
  0
VERTEX
  8
BEM
  5
1033
 10
181.061249
 20
446.627472
 30
0.0
  0
VERTEX
  8
BEM
  5
1034
 10
181.061249
 20
434.627472
 30
0.0
  0
VERTEX
  8
BEM
  5
1035
 10
178.061249
 20
431.627472
 30
0.0
  0
VERTEX
  8
BEM
  5
1036
 10
175.061249
 20
431.627472
 30
0.0
  0
SEQEND
  8
BEM
  5
1037
  0
POLYLINE
  8
BEM
  5
103A
 66
     1
 10
0.0
 20
0.0
 30
0.0
  0
VERTEX
  8
BEM
  5
103B
 10
1013.192846
 20
-94.12946
 30
0.0
  0
VERTEX
  8
BEM
  5
103C
 10
1016.192846
 20
-91.12946
 30
0.0
  0
VERTEX
  8
BEM
  5
103D
 10
1016.192846
 20
-109.12946
 30
0.0
  0
SEQEND
  8
BEM
  5
103E
  0
POLYLINE
  8
BEM
  5
103F
 66
     1
 10
0.0
 20
0.0
 30
0.0
  0
VERTEX
  8
BEM
  5
1040
 10
1013.192846
 20
-109.12946
 30
0.0
  0
VERTEX
  8
BEM
  5
1041
 10
1019.192846
 20
-109.12946
 30
0.0
  0
SEQEND
  8
BEM
  5
1042
  0
POLYLINE
  8
BEM
  5
1045
 66
     1
 10
0.0
 20
0.0
 30
0.0
  0
VERTEX
  8
BEM
  5
1046
 10
1025.192846
 20
-94.12946
 30
0.0
  0
VERTEX
  8
BEM
  5
1047
 10
1028.192846
 20
-91.12946
 30
0.0
  0
VERTEX
  8
BEM
  5
1048
 10
1034.192846
 20
-91.12946
 30
0.0
  0
VERTEX
  8
BEM
  5
1049
 10
1037.192846
 20
-94.12946
 30
0.0
  0
VERTEX
  8
BEM
  5
104A
 10
1037.192846
 20
-97.12946
 30
0.0
  0
VERTEX
  8
BEM
  5
104B
 10
1034.192846
 20
-100.12946
 30
0.0
  0
VERTEX
  8
BEM
  5
104C
 10
1028.192846
 20
-100.12946
 30
0.0
  0
VERTEX
  8
BEM
  5
104D
 10
1025.192846
 20
-103.12946
 30
0.0
  0
VERTEX
  8
BEM
  5
104E
 10
1025.192846
 20
-109.12946
 30
0.0
  0
VERTEX
  8
BEM
  5
104F
 10
1037.192846
 20
-109.12946
 30
0.0
  0
SEQEND
  8
BEM
  5
1050
  0
POLYLINE
  8
BEM
  5
1053
 66
     1
 10
0.0
 20
0.0
 30
0.0
  0
VERTEX
  8
BEM
  5
1054
 10
1046.192846
 20
-109.12946
 30
0.0
  0
VERTEX
  8
BEM
  5
1055
 10
1043.192846
 20
-106.12946
 30
0.0
  0
VERTEX
  8
BEM
  5
1056
 10
1043.192846
 20
-94.12946
 30
0.0
  0
VERTEX
  8
BEM
  5
1057
 10
1046.192846
 20
-91.12946
 30
0.0
  0
VERTEX
  8
BEM
  5
1058
 10
1049.192846
 20
-91.12946
 30
0.0
  0
VERTEX
  8
BEM
  5
1059
 10
1052.192846
 20
-94.12946
 30
0.0
  0
VERTEX
  8
BEM
  5
105A
 10
1052.192846
 20
-106.12946
 30
0.0
  0
VERTEX
  8
BEM
  5
105B
 10
1049.192846
 20
-109.12946
 30
0.0
  0
VERTEX
  8
BEM
  5
105C
 10
1046.192846
 20
-109.12946
 30
0.0
  0
SEQEND
  8
BEM
  5
105D
  0
POLYLINE
  8
BEM
  5
1060
 66
     1
 10
0.0
 20
0.0
 30
0.0
  0
VERTEX
  8
BEM
  5
1061
 10
719.0
 20
-95.868383
 30
0.0
  0
VERTEX
  8
BEM
  5
1062
 10
722.0
 20
-92.868383
 30
0.0
  0
VERTEX
  8
BEM
  5
1063
 10
728.0
 20
-92.868383
 30
0.0
  0
VERTEX
  8
BEM
  5
1064
 10
731.0
 20
-95.868383
 30
0.0
  0
VERTEX
  8
BEM
  5
1065
 10
731.0
 20
-98.868383
 30
0.0
  0
VERTEX
  8
BEM
  5
1066
 10
728.0
 20
-101.868383
 30
0.0
  0
VERTEX
  8
BEM
  5
1067
 10
725.0
 20
-101.868383
 30
0.0
  0
SEQEND
  8
BEM
  5
1068
  0
POLYLINE
  8
BEM
  5
1069
 66
     1
 10
0.0
 20
0.0
 30
0.0
  0
VERTEX
  8
BEM
  5
106A
 10
728.0
 20
-101.868383
 30
0.0
  0
VERTEX
  8
BEM
  5
106B
 10
731.0
 20
-104.868383
 30
0.0
  0
VERTEX
  8
BEM
  5
106C
 10
731.0
 20
-107.868383
 30
0.0
  0
VERTEX
  8
BEM
  5
106D
 10
728.0
 20
-110.868383
 30
0.0
  0
VERTEX
  8
BEM
  5
106E
 10
722.0
 20
-110.868383
 30
0.0
  0
VERTEX
  8
BEM
  5
106F
 10
719.0
 20
-107.868383
 30
0.0
  0
SEQEND
  8
BEM
  5
1070
  0
POLYLINE
  8
BEM
  5
1073
 66
     1
 10
0.0
 20
0.0
 30
0.0
  0
VERTEX
  8
BEM
  5
1074
 10
740.0
 20
-110.868383
 30
0.0
  0
VERTEX
  8
BEM
  5
1075
 10
737.0
 20
-107.868383
 30
0.0
  0
VERTEX
  8
BEM
  5
1076
 10
737.0
 20
-95.868383
 30
0.0
  0
VERTEX
  8
BEM
  5
1077
 10
740.0
 20
-92.868383
 30
0.0
  0
VERTEX
  8
BEM
  5
1078
 10
743.0
 20
-92.868383
 30
0.0
  0
VERTEX
  8
BEM
  5
1079
 10
746.0
 20
-95.868383
 30
0.0
  0
VERTEX
  8
BEM
  5
107A
 10
746.0
 20
-107.868383
 30
0.0
  0
VERTEX
  8
BEM
  5
107B
 10
743.0
 20
-110.868383
 30
0.0
  0
VERTEX
  8
BEM
  5
107C
 10
740.0
 20
-110.868383
 30
0.0
  0
SEQEND
  8
BEM
  5
107D
  0
POLYLINE
  8
BEM
  5
1080
 66
     1
 10
0.0
 20
0.0
 30
0.0
  0
VERTEX
  8
BEM
  5
1081
 10
755.0
 20
-110.868383
 30
0.0
  0
VERTEX
  8
BEM
  5
1082
 10
752.0
 20
-107.868383
 30
0.0
  0
VERTEX
  8
BEM
  5
1083
 10
752.0
 20
-95.868383
 30
0.0
  0
VERTEX
  8
BEM
  5
1084
 10
755.0
 20
-92.868383
 30
0.0
  0
VERTEX
  8
BEM
  5
1085
 10
758.0
 20
-92.868383
 30
0.0
  0
VERTEX
  8
BEM
  5
1086
 10
761.0
 20
-95.868383
 30
0.0
  0
VERTEX
  8
BEM
  5
1087
 10
761.0
 20
-107.868383
 30
0.0
  0
VERTEX
  8
BEM
  5
1088
 10
758.0
 20
-110.868383
 30
0.0
  0
VERTEX
  8
BEM
  5
1089
 10
755.0
 20
-110.868383
 30
0.0
  0
SEQEND
  8
BEM
  5
108A
  0
POLYLINE
  8
BEM
  5
108D
 66
     1
 10
0.0
 20
0.0
 30
0.0
  0
VERTEX
  8
BEM
  5
108E
 10
1071.692846
 20
33.0
 30
0.0
  0
VERTEX
  8
BEM
  5
108F
 10
1059.692846
 20
33.0
 30
0.0
  0
VERTEX
  8
BEM
  5
1090
 10
1068.692846
 20
45.0
 30
0.0
  0
VERTEX
  8
BEM
  5
1091
 10
1068.692846
 20
27.0
 30
0.0
  0
SEQEND
  8
BEM
  5
1092
  0
POLYLINE
  8
BEM
  5
1095
 66
     1
 10
0.0
 20
0.0
 30
0.0
  0
VERTEX
  8
BEM
  5
1096
 10
1080.692846
 20
27.0
 30
0.0
  0
VERTEX
  8
BEM
  5
1097
 10
1077.692846
 20
30.0
 30
0.0
  0
VERTEX
  8
BEM
  5
1098
 10
1077.692846
 20
42.0
 30
0.0
  0
VERTEX
  8
BEM
  5
1099
 10
1080.692846
 20
45.0
 30
0.0
  0
VERTEX
  8
BEM
  5
109A
 10
1083.692846
 20
45.0
 30
0.0
  0
VERTEX
  8
BEM
  5
109B
 10
1086.692846
 20
42.0
 30
0.0
  0
VERTEX
  8
BEM
  5
109C
 10
1086.692846
 20
30.0
 30
0.0
  0
VERTEX
  8
BEM
  5
109D
 10
1083.692846
 20
27.0
 30
0.0
  0
VERTEX
  8
BEM
  5
109E
 10
1080.692846
 20
27.0
 30
0.0
  0
SEQEND
  8
BEM
  5
109F
  0
ENDSEC
  0
EOF
