  0
SECTION
  2
HEADER
  9
$ACADVER
  1
AC1009
  9
$INSBASE
 10
0.0
 20
0.0
 30
0.0
  9
$EXTMIN
 10
5.301625321647653
 20
13.0
 30
0.0
  9
$EXTMAX
 10
115.09999999999999
 20
82.052736624515404
 30
0.0
  9
$LIMMIN
 10
0.0
 20
0.0
  9
$LIMMAX
 10
12.0
 20
9.0
  9
$ORTHOMODE
 70
     0
  9
$REGENMODE
 70
     1
  9
$FILLMODE
 70
     1
  9
$QTEXTMODE
 70
     0
  9
$MIRRTEXT
 70
     1
  9
$DRAGMODE
 70
     2
  9
$LTSCALE
 40
1.0
  9
$OSMODE
 70
     0
  9
$ATTMODE
 70
     1
  9
$TEXTSIZE
 40
0.3
  9
$TRACEWID
 40
0.05
  9
$TEXTSTYLE
  7
ROMANS8
  9
$CLAYER
  8
0
  9
$CELTYPE
  6
BYLAYER
  9
$CECOLOR
 62
   256
  9
$DIMSCALE
 40
1.0
  9
$DIMASZ
 40
0.18
  9
$DIMEXO
 40
0.25
  9
$DIMDLI
 40
0.38
  9
$DIMRND
 40
0.0
  9
$DIMDLE
 40
0.25
  9
$DIMEXE
 40
0.18
  9
$DIMTP
 40
0.0
  9
$DIMTM
 40
0.0
  9
$DIMTXT
 40
0.18
  9
$DIMCEN
 40
0.09
  9
$DIMTSZ
 40
0.0
  9
$DIMTOL
 70
     0
  9
$DIMLIM
 70
     0
  9
$DIMTIH
 70
     1
  9
$DIMTOH
 70
     1
  9
$DIMSE1
 70
     0
  9
$DIMSE2
 70
     0
  9
$DIMTAD
 70
     0
  9
$DIMZIN
 70
     0
  9
$DIMBLK
  1

  9
$DIMASO
 70
     1
  9
$DIMSHO
 70
     1
  9
$DIMPOST
  1

  9
$DIMAPOST
  1

  9
$DIMALT
 70
     0
  9
$DIMALTD
 70
     2
  9
$DIMALTF
 40
25.399999999999999
  9
$DIMLFAC
 40
1.0
  9
$DIMTOFL
 70
     0
  9
$DIMTVP
 40
0.0
  9
$DIMTIX
 70
     0
  9
$DIMSOXD
 70
     0
  9
$DIMSAH
 70
     0
  9
$DIMBLK1
  1

  9
$DIMBLK2
  1

  9
$DIMSTYLE
  2
50
  9
$DIMCLRD
 70
     0
  9
$DIMCLRE
 70
     0
  9
$DIMCLRT
 70
     3
  9
$DIMTFAC
 40
1.0
  9
$DIMGAP
 40
0.09
  9
$LUNITS
 70
     2
  9
$LUPREC
 70
     4
  9
$SKETCHINC
 40
0.1
  9
$FILLETRAD
 40
0.0
  9
$AUNITS
 70
     0
  9
$AUPREC
 70
     0
  9
$MENU
  1
acad
  9
$ELEVATION
 40
0.0
  9
$PELEVATION
 40
0.0
  9
$THICKNESS
 40
0.0
  9
$LIMCHECK
 70
     0
  9
$BLIPMODE
 70
     0
  9
$CHAMFERA
 40
0.0
  9
$CHAMFERB
 40
0.0
  9
$SKPOLY
 70
     0
  9
$TDCREATE
 40
2450654.6598986108
  9
$TDUPDATE
 40
2453367.6895907409
  9
$TDINDWG
 40
0.0006655671
  9
$TDUSRTIMER
 40
0.0006655671
  9
$USRTIMER
 70
     1
  9
$ANGBASE
 50
0.0
  9
$ANGDIR
 70
     0
  9
$PDMODE
 70
     0
  9
$PDSIZE
 40
0.0
  9
$PLINEWID
 40
0.0
  9
$COORDS
 70
     1
  9
$SPLFRAME
 70
     0
  9
$SPLINETYPE
 70
     6
  9
$SPLINESEGS
 70
     8
  9
$ATTDIA
 70
     0
  9
$ATTREQ
 70
     1
  9
$HANDLING
 70
     1
  9
$HANDSEED
  5
352
  9
$SURFTAB1
 70
     6
  9
$SURFTAB2
 70
     6
  9
$SURFTYPE
 70
     6
  9
$SURFU
 70
     6
  9
$SURFV
 70
     6
  9
$UCSNAME
  2

  9
$UCSORG
 10
0.0
 20
0.0
 30
0.0
  9
$UCSXDIR
 10
1.0
 20
0.0
 30
0.0
  9
$UCSYDIR
 10
0.0
 20
1.0
 30
0.0
  9
$PUCSNAME
  2

  9
$PUCSORG
 10
0.0
 20
0.0
 30
0.0
  9
$PUCSXDIR
 10
1.0
 20
0.0
 30
0.0
  9
$PUCSYDIR
 10
0.0
 20
1.0
 30
0.0
  9
$USERI1
 70
     0
  9
$USERI2
 70
     0
  9
$USERI3
 70
     0
  9
$USERI4
 70
     0
  9
$USERI5
 70
     0
  9
$USERR1
 40
0.0
  9
$USERR2
 40
0.0
  9
$USERR3
 40
0.0
  9
$USERR4
 40
0.0
  9
$USERR5
 40
0.0
  9
$WORLDVIEW
 70
     1
  9
$SHADEDGE
 70
     3
  9
$SHADEDIF
 70
    70
  9
$TILEMODE
 70
     1
  9
$MAXACTVP
 70
    16
  9
$PLIMCHECK
 70
     0
  9
$PEXTMIN
 10
1.0000000000000000E+020
 20
1.0000000000000000E+020
 30
1.0000000000000000E+020
  9
$PEXTMAX
 10
-1.0000000000000000E+020
 20
-1.0000000000000000E+020
 30
-1.0000000000000000E+020
  9
$PLIMMIN
 10
0.0
 20
0.0
  9
$PLIMMAX
 10
12.0
 20
9.0
  9
$UNITMODE
 70
     0
  9
$VISRETAIN
 70
     0
  9
$PLINEGEN
 70
     0
  9
$PSLTSCALE
 70
     0
  0
ENDSEC
  0
SECTION
  2
TABLES
  0
TABLE
  2
VPORT
 70
     2
  0
VPORT
  2
*ACTIVE
 70
     0
 10
0.0
 20
0.0
 11
1.0
 21
1.0
 12
60.651675023991899
 22
48.461110212977687
 13
0.0
 23
0.0
 14
1.0
 24
1.0
 15
0.0
 25
0.0
 16
0.0
 26
0.0
 36
1.0
 17
0.0
 27
0.0
 37
0.0
 40
75.885393790869017
 41
1.693877551020408
 42
50.0
 43
0.0
 44
0.0
 50
0.0
 51
0.0
 71
     0
 72
 20000
 73
     1
 74
     1
 75
     0
 76
     0
 77
     0
 78
     0
  0
ENDTAB
  0
TABLE
  2
LTYPE
 70
     2
  0
LTYPE
  2
CONTINUOUS
 70
     0
  3
Solid line
 72
    65
 73
     0
 40
0.0
  0
LTYPE
  2
CONTINUA
 70
     0
  3
Linea ininterrumpida
 72
    65
 73
     0
 40
0.0
  0
ENDTAB
  0
TABLE
  2
LAYER
 70
     2
  0
LAYER
  2
0
 70
     0
 62
     7
  6
CONTINUOUS
  0
LAYER
  2
DEFPOINTS
 70
     0
 62
     7
  6
CONTINUOUS
  0
ENDTAB
  0
TABLE
  2
STYLE
 70
     4
  0
STYLE
  2
STANDARD
 70
     0
 40
0.0
 41
1.0
 50
0.0
 71
     0
 42
0.2
  3
txt8
  4

  0
STYLE
  2
ISO8
 70
     0
 40
0.08
 41
1.0
 50
0.0
 71
     0
 42
0.2
  3
iso8
  4

  0
STYLE
  2
ROMANS8
 70
     0
 40
0.3
 41
1.0
 50
0.0
 71
     0
 42
0.3
  3
romans8
  4

  0
STYLE
  2
ROMANT
 70
     0
 40
0.3
 41
1.0
 50
0.0
 71
     0
 42
0.3
  3
romant
  4

  0
ENDTAB
  0
TABLE
  2
VIEW
 70
     0
  0
ENDTAB
  0
TABLE
  2
UCS
 70
     0
  0
ENDTAB
  0
TABLE
  2
APPID
 70
     1
  0
APPID
  2
ACAD
 70
     0
  0
ENDTAB
  0
TABLE
  2
DIMSTYLE
 70
     1
  0
DIMSTYLE
  2
50
 70
     0
  3

  4

  5

  6

  7

 40
1.0
 41
0.18
 42
0.25
 43
0.38
 44
0.18
 45
0.0
 46
0.25
 47
0.0
 48
0.0
140
0.18
141
0.09
142
0.0
143
25.399999999999999
144
1.0
145
0.0
146
1.0
147
0.09
 71
     0
 72
     0
 73
     1
 74
     1
 75
     0
 76
     0
 77
     0
 78
     0
170
     0
171
     2
172
     0
173
     0
174
     0
175
     0
176
     0
177
     0
178
     3
  0
ENDTAB
  0
ENDSEC
  0
SECTION
  2
BLOCKS
  0
BLOCK
  8
0
  2
$MODEL_SPACE
 70
     0
 10
0.0
 20
0.0
 30
0.0
  3
$MODEL_SPACE
  1

  0
ENDBLK
  5
2B
  8
0
  0
BLOCK
 67
     1
  8
0
  2
$PAPER_SPACE
 70
     0
 10
0.0
 20
0.0
 30
0.0
  3
$PAPER_SPACE
  1

  0
ENDBLK
  5
29
 67
     1
  8
0
  0
BLOCK
  8
0
  2
FLECHARQ
 70
     0
 10
0.0
 20
0.0
 30
0.0
  3
FLECHARQ
  1

  0
LINE
  5
2F
  8
0
  6
BYBLOCK
 62
     0
 10
0.0
 20
0.5000000000000054
 30
0.0
 11
0.0
 21
-0.4999999999999947
 31
0.0
  0
LINE
  5
30
  8
0
  6
BYBLOCK
 62
     8
 10
-0.3535533905932731
 20
-0.3535533905932713
 30
0.0
 11
0.3535533905932766
 21
0.3535533905932748
 31
0.0
  0
LINE
  5
31
  8
0
  6
BYBLOCK
 62
     0
 10
-0.9999999999999982
 20
0.0000000000000018
 30
0.0
 11
0.0000000000000018
 21
0.0000000000000018
 31
0.0
  0
ENDBLK
  5
32
  8
0
  0
BLOCK
  8
0
  2
J5012
 70
     0
 10
0.0
 20
0.0
 30
0.0
  3
J5012
  1

  0
POINT
  5
34
  8
0
 10
0.0
 20
0.0
 30
0.0
  0
POINT
  5
35
  8
0
 10
0.0
 20
0.0
 30
0.0
  0
POINT
  5
36
  8
0
 10
0.274
 20
0.814
 30
0.0
  0
POINT
  5
37
  8
0
 10
1.0929999999999991
 20
1.611999999999999
 30
0.0
  0
POINT
  5
38
  8
0
 10
2.4470000000000001
 20
2.379999999999999
 30
0.0
  0
POINT
  5
39
  8
0
 10
4.3230000000000004
 20
3.101999999999999
 30
0.0
  0
POINT
  5
3A
  8
0
 10
6.698999999999999
 20
3.766
 30
0.0
  0
POINT
  5
3B
  8
0
 10
9.5489999999999995
 20
4.3589999999999991
 30
0.0
  0
POINT
  5
3C
  8
0
 10
12.843
 20
4.8710000000000004
 30
0.0
  0
POINT
  5
3D
  8
0
 10
16.544
 20
5.2939999999999987
 30
0.0
  0
POINT
  5
3E
  8
0
 10
20.611000000000001
 20
5.6210000000000004
 30
0.0
  0
POINT
  5
3F
  8
0
 10
25.0
 20
5.8490000000000002
 30
0.0
  0
POINT
  5
40
  8
0
 10
29.632999999999999
 20
5.9749999999999988
 30
0.0
  0
POINT
  5
41
  8
0
 10
34.548999999999999
 20
6.0
 30
0.0
  0
POINT
  5
42
  8
0
 10
39.603999999999999
 20
5.927999999999999
 30
0.0
  0
POINT
  5
43
  8
0
 10
44.773999999999987
 20
5.762999999999999
 30
0.0
  0
POINT
  5
44
  8
0
 10
50.0
 20
5.5139999999999993
 30
0.0
  0
POINT
  5
45
  8
0
 10
55.225999999999999
 20
5.1890000000000001
 30
0.0
  0
POINT
  5
46
  8
0
 10
60.396000000000001
 20
4.7999999999999989
 30
0.0
  0
POINT
  5
47
  8
0
 10
65.451000000000008
 20
4.3589999999999991
 30
0.0
  0
POINT
  5
48
  8
0
 10
70.337000000000003
 20
3.879999999999999
 30
0.0
  0
POINT
  5
49
  8
0
 10
75.0
 20
3.3769999999999989
 30
0.0
  0
POINT
  5
4A
  8
0
 10
79.388999999999996
 20
2.863999999999999
 30
0.0
  0
POINT
  5
4B
  8
0
 10
83.456999999999994
 20
2.3569999999999989
 30
0.0
  0
POINT
  5
4C
  8
0
 10
87.157000000000011
 20
1.8700000000000001
 30
0.0
  0
POINT
  5
4D
  8
0
 10
90.451000000000008
 20
1.415999999999999
 30
0.0
  0
POINT
  5
4E
  8
0
 10
93.300999999999988
 20
1.0089999999999999
 30
0.0
  0
POINT
  5
4F
  8
0
 10
95.677000000000007
 20
0.659
 30
0.0
  0
POINT
  5
50
  8
0
 10
97.552999999999997
 20
0.377
 30
0.0
  0
POINT
  5
51
  8
0
 10
98.907000000000025
 20
0.169
 30
0.0
  0
POINT
  5
52
  8
0
 10
99.725999999999985
 20
0.043
 30
0.0
  0
POINT
  5
53
  8
0
 10
100.0
 20
0.0
 30
0.0
  0
POINT
  5
54
  8
0
 10
99.725999999999985
 20
-0.043
 30
0.0
  0
POINT
  5
55
  8
0
 10
98.907000000000025
 20
-0.169
 30
0.0
  0
POINT
  5
56
  8
0
 10
97.552999999999997
 20
-0.377
 30
0.0
  0
POINT
  5
57
  8
0
 10
95.677000000000007
 20
-0.659
 30
0.0
  0
POINT
  5
58
  8
0
 10
93.300999999999988
 20
-1.0089999999999999
 30
0.0
  0
POINT
  5
59
  8
0
 10
90.451000000000008
 20
-1.415999999999999
 30
0.0
  0
POINT
  5
5A
  8
0
 10
87.157000000000011
 20
-1.8700000000000001
 30
0.0
  0
POINT
  5
5B
  8
0
 10
83.456000000000003
 20
-2.3569999999999989
 30
0.0
  0
POINT
  5
5C
  8
0
 10
79.388999999999996
 20
-2.863999999999999
 30
0.0
  0
POINT
  5
5D
  8
0
 10
75.0
 20
-3.3769999999999989
 30
0.0
  0
POINT
  5
5E
  8
0
 10
70.337000000000003
 20
-3.879999999999999
 30
0.0
  0
POINT
  5
5F
  8
0
 10
65.451000000000008
 20
-4.3589999999999991
 30
0.0
  0
POINT
  5
60
  8
0
 10
60.396000000000001
 20
-4.7999999999999989
 30
0.0
  0
POINT
  5
61
  8
0
 10
55.225999999999999
 20
-5.1890000000000001
 30
0.0
  0
POINT
  5
62
  8
0
 10
50.0
 20
-5.5139999999999993
 30
0.0
  0
POINT
  5
63
  8
0
 10
44.773999999999987
 20
-5.762999999999999
 30
0.0
  0
POINT
  5
64
  8
0
 10
39.603999999999999
 20
-5.927999999999999
 30
0.0
  0
POINT
  5
65
  8
0
 10
34.548999999999999
 20
-6.0
 30
0.0
  0
POINT
  5
66
  8
0
 10
29.663
 20
-5.9749999999999988
 30
0.0
  0
POINT
  5
67
  8
0
 10
25.0
 20
-5.8490000000000002
 30
0.0
  0
POINT
  5
68
  8
0
 10
20.611000000000001
 20
-5.6210000000000004
 30
0.0
  0
POINT
  5
69
  8
0
 10
16.542999999999999
 20
-5.2939999999999987
 30
0.0
  0
POINT
  5
6A
  8
0
 10
12.843
 20
-4.8710000000000004
 30
0.0
  0
POINT
  5
6B
  8
0
 10
9.5489999999999995
 20
-4.3589999999999991
 30
0.0
  0
POINT
  5
6C
  8
0
 10
6.698999999999999
 20
-3.766
 30
0.0
  0
POINT
  5
6D
  8
0
 10
4.3230000000000004
 20
-3.101999999999999
 30
0.0
  0
POINT
  5
6E
  8
0
 10
2.4470000000000001
 20
-2.379999999999999
 30
0.0
  0
POINT
  5
6F
  8
0
 10
1.0929999999999991
 20
-1.611999999999999
 30
0.0
  0
POINT
  5
70
  8
0
 10
0.274
 20
-0.814
 30
0.0
  0
POLYLINE
  5
71
  8
0
 66
     1
 10
0.0
 20
0.0
 30
0.0
 70
     1
  0
VERTEX
  5
2AB
  8
0
 10
0.0
 20
0.0
 30
0.0
  0
VERTEX
  5
2AC
  8
0
 10
0.274
 20
0.814
 30
0.0
  0
VERTEX
  5
2AD
  8
0
 10
1.0929999999999991
 20
1.611999999999999
 30
0.0
  0
VERTEX
  5
2AE
  8
0
 10
4.3230000000000004
 20
3.101999999999999
 30
0.0
  0
VERTEX
  5
2AF
  8
0
 10
6.698999999999999
 20
3.766
 30
0.0
  0
VERTEX
  5
2B0
  8
0
 10
9.5489999999999995
 20
4.3589999999999991
 30
0.0
  0
VERTEX
  5
2B1
  8
0
 10
12.843
 20
4.8710000000000004
 30
0.0
  0
VERTEX
  5
2B2
  8
0
 10
16.544
 20
5.2939999999999987
 30
0.0
  0
VERTEX
  5
2B3
  8
0
 10
20.611000000000001
 20
5.6210000000000004
 30
0.0
  0
VERTEX
  5
2B4
  8
0
 10
25.0
 20
5.8490000000000002
 30
0.0
  0
VERTEX
  5
2B5
  8
0
 10
29.632999999999999
 20
5.9749999999999988
 30
0.0
  0
VERTEX
  5
2B6
  8
0
 10
34.548999999999999
 20
6.0
 30
0.0
  0
VERTEX
  5
2B7
  8
0
 10
39.603999999999999
 20
5.927999999999999
 30
0.0
  0
VERTEX
  5
2B8
  8
0
 10
44.773999999999987
 20
5.762999999999999
 30
0.0
  0
VERTEX
  5
2B9
  8
0
 10
50.0
 20
5.5139999999999993
 30
0.0
  0
VERTEX
  5
2BA
  8
0
 10
55.225999999999999
 20
5.1890000000000001
 30
0.0
  0
VERTEX
  5
2BB
  8
0
 10
60.396000000000001
 20
4.7999999999999989
 30
0.0
  0
VERTEX
  5
2BC
  8
0
 10
65.451000000000008
 20
4.3589999999999991
 30
0.0
  0
VERTEX
  5
2BD
  8
0
 10
70.337000000000003
 20
3.879999999999999
 30
0.0
  0
VERTEX
  5
2BE
  8
0
 10
75.0
 20
3.3769999999999989
 30
0.0
  0
VERTEX
  5
2BF
  8
0
 10
79.388999999999996
 20
2.863999999999999
 30
0.0
  0
VERTEX
  5
2C0
  8
0
 10
83.456999999999994
 20
2.3569999999999989
 30
0.0
  0
VERTEX
  5
2C1
  8
0
 10
87.157000000000011
 20
1.8700000000000001
 30
0.0
  0
VERTEX
  5
2C2
  8
0
 10
90.451000000000008
 20
1.415999999999999
 30
0.0
  0
VERTEX
  5
2C3
  8
0
 10
93.300999999999988
 20
1.0089999999999999
 30
0.0
  0
VERTEX
  5
2C4
  8
0
 10
95.677000000000007
 20
0.659
 30
0.0
  0
VERTEX
  5
2C5
  8
0
 10
97.552999999999997
 20
0.377
 30
0.0
  0
VERTEX
  5
2C6
  8
0
 10
97.552999999999997
 20
0.377
 30
0.0
  0
VERTEX
  5
2C7
  8
0
 10
98.907000000000025
 20
0.169
 30
0.0
  0
VERTEX
  5
2C8
  8
0
 10
100.0
 20
0.0
 30
0.0
  0
VERTEX
  5
2C9
  8
0
 10
98.907000000000025
 20
-0.169
 30
0.0
  0
VERTEX
  5
2CA
  8
0
 10
97.552999999999997
 20
-0.377
 30
0.0
  0
VERTEX
  5
2CB
  8
0
 10
95.677000000000007
 20
-0.659
 30
0.0
  0
VERTEX
  5
2CC
  8
0
 10
93.300999999999988
 20
-1.0089999999999999
 30
0.0
  0
VERTEX
  5
2CD
  8
0
 10
90.451000000000008
 20
-1.415999999999999
 30
0.0
  0
VERTEX
  5
2CE
  8
0
 10
87.157000000000011
 20
-1.8700000000000001
 30
0.0
  0
VERTEX
  5
2CF
  8
0
 10
83.456000000000003
 20
-2.3569999999999989
 30
0.0
  0
VERTEX
  5
2D0
  8
0
 10
79.388999999999996
 20
-2.863999999999999
 30
0.0
  0
VERTEX
  5
2D1
  8
0
 10
75.0
 20
-3.3769999999999989
 30
0.0
  0
VERTEX
  5
2D2
  8
0
 10
70.337000000000003
 20
-3.879999999999999
 30
0.0
  0
VERTEX
  5
2D3
  8
0
 10
65.451000000000008
 20
-4.3589999999999991
 30
0.0
  0
VERTEX
  5
2D4
  8
0
 10
60.396000000000001
 20
-4.7999999999999989
 30
0.0
  0
VERTEX
  5
2D5
  8
0
 10
55.225999999999999
 20
-5.1890000000000001
 30
0.0
  0
VERTEX
  5
2D6
  8
0
 10
50.0
 20
-5.5139999999999993
 30
0.0
  0
VERTEX
  5
2D7
  8
0
 10
44.773999999999987
 20
-5.762999999999999
 30
0.0
  0
VERTEX
  5
2D8
  8
0
 10
39.603999999999999
 20
-5.927999999999999
 30
0.0
  0
VERTEX
  5
2D9
  8
0
 10
34.548999999999999
 20
-6.0
 30
0.0
  0
VERTEX
  5
2DA
  8
0
 10
29.663
 20
-5.9749999999999988
 30
0.0
  0
VERTEX
  5
2DB
  8
0
 10
25.0
 20
-5.8490000000000002
 30
0.0
  0
VERTEX
  5
2DC
  8
0
 10
20.611000000000001
 20
-5.6210000000000004
 30
0.0
  0
VERTEX
  5
2DD
  8
0
 10
16.542999999999999
 20
-5.2939999999999987
 30
0.0
  0
VERTEX
  5
2DE
  8
0
 10
12.843
 20
-4.8710000000000004
 30
0.0
  0
VERTEX
  5
2DF
  8
0
 10
9.5489999999999995
 20
-4.3589999999999991
 30
0.0
  0
VERTEX
  5
2E0
  8
0
 10
6.698999999999999
 20
-3.766
 30
0.0
  0
VERTEX
  5
2E1
  8
0
 10
4.3230000000000004
 20
-3.101999999999999
 30
0.0
  0
VERTEX
  5
2E2
  8
0
 10
1.0929999999999991
 20
-1.611999999999999
 30
0.0
  0
VERTEX
  5
2E3
  8
0
 10
0.274
 20
-0.814
 30
0.0
  0
SEQEND
  5
2E4
  8
0
  0
ENDBLK
  5
AC
  8
0
  0
BLOCK
  8
0
  2
BISDUBRO
 70
     0
 10
0.0
 20
0.0
 30
0.0
  3
BISDUBRO
  1

  0
LINE
  5
AE
  8
0
 10
1.0
 20
1.0
 30
0.0
 11
1.0
 21
2.6000000000000001
 31
0.0
  0
LINE
  5
AF
  8
0
 10
1.0
 20
2.6000000000000001
 30
0.0
 11
2.5
 21
2.6000000000000001
 31
0.0
  0
LINE
  5
B0
  8
0
 10
3.7999999999999989
 20
2.6000000000000001
 30
0.0
 11
3.7999999999999989
 21
1.0
 31
0.0
  0
LINE
  5
B1
  8
0
 10
3.7999999999999989
 20
1.0
 30
0.0
 11
2.2999999999999989
 21
1.0
 31
0.0
  0
LINE
  5
B2
  8
0
 10
2.399999999999999
 20
1.0
 30
0.0
 11
2.399999999999999
 21
2.6000000000000001
 31
0.0
  0
LINE
  5
B3
  8
0
 10
2.2999999999999989
 20
1.0
 30
0.0
 11
2.2999999999999998
 21
1.3945649942924201
 31
0.0
  0
LINE
  5
B4
  8
0
 10
2.5
 20
1.405105141394412
 30
0.0
 11
2.5
 21
1.795128096015544
 31
0.0
  0
LINE
  5
B5
  8
0
 10
2.2892445840873328
 20
1.405105141394412
 30
0.0
 11
2.5
 21
1.405105141394412
 31
0.0
  0
LINE
  5
B6
  8
0
 10
2.4999999999999991
 20
2.2050756389221711
 30
0.0
 11
2.5
 21
2.6000000000000001
 31
0.0
  0
LINE
  5
B7
  8
0
 10
2.2999999999999998
 20
1.803762300249895
 30
0.0
 11
2.2999999999999989
 21
2.194214253999224
 31
0.0
  0
LINE
  5
B8
  8
0
 10
2.52
 20
1.3945649942924201
 30
0.0
 11
2.52
 21
1.803762300249895
 31
0.0
  0
LINE
  5
B9
  8
0
 10
2.2799999999999989
 20
1.0
 30
0.0
 11
2.2799999999999989
 21
1.4050544094432389
 31
0.0
  0
LINE
  5
BA
  8
0
 10
2.2999999999999998
 20
1.3945649942924201
 30
0.0
 11
2.52
 21
1.3945649942924201
 31
0.0
  0
LINE
  5
BB
  8
0
 10
2.2799999999999989
 20
1.0
 30
0.0
 11
0.9999999999999996
 21
1.0
 31
0.0
  0
LINE
  5
BC
  8
0
 10
2.2999999999999989
 20
2.194214253999224
 30
0.0
 11
2.52
 21
2.194214253999224
 31
0.0
  0
LINE
  5
BD
  8
0
 10
2.2799999999999989
 20
2.2050756389221711
 30
0.0
 11
2.4999999999999991
 21
2.2050756389221711
 31
0.0
  0
LINE
  5
BE
  8
0
 10
2.2999999999999998
 20
1.803762300249895
 30
0.0
 11
2.52
 21
1.803762300249895
 31
0.0
  0
LINE
  5
BF
  8
0
 10
2.52
 20
2.194214253999224
 30
0.0
 11
2.52
 21
2.6000000000000001
 31
0.0
  0
LINE
  5
C0
  8
0
 10
2.2799999999999989
 20
1.795128096015544
 30
0.0
 11
2.5
 21
1.795128096015544
 31
0.0
  0
LINE
  5
C1
  8
0
 10
2.2937952599013829
 20
1.4050544094432389
 30
0.0
 11
2.2799999999999989
 21
1.4050544094432389
 31
0.0
  0
LINE
  5
C2
  8
0
 10
2.2799999999999989
 20
1.795128096015544
 30
0.0
 11
2.2799999999999989
 21
2.2050756389221711
 31
0.0
  0
LINE
  5
C3
  8
0
 10
2.52
 20
2.5999999999999992
 30
0.0
 11
3.7999999999999989
 21
2.6000000000000001
 31
0.0
  0
LINE
  5
C4
  8
0
 10
2.3399710460664251
 20
0.9836445304694628
 30
0.0
 11
2.3399710460664251
 21
2.616437776827643
 31
0.0
  0
LINE
  5
C5
  8
0
 10
2.4611065539152199
 20
2.6185890186679801
 30
0.0
 11
2.4611065539152199
 21
0.9836445304694628
 31
0.0
  0
LINE
  5
C6
  8
0
 10
2.2822151759685778
 20
0.9836445304694628
 30
0.0
 11
2.3399710460664251
 21
0.9836445304694628
 31
0.0
  0
ARC
  5
C7
  8
0
 10
2.3992043749405769
 20
1.077353381660147
 30
0.0
 40
0.149892699847551
 50
218.69487767530569
 51
321.3051223246942
  0
LINE
  5
C8
  8
0
 10
2.4611065539152199
 20
0.9836445304694628
 30
0.0
 11
2.516193573912576
 21
0.9836445304694628
 31
0.0
  0
LINE
  5
C9
  8
0
 10
2.2779697115546389
 20
2.6390886883401281
 30
0.0
 11
2.2779697115546389
 21
2.688113993549516
 31
0.0
  0
LINE
  5
CA
  8
0
 10
2.5188742554220189
 20
2.688113993549516
 30
0.0
 11
2.5188742554220189
 21
2.6381545556484012
 31
0.0
  0
LINE
  5
CB
  8
0
 10
2.4611065539152199
 20
2.6185890186679801
 30
0.0
 11
2.5188742554220189
 21
2.6381545556484012
 31
0.0
  0
LINE
  5
CC
  8
0
 10
2.3399710460664251
 20
2.616437776827643
 30
0.0
 11
2.2779697115546389
 21
2.6390886883401281
 31
0.0
  0
LINE
  5
CD
  8
0
 10
2.2779697115546389
 20
2.688113993549516
 30
0.0
 11
2.5188742554220189
 21
2.688113993549516
 31
0.0
  0
LINE
  5
CE
  8
0
 10
2.328723626800683
 20
1.0
 30
0.0
 11
2.328723626800683
 21
1.3945649942924201
 31
0.0
  0
LINE
  5
CF
  8
0
 10
2.4762189074575498
 20
2.6000000000000001
 30
0.0
 11
2.4762189074575498
 21
2.2050756389221711
 31
0.0
  0
LINE
  5
D0
  8
0
 10
2.4762189074575489
 20
1.3945649942924201
 30
0.0
 11
2.4762189074575489
 21
1.0
 31
0.0
  0
LINE
  5
D1
  8
0
 10
2.328723626800683
 20
1.405105141394412
 30
0.0
 11
2.328723626800683
 21
1.795128096015544
 31
0.0
  0
LINE
  5
D2
  8
0
 10
2.4762189074575498
 20
1.7951280960155449
 30
0.0
 11
2.4762189074575498
 21
1.405105141394412
 31
0.0
  0
LINE
  5
D3
  8
0
 10
2.328723626800683
 20
1.803762300249895
 30
0.0
 11
2.328723626800683
 21
2.194214253999224
 31
0.0
  0
LINE
  5
D4
  8
0
 10
2.328723626800683
 20
2.2050756389221711
 30
0.0
 11
2.328723626800683
 21
2.6000000000000001
 31
0.0
  0
LINE
  5
D5
  8
0
 10
2.4762189074575498
 20
2.194214253999224
 30
0.0
 11
2.4762189074575498
 21
1.803762300249895
 31
0.0
  0
CIRCLE
  5
D6
  8
0
 10
1.2999174990756299
 20
2.1997741918260281
 30
0.0
 40
0.1015022181842242
  0
CIRCLE
  5
D7
  8
0
 10
1.8997086032603909
 20
2.199599250210158
 30
0.0
 40
0.0974060092159137
  0
CIRCLE
  5
D8
  8
0
 10
1.29986644137367
 20
1.800052037519545
 30
0.0
 40
0.0978063311979438
  0
CIRCLE
  5
D9
  8
0
 10
1.8997056433936099
 20
1.799915971818312
 30
0.0
 40
0.1045550741124943
  0
CIRCLE
  5
DA
  8
0
 10
1.299721901212568
 20
1.399532926962985
 30
0.0
 40
0.0957220916735127
  0
CIRCLE
  5
DB
  8
0
 10
1.8995958816671761
 20
1.399591240834942
 30
0.0
 40
0.0980399140180191
  0
CIRCLE
  5
DC
  8
0
 10
2.9000182739602378
 20
2.199949133441899
 30
0.0
 40
0.096280519872721
  0
CIRCLE
  5
DD
  8
0
 10
3.4996547251057302
 20
2.199540936338201
 30
0.0
 40
0.0961562054679499
  0
CIRCLE
  5
DE
  8
0
 10
2.900026660249448
 20
1.7995660885865721
 30
0.0
 40
0.0984693413567208
  0
CIRCLE
  5
DF
  8
0
 10
3.499222831211378
 20
1.7995077747146151
 30
0.0
 40
0.0977148219833204
  0
CIRCLE
  5
E0
  8
0
 10
2.8995417354086159
 20
1.399746744493493
 30
0.0
 40
0.0997149519600789
  0
CIRCLE
  5
E1
  8
0
 10
3.4994366815862521
 20
1.3995523649203041
 30
0.0
 40
0.0960452104636902
  0
TEXT
  5
E2
  8
0
 10
1.704889748607094
 20
1.070292805894943
 30
0.0
 40
0.3
  1
dubro
 50
90.0
  7
ROMANT
  0
ENDBLK
  5
E4
  8
0
  0
BLOCK
  8
0
  2
BORDER
 70
     0
 10
0.0
 20
0.0
 30
0.0
  3
BORDER
  1

  0
LINE
  5
E6
  8
0
 10
0.0
 20
0.0
 30
0.0
 11
1.00000000000004
 21
0.0
 31
0.0
  0
LINE
  5
E7
  8
0
 10
1.00000000000004
 20
0.0
 30
0.0
 11
1.00000000000004
 21
1.00000000000004
 31
0.0
  0
LINE
  5
E8
  8
0
 10
1.00000000000004
 20
1.00000000000004
 30
0.0
 11
0.0
 21
1.00000000000004
 31
0.0
  0
LINE
  5
E9
  8
0
 10
0.0
 20
1.00000000000004
 30
0.0
 11
0.0
 21
0.0
 31
0.0
  0
ENDBLK
  5
EA
  8
0
  0
ENDSEC
  0
SECTION
  2
ENTITIES
  0
POINT
  5
EB
  8
0
 10
42.946463559787688
 20
34.0
 30
0.0
  0
POINT
  5
EC
  8
0
 10
40.396856497589049
 20
34.0
 30
0.0
  0
POINT
  5
ED
  8
0
 10
37.847249435390431
 20
34.0
 30
0.0
  0
POINT
  5
EE
  8
0
 10
35.297642373191792
 20
34.0
 30
0.0
  0
POINT
  5
EF
  8
0
 10
32.74803531099316
 20
34.0
 30
0.0
  0
POINT
  5
F0
  8
0
 10
30.198428248794531
 20
34.0
 30
0.0
  0
POINT
  5
F1
  8
0
 10
27.648821186595899
 20
34.0
 30
0.0
  0
POINT
  5
F2
  8
0
 10
25.099214124397271
 20
34.0
 30
0.0
  0
POINT
  5
F3
  8
0
 10
22.549607062198628
 20
34.0
 30
0.0
  0
POINT
  5
F4
  8
0
 10
42.946463559787688
 20
34.0
 30
0.0
  0
POINT
  5
F5
  8
0
 10
40.396856497589049
 20
34.0
 30
0.0
  0
POINT
  5
F6
  8
0
 10
37.847249435390431
 20
34.0
 30
0.0
  0
POINT
  5
F7
  8
0
 10
35.297642373191792
 20
34.0
 30
0.0
  0
POINT
  5
F8
  8
0
 10
32.74803531099316
 20
34.0
 30
0.0
  0
POINT
  5
F9
  8
0
 10
30.198428248794531
 20
34.0
 30
0.0
  0
POINT
  5
FA
  8
0
 10
27.648821186595899
 20
34.0
 30
0.0
  0
POINT
  5
FB
  8
0
 10
25.099214124397271
 20
34.0
 30
0.0
  0
POINT
  5
FC
  8
0
 10
22.549607062198628
 20
34.0
 30
0.0
  0
LINE
  5
FD
  8
0
 10
20.0
 20
29.0
 30
0.0
 11
38.0
 21
29.0
 31
0.0
  0
LINE
  5
FE
  8
0
 10
20.0
 20
34.0
 30
0.0
 11
45.496070621986313
 21
34.0
 31
0.0
  0
INSERT
  5
FF
  8
0
  2
J5012
 10
20.0
 20
34.0
 30
0.0
 41
0.255
 42
0.255
 43
0.255
  0
INSERT
  5
100
  8
0
  2
J5012
 10
20.0
 20
29.0
 30
0.0
 41
0.18
 42
0.18
 43
0.18
  0
INSERT
  5
101
  8
0
  2
J5012
 10
38.0
 20
21.0
 30
0.0
 41
0.26
 42
0.26
 43
0.26
  0
POINT
  5
102
  8
0
 10
19.76423731917173
 20
21.087286506390669
 30
0.0
  0
POINT
  5
103
  8
0
 10
24.715711408166481
 20
22.159107432585952
 30
0.0
  0
POINT
  5
104
  8
0
 10
30.60352194347756
 20
22.960817991321829
 30
0.0
  0
POINT
  5
105
  8
0
 10
35.689891961178901
 20
23.228054844233782
 30
0.0
  0
POINT
  5
106
  8
0
 10
41.442806567783371
 20
23.228054844233782
 30
0.0
  0
POINT
  5
107
  8
0
 10
47.735304889214198
 20
22.693581138409861
 30
0.0
  0
POINT
  5
108
  8
0
 10
12.670298480131169
 20
17.208041867346111
 30
0.0
  0
POINT
  5
109
  8
0
 10
15.88002807788498
 20
16.53851297779249
 30
0.0
  0
POINT
  5
10A
  8
0
 10
19.629341390465139
 20
16.136220941150832
 30
0.0
  0
POINT
  5
10B
  8
0
 10
24.715711408166481
 20
15.86898408823887
 30
0.0
  0
POINT
  5
10C
  8
0
 10
35.689891961178901
 20
15.73392890450917
 30
0.0
  0
POINT
  5
10D
  8
0
 10
40.641366050173637
 20
15.60174723532691
 30
0.0
  0
POINT
  5
10E
  8
0
 10
50.278489898064869
 20
15.46669205159721
 30
0.0
  0
POINT
  5
10F
  8
0
 10
60.982878593664111
 20
15.60174723532691
 30
0.0
  0
POLYLINE
  5
110
  8
0
 66
     1
 10
0.0
 20
0.0
 30
0.0
  0
VERTEX
  5
2E5
  8
0
 10
60.982878593664111
 20
15.60174723532691
 30
0.0
 42
-0.0035032987551453
  0
VERTEX
  5
2E6
  8
0
 10
53.997269501587553
 20
15.464653096933811
 30
0.0
 42
-0.0065823057652901
  0
VERTEX
  5
2E7
  8
0
 10
50.278489898064869
 20
15.46669205159721
 30
0.0
 42
-0.000075107593543
  0
VERTEX
  5
2E8
  8
0
 10
40.924581752167029
 20
15.59637286283564
 30
0.0
 42
-0.002480423530361
  0
VERTEX
  5
2E9
  8
0
 10
40.641366050173637
 20
15.60174723532691
 30
0.0
 42
-0.001244094956992
  0
VERTEX
  5
2EA
  8
0
 10
38.430360272827713
 20
15.660182241113709
 30
0.0
 42
0.0010037205582416
  0
VERTEX
  5
2EB
  8
0
 10
35.689891961178901
 20
15.73392890450917
 30
0.0
 42
0.006535875452865
  0
VERTEX
  5
2EC
  8
0
 10
30.000758282203961
 20
15.80120458414177
 30
0.0
 42
-0.0070355598003079
  0
VERTEX
  5
2ED
  8
0
 10
24.715711408166481
 20
15.86898408823887
 30
0.0
 42
-0.006399232479716
  0
VERTEX
  5
2EE
  8
0
 10
22.527174296535399
 20
15.95589987617695
 30
0.0
 42
-0.0048272948402288
  0
VERTEX
  5
2EF
  8
0
 10
19.629341390465139
 20
16.136220941150832
 30
0.0
 42
-0.0087722297453121
  0
VERTEX
  5
2F0
  8
0
 10
18.521275437293021
 20
16.235484883999
 30
0.0
 42
-0.0036705828406034
  0
SEQEND
  5
2F1
  8
0
  0
ARC
  5
11E
  8
0
 10
48.699552380140432
 20
-69.981063163464043
 30
0.0
 40
95.644214121404474
 50
108.68441775425769
 51
112.6693245088059
  0
ARC
  5
11F
  8
0
 10
24.003748410321229
 20
69.876151606582098
 30
0.0
 40
53.920113467454961
 50
256.88147205158742
 51
264.16421205785139
  0
ARC
  5
120
  8
0
 10
11.93860140582197
 20
17.807907810546819
 30
0.0
 40
0.4771255494056751
 50
102.2805104091624
 51
248.7537744457363
  0
POINT
  5
121
  8
0
 10
63.434810474272091
 20
15.62186183715899
 30
0.0
  0
POINT
  5
122
  8
0
 10
78.305102850515951
 20
16.001165757421131
 30
0.0
  0
POINT
  5
123
  8
0
 10
95.464658487456902
 20
16.383343192230711
 30
0.0
  0
POINT
  5
124
  8
0
 10
110.4658792650924
 20
16.636212472405461
 30
0.0
  0
POINT
  5
125
  8
0
 10
111.4815662577067
 20
16.89195526712766
 30
0.0
  0
POLYLINE
  5
126
  8
0
 66
     1
 10
0.0
 20
0.0
 30
0.0
 70
     2
  0
VERTEX
  5
127
  8
0
 10
60.982878593664111
 20
15.60174723532691
 30
0.0
 42
0.0006119742569295
  0
VERTEX
  5
128
  8
0
 10
63.125670877564332
 20
15.616702969372801
 30
0.0
 42
0.0042414695755553
 70
     1
  0
VERTEX
  5
129
  8
0
 10
63.434810474272091
 20
15.62186183715899
 30
0.0
 42
0.0003054975481392
  0
VERTEX
  5
12A
  8
0
 10
74.255203814010983
 20
15.90087512894821
 30
0.0
 42
-0.000816240317083
 70
     1
  0
VERTEX
  5
12B
  8
0
 10
78.305102850515951
 20
16.001165757421131
 30
0.0
 42
-0.0002144718793376
  0
VERTEX
  5
12C
  8
0
 10
78.695102350362575
 20
16.010019194440979
 30
0.0
 42
-0.0000049878927332
 70
     1
  0
VERTEX
  5
12D
  8
0
 10
95.464658487456902
 20
16.383343192230711
 30
0.0
 42
-0.0013483438415697
  0
VERTEX
  5
12E
  8
0
 10
100.24783977958489
 20
16.476874292157721
 30
0.0
 42
-0.0006312182133838
 70
     1
  0
VERTEX
  5
12F
  8
0
 10
110.4658792650924
 20
16.636212472405461
 30
0.0
  0
SEQEND
  5
130
  8
0
  0
LINE
  5
131
  8
0
 10
63.999999999999972
 20
15.936203773557279
 30
0.0
 11
64.0
 21
21.0
 31
0.0
  0
LINE
  5
132
  8
0
 10
67.0
 20
21.0
 30
0.0
 11
64.0
 21
21.0
 31
0.0
  0
POINT
  5
133
  8
0
 10
72.274461331868494
 20
20.799935051646631
 30
0.0
  0
POINT
  5
134
  8
0
 10
80.812580113532519
 20
20.604536062420681
 30
0.0
  0
POINT
  5
135
  8
0
 10
91.485228590612564
 20
20.41201058774217
 30
0.0
  0
POINT
  5
136
  8
0
 10
100.2177562107066
 20
20.21661159851622
 30
0.0
  0
POINT
  5
137
  8
0
 10
110.69202832204169
 20
20.021212609290281
 30
0.0
  0
POLYLINE
  5
138
  8
0
 66
     1
 10
0.0
 20
0.0
 30
0.0
 70
     2
  0
VERTEX
  5
139
  8
0
 10
67.0
 20
21.0
 30
0.0
 42
0.0014353502877295
  0
VERTEX
  5
13A
  8
0
 10
70.807990564163333
 20
20.844611031880941
 30
0.0
 42
0.0037285960151916
 70
     1
  0
VERTEX
  5
13B
  8
0
 10
72.274461331868494
 20
20.799935051646631
 30
0.0
 42
0.0000292241677095
  0
VERTEX
  5
13C
  8
0
 10
80.541177109394994
 20
20.610263822313541
 30
0.0
 42
0.000890181243063
 70
     1
  0
VERTEX
  5
13D
  8
0
 10
80.812580113532519
 20
20.604536062420681
 30
0.0
 42
0.000783049512229
  0
VERTEX
  5
13E
  8
0
 10
87.111602415842611
 20
20.4926872590801
 30
0.0
 42
-0.0011277571149845
 70
     1
  0
VERTEX
  5
13F
  8
0
 10
91.485228590612564
 20
20.41201058774217
 30
0.0
 42
-0.0004555870624122
  0
VERTEX
  5
140
  8
0
 10
92.202508101241605
 20
20.396507211628979
 30
0.0
 42
0.0000407694460785
 70
     1
  0
VERTEX
  5
141
  8
0
 10
100.2177562107066
 20
20.21661159851622
 30
0.0
 42
0.0009264733075765
  0
VERTEX
  5
142
  8
0
 10
103.922485563904
 20
20.140632064057719
 30
0.0
 42
0.000507053227919
 70
     1
  0
VERTEX
  5
143
  8
0
 10
110.69202832204169
 20
20.021212609290281
 30
0.0
  0
SEQEND
  5
144
  8
0
  0
LINE
  5
145
  8
0
 10
110.69202832204169
 20
20.021212609290281
 30
0.0
 11
110.4658792650924
 21
16.636212472405461
 31
0.0
  0
POLYLINE
  5
146
  8
0
 66
     1
 10
0.0
 20
0.0
 30
0.0
  0
VERTEX
  5
2F2
  8
0
 10
18.059414393316619
 20
20.62245574750024
 30
0.0
 42
-0.0096502227445944
  0
VERTEX
  5
2F3
  8
0
 10
19.76423731917173
 20
21.087286506390669
 30
0.0
 42
-0.0084277348875416
  0
VERTEX
  5
2F4
  8
0
 10
22.01425495517859
 20
21.61418700791689
 30
0.0
 42
-0.007066791711421
  0
VERTEX
  5
2F5
  8
0
 10
24.715711408166481
 20
22.159107432585952
 30
0.0
 42
-0.0123949245504877
  0
VERTEX
  5
2F6
  8
0
 10
27.733514980767229
 20
22.646492845949101
 30
0.0
 42
-0.0131238773626441
  0
VERTEX
  5
2F7
  8
0
 10
30.60352194347756
 20
22.960817991321829
 30
0.0
 42
-0.0075871810022256
  0
VERTEX
  5
2F8
  8
0
 10
32.641631234818121
 20
23.098938754469671
 30
0.0
 42
-0.0050798134518311
  0
VERTEX
  5
2F9
  8
0
 10
35.689891961178901
 20
23.228054844233782
 30
0.0
 42
-0.0080432871090037
  0
VERTEX
  5
2FA
  8
0
 10
36.5260315205173
 20
23.24150633554876
 30
0.0
 42
-0.0009385261783114
  0
VERTEX
  5
2FB
  8
0
 10
39.899438442287412
 20
23.235174268558811
 30
0.0
 42
-0.0277007265284768
  0
SEQEND
  5
2FC
  8
0
  0
POINT
  5
152
  8
0
 10
43.545596044680167
 20
23.1016202041464
 30
0.0
  0
POINT
  5
153
  8
0
 10
46.287157419275829
 20
23.02978234046039
 30
0.0
  0
POINT
  5
154
  8
0
 10
50.544314228163152
 20
22.561399469227609
 30
0.0
  0
POLYLINE
  5
155
  8
0
 66
     1
 10
0.0
 20
0.0
 30
0.0
 70
     4
 75
     6
  0
VERTEX
  5
156
  8
0
 10
39.899438442287412
 20
23.235174268558811
 30
0.0
 70
    16
  0
VERTEX
  5
157
  8
0
 10
39.899438442287412
 20
23.235174268558811
 30
0.0
 70
     8
  0
VERTEX
  5
158
  8
0
 10
40.456413022692793
 20
23.230011120359919
 30
0.0
 70
     8
  0
VERTEX
  5
159
  8
0
 10
40.974901813235959
 20
23.22040614314621
 30
0.0
 70
     8
  0
VERTEX
  5
15A
  8
0
 10
41.462541529090437
 20
23.207176685626521
 30
0.0
 70
     8
  0
VERTEX
  5
15B
  8
0
 10
41.926968885429709
 20
23.191140096509649
 30
0.0
 70
     8
  0
VERTEX
  5
15C
  8
0
 10
42.3758205974273
 20
23.173113724504422
 30
0.0
 70
     8
  0
VERTEX
  5
15D
  8
0
 10
42.816733380256679
 20
23.15391491831965
 30
0.0
 70
     8
  0
VERTEX
  5
15E
  8
0
 10
43.257343949091378
 20
23.134361026664148
 30
0.0
 70
     8
  0
VERTEX
  5
15F
  8
0
 10
43.705289019104889
 20
23.115269398246749
 30
0.0
 70
     8
  0
VERTEX
  5
160
  8
0
 10
44.172258072630278
 20
23.0964498422776
 30
0.0
 70
     8
  0
VERTEX
  5
161
  8
0
 10
44.686151660638807
 20
23.07368200997227
 30
0.0
 70
     8
  0
VERTEX
  5
162
  8
0
 10
45.278923101261341
 20
23.04173801304767
 30
0.0
 70
     8
  0
VERTEX
  5
163
  8
0
 10
45.9825257126287
 20
22.99538996322072
 30
0.0
 70
     8
  0
VERTEX
  5
164
  8
0
 10
46.828912812871707
 20
22.929409972208319
 30
0.0
 70
     8
  0
VERTEX
  5
165
  8
0
 10
47.85003772012125
 20
22.838570151727399
 30
0.0
 70
     8
  0
VERTEX
  5
166
  8
0
 10
49.077853752508112
 20
22.717642613494849
 30
0.0
 70
     8
  0
VERTEX
  5
167
  8
0
 10
50.544314228163159
 20
22.561399469227609
 30
0.0
 70
     8
  0
VERTEX
  5
168
  8
0
 10
41.442806567783371
 20
23.228054844233782
 30
0.0
 70
    16
  0
VERTEX
  5
169
  8
0
 10
43.545596044680167
 20
23.1016202041464
 30
0.0
 70
    16
  0
VERTEX
  5
16A
  8
0
 10
46.287157419275829
 20
23.02978234046039
 30
0.0
 70
    16
  0
VERTEX
  5
16B
  8
0
 10
50.544314228163152
 20
22.561399469227609
 30
0.0
 70
    16
  0
SEQEND
  5
16C
  8
0
  0
LINE
  5
16D
  8
0
 10
110.6238019530028
 20
19.0
 30
0.0
 11
91.0
 21
19.0
 31
0.0
  0
LINE
  5
16E
  8
0
 10
110.6238019530028
 20
19.0
 30
0.0
 11
112.60871754905089
 21
39.0
 31
0.0
  0
POLYLINE
  5
16F
  8
0
 66
     1
 10
0.0
 20
0.0
 30
0.0
  0
VERTEX
  5
2FD
  8
0
 10
66.986907929237503
 20
20.70028580667055
 30
0.0
 42
0.0014353502877292
  0
VERTEX
  5
2FE
  8
0
 10
70.796619477959638
 20
20.544826612008041
 30
0.0
 42
0.0037285960151936
  0
VERTEX
  5
2FF
  8
0
 10
72.26756242381613
 20
20.500014387015462
 30
0.0
 42
0.0000292241677098
  0
VERTEX
  5
300
  8
0
 10
80.534313261117944
 20
20.310342353278649
 30
0.0
 42
0.00089018124306
  0
VERTEX
  5
301
  8
0
 10
80.806784244092796
 20
20.30459205448329
 30
0.0
 42
0.0007830495122289
  0
VERTEX
  5
302
  8
0
 10
87.106746057141095
 20
20.192726568688439
 30
0.0
 42
-0.0011277571149846
  0
VERTEX
  5
303
  8
0
 10
91.479019155275225
 20
20.112074856438589
 30
0.0
 42
-0.0004555870624125
  0
VERTEX
  5
304
  8
0
 10
92.195752089200568
 20
20.09658329410578
 30
0.0
 42
0.0000407694460788
  0
VERTEX
  5
305
  8
0
 10
100.2110491096827
 20
19.91668658322288
 30
0.0
 42
0.0009264733075767
  0
VERTEX
  5
306
  8
0
 10
103.9168899961588
 20
19.840684252560429
 30
0.0
 42
0.0005070532279191
  0
VERTEX
  5
307
  8
0
 10
110.6870411233616
 20
19.72125406573884
 30
0.0
 42
0.0005070532279191
  0
SEQEND
  5
308
  8
0
  0
LINE
  5
17C
  8
0
 10
67.0
 20
20.699999999999999
 30
0.0
 11
64.0
 21
20.699999999999999
 31
0.0
  0
LINE
  5
17D
  8
0
 10
64.300000000000011
 20
15.9437806206115
 30
0.0
 11
64.299999999999983
 21
20.699999999999999
 31
0.0
  0
LINE
  5
17E
  8
0
 10
38.0
 20
23.240297455550259
 30
0.0
 11
38.0
 21
15.972612104635459
 31
0.0
  0
LINE
  5
17F
  8
0
 10
11.0
 20
49.0
 30
0.0
 11
111.0
 21
49.0
 31
0.0
  0
LINE
  5
180
  8
0
 10
19.0
 20
46.5
 30
0.0
 11
19.0
 21
51.5
 31
0.0
  0
LINE
  5
181
  8
0
 10
38.000000000000007
 20
46.359999999999999
 30
0.0
 11
38.0
 21
51.640000000000001
 31
0.0
  0
LINE
  5
182
  8
0
 10
64.0
 20
46.359999999999999
 30
0.0
 11
64.0
 21
51.640000000000008
 31
0.0
  0
LINE
  5
183
  8
0
 10
38.0
 20
52.0
 30
0.0
 11
64.0
 21
52.0
 31
0.0
  0
LINE
  5
184
  8
0
 10
38.0
 20
46.0
 30
0.0
 11
64.0
 21
46.0
 31
0.0
  0
LINE
  5
185
  8
0
 10
19.0
 20
19.0
 30
0.0
 11
38.0
 21
21.0
 31
0.0
  0
ARC
  5
186
  8
0
 10
39.651785714285722
 20
-372.01785714285722
 30
0.0
 40
424.02107444331858
 50
90.223197843592516
 51
92.791673673957405
  0
ARC
  5
187
  8
0
 10
39.651785714285722
 20
470.01785714285722
 30
0.0
 40
424.02107444331858
 50
267.2083263260426
 51
269.77680215640743
  0
ARC
  5
188
  8
0
 10
20.533335993281231
 20
70.527340711128858
 30
0.0
 40
24.076216914560369
 50
247.54492216650371
 51
266.34854682193821
  0
ARC
  5
189
  8
0
 10
21.99645600188969
 20
20.084212436443249
 30
0.0
 40
31.558365876733681
 50
95.448422248389022
 51
109.8784528783282
  0
ARC
  5
18A
  8
0
 10
12.07532521642146
 20
49.056602160960118
 30
0.0
 40
1.073880307894395
 50
138.92390942774171
 51
226.58045166035589
  0
LINE
  5
18B
  8
0
 10
111.0
 20
50.0
 30
0.0
 11
111.0
 21
48.0
 31
0.0
  0
ARC
  5
18C
  8
0
 10
640.5
 20
13046.5
 30
0.0
 40
13007.28190284196
 50
267.45974286157951
 51
267.66696064480021
  0
ARC
  5
18D
  8
0
 10
640.5
 20
-12948.5
 30
0.0
 40
13007.28190284196
 50
92.333039355199787
 51
92.540257138420486
  0
LINE
  5
18E
  8
0
 10
91.0
 20
50.529981985118859
 30
0.0
 11
91.0
 21
47.470018014881127
 31
0.0
  0
LINE
  5
18F
  8
0
 10
91.0
 20
20.121873350568649
 30
0.0
 11
91.0
 21
16.584057923988439
 31
0.0
  0
LINE
  5
190
  8
0
 10
111.0
 20
73.0
 30
0.0
 11
111.0
 21
25.0
 31
0.0
  0
LINE
  5
191
  8
0
 10
111.0
 20
73.0
 30
0.0
 11
106.0
 21
73.0
 31
0.0
  0
LINE
  5
192
  8
0
 10
106.0
 20
73.0
 30
0.0
 11
95.0
 21
49.0
 31
0.0
  0
LINE
  5
193
  8
0
 10
111.0
 20
25.0
 30
0.0
 11
106.0
 21
25.0
 31
0.0
  0
LINE
  5
194
  8
0
 10
106.0
 20
25.0
 30
0.0
 11
95.0
 21
49.0
 31
0.0
  0
LINE
  5
195
  8
0
 10
107.1904761904762
 20
39.0
 30
0.0
 11
112.60871754905089
 21
39.0
 31
0.0
  0
LINE
  5
196
  8
0
 10
91.0
 20
19.0
 30
0.0
 11
107.1904761904762
 21
39.0
 31
0.0
  0
POLYLINE
  5
197
  8
0
 66
     1
 10
0.0
 20
0.0
 30
0.0
  0
VERTEX
  5
309
  8
0
 10
60.98115195556197
 20
15.901742266487171
 30
0.0
 42
0.0006119742569295
  0
VERTEX
  5
30A
  8
0
 10
63.123209888515419
 20
15.91669287509106
 30
0.0
 42
0.0042414695755538
  0
VERTEX
  5
30B
  8
0
 10
63.427260521842889
 20
15.92176681913981
 30
0.0
 42
0.0003054975481391
  0
VERTEX
  5
30C
  8
0
 10
74.247287386373173
 20
16.200770661047041
 30
0.0
 42
-0.0008162403170834
  0
VERTEX
  5
30D
  8
0
 10
78.298165610413832
 20
16.301085537862061
 30
0.0
 42
-0.0002144718793376
  0
VERTEX
  5
30E
  8
0
 10
78.68842241021494
 20
16.309944815818341
 30
0.0
 42
-0.0000049878927388
  0
VERTEX
  5
30F
  8
0
 10
95.457984531296887
 20
16.683268946877149
 30
0.0
 42
-0.0013483438415697
  0
VERTEX
  5
310
  8
0
 10
100.2427835238462
 20
16.77683167959481
 30
0.0
 42
-0.0006312182133837
  0
VERTEX
  5
311
  8
0
 10
110.46158037882959
 20
16.936181670119229
 30
0.0
 42
-0.0006312182133837
  0
SEQEND
  5
312
  8
0
  0
LINE
  5
1A2
  8
0
 10
90.700000000000003
 20
20.12788933421314
 30
0.0
 11
90.700000000000728
 21
16.577380670350969
 31
0.0
  0
LINE
  5
1A3
  8
0
 10
110.6238019530028
 20
18.399999999999999
 30
0.0
 11
91.0
 21
18.399999999999999
 31
0.0
  0
POLYLINE
  5
1A4
  8
0
 66
     1
 10
0.0
 20
0.0
 30
0.0
  0
VERTEX
  5
313
  8
0
 10
60.975396495221602
 20
16.901725703688179
 30
0.0
 42
0.000611974256968
  0
VERTEX
  5
314
  8
0
 10
63.115006591820027
 20
16.91665922748675
 30
0.0
 42
0.0042414695755568
  0
VERTEX
  5
315
  8
0
 10
63.402094013880308
 20
16.92145009241986
 30
0.0
 42
0.0003054975481389
  0
VERTEX
  5
316
  8
0
 10
74.220899294381496
 20
17.20042243471584
 30
0.0
 42
-0.00081624029169
  0
VERTEX
  5
317
  8
0
 10
78.275041350739571
 20
17.300818136417689
 30
0.0
 42
-0.0002144719039409
  0
VERTEX
  5
318
  8
0
 10
78.666155861915144
 20
17.309696885542511
 30
0.0
 42
-0.0000049878927597
  0
VERTEX
  5
319
  8
0
 10
95.435738010754363
 20
17.683021462496519
 30
0.0
 42
-0.0013483438425886
  0
VERTEX
  5
31A
  8
0
 10
100.2259293416641
 20
17.776689637778251
 30
0.0
 42
-0.0006312182131606
  0
VERTEX
  5
31B
  8
0
 10
110.447250757955
 20
17.936078995831021
 30
0.0
 42
-0.0006312182131606
  0
SEQEND
  5
31C
  8
0
  0
POLYLINE
  5
1AF
  8
0
 66
     1
 10
0.0
 20
0.0
 30
0.0
  0
VERTEX
  5
31D
  8
0
 10
66.943267693362927
 20
19.701238495572269
 30
0.0
 42
0.0014353502879824
  0
VERTEX
  5
31E
  8
0
 10
70.75871585795656
 20
19.54554521240599
 30
0.0
 42
0.0037285960151402
  0
VERTEX
  5
31F
  8
0
 10
72.24456606429473
 20
19.500278838255941
 30
0.0
 42
0.0000292241677047
  0
VERTEX
  5
320
  8
0
 10
80.511433766398994
 20
19.31060412317019
 30
0.0
 42
0.0008901812427997
  0
VERTEX
  5
321
  8
0
 10
80.787464678753992
 20
19.304778694702961
 30
0.0
 42
0.0007830495123033
  0
VERTEX
  5
322
  8
0
 10
87.090558194864172
 20
19.19285760071563
 30
0.0
 42
-0.0011277571144214
  0
VERTEX
  5
323
  8
0
 10
91.458321035361763
 20
19.11228908546974
 30
0.0
 42
-0.0004555870630788
  0
VERTEX
  5
324
  8
0
 10
92.173232047986076
 20
19.096836902393019
 30
0.0
 42
0.0000407694460765
  0
VERTEX
  5
325
  8
0
 10
100.18869210478439
 20
18.916936532298621
 30
0.0
 42
0.0009264733075744
  0
VERTEX
  5
326
  8
0
 10
103.8982381021777
 20
18.84085821426623
 30
0.0
 42
0.0005070532280311
  0
VERTEX
  5
327
  8
0
 10
110.6704171277561
 20
18.72139225390158
 30
0.0
 42
0.0005070532280311
  0
SEQEND
  5
328
  8
0
  0
LINE
  5
1BC
  8
0
 10
67.0
 20
19.699999999999999
 30
0.0
 11
64.0
 21
19.699999999999999
 31
0.0
  0
LINE
  5
1BD
  8
0
 10
37.700000000000003
 20
23.240297455550259
 30
0.0
 11
37.700000000000003
 21
15.972612104635459
 31
0.0
  0
POLYLINE
  5
1BE
  8
0
 66
     1
 10
0.0
 20
0.0
 30
0.0
  0
VERTEX
  5
329
  8
0
 10
60.948264629752359
 20
16.90128633573995
 30
0.0
 42
-0.0035032987551918
  0
VERTEX
  5
32A
  8
0
 10
53.980868960424971
 20
16.764549639836218
 30
0.0
 42
-0.0065823057652105
  0
VERTEX
  5
32B
  8
0
 10
50.29631585885852
 20
16.766569828587048
 30
0.0
 42
-0.0000751075935401
  0
VERTEX
  5
32C
  8
0
 10
40.942798235246009
 20
16.896245225697399
 30
0.0
 42
-0.0024804235302287
  0
VERTEX
  5
32D
  8
0
 10
40.672478334601223
 20
16.90137488421632
 30
0.0
 42
-0.0012440949571454
  0
VERTEX
  5
32E
  8
0
 10
38.467939582532289
 20
16.959638972014091
 30
0.0
 42
0.0010037205582612
  0
VERTEX
  5
32F
  8
0
 10
35.722253817981532
 20
17.033526038325601
 30
0.0
 42
0.0065358754528332
  0
VERTEX
  5
330
  8
0
 10
29.99913741439175
 20
17.101203573675051
 30
0.0
 42
-0.0070355598003049
  0
VERTEX
  5
331
  8
0
 10
24.750670632361491
 20
17.168513946550629
 30
0.0
 42
-0.0063992324797066
  0
VERTEX
  5
332
  8
0
 10
22.595381957472998
 20
17.254109302652349
 30
0.0
 42
-0.0048272948402341
  0
VERTEX
  5
333
  8
0
 10
19.722601942884541
 20
17.432871421952211
 30
0.0
 42
-0.0059620410206031
  0
VERTEX
  5
334
  8
0
 10
19.0
 20
17.493512671537509
 30
0.0
 42
-0.0087722297453162
  0
SEQEND
  5
335
  8
0
  0
POLYLINE
  5
1CC
  8
0
 66
     1
 10
0.0
 20
0.0
 30
0.0
  0
VERTEX
  5
336
  8
0
 10
60.974890755838423
 20
15.901640873883769
 30
0.0
 42
-0.0035032987551455
  0
VERTEX
  5
337
  8
0
 10
53.993484761340227
 20
15.76462922221933
 30
0.0
 42
-0.0065823057652895
  0
VERTEX
  5
338
  8
0
 10
50.282603581336012
 20
15.76666384628628
 30
0.0
 42
-0.0000751075935428
  0
VERTEX
  5
339
  8
0
 10
40.92878555588922
 20
15.89634340811071
 30
0.0
 42
-0.0024804235303586
  0
VERTEX
  5
33A
  8
0
 10
40.648545808050173
 20
15.901661308149199
 30
0.0
 42
-0.0012440949569919
  0
VERTEX
  5
33B
  8
0
 10
38.439032421215607
 20
15.96005687132171
 30
0.0
 42
0.0010037205582416
  0
VERTEX
  5
33C
  8
0
 10
35.697360081986318
 20
16.033835935389629
 30
0.0
 42
0.006535875452865
  0
VERTEX
  5
33D
  8
0
 10
30.000384235786179
 20
16.101204350957151
 30
0.0
 42
-0.007035559800308
  0
VERTEX
  5
33E
  8
0
 10
24.72377892144215
 20
16.16887559400314
 30
0.0
 42
-0.0063992324797155
  0
VERTEX
  5
33F
  8
0
 10
22.542914525981882
 20
16.255486666902112
 30
0.0
 42
-0.0048272948402278
  0
VERTEX
  5
340
  8
0
 10
19.650863056408731
 20
16.43544797518188
 30
0.0
 42
-0.0051984520697923
  0
VERTEX
  5
341
  8
0
 10
19.0
 20
16.48906802303312
 30
0.0
 42
-0.0087722297453181
  0
SEQEND
  5
342
  8
0
  0
LINE
  5
1DA
  8
0
 10
20.276734426015889
 20
19.436050568652352
 30
0.0
 11
36.210939251985771
 21
21.113335287175492
 31
0.0
  0
LINE
  5
1DB
  8
0
 10
37.700000000000003
 20
23.240297455550259
 30
0.0
 11
35.982951238857808
 21
20.787679077774509
 31
0.0
  0
LINE
  5
1DC
  8
0
 10
37.700000000000003
 20
22.717203503033321
 30
0.0
 11
36.378297491838957
 21
20.829294472825151
 31
0.0
  0
LINE
  5
1DD
  8
0
 10
37.334379968998341
 20
23.24114275234399
 30
0.0
 11
35.815592999004629
 21
21.07171989212484
 31
0.0
  0
POLYLINE
  5
1DE
  8
0
 66
     1
 10
0.0
 20
0.0
 30
0.0
  0
VERTEX
  5
343
  8
0
 10
19.0
 20
20.576796901843139
 30
0.0
 42
-0.0047594752643317
  0
VERTEX
  5
344
  8
0
 10
19.83755303955942
 20
20.796383077149869
 30
0.0
 42
-0.008427734887543
  0
VERTEX
  5
345
  8
0
 10
22.077724483917699
 20
21.320977835274562
 30
0.0
 42
-0.00706679171142
  0
VERTEX
  5
346
  8
0
 10
24.770868631341131
 20
21.864221555115279
 30
0.0
 42
-0.0123949245504823
  0
VERTEX
  5
347
  8
0
 10
27.773990816521881
 20
22.349235875097399
 30
0.0
 42
-0.0131238773626503
  0
VERTEX
  5
348
  8
0
 10
30.628345431842401
 20
22.6618467645701
 30
0.0
 42
-0.007587181002226
  0
VERTEX
  5
349
  8
0
 10
32.65737146426455
 20
22.799351963744559
 30
0.0
 42
-0.0050798134518309
  0
VERTEX
  5
34A
  8
0
 10
35.699542032629417
 20
22.928210090867989
 30
0.0
 42
-0.0080432871090112
  0
VERTEX
  5
34B
  8
0
 10
36.52603152051806
 20
22.94150633554878
 30
0.0
 42
-0.0002684049419734
  0
VERTEX
  5
34C
  8
0
 10
37.490457469339567
 20
22.940988622129911
 30
0.0
 42
-0.0009385261783112
  0
SEQEND
  5
34D
  8
0
  0
LINE
  5
1EA
  8
0
 10
19.052342392259021
 20
18.502747273539288
 30
0.0
 11
38.052342392259021
 21
20.502747273539288
 31
0.0
  0
LINE
  5
1EB
  8
0
 10
19.0
 20
20.88765048730745
 30
0.0
 11
19.0
 21
16.187789649694668
 31
0.0
  0
LINE
  5
1EC
  8
0
 10
19.300000000000001
 20
20.657409842187452
 30
0.0
 11
19.300000000000001
 21
16.46266019083286
 31
0.0
  0
LINE
  5
1ED
  8
0
 10
19.300000000000001
 20
20.657409842187452
 30
0.0
 11
20.105308310368802
 21
19.116348243196722
 31
0.0
  0
LINE
  5
1EE
  8
0
 10
19.59780679335265
 20
20.735266396577739
 30
0.0
 11
20.42615172962218
 21
19.150121234697071
 31
0.0
  0
LINE
  5
1EF
  8
0
 10
19.89659943692714
 20
20.811236399072708
 30
0.0
 11
20.59757784526926
 21
19.469823560152701
 31
0.0
  0
ARC
  5
1F0
  8
0
 10
39.651785714285722
 20
-372.01785714285722
 30
0.0
 40
423.72107444331863
 50
90.223197843592516
 51
92.791673673957405
  0
ARC
  5
1F1
  8
0
 10
39.651785714285722
 20
470.01785714285722
 30
0.0
 40
423.72107444331863
 50
267.2083263260426
 51
269.77680215640743
  0
LINE
  5
1F2
  8
0
 10
38.0
 20
51.700000000000003
 30
0.0
 11
64.0
 21
51.700000000000003
 31
0.0
  0
LINE
  5
1F3
  8
0
 10
38.0
 20
46.29999999999999
 30
0.0
 11
64.0
 21
46.29999999999999
 31
0.0
  0
LINE
  5
1F4
  8
0
 10
19.29999999999999
 20
46.845893496035501
 30
0.0
 11
19.300000000000001
 21
51.154106503964499
 31
0.0
  0
ARC
  5
1F5
  8
0
 10
640.5
 20
13046.5
 30
0.0
 40
13007.581902841959
 50
267.45974286157951
 51
267.66696064480021
  0
ARC
  5
1F6
  8
0
 10
640.5
 20
-12948.5
 30
0.0
 40
13007.581902841959
 50
92.333039355199787
 51
92.540257138420486
  0
LINE
  5
1F7
  8
0
 10
64.300000000000054
 20
46.373659738674171
 30
0.0
 11
64.300000000000054
 21
51.626340261325822
 31
0.0
  0
LINE
  5
1F8
  8
0
 10
37.700000000000003
 20
46.361278613746322
 30
0.0
 11
37.700000000000003
 21
51.638721386253678
 31
0.0
  0
LINE
  5
1F9
  8
0
 10
90.700000000000045
 20
50.542670155395172
 30
0.0
 11
90.700000000000045
 21
47.457329844604828
 31
0.0
  0
LINE
  5
1FA
  8
0
 10
64.299999999999983
 20
20.699999999999999
 30
0.0
 11
70.37304257641344
 21
16.099349298927329
 31
0.0
  0
LINE
  5
1FB
  8
0
 10
70.331380089116806
 20
46.579634385108868
 30
0.0
 11
70.331380089116806
 21
46.639692109467433
 31
0.0
  0
LINE
  5
1FC
  8
0
 10
38.0
 20
46.359999999999999
 30
0.0
 11
64.0
 21
46.359999999999999
 31
0.0
  0
ARC
  5
1FD
  8
0
 10
39.651785714285722
 20
470.01785714285722
 30
0.0
 40
423.66107444331851
 50
267.2083263260426
 51
269.77680215640743
  0
ARC
  5
1FE
  8
0
 10
39.651785714285722
 20
-372.01785714285722
 30
0.0
 40
423.66107444331851
 50
90.223197843592516
 51
92.791673673957405
  0
LINE
  5
1FF
  8
0
 10
38.0
 20
51.640000000000001
 30
0.0
 11
64.0
 21
51.640000000000001
 31
0.0
  0
ARC
  5
200
  8
0
 10
640.5
 20
13046.5
 30
0.0
 40
13007.64190284196
 50
267.45974286157951
 51
267.48772866786112
  0
ARC
  5
201
  8
0
 10
640.5
 20
-12948.5
 30
0.0
 40
13007.64190284196
 50
92.512271332138937
 51
92.540257138420486
  0
LINE
  5
202
  8
0
 10
70.331380089116905
 20
51.360307890532567
 30
0.0
 11
70.331380089116905
 21
51.420365614891132
 31
0.0
  0
ARC
  5
203
  8
0
 10
640.5
 20
-12948.5
 30
0.0
 40
13008.581902841959
 50
92.333039355199787
 51
92.540257138420486
  0
ARC
  5
204
  8
0
 10
640.5
 20
13046.5
 30
0.0
 40
13008.581902841959
 50
267.45974286157951
 51
267.66696064480021
  0
LINE
  5
205
  8
0
 10
38.0
 20
50.700000000000003
 30
0.0
 11
64.0
 21
50.700000000000003
 31
0.0
  0
LINE
  5
206
  8
0
 10
38.0
 20
47.29999999999999
 30
0.0
 11
64.0
 21
47.29999999999999
 31
0.0
  0
ARC
  5
207
  8
0
 10
39.651785714285722
 20
470.01785714285722
 30
0.0
 40
422.66107444331863
 50
267.2083263260426
 51
269.77680215640743
  0
ARC
  5
208
  8
0
 10
39.651785714285722
 20
-372.01785714285722
 30
0.0
 40
422.66107444331863
 50
90.223197843592516
 51
92.791673673957405
  0
LINE
  5
209
  8
0
 10
111.09999999999999
 20
73.0
 30
0.0
 11
111.09999999999999
 21
25.0
 31
0.0
  0
LINE
  5
20A
  8
0
 10
115.09999999999999
 20
73.0
 30
0.0
 11
115.09999999999999
 21
25.0
 31
0.0
  0
LINE
  5
20B
  8
0
 10
115.09999999999999
 20
73.0
 30
0.0
 11
111.09999999999989
 21
73.0
 31
0.0
  0
LINE
  5
20C
  8
0
 10
115.09999999999999
 20
25.0
 30
0.0
 11
111.09999999999989
 21
25.0
 31
0.0
  0
LINE
  5
20D
  8
0
 10
109.8434963071482
 20
18.398229488937911
 30
0.0
 11
109.8434963071482
 21
18.99848457394015
 31
0.0
  0
LINE
  5
20E
  8
0
 10
115.0971738997748
 20
18.776472419213292
 30
0.0
 11
115.0971738997748
 21
18.63394609766025
 31
0.0
  0
LINE
  5
20F
  8
0
 10
111.0225161354555
 20
18.989140993719069
 30
0.0
 11
115.0971738997748
 21
18.776472419213292
 31
0.0
  0
LINE
  5
210
  8
0
 10
110.9712881472383
 20
18.405311045664401
 30
0.0
 11
115.0971738997748
 21
18.63394609766025
 31
0.0
  0
ARC
  5
211
  8
0
 10
111.02514801928891
 20
18.694245695240379
 30
0.0
 40
0.2924418754502693
 50
90.558068156371419
 51
259.41281484921399
  0
LINE
  5
212
  8
0
 10
86.0
 20
55.0
 30
0.0
 11
86.0
 21
80.06842729843892
 31
0.0
  0
LINE
  5
213
  8
0
 10
11.0
 20
57.0
 30
0.0
 11
11.0
 21
75.0
 31
0.0
  0
LINE
  5
214
  8
0
 10
6.189403650124409
 20
57.0
 30
0.0
 11
11.0
 21
57.0
 31
0.0
  0
ARC
  5
215
  8
0
 10
15.5110976107272
 20
66.783079509436391
 30
0.0
 40
9.3737817342710041
 50
118.76683035114991
 51
173.95704416596001
  0
LINE
  5
216
  8
0
 10
6.1894036501244116
 20
67.769895453072422
 30
0.0
 11
6.189403650124409
 21
57.0
 31
0.0
  0
LINE
  5
217
  8
0
 10
11.0
 20
75.0
 30
0.0
 11
79.405966795706703
 21
80.06842729843892
 31
0.0
  0
LINE
  5
218
  8
0
 10
11.199999999999999
 20
56.99466666666666
 30
0.0
 11
75.799999999999997
 21
55.271999999999998
 31
0.0
  0
LINE
  5
219
  8
0
 10
11.199999999999999
 20
60.996088636139241
 30
0.0
 11
75.799999999999997
 21
59.273421969472572
 31
0.0
  0
LINE
  5
21A
  8
0
 10
76.0
 20
55.266666666666673
 30
0.0
 11
76.000000000000014
 21
59.368124185376061
 31
0.0
  0
LINE
  5
21B
  8
0
 10
75.799999999999997
 20
55.271999999999998
 30
0.0
 11
75.799999999999997
 21
59.273421969472572
 31
0.0
  0
LINE
  5
21C
  8
0
 10
11.10929447997982
 20
61.09854299924325
 30
0.0
 11
86.109294479979823
 21
59.098542999243257
 31
0.0
  0
LINE
  5
21D
  8
0
 10
11.199999999999999
 20
56.99466666666666
 30
0.0
 11
11.199999999999999
 21
60.996088636139241
 31
0.0
  0
LINE
  5
21E
  8
0
 10
11.10929447997982
 20
61.09854299924325
 30
0.0
 11
10.993764786186279
 21
61.113169731486259
 31
0.0
  0
LINE
  5
21F
  8
0
 10
11.073890804681129
 20
74.002733661962068
 30
0.0
 11
86.073890804681128
 21
79.559734976162872
 31
0.0
  0
LINE
  5
220
  8
0
 10
76.0
 20
55.266666666666673
 30
0.0
 11
86.0
 21
55.0
 31
0.0
  0
TEXT
  5
221
  8
0
 10
23.26088018067459
 20
31.052922308368821
 30
0.0
 40
0.3
  1
perfil m ximo
  7
ROMANS8
  0
TEXT
  5
223
  8
0
 10
23.6923029970086
 20
26.725055736594641
 30
0.0
 40
0.3
  1
perfil m¡nimo
  7
ROMANS8
  0
TEXT
  5
224
  8
0
 10
35.37856314472284
 20
42.737339784919392
 30
0.0
 40
0.3
  1
lateral en balsa de 3m/m
  7
ROMANS8
  0
TEXT
  5
225
  8
0
 10
35.162851736555837
 20
41.224368063817842
 30
0.0
 40
0.3
  1
con refuerzo en contrachapado de 0.6
  7
ROMANS8
  0
LINE
  5
226
  8
0
 10
39.74955746810712
 20
45.656388485957699
 30
0.0
 11
39.74955746810712
 21
43.356781105515331
 31
0.0
  0
LINE
  5
227
  8
0
 10
39.496001953244139
 20
45.297331791275987
 30
0.0
 11
39.74955746810712
 21
45.656388485957699
 31
0.0
  0
LINE
  5
228
  8
0
 10
39.74955746810712
 20
45.656388485957699
 30
0.0
 11
40.056094732344427
 21
45.297331791275987
 31
0.0
  0
TEXT
  5
229
  8
0
 10
16.0
 20
13.0
 30
0.0
 40
0.3
  1
CUADERNA A
  7
ROMANS8
  0
TEXT
  5
22A
  8
0
 10
36.0
 20
13.0
 30
0.0
 40
0.3
  1
CUADERNA B
  7
ROMANS8
  0
TEXT
  5
22B
  8
0
 10
61.0
 20
13.0
 30
0.0
 40
0.3
  1
CUADERNA C
  7
ROMANS8
  0
TEXT
  5
22C
  8
0
 10
88.0
 20
13.0
 30
0.0
 40
0.3
  1
CUADERNA D
  7
ROMANS8
  0
LINE
  5
22D
  8
0
 10
65.653135796640754
 20
32.006232069827959
 30
0.0
 11
67.951834218397124
 21
32.006232069827959
 31
0.0
  0
LINE
  5
22E
  8
0
 10
64.653135796640754
 20
33.006232069827952
 30
0.0
 11
64.653135796640754
 21
34.088024324559349
 31
0.0
  0
LINE
  5
22F
  8
0
 10
64.653135796640754
 20
34.587200146492819
 30
0.0
 11
65.152311618574231
 21
34.587200146492819
 31
0.0
  0
LINE
  5
230
  8
0
 10
64.653135796640754
 20
34.088024324559349
 30
0.0
 11
65.152311618574231
 21
34.088024324559349
 31
0.0
  0
LINE
  5
231
  8
0
 10
68.452658396463647
 20
34.587200146492798
 30
0.0
 11
68.452658396463647
 21
34.088024324559349
 31
0.0
  0
LINE
  5
232
  8
0
 10
65.152311618574231
 20
34.088024324559349
 30
0.0
 11
65.152311618574231
 21
34.587200146492819
 31
0.0
  0
LINE
  5
233
  8
0
 10
68.452658396463647
 20
34.088024324559349
 30
0.0
 11
68.961348804569752
 21
34.088024324559342
 31
0.0
  0
LINE
  5
234
  8
0
 10
68.452658396463647
 20
34.587200146492798
 30
0.0
 11
68.961348804569752
 21
34.587200146492812
 31
0.0
  0
LINE
  5
235
  8
0
 10
68.951834218397124
 20
34.088024324559342
 30
0.0
 11
68.951834218397124
 21
32.996820732007102
 31
0.0
  0
ARC
  5
236
  8
0
 10
66.802485007518925
 20
33.964759171520953
 30
0.0
 40
2.2376627980163919
 50
16.150756717753701
 51
163.84924328224591
  0
LINE
  5
237
  8
0
 10
64.653135796640754
 20
33.006232069827959
 30
0.0
 11
65.653135796640754
 21
32.006232069827959
 31
0.0
  0
LINE
  5
238
  8
0
 10
67.95183421839711
 20
32.007672318182763
 30
0.0
 11
68.961348804569752
 21
33.006232069827952
 31
0.0
  0
LINE
  5
239
  8
0
 10
76.97472990294871
 20
32.152164701758643
 30
0.0
 11
73.695923212859753
 21
32.152164701758629
 31
0.0
  0
LINE
  5
23A
  8
0
 10
77.974795261688627
 20
37.170293249643713
 30
0.0
 11
77.474106076686326
 21
37.170293249643713
 31
0.0
  0
ARC
  5
23B
  8
0
 10
75.334795261688626
 20
36.745879176280063
 30
0.0
 40
2.673897399989221
 50
9.1328920896500243
 51
170.86710791035031
  0
LINE
  5
23C
  8
0
 10
77.974795261688627
 20
36.66966942338135
 30
0.0
 11
77.474106076686326
 21
36.66966942338135
 31
0.0
  0
LINE
  5
23D
  8
0
 10
73.191522928991333
 20
37.170293249643699
 30
0.0
 11
73.191522928991333
 21
36.669669423381343
 31
0.0
  0
LINE
  5
23E
  8
0
 10
77.474106076686326
 20
37.170293249643713
 30
0.0
 11
77.474106076686326
 21
36.66966942338135
 31
0.0
  0
LINE
  5
23F
  8
0
 10
73.191522928991333
 20
37.170293249643699
 30
0.0
 11
72.694795261688625
 21
37.170293249643699
 31
0.0
  0
LINE
  5
240
  8
0
 10
73.191522928991333
 20
36.669669423381343
 30
0.0
 11
72.694795261688625
 21
36.669669423381343
 31
0.0
  0
LINE
  5
241
  8
0
 10
77.974729902948695
 20
36.66966942338135
 30
0.0
 11
77.974729902948695
 21
33.152164701758643
 31
0.0
  0
LINE
  5
242
  8
0
 10
72.695923212859753
 20
36.669669423381343
 30
0.0
 11
72.695923212859753
 21
33.152164701758629
 31
0.0
  0
CIRCLE
  5
243
  8
0
 10
75.332814502838829
 20
37.170293249643713
 30
0.0
 40
0.3015445941558283
  0
LINE
  5
244
  8
0
 10
76.974729902948695
 20
32.152090491705138
 30
0.0
 11
77.974795261688641
 21
33.152164701758643
 31
0.0
  0
LINE
  5
245
  8
0
 10
72.69479526168864
 20
33.152164701758629
 30
0.0
 11
73.695923212859753
 21
32.152090491705138
 31
0.0
  0
LINE
  5
246
  8
0
 10
76.974729902948681
 20
36.15216470175865
 30
0.0
 11
76.974729902948695
 21
33.152164701758643
 31
0.0
  0
LINE
  5
247
  8
0
 10
76.97472990294871
 20
33.152164701758643
 30
0.0
 11
73.695923212859753
 21
33.152164701758629
 31
0.0
  0
LINE
  5
248
  8
0
 10
73.695923212859753
 20
36.152164701758629
 30
0.0
 11
73.695923212859753
 21
33.152164701758629
 31
0.0
  0
LINE
  5
249
  8
0
 10
76.97472990294871
 20
36.15216470175865
 30
0.0
 11
73.695923212859753
 21
36.152164701758629
 31
0.0
  0
LINE
  5
24A
  8
0
 10
86.97472990294871
 20
33.152164701758643
 30
0.0
 11
83.695923212859753
 21
33.152164701758629
 31
0.0
  0
LINE
  5
24B
  8
0
 10
82.694795261688625
 20
33.152164701758629
 30
0.0
 11
83.695923212859753
 21
32.152090491705138
 31
0.0
  0
LINE
  5
24C
  8
0
 10
86.974729902948695
 20
32.152090491705138
 30
0.0
 11
87.974795261688641
 21
33.152164701758643
 31
0.0
  0
LINE
  5
24D
  8
0
 10
86.97472990294871
 20
32.152164701758643
 30
0.0
 11
83.695923212859753
 21
32.152164701758629
 31
0.0
  0
LINE
  5
24E
  8
0
 10
86.974795261688641
 20
36.90140551346245
 30
0.0
 11
83.694795261688625
 21
36.90140551346245
 31
0.0
  0
LINE
  5
24F
  8
0
 10
82.694795261688625
 20
33.152164701758629
 30
0.0
 11
82.694795261688625
 21
35.90140551346245
 31
0.0
  0
LINE
  5
250
  8
0
 10
87.974795261688641
 20
33.152164701758643
 30
0.0
 11
87.974795261688627
 21
35.90140551346245
 31
0.0
  0
LINE
  5
251
  8
0
 10
86.974795261688641
 20
35.901405513462443
 30
0.0
 11
83.694795261688625
 21
35.90140551346245
 31
0.0
  0
LINE
  5
252
  8
0
 10
86.974795261688641
 20
33.152164701758643
 30
0.0
 11
86.974795261688641
 21
35.90140551346245
 31
0.0
  0
LINE
  5
253
  8
0
 10
83.694795261688654
 20
33.152164701758629
 30
0.0
 11
83.694795261688625
 21
35.90140551346245
 31
0.0
  0
LINE
  5
254
  8
0
 10
83.694795261688625
 20
36.90140551346245
 30
0.0
 11
82.694795261688625
 21
35.90140551346245
 31
0.0
  0
LINE
  5
255
  8
0
 10
86.974795261688641
 20
36.90140551346245
 30
0.0
 11
87.974795261688641
 21
35.90140551346245
 31
0.0
  0
LINE
  5
256
  8
0
 10
86.0
 20
80.06842729843892
 30
0.0
 11
79.405966795706703
 21
80.06842729843892
 31
0.0
  0
LINE
  5
257
  8
0
 10
86.313624927021337
 20
82.052736624515404
 30
0.0
 11
85.670028005009854
 21
82.052736624515404
 31
0.0
  0
LINE
  5
258
  8
0
 10
85.670028005009854
 20
82.052736624515404
 30
0.0
 11
85.670028005009854
 21
71.003623146113128
 31
0.0
  0
LINE
  5
259
  8
0
 10
85.670028005009854
 20
71.003623146113128
 30
0.0
 11
86.313624927021337
 21
71.003623146113142
 31
0.0
  0
LINE
  5
25A
  8
0
 10
86.313624927021337
 20
82.052736624515404
 30
0.0
 11
86.313624927021337
 21
71.003623146113142
 31
0.0
  0
LINE
  5
25B
  8
0
 10
36.999754354469061
 20
21.299160835024932
 30
0.0
 11
36.999754354469061
 21
20.699239573478401
 31
0.0
  0
LINE
  5
25C
  8
0
 10
36.999754354469061
 20
21.299160835024932
 30
0.0
 11
44.7142310424789
 21
21.299160835024932
 31
0.0
  0
LINE
  5
25D
  8
0
 10
36.999754354469061
 20
20.699239573478401
 30
0.0
 11
44.7142310424789
 21
20.699239573478401
 31
0.0
  0
LINE
  5
25E
  8
0
 10
44.7142310424789
 20
20.699239573478401
 30
0.0
 11
44.7142310424789
 21
21.299160835024932
 31
0.0
  0
LINE
  5
25F
  8
0
 10
19.0
 20
17.0
 30
0.0
 11
13.444807761706761
 21
17.0
 31
0.0
  0
LINE
  5
260
  8
0
 10
19.0
 20
18.0
 30
0.0
 11
11.501852758832939
 21
18.0
 31
0.0
  0
LINE
  5
261
  8
0
 10
19.0
 20
19.0
 30
0.0
 11
13.62554358159151
 21
18.999999999999979
 31
0.0
  0
LINE
  5
262
  8
0
 10
19.0
 20
20.0
 30
0.0
 11
16.276968169844078
 21
20.0
 31
0.0
  0
LINE
  5
263
  8
0
 10
21.133372306913831
 20
20.603672790966179
 30
0.0
 11
21.133372306913831
 21
20.603672790966179
 31
0.0
  0
LINE
  5
264
  8
0
 10
95.002909945182935
 20
35.734173302585219
 30
0.0
 11
95.002909945182935
 21
35.728978724157301
 31
0.0
  0
LINE
  5
265
  8
0
 10
92.934033812735194
 20
32.198301052499893
 30
0.0
 11
94.004852435093468
 21
32.198301052499893
 31
0.0
  0
LINE
  5
266
  8
0
 10
92.930833180752074
 20
35.728978724157301
 30
0.0
 11
94.008085891761468
 21
35.728978724157301
 31
0.0
  0
LINE
  5
267
  8
0
 10
94.002909945182907
 20
35.734173302585219
 30
0.0
 11
94.002909945182907
 21
35.728978724157301
 31
0.0
  0
LINE
  5
268
  8
0
 10
92.935956583309533
 20
35.734173302585219
 30
0.0
 11
92.935956583309533
 21
35.728978724157301
 31
0.0
  0
LINE
  5
269
  8
0
 10
92.935956583309533
 20
34.728978724157301
 30
0.0
 11
94.002909945182907
 21
34.728978724157301
 31
0.0
  0
LINE
  5
26A
  8
0
 10
92.935956583309533
 20
33.198301052499893
 30
0.0
 11
94.002909945182907
 21
33.198301052499879
 31
0.0
  0
LINE
  5
26B
  8
0
 10
92.935956583309533
 20
35.734173302585219
 30
0.0
 11
91.944535133944186
 21
34.728978724157301
 31
0.0
  0
LINE
  5
26C
  8
0
 10
91.944535133944186
 20
33.198301052499893
 30
0.0
 11
92.935956583309533
 21
32.19635787600501
 31
0.0
  0
LINE
  5
26D
  8
0
 10
94.002909945182907
 20
35.734173302585219
 30
0.0
 11
95.004499104181932
 21
34.728978724157301
 31
0.0
  0
LINE
  5
26E
  8
0
 10
95.004499104181932
 20
33.198301052499893
 30
0.0
 11
94.002909945182907
 21
32.19635787600501
 31
0.0
  0
LINE
  5
26F
  8
0
 10
95.002909945182935
 20
35.728978724157301
 30
0.0
 11
95.004499104181932
 21
35.728978724157301
 31
0.0
  0
LINE
  5
270
  8
0
 10
95.002909945182935
 20
34.730573603650271
 30
0.0
 11
95.002909945182935
 21
33.196711331803407
 31
0.0
  0
LINE
  5
271
  8
0
 10
95.002909945182935
 20
32.198301052499893
 30
0.0
 11
95.004499104181932
 21
32.198301052499893
 31
0.0
  0
LINE
  5
272
  8
0
 10
95.002909945182935
 20
32.198301052499893
 30
0.0
 11
95.002909945182935
 21
32.19635787600501
 31
0.0
  0
LINE
  5
273
  8
0
 10
94.002909945182907
 20
34.728978724157301
 30
0.0
 11
94.002909945182907
 21
33.198301052499879
 31
0.0
  0
LINE
  5
274
  8
0
 10
95.002909945182935
 20
34.728978724157301
 30
0.0
 11
95.004499104181932
 21
34.728978724157301
 31
0.0
  0
LINE
  5
275
  8
0
 10
92.935956583309533
 20
34.728978724157301
 30
0.0
 11
92.935956583309547
 21
33.198301052499893
 31
0.0
  0
LINE
  5
276
  8
0
 10
92.935956583309547
 20
32.198301052499893
 30
0.0
 11
92.935956583309533
 21
32.19635787600501
 31
0.0
  0
LINE
  5
277
  8
0
 10
91.947727707995725
 20
34.732215650420969
 30
0.0
 11
91.947727707995725
 21
33.195074596396474
 31
0.0
  0
TEXT
  5
278
  8
0
 10
75.0
 20
28.0
 30
0.0
 40
0.3
  1
TODAS LAS CUADERNAS EN
  7
ROMANS8
  0
TEXT
  5
279
  8
0
 10
75.0
 20
27.51428571428572
 30
0.0
 40
0.3
  1
CONTRACHAPADO DE 3 m/m
  7
ROMANS8
  0
TEXT
  5
27A
  8
0
 10
65.0
 20
30.0
 30
0.0
 40
0.3
  1
CUADERNA A
  7
ROMANS8
  0
TEXT
  5
27B
  8
0
 10
73.0
 20
30.0
 30
0.0
 40
0.3
  1
CUADERNA B
  7
ROMANS8
  0
TEXT
  5
27C
  8
0
 10
83.0
 20
30.0
 30
0.0
 40
0.3
  1
CUADERNA C
  7
ROMANS8
  0
TEXT
  5
27D
  8
0
 10
92.09393883904059
 20
29.966532696136721
 30
0.0
 40
0.3
  1
CUADERNA D
  7
ROMANS8
  0
TEXT
  5
27E
  8
0
 10
30.837270341206949
 20
18.285852966174929
 30
0.0
 40
0.3
  1
PINO 5X5
  7
ROMANS8
  0
LINE
  5
27F
  8
0
 10
31.991515595433899
 20
18.644909660856641
 30
0.0
 11
31.991515595433899
 21
20.0537275315925
 31
0.0
  0
LINE
  5
280
  8
0
 10
31.8817676860156
 20
19.892014974445779
 30
0.0
 11
31.987731184764311
 21
20.157881381958191
 31
0.0
  0
LINE
  5
281
  8
0
 10
31.987731184764311
 20
20.157881381958191
 30
0.0
 11
32.09747909418261
 21
19.892014974445779
 31
0.0
  0
TEXT
  5
282
  8
0
 10
102.46481108466141
 20
44.253052396820031
 30
0.0
 40
0.3
  1
PROFUNDIDAD Y DIRECCION
  7
ROMANS8
  0
TEXT
  5
283
  8
0
 10
101.8176768601604
 20
42.953870158048048
 30
0.0
 40
0.3
  1
EN BALSA DE 6 m/m
  7
ROMANS8
  0
TEXT
  5
284
  8
0
 10
51.394189098455577
 20
42.307019929461163
 30
0.0
 40
0.3
  1
TRIANGULAR DE BALSA DE 10X10
  7
ROMANS8
  0
LINE
  5
285
  8
0
 10
56.064151864737759
 20
43.652797311817793
 30
0.0
 11
56.064151864737759
 21
46.626663828838048
 31
0.0
  0
LINE
  5
286
  8
0
 10
55.958188365989052
 20
46.38820632931661
 30
0.0
 11
56.064151864737759
 21
46.898012017948659
 31
0.0
  0
LINE
  5
287
  8
0
 10
56.064151864737759
 20
46.898012017948659
 30
0.0
 11
56.147408899468878
 21
46.371760984522027
 31
0.0
  0
TEXT
  5
288
  8
0
 10
43.602087529756211
 20
73.684737797523781
 30
0.0
 40
0.3
  1
BORDE DE ATAQUE
  7
ROMANS8
  0
TEXT
  5
289
  8
0
 10
43.386376121589208
 20
72.602085931880453
 30
0.0
 40
0.3
  1
EN BALSA DE 10 m/m
  7
ROMANS8
  0
LINE
  5
28A
  8
0
 10
46.580418726728723
 20
74.433000985677268
 30
0.0
 11
46.580418726728723
 21
76.973806756440183
 31
0.0
  0
LINE
  5
28B
  8
0
 10
46.413904657266471
 20
76.710681239726881
 30
0.0
 11
46.580418726728723
 21
77.382199485505652
 31
0.0
  0
LINE
  5
28C
  8
0
 10
46.580418726728723
 20
77.382199485505652
 30
0.0
 11
46.773423670878152
 21
76.710681239726881
 31
0.0
  0
INSERT
  5
28D
  8
0
  2
BISDUBRO
 10
108.659891350791
 20
66.876365052566783
 30
0.0
  0
INSERT
  5
28E
  8
0
  2
BISDUBRO
 10
108.659891350791
 20
52.876365052566783
 30
0.0
  0
INSERT
  5
28F
  8
0
  2
BISDUBRO
 10
108.659891350791
 20
40.876365052566783
 30
0.0
  0
INSERT
  5
290
  8
0
  2
BISDUBRO
 10
108.659891350791
 20
27.876365052566779
 30
0.0
  0
INSERT
  5
291
  8
0
  2
BISDUBRO
 10
65.455642709506435
 20
62.042194014793047
 30
0.0
 50
268.24201316675629
  0
INSERT
  5
292
  8
0
  2
BISDUBRO
 10
15.03660163033835
 20
63.44911757632341
 30
0.0
 50
268.24201316675629
  0
INSERT
  5
293
  8
0
  2
BISDUBRO
 10
37.932951505208941
 20
62.846150335667531
 30
0.0
 50
268.24201316675629
  0
LINE
  5
294
  8
0
 10
91.933194384838202
 20
29.610978176577088
 30
0.0
 11
95.987376521171768
 21
29.610978176577088
 31
0.0
  0
LINE
  5
295
  8
0
 10
95.987376521171768
 20
29.610978176577088
 30
0.0
 11
94.428362599380208
 21
32.028610322929431
 31
0.0
  0
LINE
  5
296
  8
0
 10
102.1413788440332
 20
43.951993891643689
 30
0.0
 11
108.9219704943133
 21
43.951993891643689
 31
0.0
  0
LINE
  5
297
  8
0
 10
101.2835482172101
 20
42.628374057327882
 30
0.0
 11
107.3629565725218
 21
42.628374057327882
 31
0.0
  0
ENDSEC
  0
EOF
