  0
SECTION
  2
HEADER
  9
$ACADVER
  1
AC1015
  9
$ACADMAINTVER
 70
               6
  9
$DWGCODEPAGE
  3
DOS437
  9
$INSBASE
 10
0.0
 20
0.0
 30
0.0
  9
$EXTMIN
 10
6.0114119280280844
 20
27.220662528062729
 30
1.0000000000000000E+20
  9
$EXTMAX
 10
268.12480175373304
 20
194.80015224579955
 30
-1.0000000000000000E+20
  9
$LIMMIN
 10
0.0
 20
0.0
  9
$LIMMAX
 10
0.0
 20
0.0
  9
$ORTHOMODE
 70
               0
  9
$REGENMODE
 70
               1
  9
$FILLMODE
 70
               1
  9
$QTEXTMODE
 70
               0
  9
$MIRRTEXT
 70
               1
  9
$LTSCALE
 40
0.1
  9
$ATTMODE
 70
               1
  9
$TEXTSIZE
 40
0.2
  9
$TRACEWID
 40
0.05
  9
$TEXTSTYLE
  7
Standard
  9
$CLAYER
  8
0
  9
$CELTYPE
  6
ByLayer
  9
$CECOLOR
 62
             256
  9
$CELTSCALE
 40
1.0
  9
$DISPSILH
 70
               0
  9
$DIMSCALE
 40
1.0
  9
$DIMASZ
 40
0.18
  9
$DIMEXO
 40
0.0625
  9
$DIMDLI
 40
0.38
  9
$DIMRND
 40
0.0
  9
$DIMDLE
 40
0.0
  9
$DIMEXE
 40
0.18
  9
$DIMTP
 40
0.0
  9
$DIMTM
 40
0.0
  9
$DIMTXT
 40
0.18
  9
$DIMCEN
 40
0.09
  9
$DIMTSZ
 40
0.0
  9
$DIMTOL
 70
               0
  9
$DIMLIM
 70
               0
  9
$DIMTIH
 70
               1
  9
$DIMTOH
 70
               1
  9
$DIMSE1
 70
               0
  9
$DIMSE2
 70
               0
  9
$DIMTAD
 70
               0
  9
$DIMZIN
 70
               0
  9
$DIMBLK
  1

  9
$DIMASO
 70
               1
  9
$DIMSHO
 70
               1
  9
$DIMPOST
  1

  9
$DIMAPOST
  1

  9
$DIMALT
 70
               0
  9
$DIMALTD
 70
               2
  9
$DIMALTF
 40
25.399999999999999
  9
$DIMLFAC
 40
1.0
  9
$DIMTOFL
 70
               0
  9
$DIMTVP
 40
0.0
  9
$DIMTIX
 70
               0
  9
$DIMSOXD
 70
               0
  9
$DIMSAH
 70
               0
  9
$DIMBLK1
  1

  9
$DIMBLK2
  1

  9
$DIMSTYLE
  2
Standard
  9
$DIMCLRD
 70
               0
  9
$DIMCLRE
 70
               0
  9
$DIMCLRT
 70
               0
  9
$DIMTFAC
 40
1.0
  9
$DIMGAP
 40
0.09
  9
$DIMJUST
 70
               0
  9
$DIMSD1
 70
               0
  9
$DIMSD2
 70
               0
  9
$DIMTOLJ
 70
               1
  9
$DIMTZIN
 70
               0
  9
$DIMALTZ
 70
               0
  9
$DIMALTTZ
 70
               0
  9
$DIMUPT
 70
               0
  9
$DIMDEC
 70
               4
  9
$DIMTDEC
 70
               4
  9
$DIMALTU
 70
               2
  9
$DIMALTTD
 70
               2
  9
$DIMTXSTY
  7
Standard
  9
$DIMAUNIT
 70
               0
  9
$DIMADEC
 70
               0
  9
$DIMALTRND
 40
0.0
  9
$DIMAZIN
 70
               0
  9
$DIMDSEP
 70
               0
  9
$DIMATFIT
 70
               3
  9
$DIMFRAC
 70
               0
  9
$DIMLDRBLK
  1

  9
$DIMLUNIT
 70
               2
  9
$DIMLWD
 70
               0
  9
$DIMLWE
 70
               0
  9
$DIMTMOVE
 70
               0
  9
$LUNITS
 70
               2
  9
$LUPREC
 70
               4
  9
$SKETCHINC
 40
0.1
  9
$FILLETRAD
 40
0.0
  9
$AUNITS
 70
               0
  9
$AUPREC
 70
               0
  9
$MENU
  1
acad
  9
$ELEVATION
 40
0.0
  9
$PELEVATION
 40
0.0
  9
$THICKNESS
 40
0.0
  9
$LIMCHECK
 70
               0
  9
$CHAMFERA
 40
0.0
  9
$CHAMFERB
 40
0.0
  9
$CHAMFERC
 40
0.0
  9
$CHAMFERD
 40
0.0
  9
$SKPOLY
 70
               0
  9
$TDCREATE
 40
0.000000000
  9
$TDUCREATE
 40
0.000000000
  9
$TDUPDATE
 40
0.000000000
  9
$TDUUPDATE
 40
0.000000000
  9
$TDINDWG
 40
0.0000000000
  9
$TDUSRTIMER
 40
0.0000000000
  9
$USRTIMER
 70
               1
  9
$ANGBASE
 50
0.0
  9
$ANGDIR
 70
               0
  9
$PDMODE
 70
               2
  9
$PDSIZE
 40
1.5
  9
$PLINEWID
 40
0.0
  9
$SPLFRAME
 70
               0
  9
$SPLINETYPE
 70
               6
  9
$SPLINESEGS
 70
               8
  9
$HANDSEED
  5
127
  9
$SURFTAB1
 70
               6
  9
$SURFTAB2
 70
               6
  9
$SURFTYPE
 70
               6
  9
$SURFU
 70
               6
  9
$SURFV
 70
               6
  9
$UCSBASE
  2

  9
$UCSNAME
  2

  9
$UCSORG
 10
0.0
 20
0.0
 30
0.0
  9
$UCSXDIR
 10
1.0
 20
0.0
 30
0.0
  9
$UCSYDIR
 10
0.0
 20
1.0
 30
0.0
  9
$UCSORTHOREF
  2

  9
$UCSORTHOVIEW
 70
               0
  9
$UCSORGTOP
 10
0.0
 20
0.0
 30
0.0
  9
$UCSORGBOTTOM
 10
0.0
 20
0.0
 30
0.0
  9
$UCSORGLEFT
 10
0.0
 20
0.0
 30
0.0
  9
$UCSORGRIGHT
 10
0.0
 20
0.0
 30
0.0
  9
$UCSORGFRONT
 10
0.0
 20
0.0
 30
0.0
  9
$UCSORGBACK
 10
0.0
 20
0.0
 30
0.0
  9
$PUCSBASE
  2

  9
$PUCSNAME
  2

  9
$PUCSORG
 10
0.0
 20
0.0
 30
0.0
  9
$PUCSXDIR
 10
1.0
 20
0.0
 30
0.0
  9
$PUCSYDIR
 10
0.0
 20
1.0
 30
0.0
  9
$PUCSORTHOREF
  2

  9
$PUCSORTHOVIEW
 70
               0
  9
$PUCSORGTOP
 10
0.0
 20
0.0
 30
0.0
  9
$PUCSORGBOTTOM
 10
0.0
 20
0.0
 30
0.0
  9
$PUCSORGLEFT
 10
0.0
 20
0.0
 30
0.0
  9
$PUCSORGRIGHT
 10
0.0
 20
0.0
 30
0.0
  9
$PUCSORGFRONT
 10
0.0
 20
0.0
 30
0.0
  9
$PUCSORGBACK
 10
0.0
 20
0.0
 30
0.0
  9
$USERI1
 70
               0
  9
$USERI2
 70
               0
  9
$USERI3
 70
               0
  9
$USERI4
 70
               0
  9
$USERI5
 70
               0
  9
$USERR1
 40
0.0
  9
$USERR2
 40
0.0
  9
$USERR3
 40
0.0
  9
$USERR4
 40
0.0
  9
$USERR5
 40
0.0
  9
$WORLDVIEW
 70
               1
  9
$SHADEDGE
 70
               3
  9
$SHADEDIF
 70
              70
  9
$TILEMODE
 70
               1
  9
$MAXACTVP
 70
              16
  9
$PINSBASE
 10
0.0
 20
0.0
 30
0.0
  9
$PLIMCHECK
 70
               0
  9
$PEXTMIN
 10
1.0000000000000000E+20
 20
1.0000000000000000E+20
 30
1.0000000000000000E+20
  9
$PEXTMAX
 10
-1.0000000000000000E+20
 20
-1.0000000000000000E+20
 30
-1.0000000000000000E+20
  9
$PLIMMIN
 10
0.0
 20
0.0
  9
$PLIMMAX
 10
12.0
 20
9.0
  9
$UNITMODE
 70
               0
  9
$VISRETAIN
 70
               0
  9
$PLINEGEN
 70
               1
  9
$PSLTSCALE
 70
               0
  9
$TREEDEPTH
 70
            3020
  9
$CMLSTYLE
  2
Standard
  9
$CMLJUST
 70
               0
  9
$CMLSCALE
 40
1.0
  9
$PROXYGRAPHICS
 70
               0
  9
$MEASUREMENT
 70
               0
  9
$CELWEIGHT
370
              -1
  9
$ENDCAPS
280
               0
  9
$JOINSTYLE
280
               0
  9
$LWDISPLAY
290
               0
  9
$INSUNITS
 70
               0
  9
$HYPERLINKBASE
  1

  9
$STYLESHEET
  1

  9
$XEDIT
290
               1
  9
$CEPSNTYPE
380
               0
  9
$PSTYLEMODE
290
               1
  9
$FINGERPRINTGUID
  2

  9
$VERSIONGUID
  2

  9
$EXTNAMES
290
               1
  9
$PSVPSCALE
 40
0.0
  0
ENDSEC
  0
SECTION
  2
CLASSES
  0
CLASS
  1
LWPOLYLINE
  2
AcDbPolyline
  3
AutoCAD 2000
 90
        0
280
               0
281
               1
  0
CLASS
  1
IMAGE
  2
AcDbRasterImage
  3
ISM
 90
      127
280
               0
281
               1
  0
CLASS
  1
OLE2FRAME
  2
AcDbOle2Frame
  3
AutoCAD 2000
 90
        0
280
               0
281
               1
  0
CLASS
  1
HATCH
  2
AcDbHatch
  3
AutoCAD 2000
 90
        0
280
               0
281
               1
  0
CLASS
  1
DICTIONARYVAR
  2
AcDbDictionaryVar
  3
AutoCAD 2000
 90
        0
280
               0
281
               0
  0
CLASS
  1
RASTERVARIABLES
  2
AcDbRasterVariables
  3
ISM
 90
        0
280
               0
281
               0
  0
CLASS
  1
IMAGEDEF
  2
AcDbRasterImageDef
  3
ISM
 90
        0
280
               0
281
               0
  0
CLASS
  1
IMAGEDEF_REACTOR
  2
AcDbRasterImageDefReactor
  3
ISM
 90
        1
280
               0
281
               0
  0
CLASS
  1
IDBUFFER
  2
AcDbIdBuffer
  3
AutoCAD 2000
 90
        0
280
               0
281
               0
  0
CLASS
  1
SPATIAL_FILTER
  2
AcDbSpatialFilter
  3
AutoCAD 2000
 90
        0
280
               0
281
               0
  0
CLASS
  1
XRECORD
  2
AcDbXrecord
  3
AutoCAD 2000
 90
        0
280
               0
281
               0
  0
CLASS
  1
SORTENTSTABLE
  2
AcDbSortentsTable
  3
AutoCAD 2000
 90
        0
280
               0
281
               0
  0
CLASS
  1
LAYER_INDEX
  2
AcDbLayerIndex
  3
AutoCAD 2000
 90
        0
280
               0
281
               0
  0
CLASS
  1
SPATIAL_INDEX
  2
AcDbSpatialIndex
  3
AutoCAD 2000
 90
        0
280
               0
281
               0
  0
CLASS
  1
OBJECT_PTR
  2
CAseDLPNTableRecord
  3
"ASE-LPNTableRecord"
 90
        1
280
               0
281
               0
  0
CLASS
  1
LAYOUT
  2
AcDbLayout
  3
AutoCAD 2000
 90
        0
280
               0
281
               0
  0
CLASS
  1
PLOTSETTINGS
  2
AcDbPlotSettings
  3
AutoCAD 2000
 90
        0
280
               0
281
               0
  0
CLASS
  1
ACDBDICTIONARYWDFLT
  2
AcDbDictionaryWithDefault
  3
AutoCAD 2000
 90
        0
280
               0
281
               0
  0
CLASS
  1
ACDBPLACEHOLDER
  2
AcDbPlaceHolder
  3
AutoCAD 2000
 90
        0
280
               0
281
               0
  0
ENDSEC
  0
SECTION
  2
TABLES
  0
TABLE
  2
VPORT
  5
7
100
AcDbSymbolTable
 70
               1
  0
VPORT
  5
15
100
AcDbSymbolTableRecord
100
AcDbViewportTableRecord
  2
*ACTIVE
 70
               0
 10
0.0
 20
0.0
 11
1.0
 21
1.0
 12
6.5912879999999996
 22
4.5791839999999997
 13
0.0
 23
0.0
 14
1.0
 24
1.0
 15
0.0
 25
0.0
 16
0.0
 26
0.0
 36
1.0
 17
0.0
 27
0.0
 37
0.0
 40
9.1583690000000004
 41
0.688564
 42
50.0
 43
0.0
 44
0.0
 50
0.0
 51
0.0
 71
               0
 72
             100
 73
               1
 74
               1
 75
               0
 76
               0
 77
               0
 78
               0
281
               0
 65
               0
110
0.0
120
0.0
130
0.0
111
1.0
121
0.0
131
0.0
112
0.0
122
1.0
132
0.0
345
0
346
0
 79
               0
146
0.0
  0
ENDTAB
  0
TABLE
  2
LTYPE
  5
4
100
AcDbSymbolTable
 70
              48
  0
LTYPE
  5
11
100
AcDbSymbolTableRecord
100
AcDbLinetypeTableRecord
  2
ByBlock
 70
              64
  3

 72
              65
 73
               0
 40
0.0
  0
LTYPE
  5
12
100
AcDbSymbolTableRecord
100
AcDbLinetypeTableRecord
  2
ByLayer
 70
              64
  3

 72
              65
 73
               0
 40
0.0
  0
LTYPE
  5
13
100
AcDbSymbolTableRecord
100
AcDbLinetypeTableRecord
  2
Continuous
 70
              64
  3
Solid line
 72
              65
 73
               0
 40
0.0
  0
LTYPE
  5
23
100
AcDbSymbolTableRecord
100
AcDbLinetypeTableRecord
  2
DOTTED
 70
              64
  3
Punteggiato
 72
              65
 73
               2
 40
12.0
 49
2.0
 74
               0
 49
-10.0
 74
               0
  0
LTYPE
  5
24
100
AcDbSymbolTableRecord
100
AcDbLinetypeTableRecord
  2
DASHEDS
 70
              64
  3
Tratteggiato piccolo
 72
              65
 73
               2
 40
20.0
 49
10.0
 74
               0
 49
-10.0
 74
               0
  0
LTYPE
  5
25
100
AcDbSymbolTableRecord
100
AcDbLinetypeTableRecord
  2
DASHEDM
 70
              64
  3
Tratteggiato medio
 72
              65
 73
               2
 40
40.0
 49
20.0
 74
               0
 49
-20.0
 74
               0
  0
LTYPE
  5
26
100
AcDbSymbolTableRecord
100
AcDbLinetypeTableRecord
  2
DASHEDL
 70
              64
  3
Tratteggiato grande
 72
              65
 73
               2
 40
60.0
 49
40.0
 74
               0
 49
-20.0
 74
               0
  0
LTYPE
  5
27
100
AcDbSymbolTableRecord
100
AcDbLinetypeTableRecord
  2
CENTERED
 70
              64
  3
Tratteggiato misto
 72
              65
 73
               4
 40
70.0
 49
10.0
 74
               0
 49
-20.0
 74
               0
 49
20.0
 74
               0
 49
-20.0
 74
               0
  0
LTYPE
  5
28
100
AcDbSymbolTableRecord
100
AcDbLinetypeTableRecord
  2
POINTLINE
 70
              64
  3
Punto e linea
 72
              65
 73
               4
 40
62.0
 49
20.0
 74
               0
 49
-20.0
 74
               0
 49
2.0
 74
               0
 49
-20.0
 74
               0
  0
LTYPE
  5
29
100
AcDbSymbolTableRecord
100
AcDbLinetypeTableRecord
  2
2POINTLINE
 70
              64
  3
Due punti e linea
 72
              65
 73
               6
 40
84.0
 49
20.0
 74
               0
 49
-20.0
 74
               0
 49
2.0
 74
               0
 49
-20.0
 74
               0
 49
2.0
 74
               0
 49
-20.0
 74
               0
  0
LTYPE
  5
2A
100
AcDbSymbolTableRecord
100
AcDbLinetypeTableRecord
  2
ACAD_ISO02W100
 70
              64
  3
ISO Tratteggiata
 72
              65
 73
               2
 40
150.0
 49
120.0
 74
               0
 49
-30.0
 74
               0
  0
LTYPE
  5
2B
100
AcDbSymbolTableRecord
100
AcDbLinetypeTableRecord
  2
ACAD_ISO03W100
 70
              64
  3
ISO Tratto spazio
 72
              65
 73
               2
 40
300.0
 49
120.0
 74
               0
 49
-180.0
 74
               0
  0
LTYPE
  5
2C
100
AcDbSymbolTableRecord
100
AcDbLinetypeTableRecord
  2
ACAD_ISO04W100
 70
              64
  3
ISO Tratto lungo punto
 72
              65
 73
               4
 40
305.0
 49
240.0
 74
               0
 49
-30.0
 74
               0
 49
5.0
 74
               0
 49
-30.0
 74
               0
  0
LTYPE
  5
2D
100
AcDbSymbolTableRecord
100
AcDbLinetypeTableRecord
  2
ACAD_ISO05W100
 70
              64
  3
ISO Tratto lungo doppio punto
 72
              65
 73
               6
 40
340.0
 49
240.0
 74
               0
 49
-30.0
 74
               0
 49
5.0
 74
               0
 49
-30.0
 74
               0
 49
5.0
 74
               0
 49
-30.0
 74
               0
  0
LTYPE
  5
2E
100
AcDbSymbolTableRecord
100
AcDbLinetypeTableRecord
  2
ACAD_ISO06W100
 70
              64
  3
ISO Tratto lungo triplo punto
 72
              65
 73
               8
 40
375.0
 49
240.0
 74
               0
 49
-30.0
 74
               0
 49
5.0
 74
               0
 49
-30.0
 74
               0
 49
5.0
 74
               0
 49
-30.0
 74
               0
 49
5.0
 74
               0
 49
-30.0
 74
               0
  0
LTYPE
  5
2F
100
AcDbSymbolTableRecord
100
AcDbLinetypeTableRecord
  2
ACAD_ISO07W100
 70
              64
  3
ISO Punteggiata
 72
              65
 73
               2
 40
35.0
 49
5.0
 74
               0
 49
-30.0
 74
               0
  0
LTYPE
  5
30
100
AcDbSymbolTableRecord
100
AcDbLinetypeTableRecord
  2
ACAD_ISO08W100
 70
              64
  3
ISO Tratto lungo tratto corto
 72
              65
 73
               4
 40
360.0
 49
240.0
 74
               0
 49
-30.0
 74
               0
 49
60.0
 74
               0
 49
-30.0
 74
               0
  0
LTYPE
  5
31
100
AcDbSymbolTableRecord
100
AcDbLinetypeTableRecord
  2
ACAD_ISO09W100
 70
              64
  3
ISO Tratto lungo doppio tratto corto
 72
              65
 73
               6
 40
450.0
 49
240.0
 74
               0
 49
-30.0
 74
               0
 49
60.0
 74
               0
 49
-30.0
 74
               0
 49
60.0
 74
               0
 49
-30.0
 74
               0
  0
LTYPE
  5
32
100
AcDbSymbolTableRecord
100
AcDbLinetypeTableRecord
  2
ACAD_ISO10W100
 70
              64
  3
ISO Tratto punto
 72
              65
 73
               4
 40
185.0
 49
120.0
 74
               0
 49
-30.0
 74
               0
 49
5.0
 74
               0
 49
-30.0
 74
               0
  0
LTYPE
  5
33
100
AcDbSymbolTableRecord
100
AcDbLinetypeTableRecord
  2
ACAD_ISO11W100
 70
              64
  3
ISO Doppio tratto punto
 72
              65
 73
               6
 40
335.0
 49
120.0
 74
               0
 49
-30.0
 74
               0
 49
120.0
 74
               0
 49
-30.0
 74
               0
 49
5.0
 74
               0
 49
-30.0
 74
               0
  0
LTYPE
  5
34
100
AcDbSymbolTableRecord
100
AcDbLinetypeTableRecord
  2
ACAD_ISO12W100
 70
              64
  3
ISO Tratto doppio punto
 72
              65
 73
               6
 40
220.0
 49
120.0
 74
               0
 49
-30.0
 74
               0
 49
5.0
 74
               0
 49
-30.0
 74
               0
 49
5.0
 74
               0
 49
-30.0
 74
               0
  0
LTYPE
  5
35
100
AcDbSymbolTableRecord
100
AcDbLinetypeTableRecord
  2
ACAD_ISO13W100
 70
              64
  3
ISO Doppio tratto doppio punto
 72
              65
 73
               8
 40
370.0
 49
120.0
 74
               0
 49
-30.0
 74
               0
 49
120.0
 74
               0
 49
-30.0
 74
               0
 49
5.0
 74
               0
 49
-30.0
 74
               0
 49
5.0
 74
               0
 49
-30.0
 74
               0
  0
LTYPE
  5
36
100
AcDbSymbolTableRecord
100
AcDbLinetypeTableRecord
  2
ACAD_ISO14W100
 70
              64
  3
ISO Tratto triplo punto
 72
              65
 73
               8
 40
255.0
 49
120.0
 74
               0
 49
-30.0
 74
               0
 49
5.0
 74
               0
 49
-30.0
 74
               0
 49
5.0
 74
               0
 49
-30.0
 74
               0
 49
5.0
 74
               0
 49
-30.0
 74
               0
  0
LTYPE
  5
37
100
AcDbSymbolTableRecord
100
AcDbLinetypeTableRecord
  2
ACAD_ISO15W100
 70
              64
  3
ISO Doppio tratto triplo punto
 72
              65
 73
              10
 40
405.0
 49
120.0
 74
               0
 49
-30.0
 74
               0
 49
120.0
 74
               0
 49
-30.0
 74
               0
 49
5.0
 74
               0
 49
-30.0
 74
               0
 49
5.0
 74
               0
 49
-30.0
 74
               0
 49
5.0
 74
               0
 49
-30.0
 74
               0
  0
LTYPE
  5
38
100
AcDbSymbolTableRecord
100
AcDbLinetypeTableRecord
  2
BORDER
 70
              64
  3
AutoCAD BORDER
 72
              65
 73
               6
 40
450.0
 49
128.0
 74
               0
 49
-64.0
 74
               0
 49
128.0
 74
               0
 49
-64.0
 74
               0
 49
2.0
 74
               0
 49
-64.0
 74
               0
  0
LTYPE
  5
39
100
AcDbSymbolTableRecord
100
AcDbLinetypeTableRecord
  2
BORDER2
 70
              64
  3
AutoCAD BORDER2
 72
              65
 73
               6
 40
226.0
 49
64.0
 74
               0
 49
-32.0
 74
               0
 49
64.0
 74
               0
 49
-32.0
 74
               0
 49
2.0
 74
               0
 49
-32.0
 74
               0
  0
LTYPE
  5
3A
100
AcDbSymbolTableRecord
100
AcDbLinetypeTableRecord
  2
BORDERX2
 70
              64
  3
AutoCAD BORDERX2
 72
              65
 73
               6
 40
898.0
 49
256.0
 74
               0
 49
-128.0
 74
               0
 49
256.0
 74
               0
 49
-128.0
 74
               0
 49
2.0
 74
               0
 49
-128.0
 74
               0
  0
LTYPE
  5
3B
100
AcDbSymbolTableRecord
100
AcDbLinetypeTableRecord
  2
CENTER
 70
              64
  3
AutoCAD CENTER
 72
              65
 73
               4
 40
512.0
 49
320.0
 74
               0
 49
-64.0
 74
               0
 49
64.0
 74
               0
 49
-64.0
 74
               0
  0
LTYPE
  5
3C
100
AcDbSymbolTableRecord
100
AcDbLinetypeTableRecord
  2
CENTER2
 70
              64
  3
AutoCAD CENTER2
 72
              65
 73
               4
 40
256.0
 49
160.0
 74
               0
 49
-32.0
 74
               0
 49
32.0
 74
               0
 49
-32.0
 74
               0
  0
LTYPE
  5
3D
100
AcDbSymbolTableRecord
100
AcDbLinetypeTableRecord
  2
CENTERX2
 70
              64
  3
AutoCAD CENTERX2
 72
              65
 73
               4
 40
1024.0
 49
640.0
 74
               0
 49
-128.0
 74
               0
 49
128.0
 74
               0
 49
-128.0
 74
               0
  0
LTYPE
  5
3E
100
AcDbSymbolTableRecord
100
AcDbLinetypeTableRecord
  2
DASHDOT
 70
              64
  3
AutoCAD DASHDOT
 72
              65
 73
               4
 40
258.0
 49
128.0
 74
               0
 49
-64.0
 74
               0
 49
2.0
 74
               0
 49
-64.0
 74
               0
  0
LTYPE
  5
3F
100
AcDbSymbolTableRecord
100
AcDbLinetypeTableRecord
  2
DASHDOT2
 70
              64
  3
AutoCAD DASHDOT2
 72
              65
 73
               4
 40
130.0
 49
64.0
 74
               0
 49
-32.0
 74
               0
 49
2.0
 74
               0
 49
-32.0
 74
               0
  0
LTYPE
  5
40
100
AcDbSymbolTableRecord
100
AcDbLinetypeTableRecord
  2
DASHDOTX2
 70
              64
  3
AutoCAD DASHDOTX2
 72
              65
 73
               4
 40
514.0
 49
256.0
 74
               0
 49
-128.0
 74
               0
 49
2.0
 74
               0
 49
-128.0
 74
               0
  0
LTYPE
  5
41
100
AcDbSymbolTableRecord
100
AcDbLinetypeTableRecord
  2
DASHED
 70
              64
  3
AutoCAD DASHED
 72
              65
 73
               2
 40
192.0
 49
128.0
 74
               0
 49
-64.0
 74
               0
  0
LTYPE
  5
42
100
AcDbSymbolTableRecord
100
AcDbLinetypeTableRecord
  2
DASHED2
 70
              64
  3
AutoCAD DASHED2
 72
              65
 73
               2
 40
96.0
 49
64.0
 74
               0
 49
-32.0
 74
               0
  0
LTYPE
  5
43
100
AcDbSymbolTableRecord
100
AcDbLinetypeTableRecord
  2
DASHEDX2
 70
              64
  3
AutoCAD DASHEDX2
 72
              65
 73
               2
 40
384.0
 49
256.0
 74
               0
 49
-128.0
 74
               0
  0
LTYPE
  5
44
100
AcDbSymbolTableRecord
100
AcDbLinetypeTableRecord
  2
DIVIDE
 70
              64
  3
AutoCAD DIVIDE
 72
              65
 73
               6
 40
324.0
 49
128.0
 74
               0
 49
-64.0
 74
               0
 49
2.0
 74
               0
 49
-64.0
 74
               0
 49
2.0
 74
               0
 49
-64.0
 74
               0
  0
LTYPE
  5
45
100
AcDbSymbolTableRecord
100
AcDbLinetypeTableRecord
  2
DIVIDE2
 70
              64
  3
AutoCAD DIVIDE2
 72
              65
 73
               6
 40
164.0
 49
64.0
 74
               0
 49
-32.0
 74
               0
 49
2.0
 74
               0
 49
-32.0
 74
               0
 49
2.0
 74
               0
 49
-32.0
 74
               0
  0
LTYPE
  5
46
100
AcDbSymbolTableRecord
100
AcDbLinetypeTableRecord
  2
DIVIDEX2
 70
              64
  3
AutoCAD DIVIDEX2
 72
              65
 73
               6
 40
644.0
 49
256.0
 74
               0
 49
-128.0
 74
               0
 49
2.0
 74
               0
 49
-128.0
 74
               0
 49
2.0
 74
               0
 49
-128.0
 74
               0
  0
LTYPE
  5
47
100
AcDbSymbolTableRecord
100
AcDbLinetypeTableRecord
  2
DOT
 70
              64
  3
AutoCAD DOT
 72
              65
 73
               2
 40
66.0
 49
2.0
 74
               0
 49
-64.0
 74
               0
  0
LTYPE
  5
48
100
AcDbSymbolTableRecord
100
AcDbLinetypeTableRecord
  2
DOT2
 70
              64
  3
AutoCAD DOT2
 72
              65
 73
               2
 40
34.0
 49
2.0
 74
               0
 49
-32.0
 74
               0
  0
LTYPE
  5
49
100
AcDbSymbolTableRecord
100
AcDbLinetypeTableRecord
  2
DOTX2
 70
              64
  3
AutoCAD DOTX2
 72
              65
 73
               2
 40
130.0
 49
2.0
 74
               0
 49
-128.0
 74
               0
  0
LTYPE
  5
4A
100
AcDbSymbolTableRecord
100
AcDbLinetypeTableRecord
  2
HIDDEN
 70
              64
  3
AutoCAD HIDDEN
 72
              65
 73
               2
 40
96.0
 49
64.0
 74
               0
 49
-32.0
 74
               0
  0
LTYPE
  5
4B
100
AcDbSymbolTableRecord
100
AcDbLinetypeTableRecord
  2
HIDDEN2
 70
              64
  3
AutoCAD HIDDEN2
 72
              65
 73
               2
 40
48.0
 49
32.0
 74
               0
 49
-16.0
 74
               0
  0
LTYPE
  5
4C
100
AcDbSymbolTableRecord
100
AcDbLinetypeTableRecord
  2
HIDDENX2
 70
              64
  3
AutoCAD HIDDENX2
 72
              65
 73
               2
 40
192.0
 49
128.0
 74
               0
 49
-64.0
 74
               0
  0
LTYPE
  5
4D
100
AcDbSymbolTableRecord
100
AcDbLinetypeTableRecord
  2
PHANTOM
 70
              64
  3
AutoCAD PHANTOM
 72
              65
 73
               6
 40
640.0
 49
320.0
 74
               0
 49
-64.0
 74
               0
 49
64.0
 74
               0
 49
-64.0
 74
               0
 49
64.0
 74
               0
 49
-64.0
 74
               0
  0
LTYPE
  5
4E
100
AcDbSymbolTableRecord
100
AcDbLinetypeTableRecord
  2
PHANTOM2
 70
              64
  3
AutoCAD PHANTOM2
 72
              65
 73
               6
 40
320.0
 49
160.0
 74
               0
 49
-32.0
 74
               0
 49
32.0
 74
               0
 49
-32.0
 74
               0
 49
32.0
 74
               0
 49
-32.0
 74
               0
  0
LTYPE
  5
4F
100
AcDbSymbolTableRecord
100
AcDbLinetypeTableRecord
  2
PHANTOMX2
 70
              64
  3
AutoCAD PHANTOMX2
 72
              65
 73
               6
 40
1280.0
 49
640.0
 74
               0
 49
-128.0
 74
               0
 49
128.0
 74
               0
 49
-128.0
 74
               0
 49
128.0
 74
               0
 49
-128.0
 74
               0
  0
ENDTAB
  0
TABLE
  2
LAYER
  5
2
100
AcDbSymbolTable
 70
               3
  0
LAYER
  5
14
100
AcDbSymbolTableRecord
100
AcDbLayerTableRecord
  2
0
 70
               0
 62
               7
  6
Continuous
290
               1
370
              -3
390
1D
  0
LAYER
  5
50
100
AcDbSymbolTableRecord
100
AcDbLayerTableRecord
  2
SENZA_NOME
 70
               0
 62
               7
  6
Continuous
290
               1
370
              -3
390
1D
  0
LAYER
  5
51
100
AcDbSymbolTableRecord
100
AcDbLayerTableRecord
  2
SENZA_NOME_2
 70
               0
 62
               7
  6
Continuous
290
               1
370
              -3
390
1D
  0
ENDTAB
  0
TABLE
  2
STYLE
  5
3
100
AcDbSymbolTable
 70
              10
  0
STYLE
  5
17
100
AcDbSymbolTableRecord
100
AcDbTextStyleTableRecord
  2
Standard
 70
               0
 40
0.0
 41
1.0
 50
0.0
 71
               0
 42
0.0
  3
txt
  4

  0
STYLE
  5
52
100
AcDbSymbolTableRecord
100
AcDbTextStyleTableRecord
  2
SIMPLEX
 70
               0
 40
10.0
 41
0.8
 50
0.0
 71
               0
 42
10.0
  3
simplex
  4

  0
STYLE
  5
53
100
AcDbSymbolTableRecord
100
AcDbTextStyleTableRecord
  2
EUROSTYLE
 70
               0
 40
10.0
 41
0.88
 50
0.0
 71
               0
 42
10.0
  3
isocp
  4

  0
STYLE
  5
54
100
AcDbSymbolTableRecord
100
AcDbTextStyleTableRecord
  2
SANSERIF
 70
               0
 40
10.0
 41
0.9
 50
0.0
 71
               0
 42
10.0
  3
romand
  4

  0
STYLE
  5
55
100
AcDbSymbolTableRecord
100
AcDbTextStyleTableRecord
  2
TRIPLEX
 70
               0
 40
10.0
 41
0.86
 50
0.0
 71
               0
 42
10.0
  3
romant
  4

  0
STYLE
  5
56
100
AcDbSymbolTableRecord
100
AcDbTextStyleTableRecord
  2
COMPLEX
 70
               0
 40
10.0
 41
1.0
 50
0.0
 71
               0
 42
10.0
  3
complex
  4

  0
STYLE
  5
57
100
AcDbSymbolTableRecord
100
AcDbTextStyleTableRecord
  2
SCRIPT
 70
               0
 40
10.0
 41
0.98
 50
0.0
 71
               0
 42
10.0
  3
scripts
  4

  0
STYLE
  5
58
100
AcDbSymbolTableRecord
100
AcDbTextStyleTableRecord
  2
TRISCRIPT
 70
               0
 40
10.0
 41
0.89
 50
0.0
 71
               0
 42
10.0
  3
italict
  4

  0
STYLE
  5
59
100
AcDbSymbolTableRecord
100
AcDbTextStyleTableRecord
  2
BOLD
 70
               0
 40
10.0
 41
0.77
 50
0.0
 71
               0
 42
10.0
  3
romand
  4

  0
STYLE
  5
5A
100
AcDbSymbolTableRecord
100
AcDbTextStyleTableRecord
  2
GOTHIC
 70
               0
 40
10.0
 41
0.86
 50
0.0
 71
               0
 42
10.0
  3
gothice
  4

  0
ENDTAB
  0
TABLE
  2
VIEW
  5
5
100
AcDbSymbolTable
 70
               0
  0
ENDTAB
  0
TABLE
  2
UCS
  5
6
100
AcDbSymbolTable
 70
               0
  0
ENDTAB
  0
TABLE
  2
APPID
  5
8
100
AcDbSymbolTable
 70
               1
  0
APPID
  5
16
100
AcDbSymbolTableRecord
100
AcDbRegAppTableRecord
  2
ACAD
 70
               0
  0
ENDTAB
  0
TABLE
  2
DIMSTYLE
  5
9
100
AcDbSymbolTable
 70
               1
100
AcDbDimStyleTable
 71
               0
  0
DIMSTYLE
105
18
100
AcDbSymbolTableRecord
100
AcDbDimStyleTableRecord
  2
Standard
 70
               0
  3

  4

 40
1.0
 41
0.18
 42
0.0625
 43
0.38
 44
0.18
 45
0.0
 46
0.0
 47
0.0
 48
0.0
 71
               0
 72
               0
 73
               1
 74
               1
 75
               0
 76
               0
 77
               0
 78
               0
 79
               0
140
0.18
141
0.09
142
0.0
143
25.399999999999999
144
1.0
145
0.0
146
1.0
147
0.09
148
0.0
170
               0
171
               2
172
               0
173
               0
174
               0
175
               0
176
               0
177
               0
178
               0
179
               0
271
               4
272
               4
273
               2
274
               2
275
               0
276
               0
277
               2
278
              46
279
               0
280
               0
281
               0
282
               0
283
               1
284
               0
285
               0
286
               0
288
               0
289
               3
340
17
341
0
342
0
343
0
344
0
371
              -2
372
              -2
  0
ENDTAB
  0
TABLE
  2
BLOCK_RECORD
  5
1
100
AcDbSymbolTable
 70
              10
  0
BLOCK_RECORD
  5
A
100
AcDbSymbolTableRecord
100
AcDbBlockTableRecord
  2
*MODEL_SPACE
340
20
  0
BLOCK_RECORD
  5
B
100
AcDbSymbolTableRecord
100
AcDbBlockTableRecord
  2
*PAPER_SPACE
340
21
  0
BLOCK_RECORD
  5
89
100
AcDbSymbolTableRecord
100
AcDbBlockTableRecord
  2
B03326824
340
0
102
{BLKREFS
331
8F
102
}
  0
BLOCK_RECORD
  5
A0
100
AcDbSymbolTableRecord
100
AcDbBlockTableRecord
  2
B0248FD24
340
0
102
{BLKREFS
331
A6
102
}
  0
BLOCK_RECORD
  5
A7
100
AcDbSymbolTableRecord
100
AcDbBlockTableRecord
  2
B0248FE54
340
0
102
{BLKREFS
331
B6
102
}
  0
BLOCK_RECORD
  5
AC
100
AcDbSymbolTableRecord
100
AcDbBlockTableRecord
  2
B0248FF9C
340
0
102
{BLKREFS
331
B3
102
}
  0
BLOCK_RECORD
  5
B7
100
AcDbSymbolTableRecord
100
AcDbBlockTableRecord
  2
B0249018C
340
0
102
{BLKREFS
331
BD
102
}
  0
BLOCK_RECORD
  5
BE
100
AcDbSymbolTableRecord
100
AcDbBlockTableRecord
  2
B02486F84
340
0
102
{BLKREFS
331
C5
102
}
  0
BLOCK_RECORD
  5
C7
100
AcDbSymbolTableRecord
100
AcDbBlockTableRecord
  2
B032F4004
340
0
102
{BLKREFS
331
D2
102
}
  0
BLOCK_RECORD
  5
E8
100
AcDbSymbolTableRecord
100
AcDbBlockTableRecord
  2
B02479118
340
0
102
{BLKREFS
331
EF
102
}
  0
BLOCK_RECORD
  5
F0
100
AcDbSymbolTableRecord
100
AcDbBlockTableRecord
  2
B023DFCD4
340
0
102
{BLKREFS
331
F7
102
}
  0
BLOCK_RECORD
  5
10A
100
AcDbSymbolTableRecord
100
AcDbBlockTableRecord
  2
B02469E6C
340
0
102
{BLKREFS
331
118
102
}
  0
ENDTAB
  0
ENDSEC
  0
SECTION
  2
BLOCKS
  0
BLOCK
  5
D
100
AcDbEntity
  8
0
390
0
100
AcDbBlockBegin
  2
*MODEL_SPACE
 70
               0
 10
0.0
 20
0.0
 30
0.0
  3
*MODEL_SPACE
  1

  0
ENDBLK
  5
E
100
AcDbEntity
  8
0
390
0
100
AcDbBlockEnd
  0
BLOCK
  5
F
100
AcDbEntity
 67
               1
  8
0
390
0
100
AcDbBlockBegin
  2
*PAPER_SPACE
 70
               0
 10
0.0
 20
0.0
 30
0.0
  3
*PAPER_SPACE
  1

  0
ENDBLK
  5
10
100
AcDbEntity
 67
               1
  8
0
390
0
100
AcDbBlockEnd
  0
BLOCK
  5
8A
100
AcDbEntity
  8
0
390
0
100
AcDbBlockBegin
  2
B03326824
 70
               0
 10
0.0
 20
0.0
 30
0.0
  3

  1

  0
LINE
  5
8B
100
AcDbEntity
  8
SENZA_NOME
370
              -3
390
0
100
AcDbLine
 10
209.86634600040941
 20
121.00486505397704
 30
0.0
 11
254.77883537265441
 21
121.00486505397704
 31
0.0
  0
ARC
  5
8C
100
AcDbEntity
  8
SENZA_NOME
370
              -3
390
0
100
AcDbCircle
 10
209.86634600040941
 20
124.00486505397704
 30
0.0
 40
3.0
100
AcDbArc
 50
180.0
 51
270.0
  0
ARC
  5
8D
100
AcDbEntity
  8
SENZA_NOME
370
              -3
390
0
100
AcDbCircle
 10
254.77883537265441
 20
124.00486505397704
 30
0.0
 40
3.0
100
AcDbArc
 50
270.0
 51
0.0
  0
ENDBLK
  5
8E
100
AcDbEntity
  8
0
390
0
100
AcDbBlockEnd
  0
BLOCK
  5
A1
100
AcDbEntity
  8
0
390
0
100
AcDbBlockBegin
  2
B0248FD24
 70
               0
 10
0.0
 20
0.0
 30
0.0
  3

  1

  0
CIRCLE
  5
A2
100
AcDbEntity
  8
SENZA_NOME
370
              -3
390
0
  6
Continuous
100
AcDbCircle
 10
248.63774550568712
 20
185.61817493095793
 30
0.0
 40
5.0
  0
CIRCLE
  5
A3
100
AcDbEntity
  8
SENZA_NOME
370
              -3
390
0
  6
Continuous
100
AcDbCircle
 10
232.63774550568712
 20
185.61817493095793
 30
0.0
 40
5.0
  0
CIRCLE
  5
A4
100
AcDbEntity
  8
SENZA_NOME
370
              -3
390
0
  6
Continuous
100
AcDbCircle
 10
216.63774550568712
 20
185.61817493095793
 30
0.0
 40
5.0
  0
ENDBLK
  5
A5
100
AcDbEntity
  8
0
390
0
100
AcDbBlockEnd
  0
BLOCK
  5
A8
100
AcDbEntity
  8
0
390
0
100
AcDbBlockBegin
  2
B0248FE54
 70
               0
 10
0.0
 20
0.0
 30
0.0
  3

  1

  0
LINE
  5
A9
100
AcDbEntity
  8
0
390
0
100
AcDbLine
 10
251.88662236733666
 20
143.14698561930885
 30
0.0
 11
212.68048724568226
 21
139.71689325549855
 31
0.0
  0
LINE
  5
AA
100
AcDbEntity
  8
0
390
0
100
AcDbLine
 10
212.68048724568226
 20
155.94839132593128
 30
0.0
 11
251.88662236733666
 21
152.55878558413701
 31
0.0
  0
LINE
  5
AB
100
AcDbEntity
  8
0
390
0
100
AcDbLine
 10
212.68048724568226
 20
155.94839132593128
 30
0.0
 11
212.68005184224256
 21
139.71685516263352
 31
0.0
  0
INSERT
  5
B3
100
AcDbEntity
  8
0
390
0
100
AcDbBlockReference
  2
B0248FF9C
 10
0.0
 20
0.0
 30
0.0
  0
LINE
  5
B4
100
AcDbEntity
  8
0
390
0
100
AcDbLine
 10
251.88662236733666
 20
152.55878558413701
 30
0.0
 11
251.88662236733666
 21
143.14698561930885
 31
0.0
  0
ENDBLK
  5
B5
100
AcDbEntity
  8
0
390
0
100
AcDbBlockEnd
  0
BLOCK
  5
AD
100
AcDbEntity
  8
0
390
0
100
AcDbBlockBegin
  2
B0248FF9C
 70
               0
 10
0.0
 20
0.0
 30
0.0
  3

  1

  0
LINE
  5
AE
100
AcDbEntity
  8
0
390
0
100
AcDbLine
 10
214.92223083480314
 20
148.8379164242296
 30
0.0
 11
230.92223083480314
 21
148.8379164242296
 31
0.0
  0
LINE
  5
AF
100
AcDbEntity
  8
0
390
0
100
AcDbLine
 10
230.92223083480314
 20
146.8379164242296
 30
0.0
 11
230.92223083480314
 21
148.8379164242296
 31
0.0
  0
LINE
  5
B0
100
AcDbEntity
  8
0
390
0
100
AcDbLine
 10
214.92223083480314
 20
146.8379164242296
 30
0.0
 11
214.92223083480314
 21
148.8379164242296
 31
0.0
  0
LINE
  5
B1
100
AcDbEntity
  8
0
390
0
100
AcDbLine
 10
214.92223083480314
 20
146.8379164242296
 30
0.0
 11
230.92223083480314
 21
146.8379164242296
 31
0.0
  0
ENDBLK
  5
B2
100
AcDbEntity
  8
0
390
0
100
AcDbBlockEnd
  0
BLOCK
  5
B8
100
AcDbEntity
  8
0
390
0
100
AcDbBlockBegin
  2
B0249018C
 70
               0
 10
0.0
 20
0.0
 30
0.0
  3

  1

  0
ELLIPSE
  5
B9
100
AcDbEntity
  8
SENZA_NOME
370
              -3
390
0
  6
Continuous
100
AcDbEllipse
 10
57.493030024801087
 20
178.67784898074518
 30
0.0
 11
0.0000000000000006
 21
10.006336121472716
 31
0.0
210
0.0
220
0.0
230
1.0
 40
0.6495884128908656
 41
0.0
 42
6.2831853071795862
  0
ELLIPSE
  5
BA
100
AcDbEntity
  8
SENZA_NOME
370
              -3
390
0
  6
Continuous
100
AcDbEllipse
 10
39.505396859249501
 20
178.16026363643385
 30
0.0
 11
0.0000000000000006
 21
10.006336121472716
 31
0.0
210
0.0
220
0.0
230
1.0
 40
0.6495884128908656
 41
0.0
 42
6.2831853071795862
  0
ELLIPSE
  5
BB
100
AcDbEntity
  8
SENZA_NOME
370
              -3
390
0
  6
Continuous
100
AcDbEllipse
 10
21.181546251351154
 20
178.41905630858952
 30
0.0
 11
0.0000000000000006
 21
10.006336121472716
 31
0.0
210
0.0
220
0.0
230
1.0
 40
0.6495884128908656
 41
0.0
 42
6.2831853071795862
  0
ENDBLK
  5
BC
100
AcDbEntity
  8
0
390
0
100
AcDbBlockEnd
  0
BLOCK
  5
BF
100
AcDbEntity
  8
0
390
0
100
AcDbBlockBegin
  2
B02486F84
 70
               0
 10
0.0
 20
0.0
 30
0.0
  3

  1

  0
LINE
  5
C0
100
AcDbEntity
  8
0
390
0
100
AcDbLine
 10
25.150232931104711
 20
86.930575341386429
 30
0.0
 11
40.150232931104711
 21
86.930575341386429
 31
0.0
  0
LINE
  5
C1
100
AcDbEntity
  8
0
390
0
100
AcDbLine
 10
40.150232931104711
 20
76.930575341386429
 30
0.0
 11
40.150232931104711
 21
86.930575341386429
 31
0.0
  0
LINE
  5
C2
100
AcDbEntity
  8
0
390
0
100
AcDbLine
 10
25.150232931104711
 20
76.930575341386429
 30
0.0
 11
25.150232931104711
 21
86.930575341386429
 31
0.0
  0
LINE
  5
C3
100
AcDbEntity
  8
0
390
0
100
AcDbLine
 10
25.150232931104711
 20
76.930575341386429
 30
0.0
 11
40.150232931104711
 21
76.930575341386429
 31
0.0
  0
ENDBLK
  5
C4
100
AcDbEntity
  8
0
390
0
100
AcDbBlockEnd
  0
BLOCK
  5
C8
100
AcDbEntity
  8
0
390
0
100
AcDbBlockBegin
  2
B032F4004
 70
               0
 10
0.0
 20
0.0
 30
0.0
  3

  1

  0
LINE
  5
C9
100
AcDbEntity
  8
0
370
              -3
390
0
  6
Continuous
100
AcDbLine
 10
15.529193347442956
 20
127.08321301229699
 30
0.0
 11
15.529193347442956
 21
150.08321301229699
 31
0.0
  0
LINE
  5
CA
100
AcDbEntity
  8
0
370
              -3
390
0
  6
Continuous
100
AcDbLine
 10
27.517295103346232
 20
117.08321301229699
 30
0.0
 11
51.493498615152774
 21
117.08321301229699
 31
0.0
  0
ELLIPSE
  5
CB
100
AcDbEntity
  8
0
370
              -3
390
0
  6
Continuous
100
AcDbEllipse
 10
27.517295103346232
 20
127.08321301229699
 30
0.0
 11
11.988101755903273
 21
0.0
 31
0.0
210
0.0
220
0.0
230
1.0
 40
0.8341604203581041
 41
3.1415926535897931
 42
4.7123889803846897
  0
LINE
  5
CC
100
AcDbEntity
  8
0
370
              -3
390
0
  6
Continuous
100
AcDbLine
 10
27.517295103346232
 20
160.08321301229699
 30
0.0
 11
51.493498615152774
 21
160.08321301229699
 31
0.0
  0
ELLIPSE
  5
CD
100
AcDbEntity
  8
0
370
              -3
390
0
  6
Continuous
100
AcDbEllipse
 10
51.493498615152774
 20
150.08321301229699
 30
0.0
 11
11.988101755903273
 21
0.0
 31
0.0
210
0.0
220
0.0
230
1.0
 40
0.8341604203581041
 41
0.0
 42
1.5707963267948966
  0
ELLIPSE
  5
CE
100
AcDbEntity
  8
0
370
              -3
390
0
  6
Continuous
100
AcDbEllipse
 10
27.517295103346232
 20
150.08321301229699
 30
0.0
 11
11.988101755903273
 21
0.0
 31
0.0
210
0.0
220
0.0
230
1.0
 40
0.8341604203581041
 41
1.5707963267948966
 42
3.1415926535897931
  0
ELLIPSE
  5
CF
100
AcDbEntity
  8
0
370
              -3
390
0
  6
Continuous
100
AcDbEllipse
 10
51.493498615152774
 20
127.08321301229699
 30
0.0
 11
11.988101755903273
 21
0.0
 31
0.0
210
0.0
220
0.0
230
1.0
 40
0.8341604203581041
 41
4.7123889803846897
 42
0.0
  0
LINE
  5
D0
100
AcDbEntity
  8
0
370
              -3
390
0
  6
Continuous
100
AcDbLine
 10
63.481600371056047
 20
127.08321301229699
 30
0.0
 11
63.481600371056047
 21
150.08321301229699
 31
0.0
  0
ENDBLK
  5
D1
100
AcDbEntity
  8
0
390
0
100
AcDbBlockEnd
  0
BLOCK
  5
E9
100
AcDbEntity
  8
0
390
0
100
AcDbBlockBegin
  2
B02479118
 70
               0
 10
0.0
 20
0.0
 30
0.0
  3

  1

  0
LINE
  5
EA
100
AcDbEntity
  8
SENZA_NOME_2
390
0
100
AcDbLine
 10
96.55792748889597
 20
161.70846642123465
 30
0.0
 11
126.91075291149512
 21
161.70846642123465
 31
0.0
  0
LINE
  5
EB
100
AcDbEntity
  8
SENZA_NOME_2
390
0
100
AcDbLine
 10
126.91075291149512
 20
161.70846642123465
 30
0.0
 11
126.91075291149512
 21
147.55471148003494
 31
0.0
  0
LINE
  5
EC
100
AcDbEntity
  8
SENZA_NOME_2
390
0
100
AcDbLine
 10
96.55792748889597
 20
147.55471148003494
 30
0.0
 11
126.91075291149512
 21
147.55471148003494
 31
0.0
  0
LINE
  5
ED
100
AcDbEntity
  8
SENZA_NOME_2
390
0
100
AcDbLine
 10
96.55792748889597
 20
161.70846642123465
 30
0.0
 11
96.55792748889597
 21
147.55471148003494
 31
0.0
  0
ENDBLK
  5
EE
100
AcDbEntity
  8
0
390
0
100
AcDbBlockEnd
  0
BLOCK
  5
F1
100
AcDbEntity
  8
0
390
0
100
AcDbBlockBegin
  2
B023DFCD4
 70
               0
 10
0.0
 20
0.0
 30
0.0
  3

  1

  0
LINE
  5
F2
100
AcDbEntity
  8
SENZA_NOME_2
390
0
100
AcDbLine
 10
96.519909231924004
 20
143.33678132203298
 30
0.0
 11
126.87273465452316
 21
143.33678132203298
 31
0.0
  0
LINE
  5
F3
100
AcDbEntity
  8
SENZA_NOME_2
390
0
100
AcDbLine
 10
126.87273465452316
 20
143.33678132203298
 30
0.0
 11
126.87273465452316
 21
129.18302638083327
 31
0.0
  0
LINE
  5
F4
100
AcDbEntity
  8
SENZA_NOME_2
390
0
100
AcDbLine
 10
96.519909231924004
 20
129.18302638083327
 30
0.0
 11
126.87273465452316
 21
129.18302638083327
 31
0.0
  0
LINE
  5
F5
100
AcDbEntity
  8
SENZA_NOME_2
390
0
100
AcDbLine
 10
96.519909231924004
 20
143.33678132203298
 30
0.0
 11
96.519909231924004
 21
129.18302638083327
 31
0.0
  0
ENDBLK
  5
F6
100
AcDbEntity
  8
0
390
0
100
AcDbBlockEnd
  0
BLOCK
  5
10B
100
AcDbEntity
  8
0
390
0
100
AcDbBlockBegin
  2
B02469E6C
 70
               0
 10
0.0
 20
0.0
 30
0.0
  3

  1

  0
LINE
  5
10C
100
AcDbEntity
  8
0
390
0
100
AcDbLine
 10
175.15122885102036
 20
169.73192427131764
 30
0.0
 11
175.15122885102036
 21
145.39564454448072
 31
0.0
  0
LINE
  5
10D
100
AcDbEntity
  8
0
390
0
100
AcDbLine
 10
175.15122885102036
 20
145.4215117191832
 30
0.0
 11
175.15122885102036
 21
169.7003143849243
 31
0.0
  0
ARC
  5
10E
100
AcDbEntity
  8
0
390
0
100
AcDbCircle
 10
175.15122885102036
 20
140.13462647328154
 30
0.0
 40
5.286885245901658
100
AcDbArc
 50
90.0
 51
180.00001026181874
  0
LINE
  5
10F
100
AcDbEntity
  8
0
390
0
100
AcDbLine
 10
169.86434360511871
 20
140.13462659571738
 30
0.0
 11
169.86434360511871
 21
126.30082543552868
 31
0.0
  0
LINE
  5
110
100
AcDbEntity
  8
0
390
0
100
AcDbLine
 10
169.86434360511871
 20
175.01880939478349
 30
0.0
 11
169.86434360511871
 21
188.85261055497216
 31
0.0
  0
LINE
  5
111
100
AcDbEntity
  8
0
390
0
100
AcDbLine
 10
169.86434360511871
 20
188.85261055497216
 30
0.0
 11
180.43811409692202
 21
188.85261055497216
 31
0.0
  0
LINE
  5
112
100
AcDbEntity
  8
0
390
0
100
AcDbLine
 10
180.43811409692202
 20
126.3008254355218
 30
0.0
 11
169.86434360511871
 21
126.3008254355218
 31
0.0
  0
LINE
  5
113
100
AcDbEntity
  8
0
390
0
100
AcDbLine
 10
180.43811409692202
 20
188.85261055497216
 30
0.0
 11
180.43811409692202
 21
126.3008254355218
 31
0.0
  0
ARC
  5
114
100
AcDbEntity
  8
0
390
0
100
AcDbCircle
 10
175.15122885102036
 20
175.0188095172193
 30
0.0
 40
5.286885245901658
100
AcDbArc
 50
179.99998973818126
 51
270.0
  0
CIRCLE
  5
115
100
AcDbEntity
  8
0
390
0
100
AcDbCircle
 10
175.15122885102036
 20
140.12417214822341
 30
0.0
 40
0.9
  0
CIRCLE
  5
116
100
AcDbEntity
  8
0
390
0
100
AcDbCircle
 10
175.15122885102036
 20
175.0188095172193
 30
0.0
 40
0.9
  0
ENDBLK
  5
117
100
AcDbEntity
  8
0
390
0
100
AcDbBlockEnd
  0
ENDSEC
  0
SECTION
  2
ENTITIES
  0
LINE
  5
5B
100
AcDbEntity
  8
SENZA_NOME
370
              -3
390
0
  6
Continuous
100
AcDbLine
 10
10.008964238667778
 20
192.47984908792122
 30
0.0
 11
69.008964238667772
 21
192.47984908792122
 31
0.0
  0
LINE
  5
5C
100
AcDbEntity
  8
SENZA_NOME
370
              -3
390
0
  6
Continuous
100
AcDbLine
 10
69.008964238667772
 20
121.47984908792122
 30
0.0
 11
59.00896423866778
 21
111.47984908792122
 31
0.0
  0
LINE
  5
5D
100
AcDbEntity
  8
SENZA_NOME
370
              -3
390
0
  6
Continuous
100
AcDbLine
 10
20.008964238667776
 20
111.47984908792122
 30
0.0
 11
10.008964238667778
 21
121.47984908792122
 31
0.0
  0
LINE
  5
5E
100
AcDbEntity
  8
SENZA_NOME
370
              -3
390
0
  6
Continuous
100
AcDbLine
 10
69.008964238667772
 20
158.04406114415772
 30
0.0
 11
69.008964238667772
 21
192.47984908792122
 31
0.0
  0
LINE
  5
5F
100
AcDbEntity
  8
SENZA_NOME
370
              -3
390
0
  6
Continuous
100
AcDbLine
 10
69.008964238667772
 20
158.04406114415772
 30
0.0
 11
73.006516549307463
 21
158.04406114415772
 31
0.0
  0
LINE
  5
60
100
AcDbEntity
  8
SENZA_NOME
370
              -3
390
0
  6
Continuous
100
AcDbLine
 10
73.006516549307463
 20
158.04406114415772
 30
0.0
 11
73.006516549307463
 21
143.31668900758336
 31
0.0
  0
LINE
  5
61
100
AcDbEntity
  8
SENZA_NOME
370
              -3
390
0
  6
Continuous
100
AcDbLine
 10
69.008964238667772
 20
121.47984908792122
 30
0.0
 11
69.008964238667772
 21
143.31668900758336
 31
0.0
  0
LINE
  5
62
100
AcDbEntity
  8
SENZA_NOME
370
              -3
390
0
  6
Continuous
100
AcDbLine
 10
69.008964238667772
 20
143.31668900758336
 30
0.0
 11
73.006516549307463
 21
143.31668900758336
 31
0.0
  0
LINE
  5
63
100
AcDbEntity
  8
SENZA_NOME
370
              -3
390
0
  6
Continuous
100
AcDbLine
 10
46.728264305615987
 20
111.47984908792122
 30
0.0
 11
59.00896423866778
 21
111.47984908792122
 31
0.0
  0
LINE
  5
64
100
AcDbEntity
  8
SENZA_NOME
370
              -3
390
0
  6
Continuous
100
AcDbLine
 10
46.728264305615987
 20
108.66404868623196
 30
0.0
 11
46.728264305615987
 21
111.47984908792122
 31
0.0
  0
LINE
  5
65
100
AcDbEntity
  8
SENZA_NOME
370
              -3
390
0
  6
Continuous
100
AcDbLine
 10
32.000892169041641
 20
108.66404868623196
 30
0.0
 11
46.728264305615987
 21
108.66404868623196
 31
0.0
  0
LINE
  5
66
100
AcDbEntity
  8
SENZA_NOME
370
              -3
390
0
  6
Continuous
100
AcDbLine
 10
32.000892169041641
 20
108.66404868623196
 30
0.0
 11
32.000892169041641
 21
111.47984908792122
 31
0.0
  0
LINE
  5
67
100
AcDbEntity
  8
SENZA_NOME
370
              -3
390
0
  6
Continuous
100
AcDbLine
 10
20.008964238667776
 20
111.47984908792122
 30
0.0
 11
32.000892169041641
 21
111.47984908792122
 31
0.0
  0
LINE
  5
68
100
AcDbEntity
  8
SENZA_NOME
370
              -3
390
0
  6
Continuous
100
AcDbLine
 10
6.0114119280280844
 20
158.04406114415772
 30
0.0
 11
6.0114119280280844
 21
143.31668900758336
 31
0.0
  0
LINE
  5
69
100
AcDbEntity
  8
SENZA_NOME
370
              -3
390
0
  6
Continuous
100
AcDbLine
 10
10.008964238667778
 20
121.47984908792122
 30
0.0
 11
10.008964238667778
 21
143.31668900758336
 31
0.0
  0
LINE
  5
6A
100
AcDbEntity
  8
SENZA_NOME
370
              -3
390
0
  6
Continuous
100
AcDbLine
 10
6.0114119280280844
 20
143.31668900758336
 30
0.0
 11
10.008964238667778
 21
143.31668900758336
 31
0.0
  0
LINE
  5
6B
100
AcDbEntity
  8
SENZA_NOME
370
              -3
390
0
  6
Continuous
100
AcDbLine
 10
10.008964238667778
 20
158.04406114415772
 30
0.0
 11
10.008964238667778
 21
192.47984908792122
 31
0.0
  0
LINE
  5
6C
100
AcDbEntity
  8
SENZA_NOME
370
              -3
390
0
  6
Continuous
100
AcDbLine
 10
6.0114119280280844
 20
158.04406114415772
 30
0.0
 11
10.008964238667778
 21
158.04406114415772
 31
0.0
  0
CIRCLE
  5
6D
100
AcDbEntity
  8
SENZA_NOME
370
              -3
390
0
  6
Continuous
100
AcDbCircle
 10
11.028661036077265
 20
163.76426407002305
 30
0.0
 40
1.0
  0
LINE
  5
6E
100
AcDbEntity
  8
SENZA_NOME
370
              -3
390
0
100
AcDbLine
 10
95.238981939386818
 20
57.657951656278044
 30
0.0
 11
95.263442684362346
 21
77.764828363039385
 31
0.0
  0
LINE
  5
6F
100
AcDbEntity
  8
SENZA_NOME
370
              -3
390
0
100
AcDbLine
 10
175.28563428825717
 20
57.657951656278044
 30
0.0
 11
175.26344268436236
 21
77.764828363039385
 31
0.0
  0
LINE
  5
70
100
AcDbEntity
  8
SENZA_NOME
370
              -3
390
0
100
AcDbLine
 10
169.24272508467723
 20
67.729466995577923
 30
0.0
 11
169.24272508467723
 21
77.764828363039385
 31
0.0
  0
LINE
  5
71
100
AcDbEntity
  8
SENZA_NOME
370
              -3
390
0
100
AcDbLine
 10
169.24272508467723
 20
77.764828363039385
 30
0.0
 11
175.26344268436236
 21
77.764828363039385
 31
0.0
  0
LINE
  5
72
100
AcDbEntity
  8
SENZA_NOME
370
              -3
390
0
100
AcDbLine
 10
164.16317821789991
 20
77.764828363039385
 30
0.0
 11
164.16317821789991
 21
67.729466995577923
 31
0.0
  0
LINE
  5
73
100
AcDbEntity
  8
SENZA_NOME
370
              -3
390
0
100
AcDbLine
 10
140.25427658634453
 20
67.729466995577923
 30
0.0
 11
140.25427658634456
 21
77.764828363039385
 31
0.0
  0
LINE
  5
74
100
AcDbEntity
  8
SENZA_NOME
370
              -3
390
0
100
AcDbLine
 10
140.25427658634456
 20
77.764828363039385
 30
0.0
 11
164.16317821789991
 21
77.764828363039385
 31
0.0
  0
LINE
  5
75
100
AcDbEntity
  8
SENZA_NOME
370
              -3
390
0
100
AcDbLine
 10
106.62417319250842
 20
67.729466995577923
 30
0.0
 11
106.62417319250842
 21
77.764828363039385
 31
0.0
  0
LINE
  5
76
100
AcDbEntity
  8
SENZA_NOME
370
              -3
390
0
100
AcDbLine
 10
101.54462632573109
 20
77.764828363039385
 30
0.0
 11
101.54462632573109
 21
67.729466995577923
 31
0.0
  0
LINE
  5
77
100
AcDbEntity
  8
SENZA_NOME
370
              -3
390
0
100
AcDbLine
 10
95.263442684362346
 20
77.764828363039385
 30
0.0
 11
101.54462632573109
 21
77.764828363039385
 31
0.0
  0
LINE
  5
78
100
AcDbEntity
  8
SENZA_NOME
370
              -3
390
0
100
AcDbLine
 10
164.16317821789991
 20
67.729466995577923
 30
0.0
 11
169.24272508467723
 21
67.729466995577923
 31
0.0
  0
LINE
  5
79
100
AcDbEntity
  8
SENZA_NOME
370
              -3
390
0
100
AcDbLine
 10
101.54462632573109
 20
67.729466995577923
 30
0.0
 11
106.62417319250842
 21
67.729466995577923
 31
0.0
  0
LINE
  5
7A
100
AcDbEntity
  8
SENZA_NOME
370
              -3
390
0
100
AcDbLine
 10
95.238981939386818
 20
57.657951656278044
 30
0.0
 11
175.28563428825717
 21
57.657951656278044
 31
0.0
  0
LINE
  5
7B
100
AcDbEntity
  8
0
390
0
100
AcDbLine
 10
130.24759428944029
 20
67.736132711569638
 30
0.0
 11
140.27161984338562
 21
67.736132711569638
 31
0.0
  0
LINE
  5
7C
100
AcDbEntity
  8
SENZA_NOME
370
              -3
390
0
100
AcDbLine
 10
106.62417319250842
 20
77.764828363039385
 30
0.0
 11
130.24759428944029
 21
77.764828363039385
 31
0.0
  0
LINE
  5
7D
100
AcDbEntity
  8
0
390
0
100
AcDbLine
 10
130.24759428944029
 20
67.736132711569638
 30
0.0
 11
130.24759428944029
 21
77.764828363039385
 31
0.0
  0
CIRCLE
  5
7E
100
AcDbEntity
  8
0
390
0
100
AcDbCircle
 10
151.46011739671334
 20
65.151995811403438
 30
0.0
 40
3.0499999999999998
  0
CIRCLE
  5
7F
100
AcDbEntity
  8
0
390
0
100
AcDbCircle
 10
119.32660767327903
 20
65.151995811403438
 30
0.0
 40
3.0499999999999998
  0
LINE
  5
80
100
AcDbEntity
  8
SENZA_NOME
370
              -3
390
0
100
AcDbLine
 10
251.32372282779184
 20
172.12383109279983
 30
0.0
 11
254.77883537265441
 21
172.12383109279983
 31
0.0
  0
ARC
  5
81
100
AcDbEntity
  8
SENZA_NOME
370
              -3
390
0
100
AcDbCircle
 10
248.3245280223571
 20
172.19333302840829
 30
0.0
 40
3.0
100
AcDbArc
 50
358.67249203817948
 51
181.32750796182054
  0
LINE
  5
82
100
AcDbEntity
  8
SENZA_NOME
370
              -3
390
0
100
AcDbLine
 10
219.2905241262275
 20
172.12383109279983
 30
0.0
 11
245.32533321692236
 21
172.12383109279983
 31
0.0
  0
ARC
  5
83
100
AcDbEntity
  8
SENZA_NOME
370
              -3
390
0
100
AcDbCircle
 10
216.29088676026117
 20
172.17047519959482
 30
0.0
 40
3.0
100
AcDbArc
 50
359.10912728456668
 51
180.89087271543337
  0
LINE
  5
84
100
AcDbEntity
  8
SENZA_NOME
370
              -3
390
0
100
AcDbLine
 10
209.86634600040941
 20
172.12383109279983
 30
0.0
 11
213.29124939429488
 21
172.12383109279983
 31
0.0
  0
LINE
  5
85
100
AcDbEntity
  8
SENZA_NOME
370
              -3
390
0
100
AcDbLine
 10
206.86634600040941
 20
169.12383109279983
 30
0.0
 11
206.86634600040941
 21
124.00486505492064
 31
0.0
  0
ARC
  5
86
100
AcDbEntity
  8
SENZA_NOME
370
              -3
390
0
100
AcDbCircle
 10
209.86634600040941
 20
169.12383109279983
 30
0.0
 40
3.0
100
AcDbArc
 50
90.0
 51
180.0
  0
ARC
  5
87
100
AcDbEntity
  8
SENZA_NOME
370
              -3
390
0
100
AcDbCircle
 10
254.77883537265441
 20
169.12383109279983
 30
0.0
 40
3.0
100
AcDbArc
 50
0.0
 51
90.0
  0
LINE
  5
88
100
AcDbEntity
  8
SENZA_NOME
370
              -3
390
0
100
AcDbLine
 10
257.77883537265444
 20
169.12383109279983
 30
0.0
 11
257.77883537265444
 21
124.00486504729946
 31
0.0
  0
INSERT
  5
8F
100
AcDbEntity
  8
SENZA_NOME
390
0
100
AcDbBlockReference
  2
B03326824
 10
0.0
 20
0.0
 30
0.0
  0
LINE
  5
90
100
AcDbEntity
  8
SENZA_NOME
370
              -3
390
0
100
AcDbLine
 10
200.21654051370751
 20
184.78727721292847
 30
0.0
 11
200.21654051370751
 21
153.76693355589484
 31
0.0
  0
LINE
  5
91
100
AcDbEntity
  8
SENZA_NOME
370
              -3
390
0
100
AcDbLine
 10
200.21654051370751
 20
184.78727721292847
 30
0.0
 11
210.22941554657859
 21
194.80015224579955
 31
0.0
  0
LINE
  5
92
100
AcDbEntity
  8
SENZA_NOME
370
              -3
390
0
  6
Continuous
100
AcDbLine
 10
200.21654051370751
 20
153.76693355589484
 30
0.0
 11
196.45688423905418
 21
153.76693355589484
 31
0.0
  0
LINE
  5
93
100
AcDbEntity
  8
SENZA_NOME
370
              -3
390
0
100
AcDbLine
 10
200.28616377805292
 20
141.21335199173382
 30
0.0
 11
200.21541004927994
 21
122.41705290139309
 31
0.0
  0
LINE
  5
94
100
AcDbEntity
  8
SENZA_NOME
370
              -3
390
0
100
AcDbLine
 10
210.15979228223316
 20
112.47267066843987
 30
0.0
 11
200.21541004927994
 21
122.41705290139309
 31
0.0
  0
LINE
  5
95
100
AcDbEntity
  8
SENZA_NOME
370
              -3
390
0
100
AcDbLine
 10
264.25541750540981
 20
122.45058820050723
 30
0.0
 11
254.27749997334246
 21
112.47267066843987
 31
0.0
  0
LINE
  5
96
100
AcDbEntity
  8
SENZA_NOME
370
              -3
390
0
100
AcDbLine
 10
264.25541750540981
 20
141.1281800326459
 30
0.0
 11
264.25541750540981
 21
122.45058820050723
 31
0.0
  0
LINE
  5
97
100
AcDbEntity
  8
SENZA_NOME
370
              -3
390
0
  6
Continuous
100
AcDbLine
 10
264.25541750540981
 20
141.1281800326459
 30
0.0
 11
268.12480175373304
 21
141.12778738154748
 31
0.0
  0
LINE
  5
98
100
AcDbEntity
  8
SENZA_NOME
370
              -3
390
0
  6
Continuous
100
AcDbLine
 10
268.12480175373304
 20
153.61350463927329
 30
0.0
 11
264.25541750540987
 21
153.61350463927329
 31
0.0
  0
LINE
  5
99
100
AcDbEntity
  8
SENZA_NOME
370
              -3
390
0
100
AcDbLine
 10
254.35159364878444
 20
194.80015224579955
 30
0.0
 11
264.25541750540981
 21
184.89632838917413
 31
0.0
  0
LINE
  5
9A
100
AcDbEntity
  8
SENZA_NOME
370
              -3
390
0
100
AcDbLine
 10
264.25541750540981
 20
184.89632838917413
 30
0.0
 11
264.25541750540987
 21
153.61350463927329
 31
0.0
  0
LINE
  5
9B
100
AcDbEntity
  8
SENZA_NOME
370
              -3
390
0
100
AcDbLine
 10
210.22941554657859
 20
194.80015224579955
 30
0.0
 11
254.35159364878444
 21
194.80015224579955
 31
0.0
  0
LINE
  5
9C
100
AcDbEntity
  8
SENZA_NOME
370
              -3
390
0
100
AcDbLine
 10
210.15979228223316
 20
112.47267066843987
 30
0.0
 11
254.27749997334246
 21
112.47267066843987
 31
0.0
  0
LINE
  5
9D
100
AcDbEntity
  8
SENZA_NOME
370
              -3
390
0
  6
Continuous
100
AcDbLine
 10
196.45688423905418
 20
141.21335199173382
 30
0.0
 11
200.28616377805292
 21
141.21335199173382
 31
0.0
  0
LINE
  5
9E
100
AcDbEntity
  8
SENZA_NOME
370
              -3
390
0
  6
Continuous
100
AcDbLine
 10
268.12480175373304
 20
141.12778738154748
 30
0.0
 11
268.12480175373304
 21
153.61350463927329
 31
0.0
  0
LINE
  5
9F
100
AcDbEntity
  8
SENZA_NOME
370
              -3
390
0
  6
Continuous
100
AcDbLine
 10
196.45688423905418
 20
153.76693355589484
 30
0.0
 11
196.45688423905418
 21
141.21335199173382
 31
0.0
  0
INSERT
  5
A6
100
AcDbEntity
  8
SENZA_NOME
390
0
100
AcDbBlockReference
  2
B0248FD24
 10
0.0
 20
0.0
 30
0.0
  0
INSERT
  5
B6
100
AcDbEntity
  8
0
390
0
100
AcDbBlockReference
  2
B0248FE54
 10
0.0
 20
0.0
 30
0.0
  0
INSERT
  5
BD
100
AcDbEntity
  8
SENZA_NOME
390
0
100
AcDbBlockReference
  2
B0249018C
 10
0.0
 20
0.0
 30
0.0
  0
INSERT
  5
C5
100
AcDbEntity
  8
0
390
0
100
AcDbBlockReference
  2
B02486F84
 10
0.0
 20
0.0
 30
0.0
  0
CIRCLE
  5
C6
100
AcDbEntity
  8
0
390
0
100
AcDbCircle
 10
51.534445488074894
 20
82.701359527385208
 30
0.0
 40
6.5
  0
INSERT
  5
D2
100
AcDbEntity
  8
0
390
0
100
AcDbBlockReference
  2
B032F4004
 10
0.0
 20
0.0
 30
0.0
  0
CIRCLE
  5
D3
100
AcDbEntity
  8
SENZA_NOME_2
370
              -3
390
0
100
AcDbCircle
 10
137.75046242240791
 20
133.44173810461018
 30
0.0
 40
5.5758463121582844
  0
CIRCLE
  5
D4
100
AcDbEntity
  8
SENZA_NOME_2
370
              -3
390
0
100
AcDbCircle
 10
137.75046242240791
 20
147.04678128488359
 30
0.0
 40
5.5758463121582844
  0
CIRCLE
  5
D5
100
AcDbEntity
  8
SENZA_NOME_2
370
              -3
390
0
100
AcDbCircle
 10
137.75046242240791
 20
162.21639661638702
 30
0.0
 40
5.5758463121582844
  0
CIRCLE
  5
D6
100
AcDbEntity
  8
SENZA_NOME_2
370
              -3
390
0
100
AcDbCircle
 10
137.75046242240791
 20
175.8214397966604
 30
0.0
 40
5.5758463121582844
  0
LINE
  5
D7
100
AcDbEntity
  8
SENZA_NOME_2
390
0
100
AcDbLine
 10
146.01926183127259
 20
185.51864623705637
 30
0.0
 11
146.01894125328124
 21
147.50837394095129
 31
0.0
  0
LINE
  5
D8
100
AcDbEntity
  8
SENZA_NOME_2
390
0
100
AcDbLine
 10
85.214507591161208
 20
121.14209126647819
 30
0.0
 11
95.426499730619042
 21
121.48674600118488
 31
0.0
  0
LINE
  5
D9
100
AcDbEntity
  8
SENZA_NOME_2
390
0
100
AcDbLine
 10
85.214507591161208
 20
187.5682446945882
 30
0.0
 11
85.214507591161208
 21
121.14209126647819
 31
0.0
  0
LINE
  5
DA
100
AcDbEntity
  8
SENZA_NOME_2
390
0
100
AcDbLine
 10
95.426499730619042
 20
125.32242301026302
 30
0.0
 11
95.426499730619042
 21
121.48674600118488
 31
0.0
  0
LINE
  5
DB
100
AcDbEntity
  8
SENZA_NOME_2
390
0
100
AcDbLine
 10
95.426499730619042
 20
125.32242301026302
 30
0.0
 11
127.0597787360787
 21
126.30077184548342
 31
0.0
  0
LINE
  5
DC
100
AcDbEntity
  8
SENZA_NOME_2
390
0
100
AcDbLine
 10
127.0597787360787
 20
126.30077184548342
 30
0.0
 11
127.13406435828183
 21
122.5568763073685
 31
0.0
  0
LINE
  5
DD
100
AcDbEntity
  8
SENZA_NOME_2
390
0
100
AcDbLine
 10
127.13406435828183
 20
122.5568763073685
 30
0.0
 11
146.01875158006064
 21
123.19423450110354
 31
0.0
  0
LINE
  5
DE
100
AcDbEntity
  8
SENZA_NOME_2
390
0
100
AcDbLine
 10
146.01894125328124
 20
147.50837394095129
 30
0.0
 11
146.01875158006064
 21
123.19423450110354
 31
0.0
  0
LINE
  5
DF
100
AcDbEntity
  8
SENZA_NOME_2
390
0
100
AcDbLine
 10
127.13473806599345
 20
186.15520321790848
 30
0.0
 11
146.01926183127259
 21
185.51864623705637
 31
0.0
  0
LINE
  5
E0
100
AcDbEntity
  8
SENZA_NOME_2
390
0
100
AcDbLine
 10
127.13473806599345
 20
186.15520321790848
 30
0.0
 11
127.13139969289334
 21
182.18515216613167
 31
0.0
  0
LINE
  5
E1
100
AcDbEntity
  8
SENZA_NOME_2
390
0
100
AcDbLine
 10
95.426499730619042
 20
183.16774204099556
 30
0.0
 11
127.13139969289334
 21
182.18515216613167
 31
0.0
  0
LINE
  5
E2
100
AcDbEntity
  8
SENZA_NOME_2
390
0
100
AcDbLine
 10
95.426499730619042
 20
187.22402024044919
 30
0.0
 11
95.426499730619042
 21
183.16774204099556
 31
0.0
  0
LINE
  5
E3
100
AcDbEntity
  8
SENZA_NOME_2
390
0
100
AcDbLine
 10
85.214507591161208
 20
187.5682446945882
 30
0.0
 11
95.426499730619042
 21
187.22402024044919
 31
0.0
  0
LINE
  5
E4
100
AcDbEntity
  8
SENZA_NOME_2
390
0
100
AcDbLine
 10
96.541976516736909
 20
180.05887277920735
 30
0.0
 11
96.541976516736909
 21
165.91254782897883
 31
0.0
  0
LINE
  5
E5
100
AcDbEntity
  8
SENZA_NOME_2
390
0
100
AcDbLine
 10
96.541976516736909
 20
165.91254782897883
 30
0.0
 11
126.87886827227899
 21
165.91254782897883
 31
0.0
  0
LINE
  5
E6
100
AcDbEntity
  8
SENZA_NOME_2
390
0
100
AcDbLine
 10
126.87886827227899
 20
180.05887277920735
 30
0.0
 11
126.87886827227899
 21
165.91254782897883
 31
0.0
  0
LINE
  5
E7
100
AcDbEntity
  8
SENZA_NOME_2
390
0
100
AcDbLine
 10
96.541976516736909
 20
180.05887277920735
 30
0.0
 11
126.87886827227899
 21
180.05887277920735
 31
0.0
  0
INSERT
  5
EF
100
AcDbEntity
  8
SENZA_NOME_2
390
0
100
AcDbBlockReference
  2
B02479118
 10
0.0
 20
0.0
 30
0.0
  0
INSERT
  5
F7
100
AcDbEntity
  8
SENZA_NOME_2
390
0
100
AcDbBlockReference
  2
B023DFCD4
 10
0.0
 20
0.0
 30
0.0
  0
LINE
  5
F8
100
AcDbEntity
  8
0
390
0
100
AcDbLine
 10
78.784836065573771
 20
86.12192622950819
 30
0.0
 11
78.784836065573771
 21
101.12192622950819
 31
0.0
  0
LINE
  5
F9
100
AcDbEntity
  8
0
390
0
100
AcDbLine
 10
78.784836065573771
 20
101.12192622950819
 30
0.0
 11
186.8688752416308
 21
101.12192622950819
 31
0.0
  0
LINE
  5
FA
100
AcDbEntity
  8
0
390
0
100
AcDbLine
 10
186.8688752416308
 20
101.12192622950819
 30
0.0
 11
186.8688752416308
 21
86.12192622950819
 31
0.0
  0
LINE
  5
FB
100
AcDbEntity
  8
0
390
0
100
AcDbLine
 10
186.8688752416308
 20
86.12192622950819
 30
0.0
 11
78.784836065573771
 21
86.12192622950819
 31
0.0
  0
CIRCLE
  5
FC
100
AcDbEntity
  8
0
390
0
100
AcDbCircle
 10
154.82685565360228
 20
93.62192622950819
 30
0.0
 40
1.0
  0
CIRCLE
  5
FD
100
AcDbEntity
  8
0
390
0
100
AcDbCircle
 10
110.82685565360228
 20
93.62192622950819
 30
0.0
 40
1.0
  0
LINE
  5
FE
100
AcDbEntity
  8
0
390
0
100
AcDbLine
 10
165.35727791623773
 20
139.19673090911306
 30
0.0
 11
165.35727791623773
 21
124.2854214806094
 31
0.0
  0
LINE
  5
FF
100
AcDbEntity
  8
0
390
0
100
AcDbLine
 10
165.35727791623771
 20
124.28542148060932
 30
0.0
 11
165.35727791623771
 21
139.38840800853424
 31
0.0
  0
ARC
  5
100
100
AcDbEntity
  8
0
390
0
100
AcDbCircle
 10
160.07039267033608
 20
139.38840803689209
 30
0.0
 40
5.2868852459016296
100
AcDbArc
 50
0.0
 51
90.000000000000014
  0
LINE
  5
101
100
AcDbEntity
  8
0
390
0
100
AcDbLine
 10
160.07039267033608
 20
144.67529328279372
 30
0.0
 11
160.07039267033608
 21
157.65888459536342
 31
0.0
  0
LINE
  5
102
100
AcDbEntity
  8
0
390
0
100
AcDbLine
 10
160.0703926703361
 20
170.6424759079332
 30
0.0
 11
160.0703926703361
 21
157.6588845953635
 31
0.0
  0
LINE
  5
103
100
AcDbEntity
  8
0
390
0
100
AcDbLine
 10
165.35727791623773
 20
191.03234771011759
 30
0.0
 11
165.35727791623773
 21
175.92936118219268
 31
0.0
  0
LINE
  5
104
100
AcDbEntity
  8
0
390
0
100
AcDbLine
 10
165.35727791623773
 20
124.2854214806094
 30
0.0
 11
154.78350742443445
 21
124.2854214806094
 31
0.0
  0
LINE
  5
105
100
AcDbEntity
  8
0
390
0
100
AcDbLine
 10
154.78350742443445
 20
124.2854214806094
 30
0.0
 11
154.78350742443445
 21
191.03234771011759
 31
0.0
  0
LINE
  5
106
100
AcDbEntity
  8
0
390
0
100
AcDbLine
 10
154.78350742443445
 20
191.03234771011759
 30
0.0
 11
165.35727791623773
 21
191.03234771011759
 31
0.0
  0
ARC
  5
107
100
AcDbEntity
  8
0
390
0
100
AcDbCircle
 10
160.0703926703361
 20
175.9293611538348
 30
0.0
 40
5.2868852459016296
100
AcDbArc
 50
270.0
 51
0.0
  0
CIRCLE
  5
108
100
AcDbEntity
  8
0
390
0
100
AcDbCircle
 10
160.0703926703361
 20
139.65834992788137
 30
0.0
 40
0.9
  0
CIRCLE
  5
109
100
AcDbEntity
  8
0
390
0
100
AcDbCircle
 10
160.0703926703361
 20
175.9293611538348
 30
0.0
 40
0.9
  0
INSERT
  5
118
100
AcDbEntity
  8
0
390
0
100
AcDbBlockReference
  2
B02469E6C
 10
0.0
 20
0.0
 30
0.0
  0
CIRCLE
  5
119
100
AcDbEntity
  8
0
390
0
100
AcDbCircle
 10
156.76077574738815
 20
37.180950605698143
 30
0.0
 40
1.2
  0
CIRCLE
  5
11A
100
AcDbEntity
  8
0
390
0
100
AcDbCircle
 10
112.76077574738815
 20
37.180950605698143
 30
0.0
 40
1.2
  0
LINE
  5
11B
100
AcDbEntity
  8
0
390
0
100
AcDbLine
 10
112.78219812348539
 20
47.141238683333555
 30
0.0
 11
156.74793652643757
 21
47.141238683333555
 31
0.0
  0
LINE
  5
11C
100
AcDbEntity
  8
0
390
0
100
AcDbLine
 10
112.78219812348539
 20
27.220662528062729
 30
0.0
 11
157.41237237226176
 21
27.242848996423358
 31
0.0
  0
ARC
  5
11D
100
AcDbEntity
  8
0
390
0
100
AcDbCircle
 10
156.74793652643757
 20
37.180950605698143
 30
0.0
 40
9.9602880776354148
100
AcDbArc
 50
270.0
 51
342.84446933921816
  0
ARC
  5
11E
100
AcDbEntity
  8
0
390
0
100
AcDbCircle
 10
156.74793652643757
 20
37.180950605698143
 30
0.0
 40
9.9602880776354148
100
AcDbArc
 50
17.155530660781853
 51
90.0
  0
LINE
  5
11F
100
AcDbEntity
  8
0
390
0
100
AcDbLine
 10
166.26506732496185
 20
40.118902265148485
 30
0.0
 11
166.26506732496185
 21
34.242998946247802
 31
0.0
  0
ARC
  5
120
100
AcDbEntity
  8
0
390
0
100
AcDbCircle
 10
112.78219812348539
 20
37.180950605698143
 30
0.0
 40
9.9602880776354148
100
AcDbArc
 50
90.0
 51
162.84446933920381
  0
ARC
  5
121
100
AcDbEntity
  8
0
390
0
100
AcDbCircle
 10
112.78219812348539
 20
37.180950605698143
 30
0.0
 40
9.9602880776354148
100
AcDbArc
 50
197.15553066079599
 51
270.0
  0
LINE
  5
122
100
AcDbEntity
  8
0
390
0
100
AcDbLine
 10
103.26506732496185
 20
40.118902265150865
 30
0.0
 11
103.26506732496185
 21
34.242998946245457
 31
0.0
  0
CIRCLE
  5
123
100
AcDbEntity
  8
0
390
0
100
AcDbCircle
 10
134.76077574738815
 20
37.180950605698143
 30
0.0
 40
4.5
  0
CIRCLE
  5
124
100
AcDbEntity
  8
0
390
0
100
AcDbCircle
 10
147.10511579956128
 20
37.180950605698143
 30
0.0
 40
4.5
  0
CIRCLE
  5
125
100
AcDbEntity
  8
0
390
0
100
AcDbCircle
 10
122.42501885036083
 20
37.180950605698143
 30
0.0
 40
4.5
  0
CIRCLE
  5
126
100
AcDbEntity
  8
0
390
0
100
AcDbCircle
 10
51.534445488074894
 20
82.701359527385208
 30
0.0
 40
0.6
  0
ENDSEC
  0
SECTION
  2
OBJECTS
  0
DICTIONARY
  5
19
100
AcDbDictionary
280
               0
281
               1
  3
ACAD_GROUP
350
1A
  3
ACAD_MLINESTYLE
350
1B
  3
ACAD_LAYOUT
350
1E
  3
ACAD_PLOTSETTINGS
350
22
  3
ACAD_PLOTSTYLENAME
350
1F
  0
DICTIONARY
  5
1A
102
{ACAD_REACTORS
330
19
102
}
100
AcDbDictionary
280
               0
281
               1
  0
DICTIONARY
  5
1B
102
{ACAD_REACTORS
330
19
102
}
100
AcDbDictionary
280
               0
281
               1
  3
Standard
350
1C
  0
MLINESTYLE
  5
1C
102
{ACAD_REACTORS
330
1B
102
}
100
AcDbMlineStyle
  2
Standard
 70
               0
  3

 62
               0
 51
90.0
 52
90.0
 71
               2
 49
0.5
 62
             256
  6
ByLayer
 49
-0.5
 62
             256
  6
ByLayer
  0
ACDBDICTIONARYWDFLT
  5
1F
102
{ACAD_REACTORS
330
19
102
}
100
AcDbDictionary
281
               1
  3
Normal
350
1D
100
AcDbDictionaryWithDefault
340
1D
  0
ACDBPLACEHOLDER
  5
1D
102
{ACAD_REACTORS
330
1F
102
}
  0
LAYOUT
  5
20
102
{ACAD_REACTORS
330
1E
102
}
100
AcDbPlotSettings
  1

  2

  4

  6

 40
0.0
 41
0.0
 42
0.0
 43
0.0
 44
0.0
 45
0.0
 46
0.0
 47
0.0
 48
0.0
 49
0.0
140
0.0
141
0.0
142
1.0
143
1.0
 70
            1024
 72
               0
 73
               0
 74
               0
  7

 75
               0
147
1.0
148
0.0
149
0.0
100
AcDbLayout
  1
Model
 70
               0
 71
               0
 10
0.0
 20
0.0
 11
0.0
 21
0.0
 12
0.0
 22
0.0
 32
0.0
 14
0.0
 24
0.0
 34
0.0
 15
0.0
 25
0.0
 35
0.0
146
0.0
 13
0.0
 23
0.0
 33
0.0
 16
0.0
 26
0.0
 36
0.0
 17
0.0
 27
0.0
 37
0.0
 76
               0
330
A
331
0
345
0
346
0
  0
LAYOUT
  5
21
102
{ACAD_REACTORS
330
1E
102
}
100
AcDbPlotSettings
  1

  2

  4

  6

 40
0.0
 41
0.0
 42
0.0
 43
0.0
 44
0.0
 45
0.0
 46
0.0
 47
0.0
 48
0.0
 49
0.0
140
0.0
141
0.0
142
1.0
143
1.0
 70
               0
 72
               0
 73
               0
 74
               0
  7

 75
               0
147
1.0
148
0.0
149
0.0
100
AcDbLayout
  1
Layout1
 70
               0
 71
               0
 10
0.0
 20
0.0
 11
0.0
 21
0.0
 12
0.0
 22
0.0
 32
0.0
 14
0.0
 24
0.0
 34
0.0
 15
0.0
 25
0.0
 35
0.0
146
0.0
 13
0.0
 23
0.0
 33
0.0
 16
0.0
 26
0.0
 36
0.0
 17
0.0
 27
0.0
 37
0.0
 76
               0
330
B
331
0
345
0
346
0
  0
DICTIONARY
  5
1E
102
{ACAD_REACTORS
330
19
102
}
100
AcDbDictionary
280
               0
281
               1
  3
Layout1
350
21
  3
Model
350
20
  0
DICTIONARY
  5
22
102
{ACAD_REACTORS
330
19
102
}
100
AcDbDictionary
280
               0
281
               1
  0
ENDSEC
  0
EOF
