  0
SECTION
  2
HEADER
  9
$ACADVER
  1
AC1015
  9
$ACADMAINTVER
 70
               6
  9
$DWGCODEPAGE
  3
DOS437
  9
$INSBASE
 10
0.0
 20
0.0
 30
0.0
  9
$EXTMIN
 10
1.2615995570743113
 20
-71.070360371924636
 30
1.0000000000000000E+20
  9
$EXTMAX
 10
542.91152878606738
 20
203.48170840013702
 30
-1.0000000000000000E+20
  9
$LIMMIN
 10
0.0
 20
0.0
  9
$LIMMAX
 10
0.0
 20
0.0
  9
$ORTHOMODE
 70
               0
  9
$REGENMODE
 70
               1
  9
$FILLMODE
 70
               1
  9
$QTEXTMODE
 70
               0
  9
$MIRRTEXT
 70
               1
  9
$LTSCALE
 40
0.1
  9
$ATTMODE
 70
               1
  9
$TEXTSIZE
 40
0.2
  9
$TRACEWID
 40
0.05
  9
$TEXTSTYLE
  7
Standard
  9
$CLAYER
  8
0
  9
$CELTYPE
  6
ByLayer
  9
$CECOLOR
 62
             256
  9
$CELTSCALE
 40
1.0
  9
$DISPSILH
 70
               0
  9
$DIMSCALE
 40
1.0
  9
$DIMASZ
 40
0.18
  9
$DIMEXO
 40
0.0625
  9
$DIMDLI
 40
0.38
  9
$DIMRND
 40
0.0
  9
$DIMDLE
 40
0.0
  9
$DIMEXE
 40
0.18
  9
$DIMTP
 40
0.0
  9
$DIMTM
 40
0.0
  9
$DIMTXT
 40
0.18
  9
$DIMCEN
 40
0.09
  9
$DIMTSZ
 40
0.0
  9
$DIMTOL
 70
               0
  9
$DIMLIM
 70
               0
  9
$DIMTIH
 70
               1
  9
$DIMTOH
 70
               1
  9
$DIMSE1
 70
               0
  9
$DIMSE2
 70
               0
  9
$DIMTAD
 70
               0
  9
$DIMZIN
 70
               0
  9
$DIMBLK
  1

  9
$DIMASO
 70
               1
  9
$DIMSHO
 70
               1
  9
$DIMPOST
  1

  9
$DIMAPOST
  1

  9
$DIMALT
 70
               0
  9
$DIMALTD
 70
               2
  9
$DIMALTF
 40
25.399999999999999
  9
$DIMLFAC
 40
1.0
  9
$DIMTOFL
 70
               0
  9
$DIMTVP
 40
0.0
  9
$DIMTIX
 70
               0
  9
$DIMSOXD
 70
               0
  9
$DIMSAH
 70
               0
  9
$DIMBLK1
  1

  9
$DIMBLK2
  1

  9
$DIMSTYLE
  2
Standard
  9
$DIMCLRD
 70
               0
  9
$DIMCLRE
 70
               0
  9
$DIMCLRT
 70
               0
  9
$DIMTFAC
 40
1.0
  9
$DIMGAP
 40
0.09
  9
$DIMJUST
 70
               0
  9
$DIMSD1
 70
               0
  9
$DIMSD2
 70
               0
  9
$DIMTOLJ
 70
               1
  9
$DIMTZIN
 70
               0
  9
$DIMALTZ
 70
               0
  9
$DIMALTTZ
 70
               0
  9
$DIMUPT
 70
               0
  9
$DIMDEC
 70
               4
  9
$DIMTDEC
 70
               4
  9
$DIMALTU
 70
               2
  9
$DIMALTTD
 70
               2
  9
$DIMTXSTY
  7
Standard
  9
$DIMAUNIT
 70
               0
  9
$DIMADEC
 70
               0
  9
$DIMALTRND
 40
0.0
  9
$DIMAZIN
 70
               0
  9
$DIMDSEP
 70
               0
  9
$DIMATFIT
 70
               3
  9
$DIMFRAC
 70
               0
  9
$DIMLDRBLK
  1

  9
$DIMLUNIT
 70
               2
  9
$DIMLWD
 70
               0
  9
$DIMLWE
 70
               0
  9
$DIMTMOVE
 70
               0
  9
$LUNITS
 70
               2
  9
$LUPREC
 70
               4
  9
$SKETCHINC
 40
0.1
  9
$FILLETRAD
 40
0.0
  9
$AUNITS
 70
               0
  9
$AUPREC
 70
               0
  9
$MENU
  1
acad
  9
$ELEVATION
 40
0.0
  9
$PELEVATION
 40
0.0
  9
$THICKNESS
 40
0.0
  9
$LIMCHECK
 70
               0
  9
$CHAMFERA
 40
0.0
  9
$CHAMFERB
 40
0.0
  9
$CHAMFERC
 40
0.0
  9
$CHAMFERD
 40
0.0
  9
$SKPOLY
 70
               0
  9
$TDCREATE
 40
0.000000000
  9
$TDUCREATE
 40
0.000000000
  9
$TDUPDATE
 40
0.000000000
  9
$TDUUPDATE
 40
0.000000000
  9
$TDINDWG
 40
0.0000000000
  9
$TDUSRTIMER
 40
0.0000000000
  9
$USRTIMER
 70
               1
  9
$ANGBASE
 50
0.0
  9
$ANGDIR
 70
               0
  9
$PDMODE
 70
               2
  9
$PDSIZE
 40
1.5
  9
$PLINEWID
 40
0.0
  9
$SPLFRAME
 70
               0
  9
$SPLINETYPE
 70
               6
  9
$SPLINESEGS
 70
               8
  9
$HANDSEED
  5
200
  9
$SURFTAB1
 70
               6
  9
$SURFTAB2
 70
               6
  9
$SURFTYPE
 70
               6
  9
$SURFU
 70
               6
  9
$SURFV
 70
               6
  9
$UCSBASE
  2

  9
$UCSNAME
  2

  9
$UCSORG
 10
0.0
 20
0.0
 30
0.0
  9
$UCSXDIR
 10
1.0
 20
0.0
 30
0.0
  9
$UCSYDIR
 10
0.0
 20
1.0
 30
0.0
  9
$UCSORTHOREF
  2

  9
$UCSORTHOVIEW
 70
               0
  9
$UCSORGTOP
 10
0.0
 20
0.0
 30
0.0
  9
$UCSORGBOTTOM
 10
0.0
 20
0.0
 30
0.0
  9
$UCSORGLEFT
 10
0.0
 20
0.0
 30
0.0
  9
$UCSORGRIGHT
 10
0.0
 20
0.0
 30
0.0
  9
$UCSORGFRONT
 10
0.0
 20
0.0
 30
0.0
  9
$UCSORGBACK
 10
0.0
 20
0.0
 30
0.0
  9
$PUCSBASE
  2

  9
$PUCSNAME
  2

  9
$PUCSORG
 10
0.0
 20
0.0
 30
0.0
  9
$PUCSXDIR
 10
1.0
 20
0.0
 30
0.0
  9
$PUCSYDIR
 10
0.0
 20
1.0
 30
0.0
  9
$PUCSORTHOREF
  2

  9
$PUCSORTHOVIEW
 70
               0
  9
$PUCSORGTOP
 10
0.0
 20
0.0
 30
0.0
  9
$PUCSORGBOTTOM
 10
0.0
 20
0.0
 30
0.0
  9
$PUCSORGLEFT
 10
0.0
 20
0.0
 30
0.0
  9
$PUCSORGRIGHT
 10
0.0
 20
0.0
 30
0.0
  9
$PUCSORGFRONT
 10
0.0
 20
0.0
 30
0.0
  9
$PUCSORGBACK
 10
0.0
 20
0.0
 30
0.0
  9
$USERI1
 70
               0
  9
$USERI2
 70
               0
  9
$USERI3
 70
               0
  9
$USERI4
 70
               0
  9
$USERI5
 70
               0
  9
$USERR1
 40
0.0
  9
$USERR2
 40
0.0
  9
$USERR3
 40
0.0
  9
$USERR4
 40
0.0
  9
$USERR5
 40
0.0
  9
$WORLDVIEW
 70
               1
  9
$SHADEDGE
 70
               3
  9
$SHADEDIF
 70
              70
  9
$TILEMODE
 70
               1
  9
$MAXACTVP
 70
              16
  9
$PINSBASE
 10
0.0
 20
0.0
 30
0.0
  9
$PLIMCHECK
 70
               0
  9
$PEXTMIN
 10
1.0000000000000000E+20
 20
1.0000000000000000E+20
 30
1.0000000000000000E+20
  9
$PEXTMAX
 10
-1.0000000000000000E+20
 20
-1.0000000000000000E+20
 30
-1.0000000000000000E+20
  9
$PLIMMIN
 10
0.0
 20
0.0
  9
$PLIMMAX
 10
12.0
 20
9.0
  9
$UNITMODE
 70
               0
  9
$VISRETAIN
 70
               0
  9
$PLINEGEN
 70
               1
  9
$PSLTSCALE
 70
               0
  9
$TREEDEPTH
 70
            3020
  9
$CMLSTYLE
  2
Standard
  9
$CMLJUST
 70
               0
  9
$CMLSCALE
 40
1.0
  9
$PROXYGRAPHICS
 70
               0
  9
$MEASUREMENT
 70
               0
  9
$CELWEIGHT
370
              -1
  9
$ENDCAPS
280
               0
  9
$JOINSTYLE
280
               0
  9
$LWDISPLAY
290
               0
  9
$INSUNITS
 70
               0
  9
$HYPERLINKBASE
  1

  9
$STYLESHEET
  1

  9
$XEDIT
290
               1
  9
$CEPSNTYPE
380
               0
  9
$PSTYLEMODE
290
               1
  9
$FINGERPRINTGUID
  2

  9
$VERSIONGUID
  2

  9
$EXTNAMES
290
               1
  9
$PSVPSCALE
 40
0.0
  0
ENDSEC
  0
SECTION
  2
CLASSES
  0
CLASS
  1
LWPOLYLINE
  2
AcDbPolyline
  3
AutoCAD 2000
 90
        0
280
               0
281
               1
  0
CLASS
  1
IMAGE
  2
AcDbRasterImage
  3
ISM
 90
      127
280
               0
281
               1
  0
CLASS
  1
OLE2FRAME
  2
AcDbOle2Frame
  3
AutoCAD 2000
 90
        0
280
               0
281
               1
  0
CLASS
  1
HATCH
  2
AcDbHatch
  3
AutoCAD 2000
 90
        0
280
               0
281
               1
  0
CLASS
  1
DICTIONARYVAR
  2
AcDbDictionaryVar
  3
AutoCAD 2000
 90
        0
280
               0
281
               0
  0
CLASS
  1
RASTERVARIABLES
  2
AcDbRasterVariables
  3
ISM
 90
        0
280
               0
281
               0
  0
CLASS
  1
IMAGEDEF
  2
AcDbRasterImageDef
  3
ISM
 90
        0
280
               0
281
               0
  0
CLASS
  1
IMAGEDEF_REACTOR
  2
AcDbRasterImageDefReactor
  3
ISM
 90
        1
280
               0
281
               0
  0
CLASS
  1
IDBUFFER
  2
AcDbIdBuffer
  3
AutoCAD 2000
 90
        0
280
               0
281
               0
  0
CLASS
  1
SPATIAL_FILTER
  2
AcDbSpatialFilter
  3
AutoCAD 2000
 90
        0
280
               0
281
               0
  0
CLASS
  1
XRECORD
  2
AcDbXrecord
  3
AutoCAD 2000
 90
        0
280
               0
281
               0
  0
CLASS
  1
SORTENTSTABLE
  2
AcDbSortentsTable
  3
AutoCAD 2000
 90
        0
280
               0
281
               0
  0
CLASS
  1
LAYER_INDEX
  2
AcDbLayerIndex
  3
AutoCAD 2000
 90
        0
280
               0
281
               0
  0
CLASS
  1
SPATIAL_INDEX
  2
AcDbSpatialIndex
  3
AutoCAD 2000
 90
        0
280
               0
281
               0
  0
CLASS
  1
OBJECT_PTR
  2
CAseDLPNTableRecord
  3
"ASE-LPNTableRecord"
 90
        1
280
               0
281
               0
  0
CLASS
  1
LAYOUT
  2
AcDbLayout
  3
AutoCAD 2000
 90
        0
280
               0
281
               0
  0
CLASS
  1
PLOTSETTINGS
  2
AcDbPlotSettings
  3
AutoCAD 2000
 90
        0
280
               0
281
               0
  0
CLASS
  1
ACDBDICTIONARYWDFLT
  2
AcDbDictionaryWithDefault
  3
AutoCAD 2000
 90
        0
280
               0
281
               0
  0
CLASS
  1
ACDBPLACEHOLDER
  2
AcDbPlaceHolder
  3
AutoCAD 2000
 90
        0
280
               0
281
               0
  0
ENDSEC
  0
SECTION
  2
TABLES
  0
TABLE
  2
VPORT
  5
7
100
AcDbSymbolTable
 70
               1
  0
VPORT
  5
15
100
AcDbSymbolTableRecord
100
AcDbViewportTableRecord
  2
*ACTIVE
 70
               0
 10
0.0
 20
0.0
 11
1.0
 21
1.0
 12
6.5912879999999996
 22
4.5791839999999997
 13
0.0
 23
0.0
 14
1.0
 24
1.0
 15
0.0
 25
0.0
 16
0.0
 26
0.0
 36
1.0
 17
0.0
 27
0.0
 37
0.0
 40
9.1583690000000004
 41
0.688564
 42
50.0
 43
0.0
 44
0.0
 50
0.0
 51
0.0
 71
               0
 72
             100
 73
               1
 74
               1
 75
               0
 76
               0
 77
               0
 78
               0
281
               0
 65
               0
110
0.0
120
0.0
130
0.0
111
1.0
121
0.0
131
0.0
112
0.0
122
1.0
132
0.0
345
0
346
0
 79
               0
146
0.0
  0
ENDTAB
  0
TABLE
  2
LTYPE
  5
4
100
AcDbSymbolTable
 70
              48
  0
LTYPE
  5
11
100
AcDbSymbolTableRecord
100
AcDbLinetypeTableRecord
  2
ByBlock
 70
              64
  3

 72
              65
 73
               0
 40
0.0
  0
LTYPE
  5
12
100
AcDbSymbolTableRecord
100
AcDbLinetypeTableRecord
  2
ByLayer
 70
              64
  3

 72
              65
 73
               0
 40
0.0
  0
LTYPE
  5
13
100
AcDbSymbolTableRecord
100
AcDbLinetypeTableRecord
  2
Continuous
 70
              64
  3
Solid line
 72
              65
 73
               0
 40
0.0
  0
LTYPE
  5
23
100
AcDbSymbolTableRecord
100
AcDbLinetypeTableRecord
  2
DOTTED
 70
              64
  3
Punteggiato
 72
              65
 73
               2
 40
12.0
 49
2.0
 74
               0
 49
-10.0
 74
               0
  0
LTYPE
  5
24
100
AcDbSymbolTableRecord
100
AcDbLinetypeTableRecord
  2
DASHEDS
 70
              64
  3
Tratteggiato piccolo
 72
              65
 73
               2
 40
20.0
 49
10.0
 74
               0
 49
-10.0
 74
               0
  0
LTYPE
  5
25
100
AcDbSymbolTableRecord
100
AcDbLinetypeTableRecord
  2
DASHEDM
 70
              64
  3
Tratteggiato medio
 72
              65
 73
               2
 40
40.0
 49
20.0
 74
               0
 49
-20.0
 74
               0
  0
LTYPE
  5
26
100
AcDbSymbolTableRecord
100
AcDbLinetypeTableRecord
  2
DASHEDL
 70
              64
  3
Tratteggiato grande
 72
              65
 73
               2
 40
60.0
 49
40.0
 74
               0
 49
-20.0
 74
               0
  0
LTYPE
  5
27
100
AcDbSymbolTableRecord
100
AcDbLinetypeTableRecord
  2
CENTERED
 70
              64
  3
Tratteggiato misto
 72
              65
 73
               4
 40
70.0
 49
10.0
 74
               0
 49
-20.0
 74
               0
 49
20.0
 74
               0
 49
-20.0
 74
               0
  0
LTYPE
  5
28
100
AcDbSymbolTableRecord
100
AcDbLinetypeTableRecord
  2
POINTLINE
 70
              64
  3
Punto e linea
 72
              65
 73
               4
 40
62.0
 49
20.0
 74
               0
 49
-20.0
 74
               0
 49
2.0
 74
               0
 49
-20.0
 74
               0
  0
LTYPE
  5
29
100
AcDbSymbolTableRecord
100
AcDbLinetypeTableRecord
  2
2POINTLINE
 70
              64
  3
Due punti e linea
 72
              65
 73
               6
 40
84.0
 49
20.0
 74
               0
 49
-20.0
 74
               0
 49
2.0
 74
               0
 49
-20.0
 74
               0
 49
2.0
 74
               0
 49
-20.0
 74
               0
  0
LTYPE
  5
2A
100
AcDbSymbolTableRecord
100
AcDbLinetypeTableRecord
  2
ACAD_ISO02W100
 70
              64
  3
ISO Tratteggiata
 72
              65
 73
               2
 40
150.0
 49
120.0
 74
               0
 49
-30.0
 74
               0
  0
LTYPE
  5
2B
100
AcDbSymbolTableRecord
100
AcDbLinetypeTableRecord
  2
ACAD_ISO03W100
 70
              64
  3
ISO Tratto spazio
 72
              65
 73
               2
 40
300.0
 49
120.0
 74
               0
 49
-180.0
 74
               0
  0
LTYPE
  5
2C
100
AcDbSymbolTableRecord
100
AcDbLinetypeTableRecord
  2
ACAD_ISO04W100
 70
              64
  3
ISO Tratto lungo punto
 72
              65
 73
               4
 40
305.0
 49
240.0
 74
               0
 49
-30.0
 74
               0
 49
5.0
 74
               0
 49
-30.0
 74
               0
  0
LTYPE
  5
2D
100
AcDbSymbolTableRecord
100
AcDbLinetypeTableRecord
  2
ACAD_ISO05W100
 70
              64
  3
ISO Tratto lungo doppio punto
 72
              65
 73
               6
 40
340.0
 49
240.0
 74
               0
 49
-30.0
 74
               0
 49
5.0
 74
               0
 49
-30.0
 74
               0
 49
5.0
 74
               0
 49
-30.0
 74
               0
  0
LTYPE
  5
2E
100
AcDbSymbolTableRecord
100
AcDbLinetypeTableRecord
  2
ACAD_ISO06W100
 70
              64
  3
ISO Tratto lungo triplo punto
 72
              65
 73
               8
 40
375.0
 49
240.0
 74
               0
 49
-30.0
 74
               0
 49
5.0
 74
               0
 49
-30.0
 74
               0
 49
5.0
 74
               0
 49
-30.0
 74
               0
 49
5.0
 74
               0
 49
-30.0
 74
               0
  0
LTYPE
  5
2F
100
AcDbSymbolTableRecord
100
AcDbLinetypeTableRecord
  2
ACAD_ISO07W100
 70
              64
  3
ISO Punteggiata
 72
              65
 73
               2
 40
35.0
 49
5.0
 74
               0
 49
-30.0
 74
               0
  0
LTYPE
  5
30
100
AcDbSymbolTableRecord
100
AcDbLinetypeTableRecord
  2
ACAD_ISO08W100
 70
              64
  3
ISO Tratto lungo tratto corto
 72
              65
 73
               4
 40
360.0
 49
240.0
 74
               0
 49
-30.0
 74
               0
 49
60.0
 74
               0
 49
-30.0
 74
               0
  0
LTYPE
  5
31
100
AcDbSymbolTableRecord
100
AcDbLinetypeTableRecord
  2
ACAD_ISO09W100
 70
              64
  3
ISO Tratto lungo doppio tratto corto
 72
              65
 73
               6
 40
450.0
 49
240.0
 74
               0
 49
-30.0
 74
               0
 49
60.0
 74
               0
 49
-30.0
 74
               0
 49
60.0
 74
               0
 49
-30.0
 74
               0
  0
LTYPE
  5
32
100
AcDbSymbolTableRecord
100
AcDbLinetypeTableRecord
  2
ACAD_ISO10W100
 70
              64
  3
ISO Tratto punto
 72
              65
 73
               4
 40
185.0
 49
120.0
 74
               0
 49
-30.0
 74
               0
 49
5.0
 74
               0
 49
-30.0
 74
               0
  0
LTYPE
  5
33
100
AcDbSymbolTableRecord
100
AcDbLinetypeTableRecord
  2
ACAD_ISO11W100
 70
              64
  3
ISO Doppio tratto punto
 72
              65
 73
               6
 40
335.0
 49
120.0
 74
               0
 49
-30.0
 74
               0
 49
120.0
 74
               0
 49
-30.0
 74
               0
 49
5.0
 74
               0
 49
-30.0
 74
               0
  0
LTYPE
  5
34
100
AcDbSymbolTableRecord
100
AcDbLinetypeTableRecord
  2
ACAD_ISO12W100
 70
              64
  3
ISO Tratto doppio punto
 72
              65
 73
               6
 40
220.0
 49
120.0
 74
               0
 49
-30.0
 74
               0
 49
5.0
 74
               0
 49
-30.0
 74
               0
 49
5.0
 74
               0
 49
-30.0
 74
               0
  0
LTYPE
  5
35
100
AcDbSymbolTableRecord
100
AcDbLinetypeTableRecord
  2
ACAD_ISO13W100
 70
              64
  3
ISO Doppio tratto doppio punto
 72
              65
 73
               8
 40
370.0
 49
120.0
 74
               0
 49
-30.0
 74
               0
 49
120.0
 74
               0
 49
-30.0
 74
               0
 49
5.0
 74
               0
 49
-30.0
 74
               0
 49
5.0
 74
               0
 49
-30.0
 74
               0
  0
LTYPE
  5
36
100
AcDbSymbolTableRecord
100
AcDbLinetypeTableRecord
  2
ACAD_ISO14W100
 70
              64
  3
ISO Tratto triplo punto
 72
              65
 73
               8
 40
255.0
 49
120.0
 74
               0
 49
-30.0
 74
               0
 49
5.0
 74
               0
 49
-30.0
 74
               0
 49
5.0
 74
               0
 49
-30.0
 74
               0
 49
5.0
 74
               0
 49
-30.0
 74
               0
  0
LTYPE
  5
37
100
AcDbSymbolTableRecord
100
AcDbLinetypeTableRecord
  2
ACAD_ISO15W100
 70
              64
  3
ISO Doppio tratto triplo punto
 72
              65
 73
              10
 40
405.0
 49
120.0
 74
               0
 49
-30.0
 74
               0
 49
120.0
 74
               0
 49
-30.0
 74
               0
 49
5.0
 74
               0
 49
-30.0
 74
               0
 49
5.0
 74
               0
 49
-30.0
 74
               0
 49
5.0
 74
               0
 49
-30.0
 74
               0
  0
LTYPE
  5
38
100
AcDbSymbolTableRecord
100
AcDbLinetypeTableRecord
  2
BORDER
 70
              64
  3
AutoCAD BORDER
 72
              65
 73
               6
 40
450.0
 49
128.0
 74
               0
 49
-64.0
 74
               0
 49
128.0
 74
               0
 49
-64.0
 74
               0
 49
2.0
 74
               0
 49
-64.0
 74
               0
  0
LTYPE
  5
39
100
AcDbSymbolTableRecord
100
AcDbLinetypeTableRecord
  2
BORDER2
 70
              64
  3
AutoCAD BORDER2
 72
              65
 73
               6
 40
226.0
 49
64.0
 74
               0
 49
-32.0
 74
               0
 49
64.0
 74
               0
 49
-32.0
 74
               0
 49
2.0
 74
               0
 49
-32.0
 74
               0
  0
LTYPE
  5
3A
100
AcDbSymbolTableRecord
100
AcDbLinetypeTableRecord
  2
BORDERX2
 70
              64
  3
AutoCAD BORDERX2
 72
              65
 73
               6
 40
898.0
 49
256.0
 74
               0
 49
-128.0
 74
               0
 49
256.0
 74
               0
 49
-128.0
 74
               0
 49
2.0
 74
               0
 49
-128.0
 74
               0
  0
LTYPE
  5
3B
100
AcDbSymbolTableRecord
100
AcDbLinetypeTableRecord
  2
CENTER
 70
              64
  3
AutoCAD CENTER
 72
              65
 73
               4
 40
512.0
 49
320.0
 74
               0
 49
-64.0
 74
               0
 49
64.0
 74
               0
 49
-64.0
 74
               0
  0
LTYPE
  5
3C
100
AcDbSymbolTableRecord
100
AcDbLinetypeTableRecord
  2
CENTER2
 70
              64
  3
AutoCAD CENTER2
 72
              65
 73
               4
 40
256.0
 49
160.0
 74
               0
 49
-32.0
 74
               0
 49
32.0
 74
               0
 49
-32.0
 74
               0
  0
LTYPE
  5
3D
100
AcDbSymbolTableRecord
100
AcDbLinetypeTableRecord
  2
CENTERX2
 70
              64
  3
AutoCAD CENTERX2
 72
              65
 73
               4
 40
1024.0
 49
640.0
 74
               0
 49
-128.0
 74
               0
 49
128.0
 74
               0
 49
-128.0
 74
               0
  0
LTYPE
  5
3E
100
AcDbSymbolTableRecord
100
AcDbLinetypeTableRecord
  2
DASHDOT
 70
              64
  3
AutoCAD DASHDOT
 72
              65
 73
               4
 40
258.0
 49
128.0
 74
               0
 49
-64.0
 74
               0
 49
2.0
 74
               0
 49
-64.0
 74
               0
  0
LTYPE
  5
3F
100
AcDbSymbolTableRecord
100
AcDbLinetypeTableRecord
  2
DASHDOT2
 70
              64
  3
AutoCAD DASHDOT2
 72
              65
 73
               4
 40
130.0
 49
64.0
 74
               0
 49
-32.0
 74
               0
 49
2.0
 74
               0
 49
-32.0
 74
               0
  0
LTYPE
  5
40
100
AcDbSymbolTableRecord
100
AcDbLinetypeTableRecord
  2
DASHDOTX2
 70
              64
  3
AutoCAD DASHDOTX2
 72
              65
 73
               4
 40
514.0
 49
256.0
 74
               0
 49
-128.0
 74
               0
 49
2.0
 74
               0
 49
-128.0
 74
               0
  0
LTYPE
  5
41
100
AcDbSymbolTableRecord
100
AcDbLinetypeTableRecord
  2
DASHED
 70
              64
  3
AutoCAD DASHED
 72
              65
 73
               2
 40
192.0
 49
128.0
 74
               0
 49
-64.0
 74
               0
  0
LTYPE
  5
42
100
AcDbSymbolTableRecord
100
AcDbLinetypeTableRecord
  2
DASHED2
 70
              64
  3
AutoCAD DASHED2
 72
              65
 73
               2
 40
96.0
 49
64.0
 74
               0
 49
-32.0
 74
               0
  0
LTYPE
  5
43
100
AcDbSymbolTableRecord
100
AcDbLinetypeTableRecord
  2
DASHEDX2
 70
              64
  3
AutoCAD DASHEDX2
 72
              65
 73
               2
 40
384.0
 49
256.0
 74
               0
 49
-128.0
 74
               0
  0
LTYPE
  5
44
100
AcDbSymbolTableRecord
100
AcDbLinetypeTableRecord
  2
DIVIDE
 70
              64
  3
AutoCAD DIVIDE
 72
              65
 73
               6
 40
324.0
 49
128.0
 74
               0
 49
-64.0
 74
               0
 49
2.0
 74
               0
 49
-64.0
 74
               0
 49
2.0
 74
               0
 49
-64.0
 74
               0
  0
LTYPE
  5
45
100
AcDbSymbolTableRecord
100
AcDbLinetypeTableRecord
  2
DIVIDE2
 70
              64
  3
AutoCAD DIVIDE2
 72
              65
 73
               6
 40
164.0
 49
64.0
 74
               0
 49
-32.0
 74
               0
 49
2.0
 74
               0
 49
-32.0
 74
               0
 49
2.0
 74
               0
 49
-32.0
 74
               0
  0
LTYPE
  5
46
100
AcDbSymbolTableRecord
100
AcDbLinetypeTableRecord
  2
DIVIDEX2
 70
              64
  3
AutoCAD DIVIDEX2
 72
              65
 73
               6
 40
644.0
 49
256.0
 74
               0
 49
-128.0
 74
               0
 49
2.0
 74
               0
 49
-128.0
 74
               0
 49
2.0
 74
               0
 49
-128.0
 74
               0
  0
LTYPE
  5
47
100
AcDbSymbolTableRecord
100
AcDbLinetypeTableRecord
  2
DOT
 70
              64
  3
AutoCAD DOT
 72
              65
 73
               2
 40
66.0
 49
2.0
 74
               0
 49
-64.0
 74
               0
  0
LTYPE
  5
48
100
AcDbSymbolTableRecord
100
AcDbLinetypeTableRecord
  2
DOT2
 70
              64
  3
AutoCAD DOT2
 72
              65
 73
               2
 40
34.0
 49
2.0
 74
               0
 49
-32.0
 74
               0
  0
LTYPE
  5
49
100
AcDbSymbolTableRecord
100
AcDbLinetypeTableRecord
  2
DOTX2
 70
              64
  3
AutoCAD DOTX2
 72
              65
 73
               2
 40
130.0
 49
2.0
 74
               0
 49
-128.0
 74
               0
  0
LTYPE
  5
4A
100
AcDbSymbolTableRecord
100
AcDbLinetypeTableRecord
  2
HIDDEN
 70
              64
  3
AutoCAD HIDDEN
 72
              65
 73
               2
 40
96.0
 49
64.0
 74
               0
 49
-32.0
 74
               0
  0
LTYPE
  5
4B
100
AcDbSymbolTableRecord
100
AcDbLinetypeTableRecord
  2
HIDDEN2
 70
              64
  3
AutoCAD HIDDEN2
 72
              65
 73
               2
 40
48.0
 49
32.0
 74
               0
 49
-16.0
 74
               0
  0
LTYPE
  5
4C
100
AcDbSymbolTableRecord
100
AcDbLinetypeTableRecord
  2
HIDDENX2
 70
              64
  3
AutoCAD HIDDENX2
 72
              65
 73
               2
 40
192.0
 49
128.0
 74
               0
 49
-64.0
 74
               0
  0
LTYPE
  5
4D
100
AcDbSymbolTableRecord
100
AcDbLinetypeTableRecord
  2
PHANTOM
 70
              64
  3
AutoCAD PHANTOM
 72
              65
 73
               6
 40
640.0
 49
320.0
 74
               0
 49
-64.0
 74
               0
 49
64.0
 74
               0
 49
-64.0
 74
               0
 49
64.0
 74
               0
 49
-64.0
 74
               0
  0
LTYPE
  5
4E
100
AcDbSymbolTableRecord
100
AcDbLinetypeTableRecord
  2
PHANTOM2
 70
              64
  3
AutoCAD PHANTOM2
 72
              65
 73
               6
 40
320.0
 49
160.0
 74
               0
 49
-32.0
 74
               0
 49
32.0
 74
               0
 49
-32.0
 74
               0
 49
32.0
 74
               0
 49
-32.0
 74
               0
  0
LTYPE
  5
4F
100
AcDbSymbolTableRecord
100
AcDbLinetypeTableRecord
  2
PHANTOMX2
 70
              64
  3
AutoCAD PHANTOMX2
 72
              65
 73
               6
 40
1280.0
 49
640.0
 74
               0
 49
-128.0
 74
               0
 49
128.0
 74
               0
 49
-128.0
 74
               0
 49
128.0
 74
               0
 49
-128.0
 74
               0
  0
ENDTAB
  0
TABLE
  2
LAYER
  5
2
100
AcDbSymbolTable
 70
               1
  0
LAYER
  5
14
100
AcDbSymbolTableRecord
100
AcDbLayerTableRecord
  2
0
 70
               0
 62
               7
  6
Continuous
290
               1
370
              -3
390
1D
  0
ENDTAB
  0
TABLE
  2
STYLE
  5
3
100
AcDbSymbolTable
 70
              10
  0
STYLE
  5
17
100
AcDbSymbolTableRecord
100
AcDbTextStyleTableRecord
  2
Standard
 70
               0
 40
0.0
 41
1.0
 50
0.0
 71
               0
 42
0.0
  3
txt
  4

  0
STYLE
  5
50
100
AcDbSymbolTableRecord
100
AcDbTextStyleTableRecord
  2
SIMPLEX
 70
               0
 40
10.0
 41
0.8
 50
0.0
 71
               0
 42
10.0
  3
simplex
  4

  0
STYLE
  5
51
100
AcDbSymbolTableRecord
100
AcDbTextStyleTableRecord
  2
EUROSTYLE
 70
               0
 40
10.0
 41
0.88
 50
0.0
 71
               0
 42
10.0
  3
isocp
  4

  0
STYLE
  5
52
100
AcDbSymbolTableRecord
100
AcDbTextStyleTableRecord
  2
SANSERIF
 70
               0
 40
10.0
 41
0.9
 50
0.0
 71
               0
 42
10.0
  3
romand
  4

  0
STYLE
  5
53
100
AcDbSymbolTableRecord
100
AcDbTextStyleTableRecord
  2
TRIPLEX
 70
               0
 40
10.0
 41
0.86
 50
0.0
 71
               0
 42
10.0
  3
romant
  4

  0
STYLE
  5
54
100
AcDbSymbolTableRecord
100
AcDbTextStyleTableRecord
  2
COMPLEX
 70
               0
 40
10.0
 41
1.0
 50
0.0
 71
               0
 42
10.0
  3
complex
  4

  0
STYLE
  5
55
100
AcDbSymbolTableRecord
100
AcDbTextStyleTableRecord
  2
SCRIPT
 70
               0
 40
10.0
 41
0.98
 50
0.0
 71
               0
 42
10.0
  3
scripts
  4

  0
STYLE
  5
56
100
AcDbSymbolTableRecord
100
AcDbTextStyleTableRecord
  2
TRISCRIPT
 70
               0
 40
10.0
 41
0.89
 50
0.0
 71
               0
 42
10.0
  3
italict
  4

  0
STYLE
  5
57
100
AcDbSymbolTableRecord
100
AcDbTextStyleTableRecord
  2
BOLD
 70
               0
 40
10.0
 41
0.77
 50
0.0
 71
               0
 42
10.0
  3
romand
  4

  0
STYLE
  5
58
100
AcDbSymbolTableRecord
100
AcDbTextStyleTableRecord
  2
GOTHIC
 70
               0
 40
10.0
 41
0.86
 50
0.0
 71
               0
 42
10.0
  3
gothice
  4

  0
ENDTAB
  0
TABLE
  2
VIEW
  5
5
100
AcDbSymbolTable
 70
               0
  0
ENDTAB
  0
TABLE
  2
UCS
  5
6
100
AcDbSymbolTable
 70
               0
  0
ENDTAB
  0
TABLE
  2
APPID
  5
8
100
AcDbSymbolTable
 70
               1
  0
APPID
  5
16
100
AcDbSymbolTableRecord
100
AcDbRegAppTableRecord
  2
ACAD
 70
               0
  0
ENDTAB
  0
TABLE
  2
DIMSTYLE
  5
9
100
AcDbSymbolTable
 70
               1
100
AcDbDimStyleTable
 71
               0
  0
DIMSTYLE
105
18
100
AcDbSymbolTableRecord
100
AcDbDimStyleTableRecord
  2
Standard
 70
               0
  3

  4

 40
1.0
 41
0.18
 42
0.0625
 43
0.38
 44
0.18
 45
0.0
 46
0.0
 47
0.0
 48
0.0
 71
               0
 72
               0
 73
               1
 74
               1
 75
               0
 76
               0
 77
               0
 78
               0
 79
               0
140
0.18
141
0.09
142
0.0
143
25.399999999999999
144
1.0
145
0.0
146
1.0
147
0.09
148
0.0
170
               0
171
               2
172
               0
173
               0
174
               0
175
               0
176
               0
177
               0
178
               0
179
               0
271
               4
272
               4
273
               2
274
               2
275
               0
276
               0
277
               2
278
              46
279
               0
280
               0
281
               0
282
               0
283
               1
284
               0
285
               0
286
               0
288
               0
289
               3
340
17
341
0
342
0
343
0
344
0
371
              -2
372
              -2
  0
ENDTAB
  0
TABLE
  2
BLOCK_RECORD
  5
1
100
AcDbSymbolTable
 70
              15
  0
BLOCK_RECORD
  5
A
100
AcDbSymbolTableRecord
100
AcDbBlockTableRecord
  2
*MODEL_SPACE
340
20
  0
BLOCK_RECORD
  5
B
100
AcDbSymbolTableRecord
100
AcDbBlockTableRecord
  2
*PAPER_SPACE
340
21
  0
BLOCK_RECORD
  5
65
100
AcDbSymbolTableRecord
100
AcDbBlockTableRecord
  2
B03325C3C
340
0
102
{BLKREFS
331
70
102
}
  0
BLOCK_RECORD
  5
71
100
AcDbSymbolTableRecord
100
AcDbBlockTableRecord
  2
B03325EE8
340
0
102
{BLKREFS
331
7C
102
}
  0
BLOCK_RECORD
  5
7E
100
AcDbSymbolTableRecord
100
AcDbBlockTableRecord
  2
B033261E0
340
0
102
{BLKREFS
331
86
102
}
  0
BLOCK_RECORD
  5
8F
100
AcDbSymbolTableRecord
100
AcDbBlockTableRecord
  2
B03326608
340
0
102
{BLKREFS
331
97
102
}
  0
BLOCK_RECORD
  5
98
100
AcDbSymbolTableRecord
100
AcDbBlockTableRecord
  2
B02BEC35C
340
0
102
{BLKREFS
331
A0
102
}
  0
BLOCK_RECORD
  5
DA
100
AcDbSymbolTableRecord
100
AcDbBlockTableRecord
  2
B032F6468
340
0
102
{BLKREFS
331
EF
102
}
  0
BLOCK_RECORD
  5
114
100
AcDbSymbolTableRecord
100
AcDbBlockTableRecord
  2
B02C4450C
340
0
102
{BLKREFS
331
147
102
}
  0
BLOCK_RECORD
  5
116
100
AcDbSymbolTableRecord
100
AcDbBlockTableRecord
  2
B02C44558
340
0
102
{BLKREFS
331
133
102
}
  0
BLOCK_RECORD
  5
14C
100
AcDbSymbolTableRecord
100
AcDbBlockTableRecord
  2
B02BC8058
340
0
102
{BLKREFS
331
17F
102
}
  0
BLOCK_RECORD
  5
14E
100
AcDbSymbolTableRecord
100
AcDbBlockTableRecord
  2
B02BC80A4
340
0
102
{BLKREFS
331
16B
102
}
  0
BLOCK_RECORD
  5
1B8
100
AcDbSymbolTableRecord
100
AcDbBlockTableRecord
  2
B02483B30
340
0
102
{BLKREFS
331
1C0
102
}
  0
BLOCK_RECORD
  5
1C1
100
AcDbSymbolTableRecord
100
AcDbBlockTableRecord
  2
B02482AE4
340
0
102
{BLKREFS
331
1C9
102
}
  0
BLOCK_RECORD
  5
1D2
100
AcDbSymbolTableRecord
100
AcDbBlockTableRecord
  2
B0248C004
340
0
102
{BLKREFS
331
1DA
102
}
  0
BLOCK_RECORD
  5
1DC
100
AcDbSymbolTableRecord
100
AcDbBlockTableRecord
  2
B02483260
340
0
102
{BLKREFS
331
1E7
102
}
  0
BLOCK_RECORD
  5
1E8
100
AcDbSymbolTableRecord
100
AcDbBlockTableRecord
  2
B02483E38
340
0
102
{BLKREFS
331
1F3
102
}
  0
ENDTAB
  0
ENDSEC
  0
SECTION
  2
BLOCKS
  0
BLOCK
  5
D
100
AcDbEntity
  8
0
390
0
100
AcDbBlockBegin
  2
*MODEL_SPACE
 70
               0
 10
0.0
 20
0.0
 30
0.0
  3
*MODEL_SPACE
  1

  0
ENDBLK
  5
E
100
AcDbEntity
  8
0
390
0
100
AcDbBlockEnd
  0
BLOCK
  5
F
100
AcDbEntity
 67
               1
  8
0
390
0
100
AcDbBlockBegin
  2
*PAPER_SPACE
 70
               0
 10
0.0
 20
0.0
 30
0.0
  3
*PAPER_SPACE
  1

  0
ENDBLK
  5
10
100
AcDbEntity
 67
               1
  8
0
390
0
100
AcDbBlockEnd
  0
BLOCK
  5
66
100
AcDbEntity
  8
0
390
0
100
AcDbBlockBegin
  2
B03325C3C
 70
               0
 10
0.0
 20
0.0
 30
0.0
  3

  1

  0
CIRCLE
  5
67
100
AcDbEntity
  8
0
390
0
 62
               7
100
AcDbCircle
 10
144.97910151278009
 20
165.76542609138832
 30
0.0
 40
6.5
  0
CIRCLE
  5
68
100
AcDbEntity
  8
0
390
0
 62
               7
100
AcDbCircle
 10
169.97910151278009
 20
165.76542609138832
 30
0.0
 40
6.5
  0
CIRCLE
  5
69
100
AcDbEntity
  8
0
390
0
 62
               7
100
AcDbCircle
 10
194.97910151278009
 20
165.76542609138832
 30
0.0
 40
6.5
  0
CIRCLE
  5
6A
100
AcDbEntity
  8
0
390
0
 62
               7
100
AcDbCircle
 10
219.97910151278009
 20
165.76542609138832
 30
0.0
 40
6.5
  0
CIRCLE
  5
6B
100
AcDbEntity
  8
0
390
0
 62
               7
100
AcDbCircle
 10
244.97910151278009
 20
165.76542609138832
 30
0.0
 40
6.5
  0
CIRCLE
  5
6C
100
AcDbEntity
  8
0
390
0
 62
               7
100
AcDbCircle
 10
269.97910151278006
 20
165.76542609138832
 30
0.0
 40
6.5
  0
CIRCLE
  5
6D
100
AcDbEntity
  8
0
390
0
 62
               7
100
AcDbCircle
 10
294.97910151278006
 20
165.76542609138832
 30
0.0
 40
6.5
  0
CIRCLE
  5
6E
100
AcDbEntity
  8
0
390
0
 62
               7
100
AcDbCircle
 10
344.97910151278006
 20
165.76542609138832
 30
0.0
 40
6.5
  0
ENDBLK
  5
6F
100
AcDbEntity
  8
0
390
0
100
AcDbBlockEnd
  0
BLOCK
  5
72
100
AcDbEntity
  8
0
390
0
100
AcDbBlockBegin
  2
B03325EE8
 70
               0
 10
0.0
 20
0.0
 30
0.0
  3

  1

  0
CIRCLE
  5
73
100
AcDbEntity
  8
0
390
0
 62
               7
100
AcDbCircle
 10
159.0719192393743
 20
185.06645906476734
 30
0.0
 40
6.5
  0
CIRCLE
  5
74
100
AcDbEntity
  8
0
390
0
 62
               7
100
AcDbCircle
 10
184.0719192393743
 20
185.06645906476734
 30
0.0
 40
6.5
  0
CIRCLE
  5
75
100
AcDbEntity
  8
0
390
0
 62
               7
100
AcDbCircle
 10
209.0719192393743
 20
185.06645906476734
 30
0.0
 40
6.5
  0
CIRCLE
  5
76
100
AcDbEntity
  8
0
390
0
 62
               7
100
AcDbCircle
 10
234.0719192393743
 20
185.06645906476734
 30
0.0
 40
6.5
  0
CIRCLE
  5
77
100
AcDbEntity
  8
0
390
0
 62
               7
100
AcDbCircle
 10
259.07191923937427
 20
185.06645906476734
 30
0.0
 40
6.5
  0
CIRCLE
  5
78
100
AcDbEntity
  8
0
390
0
 62
               7
100
AcDbCircle
 10
284.07191923937427
 20
185.06645906476734
 30
0.0
 40
6.5
  0
CIRCLE
  5
79
100
AcDbEntity
  8
0
390
0
 62
               7
100
AcDbCircle
 10
309.07191923937427
 20
185.06645906476734
 30
0.0
 40
6.5
  0
CIRCLE
  5
7A
100
AcDbEntity
  8
0
390
0
 62
               7
100
AcDbCircle
 10
359.07191923937427
 20
185.06645906476734
 30
0.0
 40
6.5
  0
ENDBLK
  5
7B
100
AcDbEntity
  8
0
390
0
100
AcDbBlockEnd
  0
BLOCK
  5
7F
100
AcDbEntity
  8
0
390
0
100
AcDbBlockBegin
  2
B033261E0
 70
               0
 10
0.0
 20
0.0
 30
0.0
  3

  1

  0
CIRCLE
  5
80
100
AcDbEntity
  8
0
390
0
 62
               7
100
AcDbCircle
 10
112.93552672664748
 20
157.79992041983508
 30
0.0
 40
6.5
  0
CIRCLE
  5
81
100
AcDbEntity
  8
0
390
0
 62
               7
100
AcDbCircle
 10
87.935526726647481
 20
157.79992041983508
 30
0.0
 40
6.5
  0
CIRCLE
  5
82
100
AcDbEntity
  8
0
390
0
 62
               7
100
AcDbCircle
 10
62.935526726647481
 20
157.79992041983508
 30
0.0
 40
6.5
  0
CIRCLE
  5
83
100
AcDbEntity
  8
0
390
0
 62
               7
100
AcDbCircle
 10
37.935526726647481
 20
157.79992041983508
 30
0.0
 40
6.5
  0
CIRCLE
  5
84
100
AcDbEntity
  8
0
390
0
 62
               7
100
AcDbCircle
 10
12.935526726647488
 20
157.79992041983508
 30
0.0
 40
6.5
  0
ENDBLK
  5
85
100
AcDbEntity
  8
0
390
0
100
AcDbBlockEnd
  0
BLOCK
  5
90
100
AcDbEntity
  8
0
390
0
100
AcDbBlockBegin
  2
B03326608
 70
               0
 10
0.0
 20
0.0
 30
0.0
  3

  1

  0
CIRCLE
  5
91
100
AcDbEntity
  8
0
390
0
 62
               7
100
AcDbCircle
 10
497.34701342173997
 20
129.41590068289742
 30
0.0
 40
6.5
  0
CIRCLE
  5
92
100
AcDbEntity
  8
0
390
0
 62
               7
100
AcDbCircle
 10
472.34701342173997
 20
129.41590068289742
 30
0.0
 40
6.5
  0
CIRCLE
  5
93
100
AcDbEntity
  8
0
390
0
 62
               7
100
AcDbCircle
 10
447.34701342173997
 20
129.41590068289742
 30
0.0
 40
6.5
  0
CIRCLE
  5
94
100
AcDbEntity
  8
0
390
0
 62
               7
100
AcDbCircle
 10
422.34701342173997
 20
129.41590068289742
 30
0.0
 40
6.5
  0
CIRCLE
  5
95
100
AcDbEntity
  8
0
390
0
 62
               7
100
AcDbCircle
 10
397.34701342173997
 20
129.41590068289742
 30
0.0
 40
6.5
  0
ENDBLK
  5
96
100
AcDbEntity
  8
0
390
0
100
AcDbBlockEnd
  0
BLOCK
  5
99
100
AcDbEntity
  8
0
390
0
100
AcDbBlockBegin
  2
B02BEC35C
 70
               0
 10
0.0
 20
0.0
 30
0.0
  3

  1

  0
CIRCLE
  5
9A
100
AcDbEntity
  8
0
390
0
 62
               7
100
AcDbCircle
 10
495.08693930307732
 20
178.38417325392143
 30
0.0
 40
6.5
  0
CIRCLE
  5
9B
100
AcDbEntity
  8
0
390
0
 62
               7
100
AcDbCircle
 10
470.08693930307732
 20
178.38417325392143
 30
0.0
 40
6.5
  0
CIRCLE
  5
9C
100
AcDbEntity
  8
0
390
0
 62
               7
100
AcDbCircle
 10
445.08693930307732
 20
178.38417325392143
 30
0.0
 40
6.5
  0
CIRCLE
  5
9D
100
AcDbEntity
  8
0
390
0
 62
               7
100
AcDbCircle
 10
420.08693930307732
 20
178.38417325392143
 30
0.0
 40
6.5
  0
CIRCLE
  5
9E
100
AcDbEntity
  8
0
390
0
 62
               7
100
AcDbCircle
 10
395.08693930307732
 20
178.38417325392143
 30
0.0
 40
6.5
  0
ENDBLK
  5
9F
100
AcDbEntity
  8
0
390
0
100
AcDbBlockEnd
  0
BLOCK
  5
DB
100
AcDbEntity
  8
0
390
0
100
AcDbBlockBegin
  2
B032F6468
 70
               0
 10
0.0
 20
0.0
 30
0.0
  3

  1

  0
LINE
  5
DC
100
AcDbEntity
  8
0
390
0
100
AcDbLine
 10
268.59278334560321
 20
-41.689500322338546
 30
0.0
 11
268.59183332527613
 21
-40.624810098241738
 31
0.0
  0
ARC
  5
DD
100
AcDbEntity
  8
0
390
0
100
AcDbCircle
 10
264.59183491766447
 20
-40.628379286450894
 30
0.0
 40
4.0
100
AcDbArc
 50
0.051124861952585
 51
86.068206990651163
  0
LINE
  5
DE
100
AcDbEntity
  8
0
390
0
100
AcDbLine
 10
264.86611046918921
 20
-36.637793750237478
 30
0.0
 11
242.86648664215403
 21
-35.125745229106002
 31
0.0
  0
ARC
  5
DF
100
AcDbEntity
  8
0
390
0
100
AcDbCircle
 10
242.59221109063009
 20
-39.116330765319475
 30
0.0
 40
4.0
100
AcDbArc
 50
86.068206990661594
 51
179.9896058783464
  0
LINE
  5
E0
100
AcDbEntity
  8
0
390
0
100
AcDbLine
 10
238.59221115645045
 20
-39.11560511874066
 30
0.0
 11
238.59174471555008
 21
-41.686779053436879
 31
0.0
  0
LINE
  5
E1
100
AcDbEntity
  8
0
390
0
100
AcDbLine
 10
264.86519409211365
 20
-46.74053074945985
 30
0.0
 11
242.86529632387504
 21
-48.24858825776667
 31
0.0
  0
LINE
  5
E2
100
AcDbEntity
  8
0
390
0
100
AcDbLine
 10
268.59164017808695
 20
-42.754190356573787
 30
0.0
 11
268.59278334560321
 21
-41.689500322338546
 31
0.0
  0
ARC
  5
E3
100
AcDbEntity
  8
0
390
0
100
AcDbCircle
 10
264.59164248378801
 20
-42.74989552213296
 30
0.0
 40
4.0
100
AcDbArc
 50
273.92139888768946
 51
359.93848101638804
  0
LINE
  5
E4
100
AcDbEntity
  8
0
390
0
100
AcDbLine
 10
238.59174471555019
 20
-44.257953030439268
 30
0.0
 11
238.59174471555008
 21
-41.686779053434151
 31
0.0
  0
ARC
  5
E5
100
AcDbEntity
  8
0
390
0
100
AcDbCircle
 10
242.59174471555019
 20
-44.257953030439722
 30
0.0
 40
4.0
100
AcDbArc
 50
179.99999999999426
 51
273.921398887679
  0
LINE
  5
E6
100
AcDbEntity
  8
0
390
0
  6
Continuous
 62
               7
100
AcDbLine
 10
278.54061606514989
 20
-51.563722886745182
 30
0.0
 11
232.46695274387451
 21
-54.4804608352716
 31
0.0
  0
LINE
  5
E7
100
AcDbEntity
  8
0
390
0
  6
Continuous
 62
               7
100
AcDbLine
 10
232.46695274387451
 20
-54.4804608352716
 30
0.0
 11
228.60820293720286
 21
-54.706075026447905
 31
0.0
  0
CIRCLE
  5
E8
100
AcDbEntity
  8
0
390
0
100
AcDbCircle
 10
272.9952536362552
 20
-41.685873488059173
 30
0.0
 40
1.25
  0
LINE
  5
E9
100
AcDbEntity
  8
0
390
0
100
AcDbLine
 10
278.54061606514989
 20
-51.563722886745182
 30
0.0
 11
278.57622890684848
 21
-31.817085640934778
 31
0.0
  0
CIRCLE
  5
EA
100
AcDbEntity
  8
0
390
0
100
AcDbCircle
 10
234.05301448962001
 20
-41.685873488059173
 30
0.0
 40
1.25
  0
LINE
  5
EB
100
AcDbEntity
  8
0
390
0
100
AcDbLine
 10
228.60820293720286
 20
-28.665671949670497
 30
0.0
 11
228.60820293720286
 21
-54.706075026447905
 31
0.0
  0
LINE
  5
EC
100
AcDbEntity
  8
0
390
0
  6
Continuous
 62
               7
100
AcDbLine
 10
232.50419445227334
 20
-28.900849448358116
 30
0.0
 11
228.60820293720286
 21
-28.665671949670497
 31
0.0
  0
LINE
  5
ED
100
AcDbEntity
  8
0
390
0
  6
Continuous
 62
               7
100
AcDbLine
 10
278.57622890684848
 20
-31.817085640934778
 30
0.0
 11
232.50419445227334
 21
-28.900849448358116
 31
0.0
  0
ENDBLK
  5
EE
100
AcDbEntity
  8
0
390
0
100
AcDbBlockEnd
  0
BLOCK
  5
115
100
AcDbEntity
  8
0
390
0
100
AcDbBlockBegin
  2
B02C4450C
 70
               0
 10
0.0
 20
0.0
 30
0.0
  3

  1

  0
INSERT
  5
133
100
AcDbEntity
  8
0
390
0
100
AcDbBlockReference
  2
B02C44558
 10
0.0
 20
0.0
 30
0.0
  0
LINE
  5
134
100
AcDbEntity
  8
0
390
0
  6
Continuous
 62
               7
100
AcDbLine
 10
209.46881724782381
 20
151.47753781277015
 30
0.0
 11
205.41914551838573
 21
151.28069220837813
 31
0.0
  0
LINE
  5
135
100
AcDbEntity
  8
0
390
0
  6
Continuous
 62
               7
100
AcDbLine
 10
221.59865203672842
 20
151.96817268707846
 30
0.0
 11
217.558566630868
 21
151.82365591731565
 31
0.0
  0
LINE
  5
136
100
AcDbEntity
  8
0
390
0
  6
Continuous
 62
               7
100
AcDbLine
 10
237.71823434239323
 20
152.33454261233462
 30
0.0
 11
233.69493081698431
 21
152.27803450537988
 31
0.0
  0
LINE
  5
137
100
AcDbEntity
  8
0
390
0
  6
Continuous
 62
               7
100
AcDbLine
 10
261.81783108261811
 20
152.13374870330861
 30
0.0
 11
257.8015254315979
 21
152.23419154949602
 31
0.0
  0
LINE
  5
138
100
AcDbEntity
  8
0
390
0
  6
Continuous
 62
               7
100
AcDbLine
 10
273.88150350538018
 20
151.68026049274084
 30
0.0
 11
269.85540609604266
 21
151.85440135965288
 31
0.0
  0
LINE
  5
139
100
AcDbEntity
  8
0
390
0
  6
Continuous
 62
               7
100
AcDbLine
 10
249.77388171706846
 20
152.35423772539423
 30
0.0
 11
245.75770785437169
 21
152.37383315493946
 31
0.0
  0
LINE
  5
13A
100
AcDbEntity
  8
0
390
0
  6
Continuous
 62
               7
100
AcDbLine
 10
233.69493081698431
 20
152.27803450537988
 30
0.0
 11
229.66441235406563
 21
152.19773589622312
 31
0.0
  0
LINE
  5
13B
100
AcDbEntity
  8
0
390
0
  6
Continuous
 62
               7
100
AcDbLine
 10
225.63393265241862
 20
152.09365863511275
 30
0.0
 11
221.59865203672842
 21
151.96817268707846
 31
0.0
  0
LINE
  5
13C
100
AcDbEntity
  8
0
390
0
  6
Continuous
 62
               7
100
AcDbLine
 10
213.51367643483724
 20
151.6601083258243
 30
0.0
 11
209.46881724782381
 21
151.47753781277015
 31
0.0
  0
LINE
  5
13D
100
AcDbEntity
  8
0
390
0
  6
Continuous
 62
               7
100
AcDbLine
 10
229.66441235406563
 20
152.19773589622312
 30
0.0
 11
225.63393265241862
 21
152.09365863511275
 31
0.0
  0
LINE
  5
13E
100
AcDbEntity
  8
0
390
0
  6
Continuous
 62
               7
100
AcDbLine
 10
217.558566630868
 20
151.82365591731565
 30
0.0
 11
213.51367643483724
 21
151.6601083258243
 31
0.0
  0
LINE
  5
13F
100
AcDbEntity
  8
0
390
0
  6
Continuous
 62
               7
100
AcDbLine
 10
245.75770785437169
 20
152.37383315493946
 30
0.0
 11
241.73915872947998
 21
152.36726811725293
 31
0.0
  0
LINE
  5
140
100
AcDbEntity
  8
0
390
0
  6
Continuous
 62
               7
100
AcDbLine
 10
257.8015254315979
 20
152.23419154949602
 30
0.0
 11
253.78768031757016
 21
152.30848182861726
 31
0.0
  0
LINE
  5
141
100
AcDbEntity
  8
0
390
0
  6
Continuous
 62
               7
100
AcDbLine
 10
265.83659727063105
 20
152.00715329005521
 30
0.0
 11
261.81783108261811
 21
152.13374870330861
 31
0.0
  0
LINE
  5
142
100
AcDbEntity
  8
0
390
0
  6
Continuous
 62
               7
100
AcDbLine
 10
277.91247935130417
 20
151.47997100884561
 30
0.0
 11
273.88150350538018
 21
151.68026049274084
 31
0.0
  0
LINE
  5
143
100
AcDbEntity
  8
0
390
0
  6
Continuous
 62
               7
100
AcDbLine
 10
241.73915872947998
 20
152.36726811725293
 30
0.0
 11
237.71823434239323
 21
152.33454261233462
 31
0.0
  0
LINE
  5
144
100
AcDbEntity
  8
0
390
0
  6
Continuous
 62
               7
100
AcDbLine
 10
253.78768031757016
 20
152.30848182861726
 30
0.0
 11
249.77388171706846
 21
152.35423772539423
 31
0.0
  0
LINE
  5
145
100
AcDbEntity
  8
0
390
0
  6
Continuous
 62
               7
100
AcDbLine
 10
269.85540609604266
 20
151.85440135965288
 30
0.0
 11
265.83659727063105
 21
152.00715329005521
 31
0.0
  0
ENDBLK
  5
146
100
AcDbEntity
  8
0
390
0
100
AcDbBlockEnd
  0
BLOCK
  5
117
100
AcDbEntity
  8
0
390
0
100
AcDbBlockBegin
  2
B02C44558
 70
               0
 10
0.0
 20
0.0
 30
0.0
  3

  1

  0
LINE
  5
118
100
AcDbEntity
  8
0
390
0
  6
Continuous
 62
               7
100
AcDbLine
 10
130.80686901510785
 20
141.22405211520265
 30
0.0
 11
130.77371224755686
 21
140.79835894407404
 31
0.0
  0
LINE
  5
119
100
AcDbEntity
  8
0
390
0
  6
Continuous
 62
               7
100
AcDbLine
 10
131.30116240669346
 20
142.06900402653716
 30
0.0
 11
130.9778344311238
 21
141.6571040366394
 31
0.0
  0
LINE
  5
11A
100
AcDbEntity
  8
0
390
0
  6
Continuous
 62
               7
100
AcDbLine
 10
132.42907340405046
 20
142.83652130812996
 30
0.0
 11
131.77927471753782
 21
142.45737816978334
 31
0.0
  0
LINE
  5
11B
100
AcDbEntity
  8
0
390
0
  6
Continuous
 62
               7
100
AcDbLine
 10
133.31096719480476
 20
143.23031084560182
 30
0.0
 11
132.42907340405046
 21
142.83652130812996
 31
0.0
  0
LINE
  5
11C
100
AcDbEntity
  8
0
390
0
  6
Continuous
 62
               7
100
AcDbLine
 10
134.54096488064971
 20
143.66984863371488
 30
0.0
 11
133.31096719480476
 21
143.23031084560182
 31
0.0
  0
LINE
  5
11D
100
AcDbEntity
  8
0
390
0
  6
Continuous
 62
               7
100
AcDbLine
 10
131.77927471753782
 20
142.45737816978334
 30
0.0
 11
131.30116240669346
 21
142.06900402653716
 31
0.0
  0
LINE
  5
11E
100
AcDbEntity
  8
0
390
0
  6
Continuous
 62
               7
100
AcDbLine
 10
130.9778344311238
 20
141.6571040366394
 30
0.0
 11
130.80686901510785
 21
141.22405211520265
 31
0.0
  0
LINE
  5
11F
100
AcDbEntity
  8
0
390
0
  6
Continuous
 62
               7
100
AcDbLine
 10
136.31969010983607
 20
144.19350837247103
 30
0.0
 11
134.54096488064971
 21
143.66984863371488
 31
0.0
  0
LINE
  5
120
100
AcDbEntity
  8
0
390
0
  6
Continuous
 62
               7
100
AcDbLine
 10
138.84781692026755
 20
144.80875151433236
 30
0.0
 11
136.31969010983607
 21
144.19350837247103
 31
0.0
  0
LINE
  5
121
100
AcDbEntity
  8
0
390
0
  6
Continuous
 62
               7
100
AcDbLine
 10
205.41914551838573
 20
151.28069220837813
 30
0.0
 11
201.367083022244
 21
151.0671975975358
 31
0.0
  0
LINE
  5
122
100
AcDbEntity
  8
0
390
0
  6
Continuous
 62
               7
100
AcDbLine
 10
201.367083022244
 20
151.0671975975358
 30
0.0
 11
197.31504765899243
 21
150.83705793032587
 31
0.0
  0
LINE
  5
123
100
AcDbEntity
  8
0
390
0
  6
Continuous
 62
               7
100
AcDbLine
 10
197.31504765899243
 20
150.83705793032587
 30
0.0
 11
193.26303167637667
 21
150.59502893713926
 31
0.0
  0
LINE
  5
124
100
AcDbEntity
  8
0
390
0
  6
Continuous
 62
               7
100
AcDbLine
 10
193.26303167637667
 20
150.59502893713926
 30
0.0
 11
189.21103895052394
 21
150.33873275278046
 31
0.0
  0
LINE
  5
125
100
AcDbEntity
  8
0
390
0
  6
Continuous
 62
               7
100
AcDbLine
 10
189.21103895052394
 20
150.33873275278046
 30
0.0
 11
185.1590694814341
 21
150.0681693772496
 31
0.0
  0
LINE
  5
126
100
AcDbEntity
  8
0
390
0
  6
Continuous
 62
               7
100
AcDbLine
 10
185.1590694814341
 20
150.0681693772496
 30
0.0
 11
181.11437696788866
 21
149.78335066079504
 31
0.0
  0
LINE
  5
127
100
AcDbEntity
  8
0
390
0
  6
Continuous
 62
               7
100
AcDbLine
 10
181.11437696788866
 20
149.78335066079504
 30
0.0
 11
177.07696528601474
 21
149.48189873822156
 31
0.0
  0
LINE
  5
128
100
AcDbEntity
  8
0
390
0
  6
Continuous
 62
               7
100
AcDbLine
 10
177.07696528601474
 20
149.48189873822156
 30
0.0
 11
173.04683443581243
 21
149.16381360952917
 31
0.0
  0
LINE
  5
129
100
AcDbEntity
  8
0
390
0
  6
Continuous
 62
               7
100
AcDbLine
 10
173.04683443581243
 20
149.16381360952917
 30
0.0
 11
169.03124199219013
 21
148.82672925977087
 31
0.0
  0
LINE
  5
12A
100
AcDbEntity
  8
0
390
0
  6
Continuous
 62
               7
100
AcDbLine
 10
169.03124199219013
 20
148.82672925977087
 30
0.0
 11
165.03744940618367
 21
148.46590180880469
 31
0.0
  0
LINE
  5
12B
100
AcDbEntity
  8
0
390
0
  6
Continuous
 62
               7
100
AcDbLine
 10
165.03744940618367
 20
148.46590180880469
 30
0.0
 11
161.07030022923496
 21
148.07658342640553
 31
0.0
  0
LINE
  5
12C
100
AcDbEntity
  8
0
390
0
  6
Continuous
 62
               7
100
AcDbLine
 10
161.07030022923496
 20
148.07658342640553
 30
0.0
 11
157.13705978850683
 21
147.65165236723576
 31
0.0
  0
LINE
  5
12D
100
AcDbEntity
  8
0
390
0
  6
Continuous
 62
               7
100
AcDbLine
 10
157.13705978850683
 20
147.65165236723576
 30
0.0
 11
153.24257163544127
 21
147.18636080107049
 31
0.0
  0
LINE
  5
12E
100
AcDbEntity
  8
0
390
0
  6
Continuous
 62
               7
100
AcDbLine
 10
153.24257163544127
 20
147.18636080107049
 30
0.0
 11
149.40378044783063
 21
146.66884705251277
 31
0.0
  0
LINE
  5
12F
100
AcDbEntity
  8
0
390
0
  6
Continuous
 62
               7
100
AcDbLine
 10
149.40378044783063
 20
146.66884705251277
 30
0.0
 11
145.64728699733385
 21
146.09677670727856
 31
0.0
  0
LINE
  5
130
100
AcDbEntity
  8
0
390
0
  6
Continuous
 62
               7
100
AcDbLine
 10
145.64728699733385
 20
146.09677670727856
 30
0.0
 11
142.05772552198817
 21
145.4655322878767
 31
0.0
  0
LINE
  5
131
100
AcDbEntity
  8
0
390
0
  6
Continuous
 62
               7
100
AcDbLine
 10
142.05772552198817
 20
145.4655322878767
 30
0.0
 11
138.84781692026755
 21
144.80875151433236
 31
0.0
  0
ENDBLK
  5
132
100
AcDbEntity
  8
0
390
0
100
AcDbBlockEnd
  0
BLOCK
  5
14D
100
AcDbEntity
  8
0
390
0
100
AcDbBlockBegin
  2
B02BC8058
 70
               0
 10
0.0
 20
0.0
 30
0.0
  3

  1

  0
INSERT
  5
16B
100
AcDbEntity
  8
0
390
0
100
AcDbBlockReference
  2
B02BC80A4
 10
0.0
 20
0.0
 30
0.0
  0
LINE
  5
16C
100
AcDbEntity
  8
0
390
0
  6
Continuous
 62
               7
100
AcDbLine
 10
209.46881724782381
 20
68.679167329757149
 30
0.0
 11
205.41914551838573
 21
68.876012934149173
 31
0.0
  0
LINE
  5
16D
100
AcDbEntity
  8
0
390
0
  6
Continuous
 62
               7
100
AcDbLine
 10
221.59865203672842
 20
68.188532455448836
 30
0.0
 11
217.558566630868
 21
68.333049225211653
 31
0.0
  0
LINE
  5
16E
100
AcDbEntity
  8
0
390
0
  6
Continuous
 62
               7
100
AcDbLine
 10
237.71823434239323
 20
67.822162530192685
 30
0.0
 11
233.69493081698431
 21
67.878670637147422
 31
0.0
  0
LINE
  5
16F
100
AcDbEntity
  8
0
390
0
  6
Continuous
 62
               7
100
AcDbLine
 10
261.81783108261811
 20
68.022956439218689
 30
0.0
 11
257.8015254315979
 21
67.922513593031283
 31
0.0
  0
LINE
  5
170
100
AcDbEntity
  8
0
390
0
  6
Continuous
 62
               7
100
AcDbLine
 10
273.88150350538018
 20
68.476444649786458
 30
0.0
 11
269.85540609604266
 21
68.302303782874418
 31
0.0
  0
LINE
  5
171
100
AcDbEntity
  8
0
390
0
  6
Continuous
 62
               7
100
AcDbLine
 10
249.77388171706846
 20
67.802467417133073
 30
0.0
 11
245.75770785437169
 21
67.782871987587839
 31
0.0
  0
LINE
  5
172
100
AcDbEntity
  8
0
390
0
  6
Continuous
 62
               7
100
AcDbLine
 10
233.69493081698431
 20
67.878670637147422
 30
0.0
 11
229.66441235406563
 21
67.958969246304179
 31
0.0
  0
LINE
  5
173
100
AcDbEntity
  8
0
390
0
  6
Continuous
 62
               7
100
AcDbLine
 10
225.63393265241862
 20
68.063046507414555
 30
0.0
 11
221.59865203672842
 21
68.188532455448836
 31
0.0
  0
LINE
  5
174
100
AcDbEntity
  8
0
390
0
  6
Continuous
 62
               7
100
AcDbLine
 10
213.51367643483724
 20
68.496596816703004
 30
0.0
 11
209.46881724782381
 21
68.679167329757149
 31
0.0
  0
LINE
  5
175
100
AcDbEntity
  8
0
390
0
  6
Continuous
 62
               7
100
AcDbLine
 10
229.66441235406563
 20
67.958969246304179
 30
0.0
 11
225.63393265241862
 21
68.063046507414555
 31
0.0
  0
LINE
  5
176
100
AcDbEntity
  8
0
390
0
  6
Continuous
 62
               7
100
AcDbLine
 10
217.558566630868
 20
68.333049225211653
 30
0.0
 11
213.51367643483724
 21
68.496596816703004
 31
0.0
  0
LINE
  5
177
100
AcDbEntity
  8
0
390
0
  6
Continuous
 62
               7
100
AcDbLine
 10
245.75770785437169
 20
67.782871987587839
 30
0.0
 11
241.73915872947998
 21
67.789437025274367
 31
0.0
  0
LINE
  5
178
100
AcDbEntity
  8
0
390
0
  6
Continuous
 62
               7
100
AcDbLine
 10
257.8015254315979
 20
67.922513593031283
 30
0.0
 11
253.78768031757016
 21
67.84822331391004
 31
0.0
  0
LINE
  5
179
100
AcDbEntity
  8
0
390
0
  6
Continuous
 62
               7
100
AcDbLine
 10
265.83659727063105
 20
68.149551852472086
 30
0.0
 11
261.81783108261811
 21
68.022956439218689
 31
0.0
  0
LINE
  5
17A
100
AcDbEntity
  8
0
390
0
  6
Continuous
 62
               7
100
AcDbLine
 10
277.91247935130417
 20
68.676734133681691
 30
0.0
 11
273.88150350538018
 21
68.476444649786458
 31
0.0
  0
LINE
  5
17B
100
AcDbEntity
  8
0
390
0
  6
Continuous
 62
               7
100
AcDbLine
 10
241.73915872947998
 20
67.789437025274367
 30
0.0
 11
237.71823434239323
 21
67.822162530192685
 31
0.0
  0
LINE
  5
17C
100
AcDbEntity
  8
0
390
0
  6
Continuous
 62
               7
100
AcDbLine
 10
253.78768031757016
 20
67.84822331391004
 30
0.0
 11
249.77388171706846
 21
67.802467417133073
 31
0.0
  0
LINE
  5
17D
100
AcDbEntity
  8
0
390
0
  6
Continuous
 62
               7
100
AcDbLine
 10
269.85540609604266
 20
68.302303782874418
 30
0.0
 11
265.83659727063105
 21
68.149551852472086
 31
0.0
  0
ENDBLK
  5
17E
100
AcDbEntity
  8
0
390
0
100
AcDbBlockEnd
  0
BLOCK
  5
14F
100
AcDbEntity
  8
0
390
0
100
AcDbBlockBegin
  2
B02BC80A4
 70
               0
 10
0.0
 20
0.0
 30
0.0
  3

  1

  0
LINE
  5
150
100
AcDbEntity
  8
0
390
0
  6
Continuous
 62
               7
100
AcDbLine
 10
130.80686901510785
 20
78.932653027324648
 30
0.0
 11
130.77371224755686
 21
79.358346198453262
 31
0.0
  0
LINE
  5
151
100
AcDbEntity
  8
0
390
0
  6
Continuous
 62
               7
100
AcDbLine
 10
131.30116240669346
 20
78.087701115990143
 30
0.0
 11
130.9778344311238
 21
78.499601105887905
 31
0.0
  0
LINE
  5
152
100
AcDbEntity
  8
0
390
0
  6
Continuous
 62
               7
100
AcDbLine
 10
132.42907340405046
 20
77.320183834397341
 30
0.0
 11
131.77927471753782
 21
77.699326972743961
 31
0.0
  0
LINE
  5
153
100
AcDbEntity
  8
0
390
0
  6
Continuous
 62
               7
100
AcDbLine
 10
133.31096719480476
 20
76.92639429692548
 30
0.0
 11
132.42907340405046
 21
77.320183834397341
 31
0.0
  0
LINE
  5
154
100
AcDbEntity
  8
0
390
0
  6
Continuous
 62
               7
100
AcDbLine
 10
134.54096488064971
 20
76.486856508812423
 30
0.0
 11
133.31096719480476
 21
76.92639429692548
 31
0.0
  0
LINE
  5
155
100
AcDbEntity
  8
0
390
0
  6
Continuous
 62
               7
100
AcDbLine
 10
131.77927471753782
 20
77.699326972743961
 30
0.0
 11
131.30116240669346
 21
78.087701115990143
 31
0.0
  0
LINE
  5
156
100
AcDbEntity
  8
0
390
0
  6
Continuous
 62
               7
100
AcDbLine
 10
130.9778344311238
 20
78.499601105887905
 30
0.0
 11
130.80686901510785
 21
78.932653027324648
 31
0.0
  0
LINE
  5
157
100
AcDbEntity
  8
0
390
0
  6
Continuous
 62
               7
100
AcDbLine
 10
136.31969010983607
 20
75.963196770056271
 30
0.0
 11
134.54096488064971
 21
76.486856508812423
 31
0.0
  0
LINE
  5
158
100
AcDbEntity
  8
0
390
0
  6
Continuous
 62
               7
100
AcDbLine
 10
138.84781692026755
 20
75.347953628194944
 30
0.0
 11
136.31969010983607
 21
75.963196770056271
 31
0.0
  0
LINE
  5
159
100
AcDbEntity
  8
0
390
0
  6
Continuous
 62
               7
100
AcDbLine
 10
205.41914551838573
 20
68.876012934149173
 30
0.0
 11
201.367083022244
 21
69.089507544991505
 31
0.0
  0
LINE
  5
15A
100
AcDbEntity
  8
0
390
0
  6
Continuous
 62
               7
100
AcDbLine
 10
201.367083022244
 20
69.089507544991505
 30
0.0
 11
197.31504765899243
 21
69.319647212201431
 31
0.0
  0
LINE
  5
15B
100
AcDbEntity
  8
0
390
0
  6
Continuous
 62
               7
100
AcDbLine
 10
197.31504765899243
 20
69.319647212201431
 30
0.0
 11
193.26303167637667
 21
69.561676205388039
 31
0.0
  0
LINE
  5
15C
100
AcDbEntity
  8
0
390
0
  6
Continuous
 62
               7
100
AcDbLine
 10
193.26303167637667
 20
69.561676205388039
 30
0.0
 11
189.21103895052394
 21
69.817972389746842
 31
0.0
  0
LINE
  5
15D
100
AcDbEntity
  8
0
390
0
  6
Continuous
 62
               7
100
AcDbLine
 10
189.21103895052394
 20
69.817972389746842
 30
0.0
 11
185.1590694814341
 21
70.088535765277697
 31
0.0
  0
LINE
  5
15E
100
AcDbEntity
  8
0
390
0
  6
Continuous
 62
               7
100
AcDbLine
 10
185.1590694814341
 20
70.088535765277697
 30
0.0
 11
181.11437696788866
 21
70.373354481732264
 31
0.0
  0
LINE
  5
15F
100
AcDbEntity
  8
0
390
0
  6
Continuous
 62
               7
100
AcDbLine
 10
181.11437696788866
 20
70.373354481732264
 30
0.0
 11
177.07696528601474
 21
70.674806404305741
 31
0.0
  0
LINE
  5
160
100
AcDbEntity
  8
0
390
0
  6
Continuous
 62
               7
100
AcDbLine
 10
177.07696528601474
 20
70.674806404305741
 30
0.0
 11
173.04683443581243
 21
70.992891532998129
 31
0.0
  0
LINE
  5
161
100
AcDbEntity
  8
0
390
0
  6
Continuous
 62
               7
100
AcDbLine
 10
173.04683443581243
 20
70.992891532998129
 30
0.0
 11
169.03124199219013
 21
71.329975882756429
 31
0.0
  0
LINE
  5
162
100
AcDbEntity
  8
0
390
0
  6
Continuous
 62
               7
100
AcDbLine
 10
169.03124199219013
 20
71.329975882756429
 30
0.0
 11
165.03744940618367
 21
71.690803333722613
 31
0.0
  0
LINE
  5
163
100
AcDbEntity
  8
0
390
0
  6
Continuous
 62
               7
100
AcDbLine
 10
165.03744940618367
 20
71.690803333722613
 30
0.0
 11
161.07030022923496
 21
72.080121716121766
 31
0.0
  0
LINE
  5
164
100
AcDbEntity
  8
0
390
0
  6
Continuous
 62
               7
100
AcDbLine
 10
161.07030022923496
 20
72.080121716121766
 30
0.0
 11
157.13705978850683
 21
72.505052775291546
 31
0.0
  0
LINE
  5
165
100
AcDbEntity
  8
0
390
0
  6
Continuous
 62
               7
100
AcDbLine
 10
157.13705978850683
 20
72.505052775291546
 30
0.0
 11
153.24257163544127
 21
72.970344341456808
 31
0.0
  0
LINE
  5
166
100
AcDbEntity
  8
0
390
0
  6
Continuous
 62
               7
100
AcDbLine
 10
153.24257163544127
 20
72.970344341456808
 30
0.0
 11
149.40378044783063
 21
73.487858090014527
 31
0.0
  0
LINE
  5
167
100
AcDbEntity
  8
0
390
0
  6
Continuous
 62
               7
100
AcDbLine
 10
149.40378044783063
 20
73.487858090014527
 30
0.0
 11
145.64728699733385
 21
74.059928435248736
 31
0.0
  0
LINE
  5
168
100
AcDbEntity
  8
0
390
0
  6
Continuous
 62
               7
100
AcDbLine
 10
145.64728699733385
 20
74.059928435248736
 30
0.0
 11
142.05772552198817
 21
74.691172854650603
 31
0.0
  0
LINE
  5
169
100
AcDbEntity
  8
0
390
0
  6
Continuous
 62
               7
100
AcDbLine
 10
142.05772552198817
 20
74.691172854650603
 30
0.0
 11
138.84781692026755
 21
75.347953628194944
 31
0.0
  0
ENDBLK
  5
16A
100
AcDbEntity
  8
0
390
0
100
AcDbBlockEnd
  0
BLOCK
  5
1B9
100
AcDbEntity
  8
0
390
0
100
AcDbBlockBegin
  2
B02483B30
 70
               0
 10
0.0
 20
0.0
 30
0.0
  3

  1

  0
CIRCLE
  5
1BA
100
AcDbEntity
  8
0
390
0
 62
               7
100
AcDbCircle
 10
495.08693930307732
 20
41.772531888605869
 30
0.0
 40
6.5
  0
CIRCLE
  5
1BB
100
AcDbEntity
  8
0
390
0
 62
               7
100
AcDbCircle
 10
470.08693930307732
 20
41.772531888605869
 30
0.0
 40
6.5
  0
CIRCLE
  5
1BC
100
AcDbEntity
  8
0
390
0
 62
               7
100
AcDbCircle
 10
445.08693930307732
 20
41.772531888605869
 30
0.0
 40
6.5
  0
CIRCLE
  5
1BD
100
AcDbEntity
  8
0
390
0
 62
               7
100
AcDbCircle
 10
420.08693930307732
 20
41.772531888605869
 30
0.0
 40
6.5
  0
CIRCLE
  5
1BE
100
AcDbEntity
  8
0
390
0
 62
               7
100
AcDbCircle
 10
395.08693930307732
 20
41.772531888605869
 30
0.0
 40
6.5
  0
ENDBLK
  5
1BF
100
AcDbEntity
  8
0
390
0
100
AcDbBlockEnd
  0
BLOCK
  5
1C2
100
AcDbEntity
  8
0
390
0
100
AcDbBlockBegin
  2
B02482AE4
 70
               0
 10
0.0
 20
0.0
 30
0.0
  3

  1

  0
CIRCLE
  5
1C3
100
AcDbEntity
  8
0
390
0
 62
               7
100
AcDbCircle
 10
497.34701342173997
 20
90.740804459629885
 30
0.0
 40
6.5
  0
CIRCLE
  5
1C4
100
AcDbEntity
  8
0
390
0
 62
               7
100
AcDbCircle
 10
472.34701342173997
 20
90.740804459629885
 30
0.0
 40
6.5
  0
CIRCLE
  5
1C5
100
AcDbEntity
  8
0
390
0
 62
               7
100
AcDbCircle
 10
447.34701342173997
 20
90.740804459629885
 30
0.0
 40
6.5
  0
CIRCLE
  5
1C6
100
AcDbEntity
  8
0
390
0
 62
               7
100
AcDbCircle
 10
422.34701342173997
 20
90.740804459629885
 30
0.0
 40
6.5
  0
CIRCLE
  5
1C7
100
AcDbEntity
  8
0
390
0
 62
               7
100
AcDbCircle
 10
397.34701342173997
 20
90.740804459629885
 30
0.0
 40
6.5
  0
ENDBLK
  5
1C8
100
AcDbEntity
  8
0
390
0
100
AcDbBlockEnd
  0
BLOCK
  5
1D3
100
AcDbEntity
  8
0
390
0
100
AcDbBlockBegin
  2
B0248C004
 70
               0
 10
0.0
 20
0.0
 30
0.0
  3

  1

  0
CIRCLE
  5
1D4
100
AcDbEntity
  8
0
390
0
 62
               7
100
AcDbCircle
 10
112.93552672664748
 20
62.356784722692225
 30
0.0
 40
6.5
  0
CIRCLE
  5
1D5
100
AcDbEntity
  8
0
390
0
 62
               7
100
AcDbCircle
 10
87.935526726647481
 20
62.356784722692225
 30
0.0
 40
6.5
  0
CIRCLE
  5
1D6
100
AcDbEntity
  8
0
390
0
 62
               7
100
AcDbCircle
 10
62.935526726647481
 20
62.356784722692225
 30
0.0
 40
6.5
  0
CIRCLE
  5
1D7
100
AcDbEntity
  8
0
390
0
 62
               7
100
AcDbCircle
 10
37.935526726647481
 20
62.356784722692225
 30
0.0
 40
6.5
  0
CIRCLE
  5
1D8
100
AcDbEntity
  8
0
390
0
 62
               7
100
AcDbCircle
 10
12.935526726647488
 20
62.356784722692225
 30
0.0
 40
6.5
  0
ENDBLK
  5
1D9
100
AcDbEntity
  8
0
390
0
100
AcDbBlockEnd
  0
BLOCK
  5
1DD
100
AcDbEntity
  8
0
390
0
100
AcDbBlockBegin
  2
B02483260
 70
               0
 10
0.0
 20
0.0
 30
0.0
  3

  1

  0
CIRCLE
  5
1DE
100
AcDbEntity
  8
0
390
0
 62
               7
100
AcDbCircle
 10
159.0719192393743
 20
35.090246077759957
 30
0.0
 40
6.5
  0
CIRCLE
  5
1DF
100
AcDbEntity
  8
0
390
0
 62
               7
100
AcDbCircle
 10
184.0719192393743
 20
35.090246077759957
 30
0.0
 40
6.5
  0
CIRCLE
  5
1E0
100
AcDbEntity
  8
0
390
0
 62
               7
100
AcDbCircle
 10
209.0719192393743
 20
35.090246077759957
 30
0.0
 40
6.5
  0
CIRCLE
  5
1E1
100
AcDbEntity
  8
0
390
0
 62
               7
100
AcDbCircle
 10
234.0719192393743
 20
35.090246077759957
 30
0.0
 40
6.5
  0
CIRCLE
  5
1E2
100
AcDbEntity
  8
0
390
0
 62
               7
100
AcDbCircle
 10
259.07191923937427
 20
35.090246077759957
 30
0.0
 40
6.5
  0
CIRCLE
  5
1E3
100
AcDbEntity
  8
0
390
0
 62
               7
100
AcDbCircle
 10
284.07191923937427
 20
35.090246077759957
 30
0.0
 40
6.5
  0
CIRCLE
  5
1E4
100
AcDbEntity
  8
0
390
0
 62
               7
100
AcDbCircle
 10
309.07191923937427
 20
35.090246077759957
 30
0.0
 40
6.5
  0
CIRCLE
  5
1E5
100
AcDbEntity
  8
0
390
0
 62
               7
100
AcDbCircle
 10
359.07191923937427
 20
35.090246077759957
 30
0.0
 40
6.5
  0
ENDBLK
  5
1E6
100
AcDbEntity
  8
0
390
0
100
AcDbBlockEnd
  0
BLOCK
  5
1E9
100
AcDbEntity
  8
0
390
0
100
AcDbBlockBegin
  2
B02483E38
 70
               0
 10
0.0
 20
0.0
 30
0.0
  3

  1

  0
CIRCLE
  5
1EA
100
AcDbEntity
  8
0
390
0
 62
               7
100
AcDbCircle
 10
144.97910151278009
 20
54.39127905113898
 30
0.0
 40
6.5
  0
CIRCLE
  5
1EB
100
AcDbEntity
  8
0
390
0
 62
               7
100
AcDbCircle
 10
169.97910151278009
 20
54.39127905113898
 30
0.0
 40
6.5
  0
CIRCLE
  5
1EC
100
AcDbEntity
  8
0
390
0
 62
               7
100
AcDbCircle
 10
194.97910151278009
 20
54.39127905113898
 30
0.0
 40
6.5
  0
CIRCLE
  5
1ED
100
AcDbEntity
  8
0
390
0
 62
               7
100
AcDbCircle
 10
219.97910151278009
 20
54.39127905113898
 30
0.0
 40
6.5
  0
CIRCLE
  5
1EE
100
AcDbEntity
  8
0
390
0
 62
               7
100
AcDbCircle
 10
244.97910151278009
 20
54.39127905113898
 30
0.0
 40
6.5
  0
CIRCLE
  5
1EF
100
AcDbEntity
  8
0
390
0
 62
               7
100
AcDbCircle
 10
269.97910151278006
 20
54.39127905113898
 30
0.0
 40
6.5
  0
CIRCLE
  5
1F0
100
AcDbEntity
  8
0
390
0
 62
               7
100
AcDbCircle
 10
294.97910151278006
 20
54.39127905113898
 30
0.0
 40
6.5
  0
CIRCLE
  5
1F1
100
AcDbEntity
  8
0
390
0
 62
               7
100
AcDbCircle
 10
344.97910151278006
 20
54.39127905113898
 30
0.0
 40
6.5
  0
ENDBLK
  5
1F2
100
AcDbEntity
  8
0
390
0
100
AcDbBlockEnd
  0
ENDSEC
  0
SECTION
  2
ENTITIES
  0
LINE
  5
59
100
AcDbEntity
  8
0
390
0
 62
               7
100
AcDbLine
 10
377.41089287389468
 20
119.65599668870549
 30
0.0
 11
387.50706631785641
 21
119.65599668870549
 31
0.0
  0
LINE
  5
5A
100
AcDbEntity
  8
0
390
0
 62
               7
100
AcDbLine
 10
433.83649382301519
 20
119.47258306935701
 30
0.0
 11
443.83753660020972
 21
119.47258306935701
 31
0.0
  0
LINE
  5
5B
100
AcDbEntity
  8
0
390
0
 62
               7
100
AcDbLine
 10
309.15236287171444
 20
156.61408847014269
 30
0.0
 11
309.15236287171444
 21
161.66970112013823
 31
0.0
  0
LINE
  5
5C
100
AcDbEntity
  8
0
390
0
 62
               7
100
AcDbLine
 10
309.15236287171444
 20
161.66970112013823
 30
0.0
 11
329.2194582411293
 21
161.66970112013823
 31
0.0
  0
LINE
  5
5D
100
AcDbEntity
  8
0
390
0
 62
               7
100
AcDbLine
 10
329.2194582411293
 20
161.66970112013823
 30
0.0
 11
329.2194582411293
 21
156.61350608215363
 31
0.0
  0
LINE
  5
5E
100
AcDbEntity
  8
0
390
0
 62
               7
100
AcDbLine
 10
329.2194582411293
 20
156.61350608215363
 30
0.0
 11
309.15105408302963
 21
156.61350608215363
 31
0.0
  0
LINE
  5
5F
100
AcDbEntity
  8
0
390
0
 62
               7
100
AcDbLine
 10
124.36794957181678
 20
157.30341107633481
 30
0.0
 11
129.57672796022044
 21
157.30341107633481
 31
0.0
  0
LINE
  5
60
100
AcDbEntity
  8
0
390
0
 62
               7
100
AcDbLine
 10
129.57672796022044
 20
157.30341107633481
 30
0.0
 11
129.57672796022044
 21
169.79158173782216
 31
0.0
  0
LINE
  5
61
100
AcDbEntity
  8
0
390
0
 62
               7
100
AcDbLine
 10
129.57672796022044
 20
169.79158173782216
 30
0.0
 11
124.36732966177753
 21
169.79158173782216
 31
0.0
  0
LINE
  5
62
100
AcDbEntity
  8
0
390
0
 62
               7
100
AcDbLine
 10
129.85063120070043
 20
195.65921825409316
 30
0.0
 11
165.26283164721886
 21
197.25115148599826
 31
0.0
  0
ARC
  5
63
100
AcDbEntity
  8
0
390
0
 62
               7
100
AcDbCircle
 10
493.47545166262501
 20
155.83797435759226
 30
0.0
 40
10.0
100
AcDbArc
 50
109.99999999999999
 51
240.61615318667324
  0
LINE
  5
64
100
AcDbEntity
  8
0
390
0
 62
               7
100
AcDbLine
 10
542.91152878606738
 20
116.52412004994767
 30
0.0
 11
488.56887050232649
 21
147.12445260588913
 31
0.0
  0
INSERT
  5
70
100
AcDbEntity
  8
0
390
0
100
AcDbBlockReference
  2
B03325C3C
 10
0.0
 20
0.0
 30
0.0
  0
INSERT
  5
7C
100
AcDbEntity
  8
0
390
0
100
AcDbBlockReference
  2
B03325EE8
 10
0.0
 20
0.0
 30
0.0
  0
CIRCLE
  5
7D
100
AcDbEntity
  8
0
390
0
 62
               7
100
AcDbCircle
 10
333.84684881280145
 20
185.06070202937914
 30
0.0
 40
6.5
  0
INSERT
  5
86
100
AcDbEntity
  8
0
390
0
100
AcDbBlockReference
  2
B033261E0
 10
0.0
 20
0.0
 30
0.0
  0
CIRCLE
  5
87
100
AcDbEntity
  8
0
390
0
 62
               7
100
AcDbCircle
 10
99.455440205557366
 20
139.41798425471222
 30
0.0
 40
6.5
  0
CIRCLE
  5
88
100
AcDbEntity
  8
0
390
0
 62
               7
100
AcDbCircle
 10
74.455440205557366
 20
139.41798425471222
 30
0.0
 40
6.5
  0
CIRCLE
  5
89
100
AcDbEntity
  8
0
390
0
 62
               7
100
AcDbCircle
 10
49.455440205557373
 20
139.41798425471222
 30
0.0
 40
6.5
  0
CIRCLE
  5
8A
100
AcDbEntity
  8
0
390
0
 62
               7
100
AcDbCircle
 10
24.45544020555738
 20
139.41798425471222
 30
0.0
 40
6.5
  0
CIRCLE
  5
8B
100
AcDbEntity
  8
0
390
0
 62
               7
100
AcDbCircle
 10
99.149074602805314
 20
176.48822218770999
 30
0.0
 40
6.5
  0
CIRCLE
  5
8C
100
AcDbEntity
  8
0
390
0
 62
               7
100
AcDbCircle
 10
74.149074602805314
 20
176.48822218770999
 30
0.0
 40
6.5
  0
CIRCLE
  5
8D
100
AcDbEntity
  8
0
390
0
 62
               7
100
AcDbCircle
 10
49.149074602805328
 20
176.48822218770999
 30
0.0
 40
6.5
  0
CIRCLE
  5
8E
100
AcDbEntity
  8
0
390
0
 62
               7
100
AcDbCircle
 10
24.149074602805332
 20
176.48822218770999
 30
0.0
 40
6.5
  0
INSERT
  5
97
100
AcDbEntity
  8
0
390
0
100
AcDbBlockReference
  2
B03326608
 10
0.0
 20
0.0
 30
0.0
  0
INSERT
  5
A0
100
AcDbEntity
  8
0
390
0
100
AcDbBlockReference
  2
B02BEC35C
 10
0.0
 20
0.0
 30
0.0
  0
CIRCLE
  5
A1
100
AcDbEntity
  8
0
390
0
 62
               7
100
AcDbCircle
 10
471.97033440196287
 20
153.90003696840944
 30
0.0
 40
6.5
  0
CIRCLE
  5
A2
100
AcDbEntity
  8
0
390
0
 62
               7
100
AcDbCircle
 10
446.97033440196287
 20
153.90003696840944
 30
0.0
 40
6.5
  0
CIRCLE
  5
A3
100
AcDbEntity
  8
0
390
0
 62
               7
100
AcDbCircle
 10
421.97033440196287
 20
153.90003696840944
 30
0.0
 40
6.5
  0
CIRCLE
  5
A4
100
AcDbEntity
  8
0
390
0
 62
               7
100
AcDbCircle
 10
396.97033440196287
 20
153.90003696840944
 30
0.0
 40
6.5
  0
LINE
  5
A5
100
AcDbEntity
  8
0
390
0
 62
               7
100
AcDbLine
 10
377.27824348760089
 20
150.74186877248678
 30
0.0
 11
377.27824348760089
 21
165.87878922104741
 31
0.0
  0
LINE
  5
A6
100
AcDbEntity
  8
0
390
0
 62
               7
100
AcDbLine
 10
377.27824348760089
 20
165.87878922104741
 30
0.0
 11
373.89352112436598
 21
165.87878922104741
 31
0.0
  0
LINE
  5
A7
100
AcDbEntity
  8
0
390
0
 62
               7
100
AcDbLine
 10
373.89352112436598
 20
165.87878922104741
 30
0.0
 11
373.89352112436598
 21
150.74186877248621
 31
0.0
  0
LINE
  5
A8
100
AcDbEntity
  8
0
390
0
 62
               7
100
AcDbLine
 10
129.41488219977276
 20
200.63985212557233
 30
0.0
 11
129.85063120070043
 21
195.65921825409316
 31
0.0
  0
ARC
  5
A9
100
AcDbEntity
  8
0
390
0
 62
               7
100
AcDbCircle
 10
172.29081316058037
 20
-664.22221519046093
 30
0.0
 40
865.92370775385507
100
AcDbArc
 50
92.838139507987535
 51
101.39143023502184
  0
ARC
  5
AA
100
AcDbEntity
  8
0
390
0
 62
               7
100
AcDbCircle
 10
229.04116757980194
 20
-1588.2018937123821
 30
0.0
 40
1791.6836021125191
100
AcDbArc
 50
85.27269404602427
 51
92.054201066723891
  0
LINE
  5
AB
100
AcDbEntity
  8
0
390
0
 62
               7
100
AcDbLine
 10
165.26283164721886
 20
197.25115148599826
 30
0.0
 11
164.81846281447307
 21
202.33031048599986
 31
0.0
  0
LINE
  5
AC
100
AcDbEntity
  8
0
390
0
 62
               7
100
AcDbLine
 10
430.84001275900175
 20
193.08751655994973
 30
0.0
 11
376.70004033184597
 21
197.38680119372265
 31
0.0
  0
LINE
  5
AD
100
AcDbEntity
  8
0
390
0
 62
               7
100
AcDbLine
 10
430.84001275900175
 20
193.08751655994973
 30
0.0
 11
542.74038132475198
 21
184.4107200725837
 31
0.0
  0
LINE
  5
AE
100
AcDbEntity
  8
0
390
0
 62
               7
100
AcDbLine
 10
490.05525022936831
 20
165.23490056545131
 30
0.0
 11
542.74038132475198
 21
184.4107200725837
 31
0.0
  0
LINE
  5
AF
100
AcDbEntity
  8
0
390
0
 62
               7
100
AcDbLine
 10
443.83753660020972
 20
119.47258306935701
 30
0.0
 11
443.83753660020972
 21
116.52412004994767
 31
0.0
  0
LINE
  5
B0
100
AcDbEntity
  8
0
390
0
 62
               7
100
AcDbLine
 10
443.83753660020972
 20
116.52412004994767
 30
0.0
 11
542.91152878606738
 21
116.52412004994767
 31
0.0
  0
LINE
  5
B1
100
AcDbEntity
  8
0
390
0
 62
               7
100
AcDbLine
 10
387.48769906448729
 20
116.52412004994767
 30
0.0
 11
433.83649382301519
 21
116.52412004994767
 31
0.0
  0
LINE
  5
B2
100
AcDbEntity
  8
0
390
0
 62
               7
100
AcDbLine
 10
433.83649382301519
 20
116.52412004994767
 30
0.0
 11
433.83649382301519
 21
119.47258306935701
 31
0.0
  0
LINE
  5
B3
100
AcDbEntity
  8
0
390
0
 62
               7
100
AcDbLine
 10
387.50706631785641
 20
119.65599668870549
 30
0.0
 11
387.48769906448729
 21
116.52412004994767
 31
0.0
  0
LINE
  5
B4
100
AcDbEntity
  8
0
390
0
 62
               7
100
AcDbLine
 10
377.41153528544965
 20
116.52412004994767
 30
0.0
 11
377.41089287389468
 21
119.65599668870549
 31
0.0
  0
LINE
  5
B5
100
AcDbEntity
  8
0
390
0
 62
               7
100
AcDbLine
 10
374.12504106522312
 20
116.52412004994767
 30
0.0
 11
377.41153528544965
 21
116.52412004994767
 31
0.0
  0
LINE
  5
B6
100
AcDbEntity
  8
0
390
0
100
AcDbLine
 10
129.29341325825058
 20
140.80557223256579
 30
0.0
 11
130.77371224755683
 21
140.79835894407404
 31
0.0
  0
LINE
  5
B7
100
AcDbEntity
  8
0
390
0
 62
               7
100
AcDbLine
 10
129.29341325825058
 20
140.80557223256579
 30
0.0
 11
129.29341325825058
 21
117.95161028428438
 31
0.0
  0
ARC
  5
B8
100
AcDbEntity
  8
0
390
0
 62
               7
100
AcDbCircle
 10
190.92466403573761
 20
1415.9749818659652
 30
0.0
 40
1299.4856999000306
100
AcDbArc
 50
261.60756520490537
 51
267.28158938187789
  0
LINE
  5
B9
100
AcDbEntity
  8
0
390
0
 62
               7
100
AcDbLine
 10
1.2615995570743213
 20
130.40467798630783
 30
0.0
 11
1.2615995570743113
 21
184.64342538191491
 31
0.0
  0
LINE
  5
BA
100
AcDbEntity
  8
0
390
0
 62
               7
100
AcDbLine
 10
124.36732966177753
 20
169.79158173782216
 30
0.0
 11
124.36794957181678
 21
157.30341107633481
 31
0.0
  0
LINE
  5
BB
100
AcDbEntity
  8
0
390
0
 62
               7
100
AcDbLine
 10
373.89352112436598
 20
150.74186877248621
 30
0.0
 11
377.27824348760089
 21
150.74186877248678
 31
0.0
  0
LINE
  5
BC
100
AcDbEntity
  8
0
390
0
 62
               7
100
AcDbLine
 10
395.33822753676725
 20
168.109521626397
 30
0.0
 11
395.33822753676725
 21
165.0938217671675
 31
0.0
  0
LINE
  5
BD
100
AcDbEntity
  8
0
390
0
 62
               7
100
AcDbLine
 10
395.33822753676725
 20
165.0938217671675
 30
0.0
 11
385.21226291597225
 21
165.0938217671675
 31
0.0
  0
LINE
  5
BE
100
AcDbEntity
  8
0
390
0
 62
               7
100
AcDbLine
 10
385.21226298574561
 20
165.0950104829513
 30
0.0
 11
385.21226298574561
 21
168.109521626397
 31
0.0
  0
LINE
  5
BF
100
AcDbEntity
  8
0
390
0
 62
               7
100
AcDbLine
 10
385.21226298574561
 20
168.109521626397
 30
0.0
 11
395.33822753676725
 21
168.109521626397
 31
0.0
  0
CIRCLE
  5
C0
100
AcDbEntity
  8
0
390
0
 62
               7
100
AcDbCircle
 10
439.24554046773079
 20
163.23336328229854
 30
0.0
 40
1.0
  0
LINE
  5
C1
100
AcDbEntity
  8
0
390
0
 62
               7
100
AcDbLine
 10
426.94376735647359
 20
165.23007029022901
 30
0.0
 11
426.94376735647359
 21
168.12771993022147
 31
0.0
  0
LINE
  5
C2
100
AcDbEntity
  8
0
390
0
 62
               7
100
AcDbLine
 10
426.94376735647359
 20
168.12771993022147
 30
0.0
 11
446.01860841375122
 21
168.12771993022147
 31
0.0
  0
LINE
  5
C3
100
AcDbEntity
  8
0
390
0
 62
               7
100
AcDbLine
 10
446.01860841375122
 20
165.23007029022901
 30
0.0
 11
446.01860841375122
 21
168.12771993022147
 31
0.0
  0
LINE
  5
C4
100
AcDbEntity
  8
0
390
0
 62
               7
100
AcDbLine
 10
446.01860841375122
 20
165.23007029022901
 30
0.0
 11
426.94376735647359
 21
165.23007029022901
 31
0.0
  0
LINE
  5
C5
100
AcDbEntity
  8
0
390
0
100
AcDbLine
 10
232.47165160934054
 20
-2.7354358387393773
 30
0.0
 11
226.10282438184797
 21
-2.7354358387393773
 31
0.0
  0
LINE
  5
C6
100
AcDbEntity
  8
0
390
0
100
AcDbLine
 10
261.17461957304977
 20
-2.7354358387393773
 30
0.0
 11
237.55119847611786
 21
-2.7354358387393773
 31
0.0
  0
LINE
  5
C7
100
AcDbEntity
  8
0
390
0
100
AcDbLine
 10
295.09020350150934
 20
-2.7354358387393773
 30
0.0
 11
271.19864512699507
 21
-2.7354358387393773
 31
0.0
  0
LINE
  5
C8
100
AcDbEntity
  8
0
390
0
100
AcDbLine
 10
306.09230127557356
 20
-2.7354358387393773
 30
0.0
 11
300.16230886174162
 21
-2.7354358387393773
 31
0.0
  0
CIRCLE
  5
C9
100
AcDbEntity
  8
0
390
0
100
AcDbCircle
 10
282.38714268032277
 20
-7.7004677902851455
 30
0.0
 40
3.0099999999999998
  0
CIRCLE
  5
CA
100
AcDbEntity
  8
0
390
0
100
AcDbCircle
 10
250.25363295688848
 20
-7.7004677902851455
 30
0.0
 40
3.0099999999999998
  0
LINE
  5
CB
100
AcDbEntity
  8
0
390
0
100
AcDbLine
 10
300.16230886174162
 20
-2.7354358387393773
 30
0.0
 11
300.16975036828666
 21
-7.6912480851453893
 31
0.0
  0
LINE
  5
CC
100
AcDbEntity
  8
0
390
0
100
AcDbLine
 10
295.09020350150934
 20
-2.7354358387393773
 30
0.0
 11
295.09020350150934
 21
-7.6912480851453822
 31
0.0
  0
LINE
  5
CD
100
AcDbEntity
  8
0
390
0
100
AcDbLine
 10
271.19864512699507
 20
-2.7354358387393773
 30
0.0
 11
271.19864512699507
 21
-7.6912480851453822
 31
0.0
  0
LINE
  5
CE
100
AcDbEntity
  8
0
390
0
100
AcDbLine
 10
261.17461957304977
 20
-2.7354358387393773
 30
0.0
 11
261.17461957304977
 21
-7.6912480851453822
 31
0.0
  0
LINE
  5
CF
100
AcDbEntity
  8
0
390
0
100
AcDbLine
 10
237.55119847611786
 20
-2.7354358387393773
 30
0.0
 11
237.55119847611786
 21
-7.6912480851453893
 31
0.0
  0
LINE
  5
D0
100
AcDbEntity
  8
0
390
0
100
AcDbLine
 10
232.47165160934054
 20
-2.7354358387393773
 30
0.0
 11
232.47165160934054
 21
-7.6912480851453822
 31
0.0
  0
LINE
  5
D1
100
AcDbEntity
  8
0
390
0
100
AcDbLine
 10
295.09020350150934
 20
-7.6912480851453822
 30
0.0
 11
300.16975036828666
 21
-7.6912480851453857
 31
0.0
  0
LINE
  5
D2
100
AcDbEntity
  8
0
390
0
100
AcDbLine
 10
261.17461957304977
 20
-7.6912480851453822
 30
0.0
 11
271.19864512699507
 21
-7.6912480851453822
 31
0.0
  0
LINE
  5
D3
100
AcDbEntity
  8
0
390
0
100
AcDbLine
 10
232.47165160934054
 20
-7.6912480851453822
 30
0.0
 11
237.55119847611786
 21
-7.6912480851453857
 31
0.0
  0
LINE
  5
D4
100
AcDbEntity
  8
0
390
0
100
AcDbLine
 10
226.10282438184797
 20
-2.7354358387393773
 30
0.0
 11
226.16600722299626
 21
-10.791248085145384
 31
0.0
  0
LINE
  5
D5
100
AcDbEntity
  8
0
390
0
100
AcDbLine
 10
306.09230127557356
 20
-10.791248085145384
 30
0.0
 11
306.09230127557356
 21
-2.7354358387393773
 31
0.0
  0
LINE
  5
D6
100
AcDbEntity
  8
0
390
0
100
AcDbLine
 10
226.16600722299626
 20
-10.791248085145384
 30
0.0
 11
306.09230127557356
 21
-10.791248085145384
 31
0.0
  0
CIRCLE
  5
D7
100
AcDbEntity
  8
0
390
0
100
AcDbCircle
 10
341.70580197386812
 20
-28.456973671854882
 30
0.0
 40
5.0
  0
CIRCLE
  5
D8
100
AcDbEntity
  8
0
390
0
100
AcDbCircle
 10
341.70580197386812
 20
-28.456973671854882
 30
0.0
 40
10.0
  0
LINE
  5
D9
100
AcDbEntity
  8
0
390
0
  6
Continuous
 62
               7
100
AcDbLine
 10
207.91028940275044
 20
-12.393968314784075
 30
0.0
 11
207.91028940275044
 21
-68.858170082317173
 31
0.0
  0
INSERT
  5
EF
100
AcDbEntity
  8
0
390
0
100
AcDbBlockReference
  2
B032F6468
 10
0.0
 20
0.0
 30
0.0
  0
LINE
  5
F0
100
AcDbEntity
  8
0
390
0
100
AcDbLine
 10
152.00292953967073
 20
-24.677929033985748
 30
0.0
 11
152.00292953967073
 21
-56.568930568837374
 31
0.0
  0
LINE
  5
F1
100
AcDbEntity
  8
0
390
0
100
AcDbLine
 10
194.09117355984972
 20
-59.201619578949334
 30
0.0
 11
156.14670221022152
 21
-60.566345911181287
 31
0.0
  0
ARC
  5
F2
100
AcDbEntity
  8
0
390
0
100
AcDbCircle
 10
156.00292953967073
 20
-56.568930568837828
 30
0.0
 40
4.0
100
AcDbArc
 50
179.9999999999927
 51
272.05983549121765
  0
LINE
  5
F3
100
AcDbEntity
  8
0
390
0
100
AcDbLine
 10
156.1516851566771
 20
-20.680696020211286
 30
0.0
 11
194.09544730926893
 21
-22.092759748067266
 31
0.0
  0
ARC
  5
F4
100
AcDbEntity
  8
0
390
0
100
AcDbCircle
 10
156.00292953967073
 20
-24.677929033985805
 30
0.0
 40
4.0
100
AcDbArc
 50
87.868741288710552
 51
179.99999999999898
  0
LINE
  5
F5
100
AcDbEntity
  8
0
390
0
100
AcDbLine
 10
197.94669169107624
 20
-26.089895325297931
 30
0.0
 11
197.94740088811238
 21
-55.204106800061851
 31
0.0
  0
ARC
  5
F6
100
AcDbEntity
  8
0
390
0
100
AcDbCircle
 10
193.94740088929916
 20
-55.204204236605875
 30
0.0
 40
4.0
100
AcDbArc
 50
272.05983549121544
 51
0.0013956756854936
  0
ARC
  5
F7
100
AcDbEntity
  8
0
390
0
100
AcDbCircle
 10
193.9466916922629
 20
-26.089992761841842
 30
0.0
 40
4.0
100
AcDbArc
 50
0.0013956756834798
 51
87.868741288714801
  0
LINE
  5
F8
100
AcDbEntity
  8
0
390
0
100
AcDbLine
 10
207.91028940275044
 20
-12.393968314784075
 30
0.0
 11
197.95698853454246
 21
-12.072375476756832
 31
0.0
  0
CIRCLE
  5
F9
100
AcDbEntity
  8
0
390
0
100
AcDbCircle
 10
202.81424954205045
 20
-58.073387883048468
 30
0.0
 40
1.25
  0
CIRCLE
  5
FA
100
AcDbEntity
  8
0
390
0
100
AcDbCircle
 10
146.15578932022152
 20
-58.621376703507025
 30
0.0
 40
1.25
  0
CIRCLE
  5
FB
100
AcDbEntity
  8
0
390
0
100
AcDbCircle
 10
146.15578932022152
 20
-22.621376703507025
 30
0.0
 40
1.25
  0
LINE
  5
FC
100
AcDbEntity
  8
0
390
0
100
AcDbLine
 10
139.11942108456435
 20
-10.171323700125157
 30
0.0
 11
207.91028940275044
 21
-12.393968314784075
 31
0.0
  0
LINE
  5
FD
100
AcDbEntity
  8
0
390
0
  6
Continuous
 62
               7
100
AcDbLine
 10
207.91028940275044
 20
-68.858170082317173
 30
0.0
 11
139.11942108456435
 21
-71.070360371924636
 31
0.0
  0
LINE
  5
FE
100
AcDbEntity
  8
0
390
0
  6
Continuous
 62
               7
100
AcDbLine
 10
139.11942108456435
 20
-10.171323700125157
 30
0.0
 11
139.11942108456435
 21
-71.070360371924636
 31
0.0
  0
CIRCLE
  5
FF
100
AcDbEntity
  8
0
390
0
100
AcDbCircle
 10
202.81424954205045
 20
-23.178750514052567
 30
0.0
 40
1.25
  0
LINE
  5
100
100
AcDbEntity
  8
0
390
0
  6
Continuous
 62
               7
100
AcDbLine
 10
358.04681792177234
 20
144.00407414409844
 30
0.0
 11
354.12391496953558
 21
144.65395790364403
 31
0.0
  0
LINE
  5
101
100
AcDbEntity
  8
0
390
0
  6
Continuous
 62
               7
100
AcDbLine
 10
354.12391496953558
 20
144.65395790364403
 30
0.0
 11
350.2542988354142
 21
145.24685980032362
 31
0.0
  0
LINE
  5
102
100
AcDbEntity
  8
0
390
0
  6
Continuous
 62
               7
100
AcDbLine
 10
350.2542988354142
 20
145.24685980032362
 30
0.0
 11
346.36299525136474
 21
145.79454670754581
 31
0.0
  0
LINE
  5
103
100
AcDbEntity
  8
0
390
0
  6
Continuous
 62
               7
100
AcDbLine
 10
346.36299525136474
 20
145.79454670754581
 30
0.0
 11
342.44757856553912
 21
146.30177040561856
 31
0.0
  0
LINE
  5
104
100
AcDbEntity
  8
0
390
0
  6
Continuous
 62
               7
100
AcDbLine
 10
342.44757856553912
 20
146.30177040561856
 30
0.0
 11
338.51772812856672
 21
146.76379096448247
 31
0.0
  0
LINE
  5
105
100
AcDbEntity
  8
0
390
0
  6
Continuous
 62
               7
100
AcDbLine
 10
338.51772812856672
 20
146.76379096448247
 30
0.0
 11
334.56376458981816
 21
147.18534831419683
 31
0.0
  0
LINE
  5
106
100
AcDbEntity
  8
0
390
0
  6
Continuous
 62
               7
100
AcDbLine
 10
334.56376458981816
 20
147.18534831419683
 30
0.0
 11
330.58325066906377
 21
147.57832783065572
 31
0.0
  0
LINE
  5
107
100
AcDbEntity
  8
0
390
0
  6
Continuous
 62
               7
100
AcDbLine
 10
330.58325066906377
 20
147.57832783065572
 30
0.0
 11
326.57376459058258
 21
147.94510342897146
 31
0.0
  0
LINE
  5
108
100
AcDbEntity
  8
0
390
0
  6
Continuous
 62
               7
100
AcDbLine
 10
326.57376459058258
 20
147.94510342897146
 30
0.0
 11
322.53770874945985
 21
148.29519052000848
 31
0.0
  0
LINE
  5
109
100
AcDbEntity
  8
0
390
0
  6
Continuous
 62
               7
100
AcDbLine
 10
322.53770874945985
 20
148.29519052000848
 30
0.0
 11
318.48233296834962
 21
148.63097881921058
 31
0.0
  0
LINE
  5
10A
100
AcDbEntity
  8
0
390
0
  6
Continuous
 62
               7
100
AcDbLine
 10
318.48233296834962
 20
148.63097881921058
 30
0.0
 11
314.41245754193102
 21
148.96198768752492
 31
0.0
  0
LINE
  5
10B
100
AcDbEntity
  8
0
390
0
  6
Continuous
 62
               7
100
AcDbLine
 10
314.41245754193102
 20
148.96198768752492
 30
0.0
 11
310.33776182083341
 21
149.28347719489219
 31
0.0
  0
LINE
  5
10C
100
AcDbEntity
  8
0
390
0
  6
Continuous
 62
               7
100
AcDbLine
 10
310.33776182083341
 20
149.28347719489219
 30
0.0
 11
306.26549175158397
 21
149.60021492195156
 31
0.0
  0
LINE
  5
10D
100
AcDbEntity
  8
0
390
0
  6
Continuous
 62
               7
100
AcDbLine
 10
306.26549175158397
 20
149.60021492195156
 30
0.0
 11
302.19806910990354
 21
149.90982695359051
 31
0.0
  0
LINE
  5
10E
100
AcDbEntity
  8
0
390
0
  6
Continuous
 62
               7
100
AcDbLine
 10
302.19806910990354
 20
149.90982695359051
 30
0.0
 11
298.13550164804656
 21
150.20755755941835
 31
0.0
  0
LINE
  5
10F
100
AcDbEntity
  8
0
390
0
  6
Continuous
 62
               7
100
AcDbLine
 10
298.13550164804656
 20
150.20755755941835
 30
0.0
 11
294.08020726560682
 21
150.49341068951802
 31
0.0
  0
LINE
  5
110
100
AcDbEntity
  8
0
390
0
  6
Continuous
 62
               7
100
AcDbLine
 10
294.08020726560682
 20
150.49341068951802
 30
0.0
 11
290.02977193911767
 21
150.76500452861123
 31
0.0
  0
LINE
  5
111
100
AcDbEntity
  8
0
390
0
  6
Continuous
 62
               7
100
AcDbLine
 10
290.02977193911767
 20
150.76500452861123
 30
0.0
 11
285.9866135681728
 21
151.02234302678082
 31
0.0
  0
LINE
  5
112
100
AcDbEntity
  8
0
390
0
  6
Continuous
 62
               7
100
AcDbLine
 10
285.9866135681728
 20
151.02234302678082
 30
0.0
 11
281.94590410583908
 21
151.26066255347038
 31
0.0
  0
LINE
  5
113
100
AcDbEntity
  8
0
390
0
  6
Continuous
 62
               7
100
AcDbLine
 10
281.94590410583908
 20
151.26066255347038
 30
0.0
 11
277.91247935130417
 21
151.47997100884561
 31
0.0
  0
INSERT
  5
147
100
AcDbEntity
  8
0
390
0
100
AcDbBlockReference
  2
B02C4450C
 10
0.0
 20
0.0
 30
0.0
  0
LINE
  5
148
100
AcDbEntity
  8
0
390
0
  6
Continuous
 62
               7
100
AcDbLine
 10
359.36875486687569
 20
143.77080280896422
 30
0.0
 11
358.04681792177234
 21
144.00407414409844
 31
0.0
  0
LINE
  5
149
100
AcDbEntity
  8
0
390
0
100
AcDbLine
 10
374.12504106522312
 20
116.52412004994767
 30
0.0
 11
359.36875486687569
 21
143.77080280896419
 31
0.0
  0
LINE
  5
14A
100
AcDbEntity
  8
0
390
0
100
AcDbLine
 10
374.12504106522312
 20
103.63258509257963
 30
0.0
 11
359.36875486687569
 21
76.385902333563109
 31
0.0
  0
LINE
  5
14B
100
AcDbEntity
  8
0
390
0
  6
Continuous
 62
               7
100
AcDbLine
 10
359.36875486687569
 20
76.385902333563081
 30
0.0
 11
358.04681792177234
 21
76.152630998428862
 31
0.0
  0
INSERT
  5
17F
100
AcDbEntity
  8
0
390
0
100
AcDbBlockReference
  2
B02BC8058
 10
0.0
 20
0.0
 30
0.0
  0
LINE
  5
180
100
AcDbEntity
  8
0
390
0
  6
Continuous
 62
               7
100
AcDbLine
 10
281.94590410583908
 20
68.896042589056918
 30
0.0
 11
277.91247935130417
 21
68.676734133681691
 31
0.0
  0
LINE
  5
181
100
AcDbEntity
  8
0
390
0
  6
Continuous
 62
               7
100
AcDbLine
 10
285.9866135681728
 20
69.134362115746484
 30
0.0
 11
281.94590410583908
 21
68.896042589056918
 31
0.0
  0
LINE
  5
182
100
AcDbEntity
  8
0
390
0
  6
Continuous
 62
               7
100
AcDbLine
 10
290.02977193911767
 20
69.391700613916072
 30
0.0
 11
285.9866135681728
 21
69.134362115746484
 31
0.0
  0
LINE
  5
183
100
AcDbEntity
  8
0
390
0
  6
Continuous
 62
               7
100
AcDbLine
 10
294.08020726560682
 20
69.663294453009286
 30
0.0
 11
290.02977193911767
 21
69.391700613916072
 31
0.0
  0
LINE
  5
184
100
AcDbEntity
  8
0
390
0
  6
Continuous
 62
               7
100
AcDbLine
 10
298.13550164804656
 20
69.949147583108953
 30
0.0
 11
294.08020726560682
 21
69.663294453009286
 31
0.0
  0
LINE
  5
185
100
AcDbEntity
  8
0
390
0
  6
Continuous
 62
               7
100
AcDbLine
 10
302.19806910990354
 20
70.24687818893679
 30
0.0
 11
298.13550164804656
 21
69.949147583108953
 31
0.0
  0
LINE
  5
186
100
AcDbEntity
  8
0
390
0
  6
Continuous
 62
               7
100
AcDbLine
 10
306.26549175158397
 20
70.556490220575739
 30
0.0
 11
302.19806910990354
 21
70.24687818893679
 31
0.0
  0
LINE
  5
187
100
AcDbEntity
  8
0
390
0
  6
Continuous
 62
               7
100
AcDbLine
 10
310.33776182083341
 20
70.873227947635115
 30
0.0
 11
306.26549175158397
 21
70.556490220575739
 31
0.0
  0
LINE
  5
188
100
AcDbEntity
  8
0
390
0
  6
Continuous
 62
               7
100
AcDbLine
 10
314.41245754193102
 20
71.194717455002376
 30
0.0
 11
310.33776182083341
 21
70.873227947635115
 31
0.0
  0
LINE
  5
189
100
AcDbEntity
  8
0
390
0
  6
Continuous
 62
               7
100
AcDbLine
 10
318.48233296834962
 20
71.525726323316718
 30
0.0
 11
314.41245754193102
 21
71.194717455002376
 31
0.0
  0
LINE
  5
18A
100
AcDbEntity
  8
0
390
0
  6
Continuous
 62
               7
100
AcDbLine
 10
322.53770874945985
 20
71.861514622518825
 30
0.0
 11
318.48233296834962
 21
71.525726323316718
 31
0.0
  0
LINE
  5
18B
100
AcDbEntity
  8
0
390
0
  6
Continuous
 62
               7
100
AcDbLine
 10
326.57376459058258
 20
72.211601713555837
 30
0.0
 11
322.53770874945985
 21
71.861514622518825
 31
0.0
  0
LINE
  5
18C
100
AcDbEntity
  8
0
390
0
  6
Continuous
 62
               7
100
AcDbLine
 10
330.58325066906377
 20
72.578377311871577
 30
0.0
 11
326.57376459058258
 21
72.211601713555837
 31
0.0
  0
LINE
  5
18D
100
AcDbEntity
  8
0
390
0
  6
Continuous
 62
               7
100
AcDbLine
 10
334.56376458981816
 20
72.971356828330471
 30
0.0
 11
330.58325066906377
 21
72.578377311871577
 31
0.0
  0
LINE
  5
18E
100
AcDbEntity
  8
0
390
0
  6
Continuous
 62
               7
100
AcDbLine
 10
338.51772812856672
 20
73.392914178044833
 30
0.0
 11
334.56376458981816
 21
72.971356828330471
 31
0.0
  0
LINE
  5
18F
100
AcDbEntity
  8
0
390
0
  6
Continuous
 62
               7
100
AcDbLine
 10
342.44757856553912
 20
73.854934736908746
 30
0.0
 11
338.51772812856672
 21
73.392914178044833
 31
0.0
  0
LINE
  5
190
100
AcDbEntity
  8
0
390
0
  6
Continuous
 62
               7
100
AcDbLine
 10
346.36299525136474
 20
74.362158434981495
 30
0.0
 11
342.44757856553912
 21
73.854934736908746
 31
0.0
  0
LINE
  5
191
100
AcDbEntity
  8
0
390
0
  6
Continuous
 62
               7
100
AcDbLine
 10
350.2542988354142
 20
74.909845342203681
 30
0.0
 11
346.36299525136474
 21
74.362158434981495
 31
0.0
  0
LINE
  5
192
100
AcDbEntity
  8
0
390
0
  6
Continuous
 62
               7
100
AcDbLine
 10
354.12391496953558
 20
75.502747238883273
 30
0.0
 11
350.2542988354142
 21
74.909845342203681
 31
0.0
  0
LINE
  5
193
100
AcDbEntity
  8
0
390
0
  6
Continuous
 62
               7
100
AcDbLine
 10
358.04681792177234
 20
76.152630998428862
 30
0.0
 11
354.12391496953558
 21
75.502747238883273
 31
0.0
  0
LINE
  5
194
100
AcDbEntity
  8
0
390
0
 62
               7
100
AcDbLine
 10
446.01860841375122
 20
54.926634852298292
 30
0.0
 11
426.94376735647359
 21
54.926634852298292
 31
0.0
  0
LINE
  5
195
100
AcDbEntity
  8
0
390
0
 62
               7
100
AcDbLine
 10
446.01860841375122
 20
54.926634852298292
 30
0.0
 11
446.01860841375122
 21
52.028985212305827
 31
0.0
  0
LINE
  5
196
100
AcDbEntity
  8
0
390
0
 62
               7
100
AcDbLine
 10
426.94376735647359
 20
52.028985212305827
 30
0.0
 11
446.01860841375122
 21
52.028985212305827
 31
0.0
  0
LINE
  5
197
100
AcDbEntity
  8
0
390
0
 62
               7
100
AcDbLine
 10
426.94376735647359
 20
54.926634852298292
 30
0.0
 11
426.94376735647359
 21
52.028985212305827
 31
0.0
  0
CIRCLE
  5
198
100
AcDbEntity
  8
0
390
0
 62
               7
100
AcDbCircle
 10
439.24554046773079
 20
56.92334186022876
 30
0.0
 40
1.0
  0
LINE
  5
199
100
AcDbEntity
  8
0
390
0
 62
               7
100
AcDbLine
 10
385.21226298574561
 20
52.047183516130303
 30
0.0
 11
395.33822753676725
 21
52.047183516130303
 31
0.0
  0
LINE
  5
19A
100
AcDbEntity
  8
0
390
0
 62
               7
100
AcDbLine
 10
385.21226298574561
 20
55.061694659576006
 30
0.0
 11
385.21226298574561
 21
52.047183516130303
 31
0.0
  0
LINE
  5
19B
100
AcDbEntity
  8
0
390
0
 62
               7
100
AcDbLine
 10
395.33822753676725
 20
55.062883375359803
 30
0.0
 11
385.21226291597225
 21
55.062883375359803
 31
0.0
  0
LINE
  5
19C
100
AcDbEntity
  8
0
390
0
 62
               7
100
AcDbLine
 10
395.33822753676725
 20
52.047183516130303
 30
0.0
 11
395.33822753676725
 21
55.062883375359803
 31
0.0
  0
LINE
  5
19D
100
AcDbEntity
  8
0
390
0
 62
               7
100
AcDbLine
 10
373.89352112436598
 20
69.414836370041087
 30
0.0
 11
377.27824348760089
 21
69.414836370040518
 31
0.0
  0
LINE
  5
19E
100
AcDbEntity
  8
0
390
0
 62
               7
100
AcDbLine
 10
124.36732966177753
 20
50.365123404705145
 30
0.0
 11
124.36794957181678
 21
62.85329406619249
 31
0.0
  0
LINE
  5
19F
100
AcDbEntity
  8
0
390
0
 62
               7
100
AcDbLine
 10
1.2615995570743213
 20
89.752027156219469
 30
0.0
 11
1.2615995570743113
 21
35.513279760612392
 31
0.0
  0
ARC
  5
1A0
100
AcDbEntity
  8
0
390
0
 62
               7
100
AcDbCircle
 10
190.92466403573761
 20
-1195.818276723438
 30
0.0
 40
1299.4856999000306
100
AcDbArc
 50
92.718410618122149
 51
98.392434795094658
  0
LINE
  5
1A1
100
AcDbEntity
  8
0
390
0
 62
               7
100
AcDbLine
 10
129.29341325825058
 20
79.351132909961507
 30
0.0
 11
129.29341325825058
 21
102.20509485824292
 31
0.0
  0
LINE
  5
1A2
100
AcDbEntity
  8
0
390
0
100
AcDbLine
 10
129.29341325825058
 20
79.351132909961507
 30
0.0
 11
130.77371224755683
 21
79.358346198453262
 31
0.0
  0
LINE
  5
1A3
100
AcDbEntity
  8
0
390
0
 62
               7
100
AcDbLine
 10
374.12504106522312
 20
103.63258509257963
 30
0.0
 11
377.41153528544965
 21
103.63258509257963
 31
0.0
  0
LINE
  5
1A4
100
AcDbEntity
  8
0
390
0
 62
               7
100
AcDbLine
 10
377.41153528544965
 20
103.63258509257963
 30
0.0
 11
377.41089287389468
 21
100.50070845382182
 31
0.0
  0
LINE
  5
1A5
100
AcDbEntity
  8
0
390
0
 62
               7
100
AcDbLine
 10
387.50706631785641
 20
100.50070845382182
 30
0.0
 11
387.48769906448729
 21
103.63258509257963
 31
0.0
  0
LINE
  5
1A6
100
AcDbEntity
  8
0
390
0
 62
               7
100
AcDbLine
 10
433.83649382301519
 20
103.63258509257963
 30
0.0
 11
433.83649382301519
 21
100.68412207317029
 31
0.0
  0
LINE
  5
1A7
100
AcDbEntity
  8
0
390
0
 62
               7
100
AcDbLine
 10
387.48769906448729
 20
103.63258509257963
 30
0.0
 11
433.83649382301519
 21
103.63258509257963
 31
0.0
  0
LINE
  5
1A8
100
AcDbEntity
  8
0
390
0
 62
               7
100
AcDbLine
 10
443.83753660020972
 20
103.63258509257963
 30
0.0
 11
542.91152878606738
 21
103.63258509257963
 31
0.0
  0
LINE
  5
1A9
100
AcDbEntity
  8
0
390
0
 62
               7
100
AcDbLine
 10
443.83753660020972
 20
100.68412207317029
 30
0.0
 11
443.83753660020972
 21
103.63258509257963
 31
0.0
  0
LINE
  5
1AA
100
AcDbEntity
  8
0
390
0
 62
               7
100
AcDbLine
 10
490.05525022936831
 20
54.921804577075989
 30
0.0
 11
542.74038132475198
 21
35.7459850699436
 31
0.0
  0
LINE
  5
1AB
100
AcDbEntity
  8
0
390
0
 62
               7
100
AcDbLine
 10
430.84001275900175
 20
27.069188582577567
 30
0.0
 11
542.74038132475198
 21
35.7459850699436
 31
0.0
  0
LINE
  5
1AC
100
AcDbEntity
  8
0
390
0
 62
               7
100
AcDbLine
 10
430.84001275900175
 20
27.069188582577567
 30
0.0
 11
376.70004033184597
 21
22.769903948804654
 31
0.0
  0
LINE
  5
1AD
100
AcDbEntity
  8
0
390
0
 62
               7
100
AcDbLine
 10
165.26283164721886
 20
22.905553656529037
 30
0.0
 11
164.81846281447307
 21
17.826394656527441
 31
0.0
  0
ARC
  5
1AE
100
AcDbEntity
  8
0
390
0
 62
               7
100
AcDbCircle
 10
229.04116757980194
 20
1808.3585988549094
 30
0.0
 40
1791.6836021125191
100
AcDbArc
 50
267.94579893327614
 51
274.72730595397576
  0
ARC
  5
1AF
100
AcDbEntity
  8
0
390
0
 62
               7
100
AcDbCircle
 10
172.29081316058037
 20
884.37892033298817
 30
0.0
 40
865.92370775385507
100
AcDbArc
 50
258.60856976497814
 51
267.16186049201247
  0
LINE
  5
1B0
100
AcDbEntity
  8
0
390
0
 62
               7
100
AcDbLine
 10
129.41488219977276
 20
19.516853016954968
 30
0.0
 11
129.85063120070043
 21
24.497486888434139
 31
0.0
  0
LINE
  5
1B1
100
AcDbEntity
  8
0
390
0
 62
               7
100
AcDbLine
 10
373.89352112436598
 20
54.277915921479888
 30
0.0
 11
373.89352112436598
 21
69.414836370041087
 31
0.0
  0
LINE
  5
1B2
100
AcDbEntity
  8
0
390
0
 62
               7
100
AcDbLine
 10
377.27824348760089
 20
54.277915921479888
 30
0.0
 11
373.89352112436598
 21
54.277915921479888
 31
0.0
  0
LINE
  5
1B3
100
AcDbEntity
  8
0
390
0
 62
               7
100
AcDbLine
 10
377.27824348760089
 20
69.414836370040518
 30
0.0
 11
377.27824348760089
 21
54.277915921479888
 31
0.0
  0
CIRCLE
  5
1B4
100
AcDbEntity
  8
0
390
0
 62
               7
100
AcDbCircle
 10
396.97033440196287
 20
66.256668174117863
 30
0.0
 40
6.5
  0
CIRCLE
  5
1B5
100
AcDbEntity
  8
0
390
0
 62
               7
100
AcDbCircle
 10
421.97033440196287
 20
66.256668174117863
 30
0.0
 40
6.5
  0
CIRCLE
  5
1B6
100
AcDbEntity
  8
0
390
0
 62
               7
100
AcDbCircle
 10
446.97033440196287
 20
66.256668174117863
 30
0.0
 40
6.5
  0
CIRCLE
  5
1B7
100
AcDbEntity
  8
0
390
0
 62
               7
100
AcDbCircle
 10
471.97033440196287
 20
66.256668174117863
 30
0.0
 40
6.5
  0
INSERT
  5
1C0
100
AcDbEntity
  8
0
390
0
100
AcDbBlockReference
  2
B02483B30
 10
0.0
 20
0.0
 30
0.0
  0
INSERT
  5
1C9
100
AcDbEntity
  8
0
390
0
100
AcDbBlockReference
  2
B02482AE4
 10
0.0
 20
0.0
 30
0.0
  0
CIRCLE
  5
1CA
100
AcDbEntity
  8
0
390
0
 62
               7
100
AcDbCircle
 10
24.149074602805332
 20
43.668482954817307
 30
0.0
 40
6.5
  0
CIRCLE
  5
1CB
100
AcDbEntity
  8
0
390
0
 62
               7
100
AcDbCircle
 10
49.149074602805328
 20
43.668482954817307
 30
0.0
 40
6.5
  0
CIRCLE
  5
1CC
100
AcDbEntity
  8
0
390
0
 62
               7
100
AcDbCircle
 10
74.149074602805314
 20
43.668482954817307
 30
0.0
 40
6.5
  0
CIRCLE
  5
1CD
100
AcDbEntity
  8
0
390
0
 62
               7
100
AcDbCircle
 10
99.149074602805314
 20
43.668482954817307
 30
0.0
 40
6.5
  0
CIRCLE
  5
1CE
100
AcDbEntity
  8
0
390
0
 62
               7
100
AcDbCircle
 10
24.45544020555738
 20
80.738720887815077
 30
0.0
 40
6.5
  0
CIRCLE
  5
1CF
100
AcDbEntity
  8
0
390
0
 62
               7
100
AcDbCircle
 10
49.455440205557373
 20
80.738720887815077
 30
0.0
 40
6.5
  0
CIRCLE
  5
1D0
100
AcDbEntity
  8
0
390
0
 62
               7
100
AcDbCircle
 10
74.455440205557366
 20
80.738720887815077
 30
0.0
 40
6.5
  0
CIRCLE
  5
1D1
100
AcDbEntity
  8
0
390
0
 62
               7
100
AcDbCircle
 10
99.455440205557366
 20
80.738720887815077
 30
0.0
 40
6.5
  0
INSERT
  5
1DA
100
AcDbEntity
  8
0
390
0
100
AcDbBlockReference
  2
B0248C004
 10
0.0
 20
0.0
 30
0.0
  0
CIRCLE
  5
1DB
100
AcDbEntity
  8
0
390
0
 62
               7
100
AcDbCircle
 10
333.84684881280145
 20
35.096003113148157
 30
0.0
 40
6.5
  0
INSERT
  5
1E7
100
AcDbEntity
  8
0
390
0
100
AcDbBlockReference
  2
B02483260
 10
0.0
 20
0.0
 30
0.0
  0
INSERT
  5
1F3
100
AcDbEntity
  8
0
390
0
100
AcDbBlockReference
  2
B02483E38
 10
0.0
 20
0.0
 30
0.0
  0
LINE
  5
1F4
100
AcDbEntity
  8
0
390
0
 62
               7
100
AcDbLine
 10
542.91152878606738
 20
103.63258509257963
 30
0.0
 11
488.56887050232649
 21
73.032252536638168
 31
0.0
  0
ARC
  5
1F5
100
AcDbEntity
  8
0
390
0
 62
               7
100
AcDbCircle
 10
493.47545166262501
 20
64.318730784935042
 30
0.0
 40
10.0
100
AcDbArc
 50
119.38384681332678
 51
250.00000000000003
  0
LINE
  5
1F6
100
AcDbEntity
  8
0
390
0
 62
               7
100
AcDbLine
 10
129.85063120070043
 20
24.497486888434139
 30
0.0
 11
165.26283164721886
 21
22.905553656529037
 31
0.0
  0
LINE
  5
1F7
100
AcDbEntity
  8
0
390
0
 62
               7
100
AcDbLine
 10
129.57672796022044
 20
50.365123404705145
 30
0.0
 11
124.36732966177753
 21
50.365123404705145
 31
0.0
  0
LINE
  5
1F8
100
AcDbEntity
  8
0
390
0
 62
               7
100
AcDbLine
 10
129.57672796022044
 20
62.85329406619249
 30
0.0
 11
129.57672796022044
 21
50.365123404705145
 31
0.0
  0
LINE
  5
1F9
100
AcDbEntity
  8
0
390
0
 62
               7
100
AcDbLine
 10
124.36794957181678
 20
62.85329406619249
 30
0.0
 11
129.57672796022044
 21
62.85329406619249
 31
0.0
  0
LINE
  5
1FA
100
AcDbEntity
  8
0
390
0
 62
               7
100
AcDbLine
 10
329.2194582411293
 20
63.543199060373666
 30
0.0
 11
309.15105408302963
 21
63.543199060373666
 31
0.0
  0
LINE
  5
1FB
100
AcDbEntity
  8
0
390
0
 62
               7
100
AcDbLine
 10
329.2194582411293
 20
58.487004022389073
 30
0.0
 11
329.2194582411293
 21
63.543199060373666
 31
0.0
  0
LINE
  5
1FC
100
AcDbEntity
  8
0
390
0
 62
               7
100
AcDbLine
 10
309.15236287171444
 20
58.487004022389073
 30
0.0
 11
329.2194582411293
 21
58.487004022389073
 31
0.0
  0
LINE
  5
1FD
100
AcDbEntity
  8
0
390
0
 62
               7
100
AcDbLine
 10
309.15236287171444
 20
63.542616672384611
 30
0.0
 11
309.15236287171444
 21
58.487004022389073
 31
0.0
  0
LINE
  5
1FE
100
AcDbEntity
  8
0
390
0
 62
               7
100
AcDbLine
 10
433.83649382301519
 20
100.68412207317029
 30
0.0
 11
443.83753660020972
 21
100.68412207317029
 31
0.0
  0
LINE
  5
1FF
100
AcDbEntity
  8
0
390
0
 62
               7
100
AcDbLine
 10
377.41089287389468
 20
100.50070845382182
 30
0.0
 11
387.50706631785641
 21
100.50070845382182
 31
0.0
  0
ENDSEC
  0
SECTION
  2
OBJECTS
  0
DICTIONARY
  5
19
100
AcDbDictionary
280
               0
281
               1
  3
ACAD_GROUP
350
1A
  3
ACAD_MLINESTYLE
350
1B
  3
ACAD_LAYOUT
350
1E
  3
ACAD_PLOTSETTINGS
350
22
  3
ACAD_PLOTSTYLENAME
350
1F
  0
DICTIONARY
  5
1A
102
{ACAD_REACTORS
330
19
102
}
100
AcDbDictionary
280
               0
281
               1
  0
DICTIONARY
  5
1B
102
{ACAD_REACTORS
330
19
102
}
100
AcDbDictionary
280
               0
281
               1
  3
Standard
350
1C
  0
MLINESTYLE
  5
1C
102
{ACAD_REACTORS
330
1B
102
}
100
AcDbMlineStyle
  2
Standard
 70
               0
  3

 62
               0
 51
90.0
 52
90.0
 71
               2
 49
0.5
 62
             256
  6
ByLayer
 49
-0.5
 62
             256
  6
ByLayer
  0
ACDBDICTIONARYWDFLT
  5
1F
102
{ACAD_REACTORS
330
19
102
}
100
AcDbDictionary
281
               1
  3
Normal
350
1D
100
AcDbDictionaryWithDefault
340
1D
  0
ACDBPLACEHOLDER
  5
1D
102
{ACAD_REACTORS
330
1F
102
}
  0
LAYOUT
  5
20
102
{ACAD_REACTORS
330
1E
102
}
100
AcDbPlotSettings
  1

  2

  4

  6

 40
0.0
 41
0.0
 42
0.0
 43
0.0
 44
0.0
 45
0.0
 46
0.0
 47
0.0
 48
0.0
 49
0.0
140
0.0
141
0.0
142
1.0
143
1.0
 70
            1024
 72
               0
 73
               0
 74
               0
  7

 75
               0
147
1.0
148
0.0
149
0.0
100
AcDbLayout
  1
Model
 70
               0
 71
               0
 10
0.0
 20
0.0
 11
0.0
 21
0.0
 12
0.0
 22
0.0
 32
0.0
 14
0.0
 24
0.0
 34
0.0
 15
0.0
 25
0.0
 35
0.0
146
0.0
 13
0.0
 23
0.0
 33
0.0
 16
0.0
 26
0.0
 36
0.0
 17
0.0
 27
0.0
 37
0.0
 76
               0
330
A
331
0
345
0
346
0
  0
LAYOUT
  5
21
102
{ACAD_REACTORS
330
1E
102
}
100
AcDbPlotSettings
  1

  2

  4

  6

 40
0.0
 41
0.0
 42
0.0
 43
0.0
 44
0.0
 45
0.0
 46
0.0
 47
0.0
 48
0.0
 49
0.0
140
0.0
141
0.0
142
1.0
143
1.0
 70
               0
 72
               0
 73
               0
 74
               0
  7

 75
               0
147
1.0
148
0.0
149
0.0
100
AcDbLayout
  1
Layout1
 70
               0
 71
               0
 10
0.0
 20
0.0
 11
0.0
 21
0.0
 12
0.0
 22
0.0
 32
0.0
 14
0.0
 24
0.0
 34
0.0
 15
0.0
 25
0.0
 35
0.0
146
0.0
 13
0.0
 23
0.0
 33
0.0
 16
0.0
 26
0.0
 36
0.0
 17
0.0
 27
0.0
 37
0.0
 76
               0
330
B
331
0
345
0
346
0
  0
DICTIONARY
  5
1E
102
{ACAD_REACTORS
330
19
102
}
100
AcDbDictionary
280
               0
281
               1
  3
Layout1
350
21
  3
Model
350
20
  0
DICTIONARY
  5
22
102
{ACAD_REACTORS
330
19
102
}
100
AcDbDictionary
280
               0
281
               1
  0
ENDSEC
  0
EOF
