  0
SECTION
  2
HEADER
  9
$ACADVER
  1
AC1015
  9
$ACADMAINTVER
 70
               6
  9
$DWGCODEPAGE
  3
DOS437
  9
$INSBASE
 10
0.0
 20
0.0
 30
0.0
  9
$EXTMIN
 10
53.995760603508096
 20
126.21055570267512
 30
1.0000000000000000E+20
  9
$EXTMAX
 10
280.68338060350811
 20
252.91741372850589
 30
-1.0000000000000000E+20
  9
$LIMMIN
 10
0.0
 20
0.0
  9
$LIMMAX
 10
0.0
 20
0.0
  9
$ORTHOMODE
 70
               0
  9
$REGENMODE
 70
               1
  9
$FILLMODE
 70
               1
  9
$QTEXTMODE
 70
               0
  9
$MIRRTEXT
 70
               1
  9
$LTSCALE
 40
0.1
  9
$ATTMODE
 70
               1
  9
$TEXTSIZE
 40
0.2
  9
$TRACEWID
 40
0.05
  9
$TEXTSTYLE
  7
Standard
  9
$CLAYER
  8
0
  9
$CELTYPE
  6
ByLayer
  9
$CECOLOR
 62
             256
  9
$CELTSCALE
 40
1.0
  9
$DISPSILH
 70
               0
  9
$DIMSCALE
 40
1.0
  9
$DIMASZ
 40
0.18
  9
$DIMEXO
 40
0.0625
  9
$DIMDLI
 40
0.38
  9
$DIMRND
 40
0.0
  9
$DIMDLE
 40
0.0
  9
$DIMEXE
 40
0.18
  9
$DIMTP
 40
0.0
  9
$DIMTM
 40
0.0
  9
$DIMTXT
 40
0.18
  9
$DIMCEN
 40
0.09
  9
$DIMTSZ
 40
0.0
  9
$DIMTOL
 70
               0
  9
$DIMLIM
 70
               0
  9
$DIMTIH
 70
               1
  9
$DIMTOH
 70
               1
  9
$DIMSE1
 70
               0
  9
$DIMSE2
 70
               0
  9
$DIMTAD
 70
               0
  9
$DIMZIN
 70
               0
  9
$DIMBLK
  1

  9
$DIMASO
 70
               1
  9
$DIMSHO
 70
               1
  9
$DIMPOST
  1

  9
$DIMAPOST
  1

  9
$DIMALT
 70
               0
  9
$DIMALTD
 70
               2
  9
$DIMALTF
 40
25.399999999999999
  9
$DIMLFAC
 40
1.0
  9
$DIMTOFL
 70
               0
  9
$DIMTVP
 40
0.0
  9
$DIMTIX
 70
               0
  9
$DIMSOXD
 70
               0
  9
$DIMSAH
 70
               0
  9
$DIMBLK1
  1

  9
$DIMBLK2
  1

  9
$DIMSTYLE
  2
Standard
  9
$DIMCLRD
 70
               0
  9
$DIMCLRE
 70
               0
  9
$DIMCLRT
 70
               0
  9
$DIMTFAC
 40
1.0
  9
$DIMGAP
 40
0.09
  9
$DIMJUST
 70
               0
  9
$DIMSD1
 70
               0
  9
$DIMSD2
 70
               0
  9
$DIMTOLJ
 70
               1
  9
$DIMTZIN
 70
               0
  9
$DIMALTZ
 70
               0
  9
$DIMALTTZ
 70
               0
  9
$DIMUPT
 70
               0
  9
$DIMDEC
 70
               4
  9
$DIMTDEC
 70
               4
  9
$DIMALTU
 70
               2
  9
$DIMALTTD
 70
               2
  9
$DIMTXSTY
  7
Standard
  9
$DIMAUNIT
 70
               0
  9
$DIMADEC
 70
               0
  9
$DIMALTRND
 40
0.0
  9
$DIMAZIN
 70
               0
  9
$DIMDSEP
 70
               0
  9
$DIMATFIT
 70
               3
  9
$DIMFRAC
 70
               0
  9
$DIMLDRBLK
  1

  9
$DIMLUNIT
 70
               2
  9
$DIMLWD
 70
               0
  9
$DIMLWE
 70
               0
  9
$DIMTMOVE
 70
               0
  9
$LUNITS
 70
               2
  9
$LUPREC
 70
               4
  9
$SKETCHINC
 40
0.1
  9
$FILLETRAD
 40
0.0
  9
$AUNITS
 70
               0
  9
$AUPREC
 70
               0
  9
$MENU
  1
acad
  9
$ELEVATION
 40
0.0
  9
$PELEVATION
 40
0.0
  9
$THICKNESS
 40
0.0
  9
$LIMCHECK
 70
               0
  9
$CHAMFERA
 40
0.0
  9
$CHAMFERB
 40
0.0
  9
$CHAMFERC
 40
0.0
  9
$CHAMFERD
 40
0.0
  9
$SKPOLY
 70
               0
  9
$TDCREATE
 40
0.000000000
  9
$TDUCREATE
 40
0.000000000
  9
$TDUPDATE
 40
0.000000000
  9
$TDUUPDATE
 40
0.000000000
  9
$TDINDWG
 40
0.0000000000
  9
$TDUSRTIMER
 40
0.0000000000
  9
$USRTIMER
 70
               1
  9
$ANGBASE
 50
0.0
  9
$ANGDIR
 70
               0
  9
$PDMODE
 70
               2
  9
$PDSIZE
 40
1.5
  9
$PLINEWID
 40
0.0
  9
$SPLFRAME
 70
               0
  9
$SPLINETYPE
 70
               6
  9
$SPLINESEGS
 70
               8
  9
$HANDSEED
  5
272
  9
$SURFTAB1
 70
               6
  9
$SURFTAB2
 70
               6
  9
$SURFTYPE
 70
               6
  9
$SURFU
 70
               6
  9
$SURFV
 70
               6
  9
$UCSBASE
  2

  9
$UCSNAME
  2

  9
$UCSORG
 10
0.0
 20
0.0
 30
0.0
  9
$UCSXDIR
 10
1.0
 20
0.0
 30
0.0
  9
$UCSYDIR
 10
0.0
 20
1.0
 30
0.0
  9
$UCSORTHOREF
  2

  9
$UCSORTHOVIEW
 70
               0
  9
$UCSORGTOP
 10
0.0
 20
0.0
 30
0.0
  9
$UCSORGBOTTOM
 10
0.0
 20
0.0
 30
0.0
  9
$UCSORGLEFT
 10
0.0
 20
0.0
 30
0.0
  9
$UCSORGRIGHT
 10
0.0
 20
0.0
 30
0.0
  9
$UCSORGFRONT
 10
0.0
 20
0.0
 30
0.0
  9
$UCSORGBACK
 10
0.0
 20
0.0
 30
0.0
  9
$PUCSBASE
  2

  9
$PUCSNAME
  2

  9
$PUCSORG
 10
0.0
 20
0.0
 30
0.0
  9
$PUCSXDIR
 10
1.0
 20
0.0
 30
0.0
  9
$PUCSYDIR
 10
0.0
 20
1.0
 30
0.0
  9
$PUCSORTHOREF
  2

  9
$PUCSORTHOVIEW
 70
               0
  9
$PUCSORGTOP
 10
0.0
 20
0.0
 30
0.0
  9
$PUCSORGBOTTOM
 10
0.0
 20
0.0
 30
0.0
  9
$PUCSORGLEFT
 10
0.0
 20
0.0
 30
0.0
  9
$PUCSORGRIGHT
 10
0.0
 20
0.0
 30
0.0
  9
$PUCSORGFRONT
 10
0.0
 20
0.0
 30
0.0
  9
$PUCSORGBACK
 10
0.0
 20
0.0
 30
0.0
  9
$USERI1
 70
               0
  9
$USERI2
 70
               0
  9
$USERI3
 70
               0
  9
$USERI4
 70
               0
  9
$USERI5
 70
               0
  9
$USERR1
 40
0.0
  9
$USERR2
 40
0.0
  9
$USERR3
 40
0.0
  9
$USERR4
 40
0.0
  9
$USERR5
 40
0.0
  9
$WORLDVIEW
 70
               1
  9
$SHADEDGE
 70
               3
  9
$SHADEDIF
 70
              70
  9
$TILEMODE
 70
               1
  9
$MAXACTVP
 70
              16
  9
$PINSBASE
 10
0.0
 20
0.0
 30
0.0
  9
$PLIMCHECK
 70
               0
  9
$PEXTMIN
 10
1.0000000000000000E+20
 20
1.0000000000000000E+20
 30
1.0000000000000000E+20
  9
$PEXTMAX
 10
-1.0000000000000000E+20
 20
-1.0000000000000000E+20
 30
-1.0000000000000000E+20
  9
$PLIMMIN
 10
0.0
 20
0.0
  9
$PLIMMAX
 10
12.0
 20
9.0
  9
$UNITMODE
 70
               0
  9
$VISRETAIN
 70
               0
  9
$PLINEGEN
 70
               1
  9
$PSLTSCALE
 70
               0
  9
$TREEDEPTH
 70
            3020
  9
$CMLSTYLE
  2
Standard
  9
$CMLJUST
 70
               0
  9
$CMLSCALE
 40
1.0
  9
$PROXYGRAPHICS
 70
               0
  9
$MEASUREMENT
 70
               0
  9
$CELWEIGHT
370
              -1
  9
$ENDCAPS
280
               0
  9
$JOINSTYLE
280
               0
  9
$LWDISPLAY
290
               0
  9
$INSUNITS
 70
               0
  9
$HYPERLINKBASE
  1

  9
$STYLESHEET
  1

  9
$XEDIT
290
               1
  9
$CEPSNTYPE
380
               0
  9
$PSTYLEMODE
290
               1
  9
$FINGERPRINTGUID
  2

  9
$VERSIONGUID
  2

  9
$EXTNAMES
290
               1
  9
$PSVPSCALE
 40
0.0
  0
ENDSEC
  0
SECTION
  2
CLASSES
  0
CLASS
  1
LWPOLYLINE
  2
AcDbPolyline
  3
AutoCAD 2000
 90
        0
280
               0
281
               1
  0
CLASS
  1
IMAGE
  2
AcDbRasterImage
  3
ISM
 90
      127
280
               0
281
               1
  0
CLASS
  1
OLE2FRAME
  2
AcDbOle2Frame
  3
AutoCAD 2000
 90
        0
280
               0
281
               1
  0
CLASS
  1
HATCH
  2
AcDbHatch
  3
AutoCAD 2000
 90
        0
280
               0
281
               1
  0
CLASS
  1
DICTIONARYVAR
  2
AcDbDictionaryVar
  3
AutoCAD 2000
 90
        0
280
               0
281
               0
  0
CLASS
  1
RASTERVARIABLES
  2
AcDbRasterVariables
  3
ISM
 90
        0
280
               0
281
               0
  0
CLASS
  1
IMAGEDEF
  2
AcDbRasterImageDef
  3
ISM
 90
        0
280
               0
281
               0
  0
CLASS
  1
IMAGEDEF_REACTOR
  2
AcDbRasterImageDefReactor
  3
ISM
 90
        1
280
               0
281
               0
  0
CLASS
  1
IDBUFFER
  2
AcDbIdBuffer
  3
AutoCAD 2000
 90
        0
280
               0
281
               0
  0
CLASS
  1
SPATIAL_FILTER
  2
AcDbSpatialFilter
  3
AutoCAD 2000
 90
        0
280
               0
281
               0
  0
CLASS
  1
XRECORD
  2
AcDbXrecord
  3
AutoCAD 2000
 90
        0
280
               0
281
               0
  0
CLASS
  1
SORTENTSTABLE
  2
AcDbSortentsTable
  3
AutoCAD 2000
 90
        0
280
               0
281
               0
  0
CLASS
  1
LAYER_INDEX
  2
AcDbLayerIndex
  3
AutoCAD 2000
 90
        0
280
               0
281
               0
  0
CLASS
  1
SPATIAL_INDEX
  2
AcDbSpatialIndex
  3
AutoCAD 2000
 90
        0
280
               0
281
               0
  0
CLASS
  1
OBJECT_PTR
  2
CAseDLPNTableRecord
  3
"ASE-LPNTableRecord"
 90
        1
280
               0
281
               0
  0
CLASS
  1
LAYOUT
  2
AcDbLayout
  3
AutoCAD 2000
 90
        0
280
               0
281
               0
  0
CLASS
  1
PLOTSETTINGS
  2
AcDbPlotSettings
  3
AutoCAD 2000
 90
        0
280
               0
281
               0
  0
CLASS
  1
ACDBDICTIONARYWDFLT
  2
AcDbDictionaryWithDefault
  3
AutoCAD 2000
 90
        0
280
               0
281
               0
  0
CLASS
  1
ACDBPLACEHOLDER
  2
AcDbPlaceHolder
  3
AutoCAD 2000
 90
        0
280
               0
281
               0
  0
ENDSEC
  0
SECTION
  2
TABLES
  0
TABLE
  2
VPORT
  5
7
100
AcDbSymbolTable
 70
               1
  0
VPORT
  5
15
100
AcDbSymbolTableRecord
100
AcDbViewportTableRecord
  2
*ACTIVE
 70
               0
 10
0.0
 20
0.0
 11
1.0
 21
1.0
 12
6.5912879999999996
 22
4.5791839999999997
 13
0.0
 23
0.0
 14
1.0
 24
1.0
 15
0.0
 25
0.0
 16
0.0
 26
0.0
 36
1.0
 17
0.0
 27
0.0
 37
0.0
 40
9.1583690000000004
 41
0.688564
 42
50.0
 43
0.0
 44
0.0
 50
0.0
 51
0.0
 71
               0
 72
             100
 73
               1
 74
               1
 75
               0
 76
               0
 77
               0
 78
               0
281
               0
 65
               0
110
0.0
120
0.0
130
0.0
111
1.0
121
0.0
131
0.0
112
0.0
122
1.0
132
0.0
345
0
346
0
 79
               0
146
0.0
  0
ENDTAB
  0
TABLE
  2
LTYPE
  5
4
100
AcDbSymbolTable
 70
              48
  0
LTYPE
  5
11
100
AcDbSymbolTableRecord
100
AcDbLinetypeTableRecord
  2
ByBlock
 70
              64
  3

 72
              65
 73
               0
 40
0.0
  0
LTYPE
  5
12
100
AcDbSymbolTableRecord
100
AcDbLinetypeTableRecord
  2
ByLayer
 70
              64
  3

 72
              65
 73
               0
 40
0.0
  0
LTYPE
  5
13
100
AcDbSymbolTableRecord
100
AcDbLinetypeTableRecord
  2
Continuous
 70
              64
  3
Solid line
 72
              65
 73
               0
 40
0.0
  0
LTYPE
  5
23
100
AcDbSymbolTableRecord
100
AcDbLinetypeTableRecord
  2
DOTTED
 70
              64
  3
Punteggiato
 72
              65
 73
               2
 40
12.0
 49
2.0
 74
               0
 49
-10.0
 74
               0
  0
LTYPE
  5
24
100
AcDbSymbolTableRecord
100
AcDbLinetypeTableRecord
  2
DASHEDS
 70
              64
  3
Tratteggiato piccolo
 72
              65
 73
               2
 40
20.0
 49
10.0
 74
               0
 49
-10.0
 74
               0
  0
LTYPE
  5
25
100
AcDbSymbolTableRecord
100
AcDbLinetypeTableRecord
  2
DASHEDM
 70
              64
  3
Tratteggiato medio
 72
              65
 73
               2
 40
40.0
 49
20.0
 74
               0
 49
-20.0
 74
               0
  0
LTYPE
  5
26
100
AcDbSymbolTableRecord
100
AcDbLinetypeTableRecord
  2
DASHEDL
 70
              64
  3
Tratteggiato grande
 72
              65
 73
               2
 40
60.0
 49
40.0
 74
               0
 49
-20.0
 74
               0
  0
LTYPE
  5
27
100
AcDbSymbolTableRecord
100
AcDbLinetypeTableRecord
  2
CENTERED
 70
              64
  3
Tratteggiato misto
 72
              65
 73
               4
 40
70.0
 49
10.0
 74
               0
 49
-20.0
 74
               0
 49
20.0
 74
               0
 49
-20.0
 74
               0
  0
LTYPE
  5
28
100
AcDbSymbolTableRecord
100
AcDbLinetypeTableRecord
  2
POINTLINE
 70
              64
  3
Punto e linea
 72
              65
 73
               4
 40
62.0
 49
20.0
 74
               0
 49
-20.0
 74
               0
 49
2.0
 74
               0
 49
-20.0
 74
               0
  0
LTYPE
  5
29
100
AcDbSymbolTableRecord
100
AcDbLinetypeTableRecord
  2
2POINTLINE
 70
              64
  3
Due punti e linea
 72
              65
 73
               6
 40
84.0
 49
20.0
 74
               0
 49
-20.0
 74
               0
 49
2.0
 74
               0
 49
-20.0
 74
               0
 49
2.0
 74
               0
 49
-20.0
 74
               0
  0
LTYPE
  5
2A
100
AcDbSymbolTableRecord
100
AcDbLinetypeTableRecord
  2
ACAD_ISO02W100
 70
              64
  3
ISO Tratteggiata
 72
              65
 73
               2
 40
150.0
 49
120.0
 74
               0
 49
-30.0
 74
               0
  0
LTYPE
  5
2B
100
AcDbSymbolTableRecord
100
AcDbLinetypeTableRecord
  2
ACAD_ISO03W100
 70
              64
  3
ISO Tratto spazio
 72
              65
 73
               2
 40
300.0
 49
120.0
 74
               0
 49
-180.0
 74
               0
  0
LTYPE
  5
2C
100
AcDbSymbolTableRecord
100
AcDbLinetypeTableRecord
  2
ACAD_ISO04W100
 70
              64
  3
ISO Tratto lungo punto
 72
              65
 73
               4
 40
305.0
 49
240.0
 74
               0
 49
-30.0
 74
               0
 49
5.0
 74
               0
 49
-30.0
 74
               0
  0
LTYPE
  5
2D
100
AcDbSymbolTableRecord
100
AcDbLinetypeTableRecord
  2
ACAD_ISO05W100
 70
              64
  3
ISO Tratto lungo doppio punto
 72
              65
 73
               6
 40
340.0
 49
240.0
 74
               0
 49
-30.0
 74
               0
 49
5.0
 74
               0
 49
-30.0
 74
               0
 49
5.0
 74
               0
 49
-30.0
 74
               0
  0
LTYPE
  5
2E
100
AcDbSymbolTableRecord
100
AcDbLinetypeTableRecord
  2
ACAD_ISO06W100
 70
              64
  3
ISO Tratto lungo triplo punto
 72
              65
 73
               8
 40
375.0
 49
240.0
 74
               0
 49
-30.0
 74
               0
 49
5.0
 74
               0
 49
-30.0
 74
               0
 49
5.0
 74
               0
 49
-30.0
 74
               0
 49
5.0
 74
               0
 49
-30.0
 74
               0
  0
LTYPE
  5
2F
100
AcDbSymbolTableRecord
100
AcDbLinetypeTableRecord
  2
ACAD_ISO07W100
 70
              64
  3
ISO Punteggiata
 72
              65
 73
               2
 40
35.0
 49
5.0
 74
               0
 49
-30.0
 74
               0
  0
LTYPE
  5
30
100
AcDbSymbolTableRecord
100
AcDbLinetypeTableRecord
  2
ACAD_ISO08W100
 70
              64
  3
ISO Tratto lungo tratto corto
 72
              65
 73
               4
 40
360.0
 49
240.0
 74
               0
 49
-30.0
 74
               0
 49
60.0
 74
               0
 49
-30.0
 74
               0
  0
LTYPE
  5
31
100
AcDbSymbolTableRecord
100
AcDbLinetypeTableRecord
  2
ACAD_ISO09W100
 70
              64
  3
ISO Tratto lungo doppio tratto corto
 72
              65
 73
               6
 40
450.0
 49
240.0
 74
               0
 49
-30.0
 74
               0
 49
60.0
 74
               0
 49
-30.0
 74
               0
 49
60.0
 74
               0
 49
-30.0
 74
               0
  0
LTYPE
  5
32
100
AcDbSymbolTableRecord
100
AcDbLinetypeTableRecord
  2
ACAD_ISO10W100
 70
              64
  3
ISO Tratto punto
 72
              65
 73
               4
 40
185.0
 49
120.0
 74
               0
 49
-30.0
 74
               0
 49
5.0
 74
               0
 49
-30.0
 74
               0
  0
LTYPE
  5
33
100
AcDbSymbolTableRecord
100
AcDbLinetypeTableRecord
  2
ACAD_ISO11W100
 70
              64
  3
ISO Doppio tratto punto
 72
              65
 73
               6
 40
335.0
 49
120.0
 74
               0
 49
-30.0
 74
               0
 49
120.0
 74
               0
 49
-30.0
 74
               0
 49
5.0
 74
               0
 49
-30.0
 74
               0
  0
LTYPE
  5
34
100
AcDbSymbolTableRecord
100
AcDbLinetypeTableRecord
  2
ACAD_ISO12W100
 70
              64
  3
ISO Tratto doppio punto
 72
              65
 73
               6
 40
220.0
 49
120.0
 74
               0
 49
-30.0
 74
               0
 49
5.0
 74
               0
 49
-30.0
 74
               0
 49
5.0
 74
               0
 49
-30.0
 74
               0
  0
LTYPE
  5
35
100
AcDbSymbolTableRecord
100
AcDbLinetypeTableRecord
  2
ACAD_ISO13W100
 70
              64
  3
ISO Doppio tratto doppio punto
 72
              65
 73
               8
 40
370.0
 49
120.0
 74
               0
 49
-30.0
 74
               0
 49
120.0
 74
               0
 49
-30.0
 74
               0
 49
5.0
 74
               0
 49
-30.0
 74
               0
 49
5.0
 74
               0
 49
-30.0
 74
               0
  0
LTYPE
  5
36
100
AcDbSymbolTableRecord
100
AcDbLinetypeTableRecord
  2
ACAD_ISO14W100
 70
              64
  3
ISO Tratto triplo punto
 72
              65
 73
               8
 40
255.0
 49
120.0
 74
               0
 49
-30.0
 74
               0
 49
5.0
 74
               0
 49
-30.0
 74
               0
 49
5.0
 74
               0
 49
-30.0
 74
               0
 49
5.0
 74
               0
 49
-30.0
 74
               0
  0
LTYPE
  5
37
100
AcDbSymbolTableRecord
100
AcDbLinetypeTableRecord
  2
ACAD_ISO15W100
 70
              64
  3
ISO Doppio tratto triplo punto
 72
              65
 73
              10
 40
405.0
 49
120.0
 74
               0
 49
-30.0
 74
               0
 49
120.0
 74
               0
 49
-30.0
 74
               0
 49
5.0
 74
               0
 49
-30.0
 74
               0
 49
5.0
 74
               0
 49
-30.0
 74
               0
 49
5.0
 74
               0
 49
-30.0
 74
               0
  0
LTYPE
  5
38
100
AcDbSymbolTableRecord
100
AcDbLinetypeTableRecord
  2
BORDER
 70
              64
  3
AutoCAD BORDER
 72
              65
 73
               6
 40
450.0
 49
128.0
 74
               0
 49
-64.0
 74
               0
 49
128.0
 74
               0
 49
-64.0
 74
               0
 49
2.0
 74
               0
 49
-64.0
 74
               0
  0
LTYPE
  5
39
100
AcDbSymbolTableRecord
100
AcDbLinetypeTableRecord
  2
BORDER2
 70
              64
  3
AutoCAD BORDER2
 72
              65
 73
               6
 40
226.0
 49
64.0
 74
               0
 49
-32.0
 74
               0
 49
64.0
 74
               0
 49
-32.0
 74
               0
 49
2.0
 74
               0
 49
-32.0
 74
               0
  0
LTYPE
  5
3A
100
AcDbSymbolTableRecord
100
AcDbLinetypeTableRecord
  2
BORDERX2
 70
              64
  3
AutoCAD BORDERX2
 72
              65
 73
               6
 40
898.0
 49
256.0
 74
               0
 49
-128.0
 74
               0
 49
256.0
 74
               0
 49
-128.0
 74
               0
 49
2.0
 74
               0
 49
-128.0
 74
               0
  0
LTYPE
  5
3B
100
AcDbSymbolTableRecord
100
AcDbLinetypeTableRecord
  2
CENTER
 70
              64
  3
AutoCAD CENTER
 72
              65
 73
               4
 40
512.0
 49
320.0
 74
               0
 49
-64.0
 74
               0
 49
64.0
 74
               0
 49
-64.0
 74
               0
  0
LTYPE
  5
3C
100
AcDbSymbolTableRecord
100
AcDbLinetypeTableRecord
  2
CENTER2
 70
              64
  3
AutoCAD CENTER2
 72
              65
 73
               4
 40
256.0
 49
160.0
 74
               0
 49
-32.0
 74
               0
 49
32.0
 74
               0
 49
-32.0
 74
               0
  0
LTYPE
  5
3D
100
AcDbSymbolTableRecord
100
AcDbLinetypeTableRecord
  2
CENTERX2
 70
              64
  3
AutoCAD CENTERX2
 72
              65
 73
               4
 40
1024.0
 49
640.0
 74
               0
 49
-128.0
 74
               0
 49
128.0
 74
               0
 49
-128.0
 74
               0
  0
LTYPE
  5
3E
100
AcDbSymbolTableRecord
100
AcDbLinetypeTableRecord
  2
DASHDOT
 70
              64
  3
AutoCAD DASHDOT
 72
              65
 73
               4
 40
258.0
 49
128.0
 74
               0
 49
-64.0
 74
               0
 49
2.0
 74
               0
 49
-64.0
 74
               0
  0
LTYPE
  5
3F
100
AcDbSymbolTableRecord
100
AcDbLinetypeTableRecord
  2
DASHDOT2
 70
              64
  3
AutoCAD DASHDOT2
 72
              65
 73
               4
 40
130.0
 49
64.0
 74
               0
 49
-32.0
 74
               0
 49
2.0
 74
               0
 49
-32.0
 74
               0
  0
LTYPE
  5
40
100
AcDbSymbolTableRecord
100
AcDbLinetypeTableRecord
  2
DASHDOTX2
 70
              64
  3
AutoCAD DASHDOTX2
 72
              65
 73
               4
 40
514.0
 49
256.0
 74
               0
 49
-128.0
 74
               0
 49
2.0
 74
               0
 49
-128.0
 74
               0
  0
LTYPE
  5
41
100
AcDbSymbolTableRecord
100
AcDbLinetypeTableRecord
  2
DASHED
 70
              64
  3
AutoCAD DASHED
 72
              65
 73
               2
 40
192.0
 49
128.0
 74
               0
 49
-64.0
 74
               0
  0
LTYPE
  5
42
100
AcDbSymbolTableRecord
100
AcDbLinetypeTableRecord
  2
DASHED2
 70
              64
  3
AutoCAD DASHED2
 72
              65
 73
               2
 40
96.0
 49
64.0
 74
               0
 49
-32.0
 74
               0
  0
LTYPE
  5
43
100
AcDbSymbolTableRecord
100
AcDbLinetypeTableRecord
  2
DASHEDX2
 70
              64
  3
AutoCAD DASHEDX2
 72
              65
 73
               2
 40
384.0
 49
256.0
 74
               0
 49
-128.0
 74
               0
  0
LTYPE
  5
44
100
AcDbSymbolTableRecord
100
AcDbLinetypeTableRecord
  2
DIVIDE
 70
              64
  3
AutoCAD DIVIDE
 72
              65
 73
               6
 40
324.0
 49
128.0
 74
               0
 49
-64.0
 74
               0
 49
2.0
 74
               0
 49
-64.0
 74
               0
 49
2.0
 74
               0
 49
-64.0
 74
               0
  0
LTYPE
  5
45
100
AcDbSymbolTableRecord
100
AcDbLinetypeTableRecord
  2
DIVIDE2
 70
              64
  3
AutoCAD DIVIDE2
 72
              65
 73
               6
 40
164.0
 49
64.0
 74
               0
 49
-32.0
 74
               0
 49
2.0
 74
               0
 49
-32.0
 74
               0
 49
2.0
 74
               0
 49
-32.0
 74
               0
  0
LTYPE
  5
46
100
AcDbSymbolTableRecord
100
AcDbLinetypeTableRecord
  2
DIVIDEX2
 70
              64
  3
AutoCAD DIVIDEX2
 72
              65
 73
               6
 40
644.0
 49
256.0
 74
               0
 49
-128.0
 74
               0
 49
2.0
 74
               0
 49
-128.0
 74
               0
 49
2.0
 74
               0
 49
-128.0
 74
               0
  0
LTYPE
  5
47
100
AcDbSymbolTableRecord
100
AcDbLinetypeTableRecord
  2
DOT
 70
              64
  3
AutoCAD DOT
 72
              65
 73
               2
 40
66.0
 49
2.0
 74
               0
 49
-64.0
 74
               0
  0
LTYPE
  5
48
100
AcDbSymbolTableRecord
100
AcDbLinetypeTableRecord
  2
DOT2
 70
              64
  3
AutoCAD DOT2
 72
              65
 73
               2
 40
34.0
 49
2.0
 74
               0
 49
-32.0
 74
               0
  0
LTYPE
  5
49
100
AcDbSymbolTableRecord
100
AcDbLinetypeTableRecord
  2
DOTX2
 70
              64
  3
AutoCAD DOTX2
 72
              65
 73
               2
 40
130.0
 49
2.0
 74
               0
 49
-128.0
 74
               0
  0
LTYPE
  5
4A
100
AcDbSymbolTableRecord
100
AcDbLinetypeTableRecord
  2
HIDDEN
 70
              64
  3
AutoCAD HIDDEN
 72
              65
 73
               2
 40
96.0
 49
64.0
 74
               0
 49
-32.0
 74
               0
  0
LTYPE
  5
4B
100
AcDbSymbolTableRecord
100
AcDbLinetypeTableRecord
  2
HIDDEN2
 70
              64
  3
AutoCAD HIDDEN2
 72
              65
 73
               2
 40
48.0
 49
32.0
 74
               0
 49
-16.0
 74
               0
  0
LTYPE
  5
4C
100
AcDbSymbolTableRecord
100
AcDbLinetypeTableRecord
  2
HIDDENX2
 70
              64
  3
AutoCAD HIDDENX2
 72
              65
 73
               2
 40
192.0
 49
128.0
 74
               0
 49
-64.0
 74
               0
  0
LTYPE
  5
4D
100
AcDbSymbolTableRecord
100
AcDbLinetypeTableRecord
  2
PHANTOM
 70
              64
  3
AutoCAD PHANTOM
 72
              65
 73
               6
 40
640.0
 49
320.0
 74
               0
 49
-64.0
 74
               0
 49
64.0
 74
               0
 49
-64.0
 74
               0
 49
64.0
 74
               0
 49
-64.0
 74
               0
  0
LTYPE
  5
4E
100
AcDbSymbolTableRecord
100
AcDbLinetypeTableRecord
  2
PHANTOM2
 70
              64
  3
AutoCAD PHANTOM2
 72
              65
 73
               6
 40
320.0
 49
160.0
 74
               0
 49
-32.0
 74
               0
 49
32.0
 74
               0
 49
-32.0
 74
               0
 49
32.0
 74
               0
 49
-32.0
 74
               0
  0
LTYPE
  5
4F
100
AcDbSymbolTableRecord
100
AcDbLinetypeTableRecord
  2
PHANTOMX2
 70
              64
  3
AutoCAD PHANTOMX2
 72
              65
 73
               6
 40
1280.0
 49
640.0
 74
               0
 49
-128.0
 74
               0
 49
128.0
 74
               0
 49
-128.0
 74
               0
 49
128.0
 74
               0
 49
-128.0
 74
               0
  0
ENDTAB
  0
TABLE
  2
LAYER
  5
2
100
AcDbSymbolTable
 70
               2
  0
LAYER
  5
14
100
AcDbSymbolTableRecord
100
AcDbLayerTableRecord
  2
0
 70
               0
 62
               7
  6
Continuous
290
               1
370
              -3
390
1D
  0
LAYER
  5
50
100
AcDbSymbolTableRecord
100
AcDbLayerTableRecord
  2
SENZA_NOME
 70
               0
 62
               7
  6
Continuous
290
               1
370
              -3
390
1D
  0
ENDTAB
  0
TABLE
  2
STYLE
  5
3
100
AcDbSymbolTable
 70
              10
  0
STYLE
  5
17
100
AcDbSymbolTableRecord
100
AcDbTextStyleTableRecord
  2
Standard
 70
               0
 40
0.0
 41
1.0
 50
0.0
 71
               0
 42
0.0
  3
txt
  4

  0
STYLE
  5
51
100
AcDbSymbolTableRecord
100
AcDbTextStyleTableRecord
  2
SIMPLEX
 70
               0
 40
10.0
 41
0.8
 50
0.0
 71
               0
 42
10.0
  3
simplex
  4

  0
STYLE
  5
52
100
AcDbSymbolTableRecord
100
AcDbTextStyleTableRecord
  2
EUROSTYLE
 70
               0
 40
10.0
 41
0.88
 50
0.0
 71
               0
 42
10.0
  3
isocp
  4

  0
STYLE
  5
53
100
AcDbSymbolTableRecord
100
AcDbTextStyleTableRecord
  2
SANSERIF
 70
               0
 40
10.0
 41
0.9
 50
0.0
 71
               0
 42
10.0
  3
romand
  4

  0
STYLE
  5
54
100
AcDbSymbolTableRecord
100
AcDbTextStyleTableRecord
  2
TRIPLEX
 70
               0
 40
10.0
 41
0.86
 50
0.0
 71
               0
 42
10.0
  3
romant
  4

  0
STYLE
  5
55
100
AcDbSymbolTableRecord
100
AcDbTextStyleTableRecord
  2
COMPLEX
 70
               0
 40
10.0
 41
1.0
 50
0.0
 71
               0
 42
10.0
  3
complex
  4

  0
STYLE
  5
56
100
AcDbSymbolTableRecord
100
AcDbTextStyleTableRecord
  2
SCRIPT
 70
               0
 40
10.0
 41
0.98
 50
0.0
 71
               0
 42
10.0
  3
scripts
  4

  0
STYLE
  5
57
100
AcDbSymbolTableRecord
100
AcDbTextStyleTableRecord
  2
TRISCRIPT
 70
               0
 40
10.0
 41
0.89
 50
0.0
 71
               0
 42
10.0
  3
italict
  4

  0
STYLE
  5
58
100
AcDbSymbolTableRecord
100
AcDbTextStyleTableRecord
  2
BOLD
 70
               0
 40
10.0
 41
0.77
 50
0.0
 71
               0
 42
10.0
  3
romand
  4

  0
STYLE
  5
59
100
AcDbSymbolTableRecord
100
AcDbTextStyleTableRecord
  2
GOTHIC
 70
               0
 40
10.0
 41
0.86
 50
0.0
 71
               0
 42
10.0
  3
gothice
  4

  0
ENDTAB
  0
TABLE
  2
VIEW
  5
5
100
AcDbSymbolTable
 70
               0
  0
ENDTAB
  0
TABLE
  2
UCS
  5
6
100
AcDbSymbolTable
 70
               0
  0
ENDTAB
  0
TABLE
  2
APPID
  5
8
100
AcDbSymbolTable
 70
               1
  0
APPID
  5
16
100
AcDbSymbolTableRecord
100
AcDbRegAppTableRecord
  2
ACAD
 70
               0
  0
ENDTAB
  0
TABLE
  2
DIMSTYLE
  5
9
100
AcDbSymbolTable
 70
               1
100
AcDbDimStyleTable
 71
               0
  0
DIMSTYLE
105
18
100
AcDbSymbolTableRecord
100
AcDbDimStyleTableRecord
  2
Standard
 70
               0
  3

  4

 40
1.0
 41
0.18
 42
0.0625
 43
0.38
 44
0.18
 45
0.0
 46
0.0
 47
0.0
 48
0.0
 71
               0
 72
               0
 73
               1
 74
               1
 75
               0
 76
               0
 77
               0
 78
               0
 79
               0
140
0.18
141
0.09
142
0.0
143
25.399999999999999
144
1.0
145
0.0
146
1.0
147
0.09
148
0.0
170
               0
171
               2
172
               0
173
               0
174
               0
175
               0
176
               0
177
               0
178
               0
179
               0
271
               4
272
               4
273
               2
274
               2
275
               0
276
               0
277
               2
278
              46
279
               0
280
               0
281
               0
282
               0
283
               1
284
               0
285
               0
286
               0
288
               0
289
               3
340
17
341
0
342
0
343
0
344
0
371
              -2
372
              -2
  0
ENDTAB
  0
TABLE
  2
BLOCK_RECORD
  5
1
100
AcDbSymbolTable
 70
               0
  0
BLOCK_RECORD
  5
A
100
AcDbSymbolTableRecord
100
AcDbBlockTableRecord
  2
*MODEL_SPACE
340
20
  0
BLOCK_RECORD
  5
B
100
AcDbSymbolTableRecord
100
AcDbBlockTableRecord
  2
*PAPER_SPACE
340
21
  0
ENDTAB
  0
ENDSEC
  0
SECTION
  2
BLOCKS
  0
BLOCK
  5
D
100
AcDbEntity
  8
0
390
0
100
AcDbBlockBegin
  2
*MODEL_SPACE
 70
               0
 10
0.0
 20
0.0
 30
0.0
  3
*MODEL_SPACE
  1

  0
ENDBLK
  5
E
100
AcDbEntity
  8
0
390
0
100
AcDbBlockEnd
  0
BLOCK
  5
F
100
AcDbEntity
 67
               1
  8
0
390
0
100
AcDbBlockBegin
  2
*PAPER_SPACE
 70
               0
 10
0.0
 20
0.0
 30
0.0
  3
*PAPER_SPACE
  1

  0
ENDBLK
  5
10
100
AcDbEntity
 67
               1
  8
0
390
0
100
AcDbBlockEnd
  0
ENDSEC
  0
SECTION
  2
ENTITIES
  0
LINE
  5
5A
100
AcDbEntity
  8
SENZA_NOME
390
0
  6
Continuous
100
AcDbLine
 10
54.995760603508096
 20
235.28424372850591
 30
0.0
 11
54.995760603508096
 21
233.10454372850592
 31
0.0
  0
LINE
  5
5B
100
AcDbEntity
  8
0
370
               0
390
0
  6
Continuous
100
AcDbLine
 10
63.995760603508096
 20
235.28424372850591
 30
0.0
 11
54.995760603508096
 21
235.28424372850591
 31
0.0
  0
LINE
  5
5C
100
AcDbEntity
  8
SENZA_NOME
390
0
  6
Continuous
100
AcDbLine
 10
63.995760603508096
 20
237.28424372850591
 30
0.0
 11
63.995760603508096
 21
235.28424372850591
 31
0.0
  0
LINE
  5
5D
100
AcDbEntity
  8
SENZA_NOME
390
0
  6
Continuous
100
AcDbLine
 10
53.995760603508096
 20
237.28424372850591
 30
0.0
 11
63.995760603508096
 21
237.28424372850591
 31
0.0
  0
LINE
  5
5E
100
AcDbEntity
  8
SENZA_NOME
390
0
  6
Continuous
100
AcDbLine
 10
53.995760603508096
 20
241.3404237285059
 30
0.0
 11
53.995760603508096
 21
237.28424372850591
 31
0.0
  0
LINE
  5
5F
100
AcDbEntity
  8
SENZA_NOME
390
0
  6
Continuous
100
AcDbLine
 10
279.21120060350808
 20
235.5473737285059
 30
0.0
 11
280.68338060350811
 21
235.82892372850591
 31
0.0
  0
LINE
  5
60
100
AcDbEntity
  8
SENZA_NOME
390
0
  6
Continuous
100
AcDbLine
 10
275.22924060350806
 20
234.82605372850591
 30
0.0
 11
279.21120060350808
 21
235.5473737285059
 31
0.0
  0
LINE
  5
61
100
AcDbEntity
  8
SENZA_NOME
390
0
  6
Continuous
100
AcDbLine
 10
271.25166060350807
 20
234.14923372850592
 30
0.0
 11
275.22924060350806
 21
234.82605372850591
 31
0.0
  0
LINE
  5
62
100
AcDbEntity
  8
SENZA_NOME
390
0
  6
Continuous
100
AcDbLine
 10
267.32960060350808
 20
233.5315037285059
 30
0.0
 11
271.25166060350807
 21
234.14923372850592
 31
0.0
  0
LINE
  5
63
100
AcDbEntity
  8
SENZA_NOME
390
0
  6
Continuous
100
AcDbLine
 10
263.3845506035081
 20
232.96022372850589
 30
0.0
 11
267.32960060350808
 21
233.5315037285059
 31
0.0
  0
LINE
  5
64
100
AcDbEntity
  8
SENZA_NOME
390
0
  6
Continuous
100
AcDbLine
 10
259.41459060350809
 20
232.43056372850592
 30
0.0
 11
263.3845506035081
 21
232.96022372850589
 31
0.0
  0
LINE
  5
65
100
AcDbEntity
  8
SENZA_NOME
390
0
  6
Continuous
100
AcDbLine
 10
255.42974060350809
 20
231.94748372850592
 30
0.0
 11
259.41459060350809
 21
232.43056372850592
 31
0.0
  0
LINE
  5
66
100
AcDbEntity
  8
SENZA_NOME
390
0
  6
Continuous
100
AcDbLine
 10
251.41727060350811
 20
231.50574372850591
 30
0.0
 11
255.42974060350809
 21
231.94748372850592
 31
0.0
  0
LINE
  5
67
100
AcDbEntity
  8
SENZA_NOME
390
0
  6
Continuous
100
AcDbLine
 10
247.3749606035081
 20
231.09316372850591
 30
0.0
 11
251.41727060350811
 21
231.50574372850591
 31
0.0
  0
LINE
  5
68
100
AcDbEntity
  8
SENZA_NOME
390
0
  6
Continuous
100
AcDbLine
 10
243.30076060350811
 20
230.7073637285059
 30
0.0
 11
247.3749606035081
 21
231.09316372850591
 31
0.0
  0
LINE
  5
69
100
AcDbEntity
  8
SENZA_NOME
390
0
  6
Continuous
100
AcDbLine
 10
239.19697060350811
 20
230.3385437285059
 30
0.0
 11
243.30076060350811
 21
230.7073637285059
 31
0.0
  0
LINE
  5
6A
100
AcDbEntity
  8
SENZA_NOME
390
0
  6
Continuous
100
AcDbLine
 10
235.07103060350809
 20
229.98425372850591
 30
0.0
 11
239.19697060350811
 21
230.3385437285059
 31
0.0
  0
LINE
  5
6B
100
AcDbEntity
  8
SENZA_NOME
390
0
  6
Continuous
100
AcDbLine
 10
230.92918060350812
 20
229.63479372850591
 30
0.0
 11
235.07103060350809
 21
229.98425372850591
 31
0.0
  0
LINE
  5
6C
100
AcDbEntity
  8
SENZA_NOME
390
0
  6
Continuous
100
AcDbLine
 10
226.78214060350811
 20
229.29515372850591
 30
0.0
 11
230.92918060350812
 21
229.63479372850591
 31
0.0
  0
LINE
  5
6D
100
AcDbEntity
  8
SENZA_NOME
390
0
  6
Continuous
100
AcDbLine
 10
222.63698060350811
 20
228.96039372850589
 30
0.0
 11
226.78214060350811
 21
229.29515372850591
 31
0.0
  0
LINE
  5
6E
100
AcDbEntity
  8
SENZA_NOME
390
0
  6
Continuous
100
AcDbLine
 10
218.49804060350812
 20
228.63311372850592
 30
0.0
 11
222.63698060350811
 21
228.96039372850589
 31
0.0
  0
LINE
  5
6F
100
AcDbEntity
  8
SENZA_NOME
390
0
  6
Continuous
100
AcDbLine
 10
214.36489060350812
 20
228.31820372850589
 30
0.0
 11
218.49804060350812
 21
228.63311372850592
 31
0.0
  0
LINE
  5
70
100
AcDbEntity
  8
SENZA_NOME
390
0
  6
Continuous
100
AcDbLine
 10
210.2395806035081
 20
228.01563372850592
 30
0.0
 11
214.36489060350812
 21
228.31820372850589
 31
0.0
  0
LINE
  5
71
100
AcDbEntity
  8
SENZA_NOME
390
0
  6
Continuous
100
AcDbLine
 10
206.1196706035081
 20
227.72785372850592
 30
0.0
 11
210.2395806035081
 21
228.01563372850592
 31
0.0
  0
LINE
  5
72
100
AcDbEntity
  8
SENZA_NOME
390
0
  6
Continuous
100
AcDbLine
 10
202.00808060350809
 20
227.45490372850591
 30
0.0
 11
206.1196706035081
 21
227.72785372850592
 31
0.0
  0
LINE
  5
73
100
AcDbEntity
  8
SENZA_NOME
390
0
  6
Continuous
100
AcDbLine
 10
197.89987060350811
 20
227.20167372850591
 30
0.0
 11
202.00808060350809
 21
227.45490372850591
 31
0.0
  0
LINE
  5
74
100
AcDbEntity
  8
SENZA_NOME
390
0
  6
Continuous
100
AcDbLine
 10
193.79907060350811
 20
226.9681137285059
 30
0.0
 11
197.89987060350811
 21
227.20167372850591
 31
0.0
  0
LINE
  5
75
100
AcDbEntity
  8
SENZA_NOME
390
0
  6
Continuous
100
AcDbLine
 10
189.70212060350809
 20
226.7542937285059
 30
0.0
 11
193.79907060350811
 21
226.9681137285059
 31
0.0
  0
LINE
  5
76
100
AcDbEntity
  8
SENZA_NOME
390
0
  6
Continuous
100
AcDbLine
 10
185.6105306035081
 20
226.56753372850591
 30
0.0
 11
189.70212060350809
 21
226.7542937285059
 31
0.0
  0
LINE
  5
77
100
AcDbEntity
  8
SENZA_NOME
390
0
  6
Continuous
100
AcDbLine
 10
181.5263906035081
 20
226.40288372850591
 30
0.0
 11
185.6105306035081
 21
226.56753372850591
 31
0.0
  0
LINE
  5
78
100
AcDbEntity
  8
SENZA_NOME
390
0
  6
Continuous
100
AcDbLine
 10
177.44321060350811
 20
226.2653037285059
 30
0.0
 11
181.5263906035081
 21
226.40288372850591
 31
0.0
  0
LINE
  5
79
100
AcDbEntity
  8
SENZA_NOME
390
0
  6
Continuous
100
AcDbLine
 10
173.36249060350809
 20
226.15475372850591
 30
0.0
 11
177.44321060350811
 21
226.2653037285059
 31
0.0
  0
LINE
  5
7A
100
AcDbEntity
  8
SENZA_NOME
390
0
  6
Continuous
100
AcDbLine
 10
169.2847106035081
 20
226.07123372850592
 30
0.0
 11
173.36249060350809
 21
226.15475372850591
 31
0.0
  0
LINE
  5
7B
100
AcDbEntity
  8
SENZA_NOME
390
0
  6
Continuous
100
AcDbLine
 10
165.20695060350809
 20
226.0171837285059
 30
0.0
 11
169.2847106035081
 21
226.07123372850592
 31
0.0
  0
LINE
  5
7C
100
AcDbEntity
  8
SENZA_NOME
390
0
  6
Continuous
100
AcDbLine
 10
161.12627060350809
 20
225.99016372850591
 30
0.0
 11
165.20695060350809
 21
226.0171837285059
 31
0.0
  0
LINE
  5
7D
100
AcDbEntity
  8
SENZA_NOME
390
0
  6
Continuous
100
AcDbLine
 10
157.84903060350808
 20
225.99016372850591
 30
0.0
 11
161.12627060350809
 21
225.99016372850591
 31
0.0
  0
LINE
  5
7E
100
AcDbEntity
  8
SENZA_NOME
390
0
  6
Continuous
100
AcDbLine
 10
157.84903060350808
 20
231.5877437285059
 30
0.0
 11
157.84903060350808
 21
225.99016372850591
 31
0.0
  0
LINE
  5
7F
100
AcDbEntity
  8
SENZA_NOME
390
0
  6
Continuous
100
AcDbLine
 10
147.84903060350808
 20
231.5877437285059
 30
0.0
 11
157.84903060350808
 21
231.5877437285059
 31
0.0
  0
LINE
  5
80
100
AcDbEntity
  8
SENZA_NOME
390
0
  6
Continuous
100
AcDbLine
 10
147.84903060350808
 20
226.0877437285059
 30
0.0
 11
147.84903060350808
 21
231.5877437285059
 31
0.0
  0
LINE
  5
81
100
AcDbEntity
  8
SENZA_NOME
390
0
  6
Continuous
100
AcDbLine
 10
144.77160060350809
 20
226.1449737285059
 30
0.0
 11
147.84903060350808
 21
226.0877437285059
 31
0.0
  0
LINE
  5
82
100
AcDbEntity
  8
SENZA_NOME
390
0
  6
Continuous
100
AcDbLine
 10
140.67472060350809
 20
226.24573372850591
 30
0.0
 11
144.77160060350809
 21
226.1449737285059
 31
0.0
  0
LINE
  5
83
100
AcDbEntity
  8
SENZA_NOME
390
0
  6
Continuous
100
AcDbLine
 10
136.57198060350811
 20
226.3686437285059
 30
0.0
 11
140.67472060350809
 21
226.24573372850591
 31
0.0
  0
LINE
  5
84
100
AcDbEntity
  8
SENZA_NOME
390
0
  6
Continuous
100
AcDbLine
 10
132.46384060350809
 20
226.51124372850592
 30
0.0
 11
136.57198060350811
 21
226.3686437285059
 31
0.0
  0
LINE
  5
85
100
AcDbEntity
  8
SENZA_NOME
390
0
  6
Continuous
100
AcDbLine
 10
128.3507906035081
 20
226.67350372850589
 30
0.0
 11
132.46384060350809
 21
226.51124372850592
 31
0.0
  0
LINE
  5
86
100
AcDbEntity
  8
SENZA_NOME
390
0
  6
Continuous
100
AcDbLine
 10
124.23684060350809
 20
226.8554637285059
 30
0.0
 11
128.3507906035081
 21
226.67350372850589
 31
0.0
  0
LINE
  5
87
100
AcDbEntity
  8
SENZA_NOME
390
0
  6
Continuous
100
AcDbLine
 10
120.11748060350808
 20
227.0522137285059
 30
0.0
 11
124.23684060350809
 21
226.8554637285059
 31
0.0
  0
LINE
  5
88
100
AcDbEntity
  8
SENZA_NOME
390
0
  6
Continuous
100
AcDbLine
 10
115.99614060350811
 20
227.26615372850591
 30
0.0
 11
120.11748060350808
 21
227.0522137285059
 31
0.0
  0
LINE
  5
89
100
AcDbEntity
  8
SENZA_NOME
390
0
  6
Continuous
100
AcDbLine
 10
111.87393060350809
 20
227.49734372850591
 30
0.0
 11
115.99614060350811
 21
227.26615372850591
 31
0.0
  0
LINE
  5
8A
100
AcDbEntity
  8
SENZA_NOME
390
0
  6
Continuous
100
AcDbLine
 10
107.75127060350809
 20
227.7408737285059
 30
0.0
 11
111.87393060350809
 21
227.49734372850591
 31
0.0
  0
LINE
  5
8B
100
AcDbEntity
  8
SENZA_NOME
390
0
  6
Continuous
100
AcDbLine
 10
103.62905060350809
 20
227.99912372850591
 30
0.0
 11
107.75127060350809
 21
227.7408737285059
 31
0.0
  0
LINE
  5
8C
100
AcDbEntity
  8
SENZA_NOME
390
0
  6
Continuous
100
AcDbLine
 10
99.506920603508092
 20
228.2721237285059
 30
0.0
 11
103.62905060350809
 21
227.99912372850591
 31
0.0
  0
LINE
  5
8D
100
AcDbEntity
  8
SENZA_NOME
390
0
  6
Continuous
100
AcDbLine
 10
95.392720603508096
 20
228.55985372850591
 30
0.0
 11
99.506920603508092
 21
228.2721237285059
 31
0.0
  0
LINE
  5
8E
100
AcDbEntity
  8
SENZA_NOME
390
0
  6
Continuous
100
AcDbLine
 10
91.28637060350809
 20
228.86475372850592
 30
0.0
 11
95.392720603508096
 21
228.55985372850591
 31
0.0
  0
LINE
  5
8F
100
AcDbEntity
  8
SENZA_NOME
390
0
  6
Continuous
100
AcDbLine
 10
90.495760603508103
 20
228.92688372850591
 30
0.0
 11
91.28637060350809
 21
228.86475372850592
 31
0.0
  0
LINE
  5
90
100
AcDbEntity
  8
SENZA_NOME
390
0
  6
Continuous
100
AcDbLine
 10
90.495760603508103
 20
239.16263372850591
 30
0.0
 11
90.495760603508103
 21
228.92688372850591
 31
0.0
  0
LINE
  5
91
100
AcDbEntity
  8
SENZA_NOME
390
0
  6
Continuous
100
AcDbLine
 10
87.495760603508103
 20
239.16263372850591
 30
0.0
 11
90.495760603508103
 21
239.16263372850591
 31
0.0
  0
LINE
  5
92
100
AcDbEntity
  8
SENZA_NOME
390
0
  6
Continuous
100
AcDbLine
 10
87.495760603508103
 20
229.16263372850591
 30
0.0
 11
87.495760603508103
 21
239.16263372850591
 31
0.0
  0
LINE
  5
93
100
AcDbEntity
  8
SENZA_NOME
390
0
  6
Continuous
100
AcDbLine
 10
87.187990603508098
 20
229.18682372850591
 30
0.0
 11
87.495760603508103
 21
229.16263372850591
 31
0.0
  0
LINE
  5
94
100
AcDbEntity
  8
SENZA_NOME
390
0
  6
Continuous
100
AcDbLine
 10
83.105980603508101
 20
229.52842372850591
 30
0.0
 11
87.187990603508098
 21
229.18682372850591
 31
0.0
  0
LINE
  5
95
100
AcDbEntity
  8
SENZA_NOME
390
0
  6
Continuous
100
AcDbLine
 10
79.048220603508099
 20
229.89440372850589
 30
0.0
 11
83.105980603508101
 21
229.52842372850591
 31
0.0
  0
LINE
  5
96
100
AcDbEntity
  8
SENZA_NOME
390
0
  6
Continuous
100
AcDbLine
 10
75.0201506035081
 20
230.28960372850591
 30
0.0
 11
79.048220603508099
 21
229.89440372850589
 31
0.0
  0
LINE
  5
97
100
AcDbEntity
  8
SENZA_NOME
390
0
  6
Continuous
100
AcDbLine
 10
71.029250603508103
 20
230.72132372850589
 30
0.0
 11
75.0201506035081
 21
230.28960372850591
 31
0.0
  0
LINE
  5
98
100
AcDbEntity
  8
SENZA_NOME
390
0
  6
Continuous
100
AcDbLine
 10
67.081740603508095
 20
231.19423372850591
 30
0.0
 11
71.029250603508103
 21
230.72132372850589
 31
0.0
  0
LINE
  5
99
100
AcDbEntity
  8
SENZA_NOME
390
0
  6
Continuous
100
AcDbLine
 10
63.195230603508094
 20
231.7204337285059
 30
0.0
 11
67.081740603508095
 21
231.19423372850591
 31
0.0
  0
LINE
  5
9A
100
AcDbEntity
  8
SENZA_NOME
390
0
  6
Continuous
100
AcDbLine
 10
59.398310603508094
 20
232.3019437285059
 30
0.0
 11
63.195230603508094
 21
231.7204337285059
 31
0.0
  0
LINE
  5
9B
100
AcDbEntity
  8
SENZA_NOME
390
0
  6
Continuous
100
AcDbLine
 10
55.779170603508092
 20
232.94290372850591
 30
0.0
 11
59.398310603508094
 21
232.3019437285059
 31
0.0
  0
LINE
  5
9C
100
AcDbEntity
  8
SENZA_NOME
390
0
  6
Continuous
100
AcDbLine
 10
54.995760603508096
 20
233.10454372850592
 30
0.0
 11
55.779170603508092
 21
232.94290372850591
 31
0.0
  0
LINE
  5
9D
100
AcDbEntity
  8
SENZA_NOME
390
0
  6
Continuous
100
AcDbLine
 10
53.995760603508096
 20
237.28424372850591
 30
0.0
 11
53.995760603508096
 21
237.3256537285059
 31
0.0
  0
LINE
  5
9E
100
AcDbEntity
  8
SENZA_NOME
390
0
  6
Continuous
100
AcDbLine
 10
63.995760603508096
 20
237.28424372850591
 30
0.0
 11
53.995760603508096
 21
237.28424372850591
 31
0.0
  0
LINE
  5
9F
100
AcDbEntity
  8
SENZA_NOME
390
0
  6
Continuous
100
AcDbLine
 10
63.995760603508096
 20
235.28424372850591
 30
0.0
 11
63.995760603508096
 21
237.28424372850591
 31
0.0
  0
LINE
  5
A0
100
AcDbEntity
  8
SENZA_NOME
390
0
  6
Continuous
100
AcDbLine
 10
56.989540603508097
 20
242.51391372850591
 30
0.0
 11
53.995760603508096
 21
241.3404237285059
 31
0.0
  0
LINE
  5
A1
100
AcDbEntity
  8
SENZA_NOME
390
0
  6
Continuous
100
AcDbLine
 10
60.339260603508095
 20
243.67735372850592
 30
0.0
 11
56.989540603508097
 21
242.51391372850591
 31
0.0
  0
LINE
  5
A2
100
AcDbEntity
  8
SENZA_NOME
390
0
  6
Continuous
100
AcDbLine
 10
63.813380603508094
 20
244.74313372850591
 30
0.0
 11
60.339260603508095
 21
243.67735372850592
 31
0.0
  0
LINE
  5
A3
100
AcDbEntity
  8
SENZA_NOME
390
0
  6
Continuous
100
AcDbLine
 10
67.377850603508094
 20
245.70841372850592
 30
0.0
 11
63.813380603508094
 21
244.74313372850591
 31
0.0
  0
LINE
  5
A4
100
AcDbEntity
  8
SENZA_NOME
390
0
  6
Continuous
100
AcDbLine
 10
71.020920603508102
 20
246.57777372850592
 30
0.0
 11
67.377850603508094
 21
245.70841372850592
 31
0.0
  0
LINE
  5
A5
100
AcDbEntity
  8
SENZA_NOME
390
0
  6
Continuous
100
AcDbLine
 10
74.730090603508103
 20
247.3605837285059
 30
0.0
 11
71.020920603508102
 21
246.57777372850592
 31
0.0
  0
LINE
  5
A6
100
AcDbEntity
  8
SENZA_NOME
390
0
  6
Continuous
100
AcDbLine
 10
78.502440603508091
 20
248.06377372850591
 30
0.0
 11
74.730090603508103
 21
247.3605837285059
 31
0.0
  0
LINE
  5
A7
100
AcDbEntity
  8
SENZA_NOME
390
0
  6
Continuous
100
AcDbLine
 10
82.332670603508092
 20
248.69685372850591
 30
0.0
 11
78.502440603508091
 21
248.06377372850591
 31
0.0
  0
LINE
  5
A8
100
AcDbEntity
  8
SENZA_NOME
390
0
  6
Continuous
100
AcDbLine
 10
86.212900603508103
 20
249.26445372850591
 30
0.0
 11
82.332670603508092
 21
248.69685372850591
 31
0.0
  0
LINE
  5
A9
100
AcDbEntity
  8
SENZA_NOME
390
0
  6
Continuous
100
AcDbLine
 10
90.133970603508089
 20
249.77387372850592
 30
0.0
 11
86.212900603508103
 21
249.26445372850591
 31
0.0
  0
LINE
  5
AA
100
AcDbEntity
  8
SENZA_NOME
390
0
  6
Continuous
100
AcDbLine
 10
94.089330603508103
 20
250.2345937285059
 30
0.0
 11
90.133970603508089
 21
249.77387372850592
 31
0.0
  0
LINE
  5
AB
100
AcDbEntity
  8
SENZA_NOME
390
0
  6
Continuous
100
AcDbLine
 10
98.074020603508103
 20
250.64655372850592
 30
0.0
 11
94.089330603508103
 21
250.2345937285059
 31
0.0
  0
LINE
  5
AC
100
AcDbEntity
  8
SENZA_NOME
390
0
  6
Continuous
100
AcDbLine
 10
102.0805406035081
 20
251.01948372850592
 30
0.0
 11
98.074020603508103
 21
250.64655372850592
 31
0.0
  0
LINE
  5
AD
100
AcDbEntity
  8
SENZA_NOME
390
0
  6
Continuous
100
AcDbLine
 10
106.10495060350809
 20
251.35321372850592
 30
0.0
 11
102.0805406035081
 21
251.01948372850592
 31
0.0
  0
LINE
  5
AE
100
AcDbEntity
  8
SENZA_NOME
390
0
  6
Continuous
100
AcDbLine
 10
110.14274060350809
 20
251.65021372850589
 30
0.0
 11
106.10495060350809
 21
251.35321372850592
 31
0.0
  0
LINE
  5
AF
100
AcDbEntity
  8
SENZA_NOME
390
0
  6
Continuous
100
AcDbLine
 10
114.1918406035081
 20
251.9129537285059
 30
0.0
 11
110.14274060350809
 21
251.65021372850589
 31
0.0
  0
LINE
  5
B0
100
AcDbEntity
  8
SENZA_NOME
390
0
  6
Continuous
100
AcDbLine
 10
118.24885060350809
 20
252.14625372850591
 30
0.0
 11
114.1918406035081
 21
251.9129537285059
 31
0.0
  0
LINE
  5
B1
100
AcDbEntity
  8
SENZA_NOME
390
0
  6
Continuous
100
AcDbLine
 10
122.31331060350809
 20
252.34763372850591
 30
0.0
 11
118.24885060350809
 21
252.14625372850591
 31
0.0
  0
LINE
  5
B2
100
AcDbEntity
  8
SENZA_NOME
390
0
  6
Continuous
100
AcDbLine
 10
126.38029060350809
 20
252.51955372850591
 30
0.0
 11
122.31331060350809
 21
252.34763372850591
 31
0.0
  0
LINE
  5
B3
100
AcDbEntity
  8
SENZA_NOME
390
0
  6
Continuous
100
AcDbLine
 10
130.4473006035081
 20
252.65953372850589
 30
0.0
 11
126.38029060350809
 21
252.51955372850591
 31
0.0
  0
LINE
  5
B4
100
AcDbEntity
  8
SENZA_NOME
390
0
  6
Continuous
100
AcDbLine
 10
134.5147306035081
 20
252.7700637285059
 30
0.0
 11
130.4473006035081
 21
252.65953372850589
 31
0.0
  0
LINE
  5
B5
100
AcDbEntity
  8
SENZA_NOME
390
0
  6
Continuous
100
AcDbLine
 10
138.58419060350809
 20
252.85111372850591
 30
0.0
 11
134.5147306035081
 21
252.7700637285059
 31
0.0
  0
LINE
  5
B6
100
AcDbEntity
  8
SENZA_NOME
390
0
  6
Continuous
100
AcDbLine
 10
142.6458106035081
 20
252.90022372850592
 30
0.0
 11
138.58419060350809
 21
252.85111372850591
 31
0.0
  0
LINE
  5
B7
100
AcDbEntity
  8
SENZA_NOME
390
0
  6
Continuous
100
AcDbLine
 10
146.70740060350809
 20
252.91741372850589
 30
0.0
 11
142.6458106035081
 21
252.90022372850592
 31
0.0
  0
LINE
  5
B8
100
AcDbEntity
  8
SENZA_NOME
390
0
  6
Continuous
100
AcDbLine
 10
147.84903060350808
 20
252.91327372850591
 30
0.0
 11
146.70740060350809
 21
252.91741372850589
 31
0.0
  0
LINE
  5
B9
100
AcDbEntity
  8
SENZA_NOME
390
0
  6
Continuous
100
AcDbLine
 10
147.84903060350808
 20
247.2886837285059
 30
0.0
 11
147.84903060350808
 21
252.91327372850591
 31
0.0
  0
LINE
  5
BA
100
AcDbEntity
  8
SENZA_NOME
390
0
  6
Continuous
100
AcDbLine
 10
157.84903060350808
 20
247.2886837285059
 30
0.0
 11
147.84903060350808
 21
247.2886837285059
 31
0.0
  0
LINE
  5
BB
100
AcDbEntity
  8
SENZA_NOME
390
0
  6
Continuous
100
AcDbLine
 10
157.84903060350808
 20
252.7886837285059
 30
0.0
 11
157.84903060350808
 21
247.2886837285059
 31
0.0
  0
LINE
  5
BC
100
AcDbEntity
  8
SENZA_NOME
390
0
  6
Continuous
100
AcDbLine
 10
158.8701106035081
 20
252.7676437285059
 30
0.0
 11
157.84903060350808
 21
252.7886837285059
 31
0.0
  0
LINE
  5
BD
100
AcDbEntity
  8
SENZA_NOME
390
0
  6
Continuous
100
AcDbLine
 10
162.9175006035081
 20
252.64983372850591
 30
0.0
 11
158.8701106035081
 21
252.7676437285059
 31
0.0
  0
LINE
  5
BE
100
AcDbEntity
  8
SENZA_NOME
390
0
  6
Continuous
100
AcDbLine
 10
166.95998060350809
 20
252.4927437285059
 30
0.0
 11
162.9175006035081
 21
252.64983372850591
 31
0.0
  0
LINE
  5
BF
100
AcDbEntity
  8
SENZA_NOME
390
0
  6
Continuous
100
AcDbLine
 10
171.00339060350811
 20
252.30125372850591
 30
0.0
 11
166.95998060350809
 21
252.4927437285059
 31
0.0
  0
LINE
  5
C0
100
AcDbEntity
  8
SENZA_NOME
390
0
  6
Continuous
100
AcDbLine
 10
175.04389060350809
 20
252.07542372850591
 30
0.0
 11
171.00339060350811
 21
252.30125372850591
 31
0.0
  0
LINE
  5
C1
100
AcDbEntity
  8
SENZA_NOME
390
0
  6
Continuous
100
AcDbLine
 10
179.0839506035081
 20
251.81279372850591
 30
0.0
 11
175.04389060350809
 21
252.07542372850591
 31
0.0
  0
LINE
  5
C2
100
AcDbEntity
  8
SENZA_NOME
390
0
  6
Continuous
100
AcDbLine
 10
183.1220206035081
 20
251.51331372850592
 30
0.0
 11
179.0839506035081
 21
251.81279372850591
 31
0.0
  0
LINE
  5
C3
100
AcDbEntity
  8
SENZA_NOME
390
0
  6
Continuous
100
AcDbLine
 10
187.16056060350812
 20
251.1794237285059
 30
0.0
 11
183.1220206035081
 21
251.51331372850592
 31
0.0
  0
LINE
  5
C4
100
AcDbEntity
  8
SENZA_NOME
390
0
  6
Continuous
100
AcDbLine
 10
191.19665060350809
 20
250.81117372850591
 30
0.0
 11
187.16056060350812
 21
251.1794237285059
 31
0.0
  0
LINE
  5
C5
100
AcDbEntity
  8
SENZA_NOME
390
0
  6
Continuous
100
AcDbLine
 10
195.23272060350811
 20
250.40854372850589
 30
0.0
 11
191.19665060350809
 21
250.81117372850591
 31
0.0
  0
LINE
  5
C6
100
AcDbEntity
  8
SENZA_NOME
390
0
  6
Continuous
100
AcDbLine
 10
199.2642906035081
 20
249.97150372850589
 30
0.0
 11
195.23272060350811
 21
250.40854372850589
 31
0.0
  0
LINE
  5
C7
100
AcDbEntity
  8
SENZA_NOME
390
0
  6
Continuous
100
AcDbLine
 10
203.2934006035081
 20
249.50255372850592
 30
0.0
 11
199.2642906035081
 21
249.97150372850589
 31
0.0
  0
LINE
  5
C8
100
AcDbEntity
  8
SENZA_NOME
390
0
  6
Continuous
100
AcDbLine
 10
207.3170306035081
 20
248.9992837285059
 30
0.0
 11
203.2934006035081
 21
249.50255372850592
 31
0.0
  0
LINE
  5
C9
100
AcDbEntity
  8
SENZA_NOME
390
0
  6
Continuous
100
AcDbLine
 10
211.33373060350812
 20
248.46160372850591
 30
0.0
 11
207.3170306035081
 21
248.9992837285059
 31
0.0
  0
LINE
  5
CA
100
AcDbEntity
  8
SENZA_NOME
390
0
  6
Continuous
100
AcDbLine
 10
215.34493060350809
 20
247.89207372850592
 30
0.0
 11
211.33373060350812
 21
248.46160372850591
 31
0.0
  0
LINE
  5
CB
100
AcDbEntity
  8
SENZA_NOME
390
0
  6
Continuous
100
AcDbLine
 10
219.34330060350811
 20
247.2858137285059
 30
0.0
 11
215.34493060350809
 21
247.89207372850592
 31
0.0
  0
LINE
  5
CC
100
AcDbEntity
  8
SENZA_NOME
390
0
  6
Continuous
100
AcDbLine
 10
223.33375060350809
 20
246.64528372850592
 30
0.0
 11
219.34330060350811
 21
247.2858137285059
 31
0.0
  0
LINE
  5
CD
100
AcDbEntity
  8
SENZA_NOME
390
0
  6
Continuous
100
AcDbLine
 10
224.9957606035081
 20
246.3611037285059
 30
0.0
 11
223.33375060350809
 21
246.64528372850592
 31
0.0
  0
LINE
  5
CE
100
AcDbEntity
  8
SENZA_NOME
390
0
  6
Continuous
100
AcDbLine
 10
224.9957606035081
 20
240.53373372850589
 30
0.0
 11
224.9957606035081
 21
246.3611037285059
 31
0.0
  0
LINE
  5
CF
100
AcDbEntity
  8
SENZA_NOME
390
0
  6
Continuous
100
AcDbLine
 10
239.9957606035081
 20
240.53373372850589
 30
0.0
 11
224.9957606035081
 21
240.53373372850589
 31
0.0
  0
LINE
  5
D0
100
AcDbEntity
  8
SENZA_NOME
390
0
  6
Continuous
100
AcDbLine
 10
239.9957606035081
 20
243.53373372850589
 30
0.0
 11
239.9957606035081
 21
240.53373372850589
 31
0.0
  0
LINE
  5
D1
100
AcDbEntity
  8
SENZA_NOME
390
0
  6
Continuous
100
AcDbLine
 10
243.22019060350812
 20
242.86230372850591
 30
0.0
 11
239.9957606035081
 21
243.53373372850589
 31
0.0
  0
LINE
  5
D2
100
AcDbEntity
  8
SENZA_NOME
390
0
  6
Continuous
100
AcDbLine
 10
247.25177060350811
 20
242.00138372850591
 30
0.0
 11
243.22019060350812
 21
242.86230372850591
 31
0.0
  0
LINE
  5
D3
100
AcDbEntity
  8
SENZA_NOME
390
0
  6
Continuous
100
AcDbLine
 10
251.31548060350809
 20
241.1270637285059
 30
0.0
 11
247.25177060350811
 21
242.00138372850591
 31
0.0
  0
LINE
  5
D4
100
AcDbEntity
  8
SENZA_NOME
390
0
  6
Continuous
100
AcDbLine
 10
255.36255060350811
 20
240.26389372850591
 30
0.0
 11
251.31548060350809
 21
241.1270637285059
 31
0.0
  0
LINE
  5
D5
100
AcDbEntity
  8
SENZA_NOME
390
0
  6
Continuous
100
AcDbLine
 10
259.36999060350809
 20
239.43425372850589
 30
0.0
 11
255.36255060350811
 21
240.26389372850591
 31
0.0
  0
LINE
  5
D6
100
AcDbEntity
  8
SENZA_NOME
390
0
  6
Continuous
100
AcDbLine
 10
263.35432060350809
 20
238.64332372850589
 30
0.0
 11
259.36999060350809
 21
239.43425372850589
 31
0.0
  0
LINE
  5
D7
100
AcDbEntity
  8
SENZA_NOME
390
0
  6
Continuous
100
AcDbLine
 10
267.30328060350809
 20
237.9059837285059
 30
0.0
 11
263.35432060350809
 21
238.64332372850589
 31
0.0
  0
LINE
  5
D8
100
AcDbEntity
  8
SENZA_NOME
390
0
  6
Continuous
100
AcDbLine
 10
271.23192060350812
 20
237.2276937285059
 30
0.0
 11
267.30328060350809
 21
237.9059837285059
 31
0.0
  0
LINE
  5
D9
100
AcDbEntity
  8
SENZA_NOME
390
0
  6
Continuous
100
AcDbLine
 10
275.21524060350811
 20
236.59640372850589
 30
0.0
 11
271.23192060350812
 21
237.2276937285059
 31
0.0
  0
LINE
  5
DA
100
AcDbEntity
  8
SENZA_NOME
390
0
  6
Continuous
100
AcDbLine
 10
279.2053606035081
 20
236.02214372850591
 30
0.0
 11
275.21524060350811
 21
236.59640372850589
 31
0.0
  0
LINE
  5
DB
100
AcDbEntity
  8
SENZA_NOME
390
0
  6
Continuous
100
AcDbLine
 10
280.68338060350811
 20
235.82892372850591
 30
0.0
 11
279.2053606035081
 21
236.02214372850591
 31
0.0
  0
CIRCLE
  5
DC
100
AcDbEntity
  8
SENZA_NOME
390
0
100
AcDbCircle
 10
218.9957606035081
 20
238.01251372850589
 30
0.0
 40
3.0
  0
CIRCLE
  5
DD
100
AcDbEntity
  8
SENZA_NOME
390
0
100
AcDbCircle
 10
78.995760603508103
 20
239.03199372850591
 30
0.0
 40
3.0
  0
LWPOLYLINE
  5
DE
100
AcDbEntity
  8
SENZA_NOME
390
0
100
AcDbPolyline
 90
      146
 70
               0
 10
141.84903060350808
 20
241.8143737285059
 10
141.84258060350808
 20
242.06826372850591
 10
141.82325060350809
 20
242.32150372850592
 10
141.79108060350811
 20
242.5734237285059
 10
141.74616060350809
 20
242.82339372850589
 10
141.6886106035081
 20
243.07076372850591
 10
141.61857060350809
 20
243.31488372850589
 10
141.5362206035081
 20
243.55513372850589
 10
141.44178060350811
 20
243.7909037285059
 10
141.33549060350811
 20
244.0215637285059
 10
141.2176306035081
 20
244.24652372850591
 10
141.08849060350809
 20
244.46522372850592
 10
140.94842060350808
 20
244.67707372850592
 10
140.7977706035081
 20
244.8815337285059
 10
140.63693060350809
 20
245.07809372850591
 10
140.46631060350811
 20
245.26622372850591
 10
140.28637060350809
 20
245.44544372850589
 10
140.0975606035081
 20
245.61530372850589
 10
139.90036060350809
 20
245.77535372850591
 10
139.69529060350808
 20
245.92518372850591
 10
139.48288060350811
 20
246.06441372850591
 10
139.2636706035081
 20
246.19267372850589
 10
139.03824060350809
 20
246.3096337285059
 10
138.80715060350809
 20
246.41500372850589
 10
138.57102060350809
 20
246.5084937285059
 10
138.33043060350809
 20
246.58987372850589
 10
138.08603060350811
 20
246.6589437285059
 10
137.8384406035081
 20
246.71550372850589
 10
137.58829060350809
 20
246.75942372850591
 10
137.33624060350809
 20
246.79058372850591
 10
137.08293060350809
 20
246.8089037285059
 10
136.8290106035081
 20
246.81433372850591
 10
136.74947060350809
 20
246.8133837285059
 10
134.65596060350811
 20
246.77169372850591
 10
130.63199060350809
 20
246.6623437285059
 10
126.6102006035081
 20
246.5239137285059
 10
122.58847060350809
 20
246.35391372850592
 10
118.56955060350811
 20
246.15478372850589
 10
114.5583406035081
 20
245.92411372850592
 10
110.5570806035081
 20
245.6644837285059
 10
106.57296060350809
 20
245.3714237285059
 10
102.6065206035081
 20
245.04250372850589
 10
101.0323606035081
 20
244.89598372850591
 10
100.78016060350809
 20
244.86602372850589
 10
100.5298106035081
 20
244.82330372850589
 10
100.28195060350809
 20
244.76792372850591
 10
100.0372206035081
 20
244.7000337285059
 10
99.796250603508099
 20
244.6198037285059
 10
99.559670603508096
 20
244.52744372850592
 10
99.328080603508099
 20
244.4231837285059
 10
99.102090603508088
 20
244.3072937285059
 10
98.88227060350809
 20
244.18008372850591
 10
98.669190603508099
 20
244.04188372850589
 10
98.463410603508095
 20
243.89303372850591
 10
98.2654506035081
 20
243.73392372850591
 10
98.075830603508095
 20
243.56497372850589
 10
97.895030603508104
 20
243.38661372850589
 10
97.723520603508092
 20
243.19929372850589
 10
97.561740603508099
 20
243.00351372850591
 10
97.410120603508091
 20
242.7997737285059
 10
97.269030603508099
 20
242.58859372850591
 10
97.138850603508104
 20
242.3705237285059
 10
97.019910603508094
 20
242.1461237285059
 10
96.912520603508085
 20
241.91597372850589
 10
96.816950603508104
 20
241.68066372850592
 10
96.733460603508092
 20
241.4408137285059
 10
96.662250603508099
 20
241.19702372850591
 10
96.603510603508099
 20
240.9499337285059
 10
96.557400603508086
 20
240.70018372850592
 10
96.524030603508095
 20
240.4484137285059
 10
96.503480603508095
 20
240.1952737285059
 10
96.495820603508093
 20
239.94141372850589
 10
96.495760603508103
 20
239.91750372850589
 10
96.495760603508103
 20
239.16450372850591
 10
96.502210603508104
 20
238.91061372850589
 10
96.5215406035081
 20
238.65738372850592
 10
96.553710603508094
 20
238.4054537285059
 10
96.598630603508099
 20
238.15548372850591
 10
96.656180603508091
 20
237.9081237285059
 10
96.7262306035081
 20
237.66399372850591
 10
96.808570603508088
 20
237.42374372850591
 10
96.903010603508093
 20
237.18798372850591
 10
97.009300603508095
 20
236.95732372850591
 10
97.127160603508088
 20
236.7323537285059
 10
97.256300603508095
 20
236.51366372850589
 10
97.396370603508103
 20
236.30181372850592
 10
97.547030603508091
 20
236.0973437285059
 10
97.707860603508095
 20
235.9007937285059
 10
97.878480603508095
 20
235.7126537285059
 10
98.058420603508097
 20
235.53343372850591
 10
98.247230603508086
 20
235.36357372850591
 10
98.444430603508096
 20
235.2035237285059
 10
98.649500603508102
 20
235.05369372850589
 10
98.861910603508093
 20
234.91446372850589
 10
99.081120603508097
 20
234.78621372850591
 10
99.3065506035081
 20
234.6692437285059
 10
99.537640603508095
 20
234.56388372850591
 10
99.773780603508101
 20
234.47038372850591
 10
100.01436060350809
 20
234.38900372850591
 10
100.25876060350809
 20
234.3199437285059
 10
100.5063506035081
 20
234.26337372850591
 10
100.7565006035081
 20
234.2194637285059
 10
101.0085506035081
 20
234.1883037285059
 10
101.1653406035081
 20
234.17543372850591
 10
104.01488060350809
 20
233.98671372850589
 10
108.1157506035081
 20
233.72979372850591
 10
112.21882060350811
 20
233.48743372850589
 10
116.31966060350808
 20
233.2574337285059
 10
120.41612060350809
 20
233.04479372850591
 10
124.51253060350808
 20
232.84914372850591
 10
128.60162060350811
 20
232.66827372850591
 10
132.68617060350809
 20
232.50713372850589
 10
136.67559060350808
 20
232.36866372850591
 10
136.92955060350809
 20
232.3663037285059
 10
137.18330060350809
 20
232.37684372850592
 10
137.43619060350809
 20
232.4002537285059
 10
137.68757060350811
 20
232.43647372850592
 10
137.93678060350808
 20
232.4854137285059
 10
138.18319060350811
 20
232.54694372850591
 10
138.42615060350809
 20
232.62090372850591
 10
138.66505060350809
 20
232.7071037285059
 10
138.89926060350808
 20
232.8053337285059
 10
139.1281806035081
 20
232.91532372850591
 10
139.3512206035081
 20
233.0367937285059
 10
139.56780060350809
 20
233.16943372850591
 10
139.7773706035081
 20
233.31290372850592
 10
139.97939060350811
 20
233.46682372850591
 10
140.1733206035081
 20
233.6308037285059
 10
140.35868060350811
 20
233.8044237285059
 10
140.53499060350811
 20
233.98723372850591
 10
140.7017806035081
 20
234.17876372850591
 10
140.85864060350809
 20
234.3785037285059
 10
141.0051506035081
 20
234.5859637285059
 10
141.14093060350808
 20
234.8005837285059
 10
141.26565060350811
 20
235.0218337285059
 10
141.37896060350809
 20
235.24912372850591
 10
141.48059060350809
 20
235.48187372850592
 10
141.57027060350811
 20
235.71948372850591
 10
141.64777060350809
 20
235.96134372850591
 10
141.7128906035081
 20
236.2068237285059
 10
141.7654606035081
 20
236.4553037285059
 10
141.80534060350809
 20
236.7061237285059
 10
141.8324406035081
 20
236.9586437285059
 10
141.8466806035081
 20
237.2122137285059
 10
141.84903060350808
 20
237.36565372850589
 10
141.84903060350808
 20
241.8143737285059
  0
LWPOLYLINE
  5
DF
100
AcDbEntity
  8
SENZA_NOME
390
0
100
AcDbPolyline
 90
      145
 70
               0
 10
202.85369060350811
 20
233.52424372850589
 10
203.1066006035081
 20
233.54750372850592
 10
203.35800060350812
 20
233.58356372850591
 10
203.6072406035081
 20
233.6323537285059
 10
203.85369060350811
 20
233.69373372850589
 10
204.09670060350811
 20
233.7675437285059
 10
204.3356406035081
 20
233.8536037285059
 10
204.56991060350811
 20
233.95168372850591
 10
204.79890060350812
 20
234.06153372850591
 10
205.02202060350811
 20
234.18286372850591
 10
205.2386806035081
 20
234.3153737285059
 10
205.44834060350811
 20
234.4587137285059
 10
205.65045060350809
 20
234.61251372850592
 10
205.84448060350809
 20
234.77637372850592
 10
206.0299506035081
 20
234.94988372850591
 10
206.20637060350811
 20
235.13258372850589
 10
206.37328060350811
 20
235.32400372850591
 10
206.53026060350811
 20
235.52365372850591
 10
206.6768906035081
 20
235.7310137285059
 10
206.8128106035081
 20
235.9455637285059
 10
206.93766060350811
 20
236.1667237285059
 10
207.05112060350811
 20
236.39394372850592
 10
207.1528906035081
 20
236.62663372850591
 10
207.2427206035081
 20
236.86419372850591
 10
207.32036060350811
 20
237.1060037285059
 10
207.3856306035081
 20
237.3514537285059
 10
207.4383506035081
 20
237.59989372850589
 10
207.4783906035081
 20
237.85068372850591
 10
207.50564060350811
 20
238.10319372850591
 10
207.52004060350811
 20
238.35675372850591
 10
207.5215406035081
 20
238.61072372850592
 10
207.51014060350809
 20
238.8644437285059
 10
207.48587060350809
 20
239.11725372850591
 10
207.44880060350809
 20
239.36850372850591
 10
207.39902060350809
 20
239.6175537285059
 10
207.3366506035081
 20
239.86375372850591
 10
207.2618706035081
 20
240.1064637285059
 10
207.1748506035081
 20
240.34506372850592
 10
207.07583060350811
 20
240.57893372850592
 10
206.96507060350811
 20
240.8074837285059
 10
206.84284060350811
 20
241.03011372850591
 10
206.70947060350809
 20
241.2462437285059
 10
206.56529060350809
 20
241.4553237285059
 10
206.4106806035081
 20
241.65681372850591
 10
206.24604060350811
 20
241.8501937285059
 10
206.07180060350811
 20
242.03496372850591
 10
205.8883906035081
 20
242.21065372850592
 10
205.69630060350809
 20
242.3767937285059
 10
205.4960306035081
 20
242.53297372850591
 10
205.28808060350809
 20
242.67877372850592
 10
205.07299060350809
 20
242.8138337285059
 10
204.8513306035081
 20
242.93779372850591
 10
204.62365060350811
 20
243.05034372850591
 10
204.39056060350811
 20
243.15118372850591
 10
204.1526406035081
 20
243.2400537285059
 10
203.9105206035081
 20
243.31673372850591
 10
203.6648206035081
 20
243.38102372850591
 10
203.41617060350811
 20
243.4327437285059
 10
203.16521060350811
 20
243.4717837285059
 10
203.14303060350809
 20
243.47460372850591
 10
202.57422060350811
 20
243.5457537285059
 10
198.59412060350812
 20
244.00900372850592
 10
194.61160060350809
 20
244.4407237285059
 10
190.62626060350811
 20
244.8382937285059
 10
186.64078060350809
 20
245.20193372850591
 10
182.65295060350812
 20
245.53162372850591
 10
178.66745060350812
 20
245.82720372850591
 10
174.68186060350811
 20
246.08629372850589
 10
170.69405060350809
 20
246.3091837285059
 10
169.0855606035081
 20
246.38536372850589
 10
168.83165060350811
 20
246.3909237285059
 10
168.5777806035081
 20
246.3835937285059
 10
168.32461060350809
 20
246.36338372850591
 10
168.07280060350809
 20
246.33033372850591
 10
167.82299060350809
 20
246.28454372850589
 10
167.57583060350811
 20
246.22613372850591
 10
167.33195060350809
 20
246.15524372850589
 10
167.09198060350809
 20
246.0720637285059
 10
166.85655060350808
 20
245.9768037285059
 10
166.62626060350809
 20
245.8697137285059
 10
166.40170060350809
 20
245.7510737285059
 10
166.18346060350811
 20
245.62117372850591
 10
165.9721006035081
 20
245.48036372850589
 10
165.76816060350811
 20
245.32900372850591
 10
165.57216060350811
 20
245.16748372850591
 10
165.3846306035081
 20
244.99621372850589
 10
165.20603060350808
 20
244.81565372850591
 10
165.03683060350809
 20
244.6262437285059
 10
164.8774606035081
 20
244.42849372850591
 10
164.72835060350809
 20
244.22291372850592
 10
164.5898606035081
 20
244.0100137285059
 10
164.4623606035081
 20
243.79036372850589
 10
164.34619060350809
 20
243.56452372850589
 10
164.2416306035081
 20
243.33307372850589
 10
164.1489506035081
 20
243.0966137285059
 10
164.06841060350808
 20
242.8557537285059
 10
164.00019060350809
 20
242.6111137285059
 10
163.94449060350809
 20
242.36332372850592
 10
163.90144060350809
 20
242.11302372850591
 10
163.87116060350809
 20
241.8608637285059
 10
163.85372060350809
 20
241.60748372850591
 10
163.84903060350808
 20
241.39095372850591
 10
163.84903060350808
 20
237.0664237285059
 10
163.85548060350808
 20
236.81253372850591
 10
163.87481060350811
 20
236.55929372850591
 10
163.90698060350809
 20
236.30737372850589
 10
163.95190060350811
 20
236.0574037285059
 10
164.0094606035081
 20
235.81003372850591
 10
164.07950060350811
 20
235.5659137285059
 10
164.1618406035081
 20
235.3256537285059
 10
164.25628060350809
 20
235.0898937285059
 10
164.36257060350809
 20
234.8592337285059
 10
164.4804406035081
 20
234.63426372850591
 10
164.6095706035081
 20
234.4155737285059
 10
164.74965060350809
 20
234.20372372850591
 10
164.9003006035081
 20
233.99925372850589
 10
165.0611306035081
 20
233.80270372850592
 10
165.23175060350809
 20
233.61457372850592
 10
165.41169060350811
 20
233.4353437285059
 10
165.6005106035081
 20
233.2654937285059
 10
165.7977006035081
 20
233.10544372850592
 10
166.00277060350808
 20
232.95560372850591
 10
166.21518060350809
 20
232.81638372850591
 10
166.43439060350809
 20
232.6881237285059
 10
166.65982060350811
 20
232.57116372850589
 10
166.8909106035081
 20
232.4657937285059
 10
167.12705060350811
 20
232.3723037285059
 10
167.3676306035081
 20
232.2909137285059
 10
167.61203060350809
 20
232.22185372850589
 10
167.85962060350809
 20
232.1652937285059
 10
168.10977060350808
 20
232.12137372850592
 10
168.36182060350811
 20
232.09021372850592
 10
168.61513060350811
 20
232.0718937285059
 10
168.8690506035081
 20
232.06646372850591
 10
168.91529060350808
 20
232.06686372850589
 10
169.1835206035081
 20
232.07041372850591
 10
173.21981060350811
 20
232.15308372850592
 10
177.26094060350809
 20
232.26257372850591
 10
181.30453060350811
 20
232.3988137285059
 10
185.35290060350809
 20
232.56201372850592
 10
189.4089706035081
 20
232.74716372850591
 10
193.4721206035081
 20
232.95921372850592
 10
197.54471060350809
 20
233.1911637285059
 10
201.6247806035081
 20
233.44266372850592
 10
202.85369060350811
 20
233.52424372850589
  0
LINE
  5
E0
100
AcDbEntity
  8
SENZA_NOME
390
0
  6
Continuous
100
AcDbLine
 10
54.995760603508096
 20
201.14240341040215
 30
0.0
 11
54.995760603508096
 21
198.96270341040216
 31
0.0
  0
LINE
  5
E1
100
AcDbEntity
  8
0
370
               0
390
0
  6
Continuous
100
AcDbLine
 10
63.995760603508096
 20
201.14240341040215
 30
0.0
 11
54.995760603508096
 21
201.14240341040215
 31
0.0
  0
LINE
  5
E2
100
AcDbEntity
  8
SENZA_NOME
390
0
  6
Continuous
100
AcDbLine
 10
63.995760603508096
 20
203.14240341040215
 30
0.0
 11
63.995760603508096
 21
201.14240341040215
 31
0.0
  0
LINE
  5
E3
100
AcDbEntity
  8
SENZA_NOME
390
0
  6
Continuous
100
AcDbLine
 10
53.995760603508096
 20
203.14240341040215
 30
0.0
 11
63.995760603508096
 21
203.14240341040215
 31
0.0
  0
LINE
  5
E4
100
AcDbEntity
  8
SENZA_NOME
390
0
  6
Continuous
100
AcDbLine
 10
53.995760603508096
 20
207.19858341040214
 30
0.0
 11
53.995760603508096
 21
203.14240341040215
 31
0.0
  0
LINE
  5
E5
100
AcDbEntity
  8
SENZA_NOME
390
0
  6
Continuous
100
AcDbLine
 10
279.21120060350808
 20
201.40553341040214
 30
0.0
 11
280.68338060350811
 21
201.68708341040215
 31
0.0
  0
LINE
  5
E6
100
AcDbEntity
  8
SENZA_NOME
390
0
  6
Continuous
100
AcDbLine
 10
275.22924060350806
 20
200.68421341040215
 30
0.0
 11
279.21120060350808
 21
201.40553341040214
 31
0.0
  0
LINE
  5
E7
100
AcDbEntity
  8
SENZA_NOME
390
0
  6
Continuous
100
AcDbLine
 10
271.25166060350807
 20
200.00739341040213
 30
0.0
 11
275.22924060350806
 21
200.68421341040215
 31
0.0
  0
LINE
  5
E8
100
AcDbEntity
  8
SENZA_NOME
390
0
  6
Continuous
100
AcDbLine
 10
267.32960060350808
 20
199.38966341040214
 30
0.0
 11
271.25166060350807
 21
200.00739341040213
 31
0.0
  0
LINE
  5
E9
100
AcDbEntity
  8
SENZA_NOME
390
0
  6
Continuous
100
AcDbLine
 10
263.3845506035081
 20
198.81838341040213
 30
0.0
 11
267.32960060350808
 21
199.38966341040214
 31
0.0
  0
LINE
  5
EA
100
AcDbEntity
  8
SENZA_NOME
390
0
  6
Continuous
100
AcDbLine
 10
259.41459060350809
 20
198.28872341040216
 30
0.0
 11
263.3845506035081
 21
198.81838341040213
 31
0.0
  0
LINE
  5
EB
100
AcDbEntity
  8
SENZA_NOME
390
0
  6
Continuous
100
AcDbLine
 10
255.42974060350809
 20
197.80564341040215
 30
0.0
 11
259.41459060350809
 21
198.28872341040216
 31
0.0
  0
LINE
  5
EC
100
AcDbEntity
  8
SENZA_NOME
390
0
  6
Continuous
100
AcDbLine
 10
251.41727060350811
 20
197.36390341040214
 30
0.0
 11
255.42974060350809
 21
197.80564341040215
 31
0.0
  0
LINE
  5
ED
100
AcDbEntity
  8
SENZA_NOME
390
0
  6
Continuous
100
AcDbLine
 10
247.3749606035081
 20
196.95132341040215
 30
0.0
 11
251.41727060350811
 21
197.36390341040214
 31
0.0
  0
LINE
  5
EE
100
AcDbEntity
  8
SENZA_NOME
390
0
  6
Continuous
100
AcDbLine
 10
243.30076060350811
 20
196.56552341040214
 30
0.0
 11
247.3749606035081
 21
196.95132341040215
 31
0.0
  0
LINE
  5
EF
100
AcDbEntity
  8
SENZA_NOME
390
0
  6
Continuous
100
AcDbLine
 10
239.19697060350811
 20
196.19670341040214
 30
0.0
 11
243.30076060350811
 21
196.56552341040214
 31
0.0
  0
LINE
  5
F0
100
AcDbEntity
  8
SENZA_NOME
390
0
  6
Continuous
100
AcDbLine
 10
235.07103060350809
 20
195.84241341040214
 30
0.0
 11
239.19697060350811
 21
196.19670341040214
 31
0.0
  0
LINE
  5
F1
100
AcDbEntity
  8
SENZA_NOME
390
0
  6
Continuous
100
AcDbLine
 10
230.92918060350812
 20
195.49295341040215
 30
0.0
 11
235.07103060350809
 21
195.84241341040214
 31
0.0
  0
LINE
  5
F2
100
AcDbEntity
  8
SENZA_NOME
390
0
  6
Continuous
100
AcDbLine
 10
226.78214060350811
 20
195.15331341040215
 30
0.0
 11
230.92918060350812
 21
195.49295341040215
 31
0.0
  0
LINE
  5
F3
100
AcDbEntity
  8
SENZA_NOME
390
0
  6
Continuous
100
AcDbLine
 10
222.63698060350811
 20
194.81855341040216
 30
0.0
 11
226.78214060350811
 21
195.15331341040215
 31
0.0
  0
LINE
  5
F4
100
AcDbEntity
  8
SENZA_NOME
390
0
  6
Continuous
100
AcDbLine
 10
218.49804060350812
 20
194.49127341040216
 30
0.0
 11
222.63698060350811
 21
194.81855341040216
 31
0.0
  0
LINE
  5
F5
100
AcDbEntity
  8
SENZA_NOME
390
0
  6
Continuous
100
AcDbLine
 10
214.36489060350812
 20
194.17636341040213
 30
0.0
 11
218.49804060350812
 21
194.49127341040216
 31
0.0
  0
LINE
  5
F6
100
AcDbEntity
  8
SENZA_NOME
390
0
  6
Continuous
100
AcDbLine
 10
210.2395806035081
 20
193.87379341040216
 30
0.0
 11
214.36489060350812
 21
194.17636341040213
 31
0.0
  0
LINE
  5
F7
100
AcDbEntity
  8
SENZA_NOME
390
0
  6
Continuous
100
AcDbLine
 10
206.1196706035081
 20
193.58601341040213
 30
0.0
 11
210.2395806035081
 21
193.87379341040216
 31
0.0
  0
LINE
  5
F8
100
AcDbEntity
  8
SENZA_NOME
390
0
  6
Continuous
100
AcDbLine
 10
202.00808060350809
 20
193.31306341040215
 30
0.0
 11
206.1196706035081
 21
193.58601341040213
 31
0.0
  0
LINE
  5
F9
100
AcDbEntity
  8
SENZA_NOME
390
0
  6
Continuous
100
AcDbLine
 10
197.89987060350811
 20
193.05983341040215
 30
0.0
 11
202.00808060350809
 21
193.31306341040215
 31
0.0
  0
LINE
  5
FA
100
AcDbEntity
  8
SENZA_NOME
390
0
  6
Continuous
100
AcDbLine
 10
193.79907060350811
 20
192.82627341040214
 30
0.0
 11
197.89987060350811
 21
193.05983341040215
 31
0.0
  0
LINE
  5
FB
100
AcDbEntity
  8
SENZA_NOME
390
0
  6
Continuous
100
AcDbLine
 10
189.70212060350809
 20
192.61245341040214
 30
0.0
 11
193.79907060350811
 21
192.82627341040214
 31
0.0
  0
LINE
  5
FC
100
AcDbEntity
  8
SENZA_NOME
390
0
  6
Continuous
100
AcDbLine
 10
185.6105306035081
 20
192.42569341040215
 30
0.0
 11
189.70212060350809
 21
192.61245341040214
 31
0.0
  0
LINE
  5
FD
100
AcDbEntity
  8
SENZA_NOME
390
0
  6
Continuous
100
AcDbLine
 10
181.5263906035081
 20
192.26104341040215
 30
0.0
 11
185.6105306035081
 21
192.42569341040215
 31
0.0
  0
LINE
  5
FE
100
AcDbEntity
  8
SENZA_NOME
390
0
  6
Continuous
100
AcDbLine
 10
177.44321060350811
 20
192.12346341040214
 30
0.0
 11
181.5263906035081
 21
192.26104341040215
 31
0.0
  0
LINE
  5
FF
100
AcDbEntity
  8
SENZA_NOME
390
0
  6
Continuous
100
AcDbLine
 10
173.36249060350809
 20
192.01291341040215
 30
0.0
 11
177.44321060350811
 21
192.12346341040214
 31
0.0
  0
LINE
  5
100
100
AcDbEntity
  8
SENZA_NOME
390
0
  6
Continuous
100
AcDbLine
 10
169.2847106035081
 20
191.92939341040216
 30
0.0
 11
173.36249060350809
 21
192.01291341040215
 31
0.0
  0
LINE
  5
101
100
AcDbEntity
  8
SENZA_NOME
390
0
  6
Continuous
100
AcDbLine
 10
165.20695060350809
 20
191.87534341040214
 30
0.0
 11
169.2847106035081
 21
191.92939341040216
 31
0.0
  0
LINE
  5
102
100
AcDbEntity
  8
SENZA_NOME
390
0
  6
Continuous
100
AcDbLine
 10
161.12627060350809
 20
191.84832341040214
 30
0.0
 11
165.20695060350809
 21
191.87534341040214
 31
0.0
  0
LINE
  5
103
100
AcDbEntity
  8
SENZA_NOME
390
0
  6
Continuous
100
AcDbLine
 10
157.84903060350808
 20
191.84832341040214
 30
0.0
 11
161.12627060350809
 21
191.84832341040214
 31
0.0
  0
LINE
  5
104
100
AcDbEntity
  8
SENZA_NOME
390
0
  6
Continuous
100
AcDbLine
 10
157.84903060350808
 20
197.44590341040214
 30
0.0
 11
157.84903060350808
 21
191.84832341040214
 31
0.0
  0
LINE
  5
105
100
AcDbEntity
  8
SENZA_NOME
390
0
  6
Continuous
100
AcDbLine
 10
147.84903060350808
 20
197.44590341040214
 30
0.0
 11
157.84903060350808
 21
197.44590341040214
 31
0.0
  0
LINE
  5
106
100
AcDbEntity
  8
SENZA_NOME
390
0
  6
Continuous
100
AcDbLine
 10
147.84903060350808
 20
191.94590341040214
 30
0.0
 11
147.84903060350808
 21
197.44590341040214
 31
0.0
  0
LINE
  5
107
100
AcDbEntity
  8
SENZA_NOME
390
0
  6
Continuous
100
AcDbLine
 10
144.77160060350809
 20
192.00313341040214
 30
0.0
 11
147.84903060350808
 21
191.94590341040214
 31
0.0
  0
LINE
  5
108
100
AcDbEntity
  8
SENZA_NOME
390
0
  6
Continuous
100
AcDbLine
 10
140.67472060350809
 20
192.10389341040215
 30
0.0
 11
144.77160060350809
 21
192.00313341040214
 31
0.0
  0
LINE
  5
109
100
AcDbEntity
  8
SENZA_NOME
390
0
  6
Continuous
100
AcDbLine
 10
136.57198060350811
 20
192.22680341040214
 30
0.0
 11
140.67472060350809
 21
192.10389341040215
 31
0.0
  0
LINE
  5
10A
100
AcDbEntity
  8
SENZA_NOME
390
0
  6
Continuous
100
AcDbLine
 10
132.46384060350809
 20
192.36940341040216
 30
0.0
 11
136.57198060350811
 21
192.22680341040214
 31
0.0
  0
LINE
  5
10B
100
AcDbEntity
  8
SENZA_NOME
390
0
  6
Continuous
100
AcDbLine
 10
128.3507906035081
 20
192.53166341040213
 30
0.0
 11
132.46384060350809
 21
192.36940341040216
 31
0.0
  0
LINE
  5
10C
100
AcDbEntity
  8
SENZA_NOME
390
0
  6
Continuous
100
AcDbLine
 10
124.23684060350809
 20
192.71362341040214
 30
0.0
 11
128.3507906035081
 21
192.53166341040213
 31
0.0
  0
LINE
  5
10D
100
AcDbEntity
  8
SENZA_NOME
390
0
  6
Continuous
100
AcDbLine
 10
120.11748060350808
 20
192.91037341040214
 30
0.0
 11
124.23684060350809
 21
192.71362341040214
 31
0.0
  0
LINE
  5
10E
100
AcDbEntity
  8
SENZA_NOME
390
0
  6
Continuous
100
AcDbLine
 10
115.99614060350811
 20
193.12431341040215
 30
0.0
 11
120.11748060350808
 21
192.91037341040214
 31
0.0
  0
LINE
  5
10F
100
AcDbEntity
  8
SENZA_NOME
390
0
  6
Continuous
100
AcDbLine
 10
111.87393060350809
 20
193.35550341040215
 30
0.0
 11
115.99614060350811
 21
193.12431341040215
 31
0.0
  0
LINE
  5
110
100
AcDbEntity
  8
SENZA_NOME
390
0
  6
Continuous
100
AcDbLine
 10
107.75127060350809
 20
193.59903341040214
 30
0.0
 11
111.87393060350809
 21
193.35550341040215
 31
0.0
  0
LINE
  5
111
100
AcDbEntity
  8
SENZA_NOME
390
0
  6
Continuous
100
AcDbLine
 10
103.62905060350809
 20
193.85728341040215
 30
0.0
 11
107.75127060350809
 21
193.59903341040214
 31
0.0
  0
LINE
  5
112
100
AcDbEntity
  8
SENZA_NOME
390
0
  6
Continuous
100
AcDbLine
 10
99.506920603508092
 20
194.13028341040214
 30
0.0
 11
103.62905060350809
 21
193.85728341040215
 31
0.0
  0
LINE
  5
113
100
AcDbEntity
  8
SENZA_NOME
390
0
  6
Continuous
100
AcDbLine
 10
95.392720603508096
 20
194.41801341040215
 30
0.0
 11
99.506920603508092
 21
194.13028341040214
 31
0.0
  0
LINE
  5
114
100
AcDbEntity
  8
SENZA_NOME
390
0
  6
Continuous
100
AcDbLine
 10
91.28637060350809
 20
194.72291341040216
 30
0.0
 11
95.392720603508096
 21
194.41801341040215
 31
0.0
  0
LINE
  5
115
100
AcDbEntity
  8
SENZA_NOME
390
0
  6
Continuous
100
AcDbLine
 10
90.495760603508103
 20
194.78504341040215
 30
0.0
 11
91.28637060350809
 21
194.72291341040216
 31
0.0
  0
LINE
  5
116
100
AcDbEntity
  8
SENZA_NOME
390
0
  6
Continuous
100
AcDbLine
 10
90.495760603508103
 20
205.02079341040215
 30
0.0
 11
90.495760603508103
 21
194.78504341040215
 31
0.0
  0
LINE
  5
117
100
AcDbEntity
  8
SENZA_NOME
390
0
  6
Continuous
100
AcDbLine
 10
87.495760603508103
 20
205.02079341040215
 30
0.0
 11
90.495760603508103
 21
205.02079341040215
 31
0.0
  0
LINE
  5
118
100
AcDbEntity
  8
SENZA_NOME
390
0
  6
Continuous
100
AcDbLine
 10
87.495760603508103
 20
195.02079341040215
 30
0.0
 11
87.495760603508103
 21
205.02079341040215
 31
0.0
  0
LINE
  5
119
100
AcDbEntity
  8
SENZA_NOME
390
0
  6
Continuous
100
AcDbLine
 10
87.187990603508098
 20
195.04498341040215
 30
0.0
 11
87.495760603508103
 21
195.02079341040215
 31
0.0
  0
LINE
  5
11A
100
AcDbEntity
  8
SENZA_NOME
390
0
  6
Continuous
100
AcDbLine
 10
83.105980603508101
 20
195.38658341040215
 30
0.0
 11
87.187990603508098
 21
195.04498341040215
 31
0.0
  0
LINE
  5
11B
100
AcDbEntity
  8
SENZA_NOME
390
0
  6
Continuous
100
AcDbLine
 10
79.048220603508099
 20
195.75256341040213
 30
0.0
 11
83.105980603508101
 21
195.38658341040215
 31
0.0
  0
LINE
  5
11C
100
AcDbEntity
  8
SENZA_NOME
390
0
  6
Continuous
100
AcDbLine
 10
75.0201506035081
 20
196.14776341040215
 30
0.0
 11
79.048220603508099
 21
195.75256341040213
 31
0.0
  0
LINE
  5
11D
100
AcDbEntity
  8
SENZA_NOME
390
0
  6
Continuous
100
AcDbLine
 10
71.029250603508103
 20
196.57948341040213
 30
0.0
 11
75.0201506035081
 21
196.14776341040215
 31
0.0
  0
LINE
  5
11E
100
AcDbEntity
  8
SENZA_NOME
390
0
  6
Continuous
100
AcDbLine
 10
67.081740603508095
 20
197.05239341040215
 30
0.0
 11
71.029250603508103
 21
196.57948341040213
 31
0.0
  0
LINE
  5
11F
100
AcDbEntity
  8
SENZA_NOME
390
0
  6
Continuous
100
AcDbLine
 10
63.195230603508094
 20
197.57859341040214
 30
0.0
 11
67.081740603508095
 21
197.05239341040215
 31
0.0
  0
LINE
  5
120
100
AcDbEntity
  8
SENZA_NOME
390
0
  6
Continuous
100
AcDbLine
 10
59.398310603508094
 20
198.16010341040214
 30
0.0
 11
63.195230603508094
 21
197.57859341040214
 31
0.0
  0
LINE
  5
121
100
AcDbEntity
  8
SENZA_NOME
390
0
  6
Continuous
100
AcDbLine
 10
55.779170603508092
 20
198.80106341040215
 30
0.0
 11
59.398310603508094
 21
198.16010341040214
 31
0.0
  0
LINE
  5
122
100
AcDbEntity
  8
SENZA_NOME
390
0
  6
Continuous
100
AcDbLine
 10
54.995760603508096
 20
198.96270341040216
 30
0.0
 11
55.779170603508092
 21
198.80106341040215
 31
0.0
  0
LINE
  5
123
100
AcDbEntity
  8
SENZA_NOME
390
0
  6
Continuous
100
AcDbLine
 10
53.995760603508096
 20
203.14240341040215
 30
0.0
 11
53.995760603508096
 21
203.18381341040214
 31
0.0
  0
LINE
  5
124
100
AcDbEntity
  8
SENZA_NOME
390
0
  6
Continuous
100
AcDbLine
 10
63.995760603508096
 20
203.14240341040215
 30
0.0
 11
53.995760603508096
 21
203.14240341040215
 31
0.0
  0
LINE
  5
125
100
AcDbEntity
  8
SENZA_NOME
390
0
  6
Continuous
100
AcDbLine
 10
63.995760603508096
 20
201.14240341040215
 30
0.0
 11
63.995760603508096
 21
203.14240341040215
 31
0.0
  0
LINE
  5
126
100
AcDbEntity
  8
SENZA_NOME
390
0
  6
Continuous
100
AcDbLine
 10
56.989540603508097
 20
208.37207341040215
 30
0.0
 11
53.995760603508096
 21
207.19858341040214
 31
0.0
  0
LINE
  5
127
100
AcDbEntity
  8
SENZA_NOME
390
0
  6
Continuous
100
AcDbLine
 10
60.339260603508095
 20
209.53551341040213
 30
0.0
 11
56.989540603508097
 21
208.37207341040215
 31
0.0
  0
LINE
  5
128
100
AcDbEntity
  8
SENZA_NOME
390
0
  6
Continuous
100
AcDbLine
 10
63.813380603508094
 20
210.60129341040215
 30
0.0
 11
60.339260603508095
 21
209.53551341040213
 31
0.0
  0
LINE
  5
129
100
AcDbEntity
  8
SENZA_NOME
390
0
  6
Continuous
100
AcDbLine
 10
67.377850603508094
 20
211.56657341040216
 30
0.0
 11
63.813380603508094
 21
210.60129341040215
 31
0.0
  0
LINE
  5
12A
100
AcDbEntity
  8
SENZA_NOME
390
0
  6
Continuous
100
AcDbLine
 10
71.020920603508102
 20
212.43593341040216
 30
0.0
 11
67.377850603508094
 21
211.56657341040216
 31
0.0
  0
LINE
  5
12B
100
AcDbEntity
  8
SENZA_NOME
390
0
  6
Continuous
100
AcDbLine
 10
74.730090603508103
 20
213.21874341040214
 30
0.0
 11
71.020920603508102
 21
212.43593341040216
 31
0.0
  0
LINE
  5
12C
100
AcDbEntity
  8
SENZA_NOME
390
0
  6
Continuous
100
AcDbLine
 10
78.502440603508091
 20
213.92193341040215
 30
0.0
 11
74.730090603508103
 21
213.21874341040214
 31
0.0
  0
LINE
  5
12D
100
AcDbEntity
  8
SENZA_NOME
390
0
  6
Continuous
100
AcDbLine
 10
82.332670603508092
 20
214.55501341040215
 30
0.0
 11
78.502440603508091
 21
213.92193341040215
 31
0.0
  0
LINE
  5
12E
100
AcDbEntity
  8
SENZA_NOME
390
0
  6
Continuous
100
AcDbLine
 10
86.212900603508103
 20
215.12261341040215
 30
0.0
 11
82.332670603508092
 21
214.55501341040215
 31
0.0
  0
LINE
  5
12F
100
AcDbEntity
  8
SENZA_NOME
390
0
  6
Continuous
100
AcDbLine
 10
90.133970603508089
 20
215.63203341040213
 30
0.0
 11
86.212900603508103
 21
215.12261341040215
 31
0.0
  0
LINE
  5
130
100
AcDbEntity
  8
SENZA_NOME
390
0
  6
Continuous
100
AcDbLine
 10
94.089330603508103
 20
216.09275341040214
 30
0.0
 11
90.133970603508089
 21
215.63203341040213
 31
0.0
  0
LINE
  5
131
100
AcDbEntity
  8
SENZA_NOME
390
0
  6
Continuous
100
AcDbLine
 10
98.074020603508103
 20
216.50471341040213
 30
0.0
 11
94.089330603508103
 21
216.09275341040214
 31
0.0
  0
LINE
  5
132
100
AcDbEntity
  8
SENZA_NOME
390
0
  6
Continuous
100
AcDbLine
 10
102.0805406035081
 20
216.87764341040213
 30
0.0
 11
98.074020603508103
 21
216.50471341040213
 31
0.0
  0
LINE
  5
133
100
AcDbEntity
  8
SENZA_NOME
390
0
  6
Continuous
100
AcDbLine
 10
106.10495060350809
 20
217.21137341040213
 30
0.0
 11
102.0805406035081
 21
216.87764341040213
 31
0.0
  0
LINE
  5
134
100
AcDbEntity
  8
SENZA_NOME
390
0
  6
Continuous
100
AcDbLine
 10
110.14274060350809
 20
217.50837341040216
 30
0.0
 11
106.10495060350809
 21
217.21137341040213
 31
0.0
  0
LINE
  5
135
100
AcDbEntity
  8
SENZA_NOME
390
0
  6
Continuous
100
AcDbLine
 10
114.1918406035081
 20
217.77111341040214
 30
0.0
 11
110.14274060350809
 21
217.50837341040216
 31
0.0
  0
LINE
  5
136
100
AcDbEntity
  8
SENZA_NOME
390
0
  6
Continuous
100
AcDbLine
 10
118.24885060350809
 20
218.00441341040215
 30
0.0
 11
114.1918406035081
 21
217.77111341040214
 31
0.0
  0
LINE
  5
137
100
AcDbEntity
  8
SENZA_NOME
390
0
  6
Continuous
100
AcDbLine
 10
122.31331060350809
 20
218.20579341040215
 30
0.0
 11
118.24885060350809
 21
218.00441341040215
 31
0.0
  0
LINE
  5
138
100
AcDbEntity
  8
SENZA_NOME
390
0
  6
Continuous
100
AcDbLine
 10
126.38029060350809
 20
218.37771341040215
 30
0.0
 11
122.31331060350809
 21
218.20579341040215
 31
0.0
  0
LINE
  5
139
100
AcDbEntity
  8
SENZA_NOME
390
0
  6
Continuous
100
AcDbLine
 10
130.4473006035081
 20
218.51769341040216
 30
0.0
 11
126.38029060350809
 21
218.37771341040215
 31
0.0
  0
LINE
  5
13A
100
AcDbEntity
  8
SENZA_NOME
390
0
  6
Continuous
100
AcDbLine
 10
134.5147306035081
 20
218.62822341040214
 30
0.0
 11
130.4473006035081
 21
218.51769341040216
 31
0.0
  0
LINE
  5
13B
100
AcDbEntity
  8
SENZA_NOME
390
0
  6
Continuous
100
AcDbLine
 10
138.58419060350809
 20
218.70927341040215
 30
0.0
 11
134.5147306035081
 21
218.62822341040214
 31
0.0
  0
LINE
  5
13C
100
AcDbEntity
  8
SENZA_NOME
390
0
  6
Continuous
100
AcDbLine
 10
142.6458106035081
 20
218.75838341040213
 30
0.0
 11
138.58419060350809
 21
218.70927341040215
 31
0.0
  0
LINE
  5
13D
100
AcDbEntity
  8
SENZA_NOME
390
0
  6
Continuous
100
AcDbLine
 10
146.70740060350809
 20
218.77557341040216
 30
0.0
 11
142.6458106035081
 21
218.75838341040213
 31
0.0
  0
LINE
  5
13E
100
AcDbEntity
  8
SENZA_NOME
390
0
  6
Continuous
100
AcDbLine
 10
147.84903060350808
 20
218.77143341040215
 30
0.0
 11
146.70740060350809
 21
218.77557341040216
 31
0.0
  0
LINE
  5
13F
100
AcDbEntity
  8
SENZA_NOME
390
0
  6
Continuous
100
AcDbLine
 10
147.84903060350808
 20
213.14684341040214
 30
0.0
 11
147.84903060350808
 21
218.77143341040215
 31
0.0
  0
LINE
  5
140
100
AcDbEntity
  8
SENZA_NOME
390
0
  6
Continuous
100
AcDbLine
 10
157.84903060350808
 20
213.14684341040214
 30
0.0
 11
147.84903060350808
 21
213.14684341040214
 31
0.0
  0
LINE
  5
141
100
AcDbEntity
  8
SENZA_NOME
390
0
  6
Continuous
100
AcDbLine
 10
157.84903060350808
 20
218.64684341040214
 30
0.0
 11
157.84903060350808
 21
213.14684341040214
 31
0.0
  0
LINE
  5
142
100
AcDbEntity
  8
SENZA_NOME
390
0
  6
Continuous
100
AcDbLine
 10
158.8701106035081
 20
218.62580341040214
 30
0.0
 11
157.84903060350808
 21
218.64684341040214
 31
0.0
  0
LINE
  5
143
100
AcDbEntity
  8
SENZA_NOME
390
0
  6
Continuous
100
AcDbLine
 10
162.9175006035081
 20
218.50799341040215
 30
0.0
 11
158.8701106035081
 21
218.62580341040214
 31
0.0
  0
LINE
  5
144
100
AcDbEntity
  8
SENZA_NOME
390
0
  6
Continuous
100
AcDbLine
 10
166.95998060350809
 20
218.35090341040214
 30
0.0
 11
162.9175006035081
 21
218.50799341040215
 31
0.0
  0
LINE
  5
145
100
AcDbEntity
  8
SENZA_NOME
390
0
  6
Continuous
100
AcDbLine
 10
171.00339060350811
 20
218.15941341040215
 30
0.0
 11
166.95998060350809
 21
218.35090341040214
 31
0.0
  0
LINE
  5
146
100
AcDbEntity
  8
SENZA_NOME
390
0
  6
Continuous
100
AcDbLine
 10
175.04389060350809
 20
217.93358341040215
 30
0.0
 11
171.00339060350811
 21
218.15941341040215
 31
0.0
  0
LINE
  5
147
100
AcDbEntity
  8
SENZA_NOME
390
0
  6
Continuous
100
AcDbLine
 10
179.0839506035081
 20
217.67095341040215
 30
0.0
 11
175.04389060350809
 21
217.93358341040215
 31
0.0
  0
LINE
  5
148
100
AcDbEntity
  8
SENZA_NOME
390
0
  6
Continuous
100
AcDbLine
 10
183.1220206035081
 20
217.37147341040213
 30
0.0
 11
179.0839506035081
 21
217.67095341040215
 31
0.0
  0
LINE
  5
149
100
AcDbEntity
  8
SENZA_NOME
390
0
  6
Continuous
100
AcDbLine
 10
187.16056060350812
 20
217.03758341040214
 30
0.0
 11
183.1220206035081
 21
217.37147341040213
 31
0.0
  0
LINE
  5
14A
100
AcDbEntity
  8
SENZA_NOME
390
0
  6
Continuous
100
AcDbLine
 10
191.19665060350809
 20
216.66933341040215
 30
0.0
 11
187.16056060350812
 21
217.03758341040214
 31
0.0
  0
LINE
  5
14B
100
AcDbEntity
  8
SENZA_NOME
390
0
  6
Continuous
100
AcDbLine
 10
195.23272060350811
 20
216.26670341040216
 30
0.0
 11
191.19665060350809
 21
216.66933341040215
 31
0.0
  0
LINE
  5
14C
100
AcDbEntity
  8
SENZA_NOME
390
0
  6
Continuous
100
AcDbLine
 10
199.2642906035081
 20
215.82966341040213
 30
0.0
 11
195.23272060350811
 21
216.26670341040216
 31
0.0
  0
LINE
  5
14D
100
AcDbEntity
  8
SENZA_NOME
390
0
  6
Continuous
100
AcDbLine
 10
203.2934006035081
 20
215.36071341040216
 30
0.0
 11
199.2642906035081
 21
215.82966341040213
 31
0.0
  0
LINE
  5
14E
100
AcDbEntity
  8
SENZA_NOME
390
0
  6
Continuous
100
AcDbLine
 10
207.3170306035081
 20
214.85744341040214
 30
0.0
 11
203.2934006035081
 21
215.36071341040216
 31
0.0
  0
LINE
  5
14F
100
AcDbEntity
  8
SENZA_NOME
390
0
  6
Continuous
100
AcDbLine
 10
211.33373060350812
 20
214.31976341040215
 30
0.0
 11
207.3170306035081
 21
214.85744341040214
 31
0.0
  0
LINE
  5
150
100
AcDbEntity
  8
SENZA_NOME
390
0
  6
Continuous
100
AcDbLine
 10
215.34493060350809
 20
213.75023341040213
 30
0.0
 11
211.33373060350812
 21
214.31976341040215
 31
0.0
  0
LINE
  5
151
100
AcDbEntity
  8
SENZA_NOME
390
0
  6
Continuous
100
AcDbLine
 10
219.34330060350811
 20
213.14397341040214
 30
0.0
 11
215.34493060350809
 21
213.75023341040213
 31
0.0
  0
LINE
  5
152
100
AcDbEntity
  8
SENZA_NOME
390
0
  6
Continuous
100
AcDbLine
 10
223.33375060350809
 20
212.50344341040216
 30
0.0
 11
219.34330060350811
 21
213.14397341040214
 31
0.0
  0
LINE
  5
153
100
AcDbEntity
  8
SENZA_NOME
390
0
  6
Continuous
100
AcDbLine
 10
224.9957606035081
 20
212.21926341040214
 30
0.0
 11
223.33375060350809
 21
212.50344341040216
 31
0.0
  0
LINE
  5
154
100
AcDbEntity
  8
SENZA_NOME
390
0
  6
Continuous
100
AcDbLine
 10
224.9957606035081
 20
206.39189341040213
 30
0.0
 11
224.9957606035081
 21
212.21926341040214
 31
0.0
  0
LINE
  5
155
100
AcDbEntity
  8
SENZA_NOME
390
0
  6
Continuous
100
AcDbLine
 10
239.9957606035081
 20
206.39189341040213
 30
0.0
 11
224.9957606035081
 21
206.39189341040213
 31
0.0
  0
LINE
  5
156
100
AcDbEntity
  8
SENZA_NOME
390
0
  6
Continuous
100
AcDbLine
 10
239.9957606035081
 20
209.39189341040213
 30
0.0
 11
239.9957606035081
 21
206.39189341040213
 31
0.0
  0
LINE
  5
157
100
AcDbEntity
  8
SENZA_NOME
390
0
  6
Continuous
100
AcDbLine
 10
243.22019060350812
 20
208.72046341040215
 30
0.0
 11
239.9957606035081
 21
209.39189341040213
 31
0.0
  0
LINE
  5
158
100
AcDbEntity
  8
SENZA_NOME
390
0
  6
Continuous
100
AcDbLine
 10
247.25177060350811
 20
207.85954341040215
 30
0.0
 11
243.22019060350812
 21
208.72046341040215
 31
0.0
  0
LINE
  5
159
100
AcDbEntity
  8
SENZA_NOME
390
0
  6
Continuous
100
AcDbLine
 10
251.31548060350809
 20
206.98522341040214
 30
0.0
 11
247.25177060350811
 21
207.85954341040215
 31
0.0
  0
LINE
  5
15A
100
AcDbEntity
  8
SENZA_NOME
390
0
  6
Continuous
100
AcDbLine
 10
255.36255060350811
 20
206.12205341040215
 30
0.0
 11
251.31548060350809
 21
206.98522341040214
 31
0.0
  0
LINE
  5
15B
100
AcDbEntity
  8
SENZA_NOME
390
0
  6
Continuous
100
AcDbLine
 10
259.36999060350809
 20
205.29241341040213
 30
0.0
 11
255.36255060350811
 21
206.12205341040215
 31
0.0
  0
LINE
  5
15C
100
AcDbEntity
  8
SENZA_NOME
390
0
  6
Continuous
100
AcDbLine
 10
263.35432060350809
 20
204.50148341040216
 30
0.0
 11
259.36999060350809
 21
205.29241341040213
 31
0.0
  0
LINE
  5
15D
100
AcDbEntity
  8
SENZA_NOME
390
0
  6
Continuous
100
AcDbLine
 10
267.30328060350809
 20
203.76414341040214
 30
0.0
 11
263.35432060350809
 21
204.50148341040216
 31
0.0
  0
LINE
  5
15E
100
AcDbEntity
  8
SENZA_NOME
390
0
  6
Continuous
100
AcDbLine
 10
271.23192060350812
 20
203.08585341040214
 30
0.0
 11
267.30328060350809
 21
203.76414341040214
 31
0.0
  0
LINE
  5
15F
100
AcDbEntity
  8
SENZA_NOME
390
0
  6
Continuous
100
AcDbLine
 10
275.21524060350811
 20
202.45456341040216
 30
0.0
 11
271.23192060350812
 21
203.08585341040214
 31
0.0
  0
LINE
  5
160
100
AcDbEntity
  8
SENZA_NOME
390
0
  6
Continuous
100
AcDbLine
 10
279.2053606035081
 20
201.88030341040215
 30
0.0
 11
275.21524060350811
 21
202.45456341040216
 31
0.0
  0
LINE
  5
161
100
AcDbEntity
  8
SENZA_NOME
390
0
  6
Continuous
100
AcDbLine
 10
280.68338060350811
 20
201.68708341040215
 30
0.0
 11
279.2053606035081
 21
201.88030341040215
 31
0.0
  0
CIRCLE
  5
162
100
AcDbEntity
  8
SENZA_NOME
390
0
100
AcDbCircle
 10
218.9957606035081
 20
203.87067341040213
 30
0.0
 40
3.0
  0
CIRCLE
  5
163
100
AcDbEntity
  8
SENZA_NOME
390
0
100
AcDbCircle
 10
78.995760603508103
 20
204.89015341040215
 30
0.0
 40
3.0
  0
LWPOLYLINE
  5
164
100
AcDbEntity
  8
SENZA_NOME
390
0
100
AcDbPolyline
 90
      146
 70
               0
 10
141.84903060350808
 20
207.67253341040214
 10
141.84258060350808
 20
207.92642341040215
 10
141.82325060350809
 20
208.17966341040216
 10
141.79108060350811
 20
208.43158341040214
 10
141.74616060350809
 20
208.68155341040216
 10
141.6886106035081
 20
208.92892341040215
 10
141.61857060350809
 20
209.17304341040216
 10
141.5362206035081
 20
209.41329341040213
 10
141.44178060350811
 20
209.64906341040214
 10
141.33549060350811
 20
209.87972341040214
 10
141.2176306035081
 20
210.10468341040215
 10
141.08849060350809
 20
210.32338341040213
 10
140.94842060350808
 20
210.53523341040216
 10
140.7977706035081
 20
210.73969341040214
 10
140.63693060350809
 20
210.93625341040214
 10
140.46631060350811
 20
211.12438341040215
 10
140.28637060350809
 20
211.30360341040213
 10
140.0975606035081
 20
211.47346341040213
 10
139.90036060350809
 20
211.63351341040214
 10
139.69529060350808
 20
211.78334341040215
 10
139.48288060350811
 20
211.92257341040215
 10
139.2636706035081
 20
212.05083341040213
 10
139.03824060350809
 20
212.16779341040214
 10
138.80715060350809
 20
212.27316341040213
 10
138.57102060350809
 20
212.36665341040214
 10
138.33043060350809
 20
212.44803341040216
 10
138.08603060350811
 20
212.51710341040214
 10
137.8384406035081
 20
212.57366341040213
 10
137.58829060350809
 20
212.61758341040215
 10
137.33624060350809
 20
212.64874341040215
 10
137.08293060350809
 20
212.66706341040214
 10
136.8290106035081
 20
212.67249341040215
 10
136.74947060350809
 20
212.67154341040214
 10
134.65596060350811
 20
212.62985341040215
 10
130.63199060350809
 20
212.52050341040214
 10
126.6102006035081
 20
212.38207341040214
 10
122.58847060350809
 20
212.21207341040216
 10
118.56955060350811
 20
212.01294341040216
 10
114.5583406035081
 20
211.78227341040215
 10
110.5570806035081
 20
211.52264341040214
 10
106.57296060350809
 20
211.22958341040214
 10
102.6065206035081
 20
210.90066341040216
 10
101.0323606035081
 20
210.75414341040215
 10
100.78016060350809
 20
210.72418341040213
 10
100.5298106035081
 20
210.68146341040216
 10
100.28195060350809
 20
210.62608341040215
 10
100.0372206035081
 20
210.55819341040214
 10
99.796250603508099
 20
210.47796341040214
 10
99.559670603508096
 20
210.38560341040215
 10
99.328080603508099
 20
210.28134341040214
 10
99.102090603508088
 20
210.16545341040214
 10
98.88227060350809
 20
210.03824341040215
 10
98.669190603508099
 20
209.90004341040213
 10
98.463410603508095
 20
209.75119341040215
 10
98.2654506035081
 20
209.59208341040215
 10
98.075830603508095
 20
209.42313341040216
 10
97.895030603508104
 20
209.24477341040216
 10
97.723520603508092
 20
209.05745341040213
 10
97.561740603508099
 20
208.86167341040215
 10
97.410120603508091
 20
208.65793341040214
 10
97.269030603508099
 20
208.44675341040215
 10
97.138850603508104
 20
208.22868341040214
 10
97.019910603508094
 20
208.00428341040214
 10
96.912520603508085
 20
207.77413341040216
 10
96.816950603508104
 20
207.53882341040213
 10
96.733460603508092
 20
207.29897341040214
 10
96.662250603508099
 20
207.05518341040215
 10
96.603510603508099
 20
206.80809341040214
 10
96.557400603508086
 20
206.55834341040213
 10
96.524030603508095
 20
206.30657341040214
 10
96.503480603508095
 20
206.05343341040214
 10
96.495820603508093
 20
205.79957341040216
 10
96.495760603508103
 20
205.77566341040216
 10
96.495760603508103
 20
205.02266341040215
 10
96.502210603508104
 20
204.76877341040213
 10
96.5215406035081
 20
204.51554341040213
 10
96.553710603508094
 20
204.26361341040214
 10
96.598630603508099
 20
204.01364341040215
 10
96.656180603508091
 20
203.76628341040214
 10
96.7262306035081
 20
203.52215341040215
 10
96.808570603508088
 20
203.28190341040215
 10
96.903010603508093
 20
203.04614341040215
 10
97.009300603508095
 20
202.81548341040215
 10
97.127160603508088
 20
202.59051341040214
 10
97.256300603508095
 20
202.37182341040216
 10
97.396370603508103
 20
202.15997341040213
 10
97.547030603508091
 20
201.95550341040214
 10
97.707860603508095
 20
201.75895341040214
 10
97.878480603508095
 20
201.57081341040214
 10
98.058420603508097
 20
201.39159341040215
 10
98.247230603508086
 20
201.22173341040215
 10
98.444430603508096
 20
201.06168341040214
 10
98.649500603508102
 20
200.91185341040216
 10
98.861910603508093
 20
200.77262341040213
 10
99.081120603508097
 20
200.64437341040215
 10
99.3065506035081
 20
200.52740341040214
 10
99.537640603508095
 20
200.42204341040215
 10
99.773780603508101
 20
200.32854341040215
 10
100.01436060350809
 20
200.24716341040215
 10
100.25876060350809
 20
200.17810341040214
 10
100.5063506035081
 20
200.12153341040215
 10
100.7565006035081
 20
200.07762341040214
 10
101.0085506035081
 20
200.04646341040214
 10
101.1653406035081
 20
200.03359341040215
 10
104.01488060350809
 20
199.84487341040216
 10
108.1157506035081
 20
199.58795341040215
 10
112.21882060350811
 20
199.34559341040216
 10
116.31966060350808
 20
199.11559341040214
 10
120.41612060350809
 20
198.90295341040215
 10
124.51253060350808
 20
198.70730341040215
 10
128.60162060350811
 20
198.52643341040215
 10
132.68617060350809
 20
198.36529341040216
 10
136.67559060350808
 20
198.22682341040215
 10
136.92955060350809
 20
198.22446341040214
 10
137.18330060350809
 20
198.23500341040216
 10
137.43619060350809
 20
198.25841341040214
 10
137.68757060350811
 20
198.29463341040216
 10
137.93678060350808
 20
198.34357341040214
 10
138.18319060350811
 20
198.40510341040215
 10
138.42615060350809
 20
198.47906341040215
 10
138.66505060350809
 20
198.56526341040214
 10
138.89926060350808
 20
198.66349341040214
 10
139.1281806035081
 20
198.77348341040215
 10
139.3512206035081
 20
198.89495341040214
 10
139.56780060350809
 20
199.02759341040215
 10
139.7773706035081
 20
199.17106341040216
 10
139.97939060350811
 20
199.32498341040215
 10
140.1733206035081
 20
199.48896341040214
 10
140.35868060350811
 20
199.66258341040214
 10
140.53499060350811
 20
199.84539341040215
 10
140.7017806035081
 20
200.03692341040215
 10
140.85864060350809
 20
200.23666341040214
 10
141.0051506035081
 20
200.44412341040214
 10
141.14093060350808
 20
200.65874341040214
 10
141.26565060350811
 20
200.87999341040214
 10
141.37896060350809
 20
201.10728341040215
 10
141.48059060350809
 20
201.34003341040216
 10
141.57027060350811
 20
201.57764341040215
 10
141.64777060350809
 20
201.81950341040215
 10
141.7128906035081
 20
202.06498341040214
 10
141.7654606035081
 20
202.31346341040214
 10
141.80534060350809
 20
202.56428341040214
 10
141.8324406035081
 20
202.81680341040214
 10
141.8466806035081
 20
203.07037341040214
 10
141.84903060350808
 20
203.22381341040216
 10
141.84903060350808
 20
207.67253341040214
  0
LWPOLYLINE
  5
165
100
AcDbEntity
  8
SENZA_NOME
390
0
100
AcDbPolyline
 90
      145
 70
               0
 10
202.85369060350811
 20
199.38240341040213
 10
203.1066006035081
 20
199.40566341040216
 10
203.35800060350812
 20
199.44172341040215
 10
203.6072406035081
 20
199.49051341040214
 10
203.85369060350811
 20
199.55189341040216
 10
204.09670060350811
 20
199.62570341040214
 10
204.3356406035081
 20
199.71176341040214
 10
204.56991060350811
 20
199.80984341040215
 10
204.79890060350812
 20
199.91969341040215
 10
205.02202060350811
 20
200.04102341040215
 10
205.2386806035081
 20
200.17353341040214
 10
205.44834060350811
 20
200.31687341040214
 10
205.65045060350809
 20
200.47067341040216
 10
205.84448060350809
 20
200.63453341040216
 10
206.0299506035081
 20
200.80804341040215
 10
206.20637060350811
 20
200.99074341040216
 10
206.37328060350811
 20
201.18216341040215
 10
206.53026060350811
 20
201.38181341040215
 10
206.6768906035081
 20
201.58917341040214
 10
206.8128106035081
 20
201.80372341040214
 10
206.93766060350811
 20
202.02488341040214
 10
207.05112060350811
 20
202.25210341040216
 10
207.1528906035081
 20
202.48479341040215
 10
207.2427206035081
 20
202.72235341040215
 10
207.32036060350811
 20
202.96416341040214
 10
207.3856306035081
 20
203.20961341040214
 10
207.4383506035081
 20
203.45805341040216
 10
207.4783906035081
 20
203.70884341040215
 10
207.50564060350811
 20
203.96135341040215
 10
207.52004060350811
 20
204.21491341040215
 10
207.5215406035081
 20
204.46888341040216
 10
207.51014060350809
 20
204.72260341040214
 10
207.48587060350809
 20
204.97541341040215
 10
207.44880060350809
 20
205.22666341040215
 10
207.39902060350809
 20
205.47571341040214
 10
207.3366506035081
 20
205.72191341040215
 10
207.2618706035081
 20
205.96462341040214
 10
207.1748506035081
 20
206.20322341040213
 10
207.07583060350811
 20
206.43709341040216
 10
206.96507060350811
 20
206.66564341040214
 10
206.84284060350811
 20
206.88827341040215
 10
206.70947060350809
 20
207.10440341040214
 10
206.56529060350809
 20
207.31348341040214
 10
206.4106806035081
 20
207.51497341040215
 10
206.24604060350811
 20
207.70835341040214
 10
206.07180060350811
 20
207.89312341040215
 10
205.8883906035081
 20
208.06881341040216
 10
205.69630060350809
 20
208.23495341040214
 10
205.4960306035081
 20
208.39113341040215
 10
205.28808060350809
 20
208.53693341040216
 10
205.07299060350809
 20
208.67199341040214
 10
204.8513306035081
 20
208.79595341040215
 10
204.62365060350811
 20
208.90850341040215
 10
204.39056060350811
 20
209.00934341040215
 10
204.1526406035081
 20
209.09821341040214
 10
203.9105206035081
 20
209.17489341040215
 10
203.6648206035081
 20
209.23918341040215
 10
203.41617060350811
 20
209.29090341040214
 10
203.16521060350811
 20
209.32994341040214
 10
203.14303060350809
 20
209.33276341040215
 10
202.57422060350811
 20
209.40391341040214
 10
198.59412060350812
 20
209.86716341040216
 10
194.61160060350809
 20
210.29888341040214
 10
190.62626060350811
 20
210.69645341040214
 10
186.64078060350809
 20
211.06009341040215
 10
182.65295060350812
 20
211.38978341040215
 10
178.66745060350812
 20
211.68536341040215
 10
174.68186060350811
 20
211.94445341040213
 10
170.69405060350809
 20
212.16734341040214
 10
169.0855606035081
 20
212.24352341040213
 10
168.83165060350811
 20
212.24908341040214
 10
168.5777806035081
 20
212.24175341040214
 10
168.32461060350809
 20
212.22154341040215
 10
168.07280060350809
 20
212.18849341040215
 10
167.82299060350809
 20
212.14270341040213
 10
167.57583060350811
 20
212.08429341040215
 10
167.33195060350809
 20
212.01340341040213
 10
167.09198060350809
 20
211.93022341040214
 10
166.85655060350808
 20
211.83496341040214
 10
166.62626060350809
 20
211.72787341040214
 10
166.40170060350809
 20
211.60923341040214
 10
166.18346060350811
 20
211.47933341040215
 10
165.9721006035081
 20
211.33852341040216
 10
165.76816060350811
 20
211.18716341040215
 10
165.57216060350811
 20
211.02564341040215
 10
165.3846306035081
 20
210.85437341040213
 10
165.20603060350808
 20
210.67381341040215
 10
165.03683060350809
 20
210.48440341040214
 10
164.8774606035081
 20
210.28665341040215
 10
164.72835060350809
 20
210.08107341040215
 10
164.5898606035081
 20
209.86817341040214
 10
164.4623606035081
 20
209.64852341040213
 10
164.34619060350809
 20
209.42268341040216
 10
164.2416306035081
 20
209.19123341040213
 10
164.1489506035081
 20
208.95477341040214
 10
164.06841060350808
 20
208.71391341040214
 10
164.00019060350809
 20
208.46927341040214
 10
163.94449060350809
 20
208.22148341040213
 10
163.90144060350809
 20
207.97118341040215
 10
163.87116060350809
 20
207.71902341040214
 10
163.85372060350809
 20
207.46564341040215
 10
163.84903060350808
 20
207.24911341040215
 10
163.84903060350808
 20
202.92458341040214
 10
163.85548060350808
 20
202.67069341040215
 10
163.87481060350811
 20
202.41745341040215
 10
163.90698060350809
 20
202.16553341040213
 10
163.95190060350811
 20
201.91556341040214
 10
164.0094606035081
 20
201.66819341040215
 10
164.07950060350811
 20
201.42407341040214
 10
164.1618406035081
 20
201.18381341040214
 10
164.25628060350809
 20
200.94805341040214
 10
164.36257060350809
 20
200.71739341040214
 10
164.4804406035081
 20
200.49242341040215
 10
164.6095706035081
 20
200.27373341040214
 10
164.74965060350809
 20
200.06188341040215
 10
164.9003006035081
 20
199.85741341040216
 10
165.0611306035081
 20
199.66086341040216
 10
165.23175060350809
 20
199.47273341040216
 10
165.41169060350811
 20
199.29350341040214
 10
165.6005106035081
 20
199.12365341040214
 10
165.7977006035081
 20
198.96360341040216
 10
166.00277060350808
 20
198.81376341040215
 10
166.21518060350809
 20
198.67454341040215
 10
166.43439060350809
 20
198.54628341040214
 10
166.65982060350811
 20
198.42932341040213
 10
166.8909106035081
 20
198.32395341040214
 10
167.12705060350811
 20
198.23046341040214
 10
167.3676306035081
 20
198.14907341040214
 10
167.61203060350809
 20
198.08001341040216
 10
167.85962060350809
 20
198.02345341040214
 10
168.10977060350808
 20
197.97953341040215
 10
168.36182060350811
 20
197.94837341040216
 10
168.61513060350811
 20
197.93005341040214
 10
168.8690506035081
 20
197.92462341040215
 10
168.91529060350808
 20
197.92502341040213
 10
169.1835206035081
 20
197.92857341040215
 10
173.21981060350811
 20
198.01124341040213
 10
177.26094060350809
 20
198.12073341040215
 10
181.30453060350811
 20
198.25697341040214
 10
185.35290060350809
 20
198.42017341040216
 10
189.4089706035081
 20
198.60532341040215
 10
193.4721206035081
 20
198.81737341040215
 10
197.54471060350809
 20
199.04932341040214
 10
201.6247806035081
 20
199.30082341040213
 10
202.85369060350811
 20
199.38240341040213
  0
LINE
  5
166
100
AcDbEntity
  8
SENZA_NOME
390
0
  6
Continuous
100
AcDbLine
 10
54.995760603508096
 20
171.49542722381344
 30
0.0
 11
54.995760603508096
 21
169.31572722381344
 31
0.0
  0
LINE
  5
167
100
AcDbEntity
  8
0
370
               0
390
0
  6
Continuous
100
AcDbLine
 10
63.995760603508096
 20
171.49542722381344
 30
0.0
 11
54.995760603508096
 21
171.49542722381344
 31
0.0
  0
LINE
  5
168
100
AcDbEntity
  8
SENZA_NOME
390
0
  6
Continuous
100
AcDbLine
 10
63.995760603508096
 20
173.49542722381344
 30
0.0
 11
63.995760603508096
 21
171.49542722381344
 31
0.0
  0
LINE
  5
169
100
AcDbEntity
  8
SENZA_NOME
390
0
  6
Continuous
100
AcDbLine
 10
53.995760603508096
 20
173.49542722381344
 30
0.0
 11
63.995760603508096
 21
173.49542722381344
 31
0.0
  0
LINE
  5
16A
100
AcDbEntity
  8
SENZA_NOME
390
0
  6
Continuous
100
AcDbLine
 10
53.995760603508096
 20
177.55160722381342
 30
0.0
 11
53.995760603508096
 21
173.49542722381344
 31
0.0
  0
LINE
  5
16B
100
AcDbEntity
  8
SENZA_NOME
390
0
  6
Continuous
100
AcDbLine
 10
279.21120060350808
 20
171.75855722381343
 30
0.0
 11
280.68338060350811
 21
172.04010722381344
 31
0.0
  0
LINE
  5
16C
100
AcDbEntity
  8
SENZA_NOME
390
0
  6
Continuous
100
AcDbLine
 10
275.22924060350806
 20
171.03723722381343
 30
0.0
 11
279.21120060350808
 21
171.75855722381343
 31
0.0
  0
LINE
  5
16D
100
AcDbEntity
  8
SENZA_NOME
390
0
  6
Continuous
100
AcDbLine
 10
271.25166060350807
 20
170.36041722381344
 30
0.0
 11
275.22924060350806
 21
171.03723722381343
 31
0.0
  0
LINE
  5
16E
100
AcDbEntity
  8
SENZA_NOME
390
0
  6
Continuous
100
AcDbLine
 10
267.32960060350808
 20
169.74268722381342
 30
0.0
 11
271.25166060350807
 21
170.36041722381344
 31
0.0
  0
LINE
  5
16F
100
AcDbEntity
  8
SENZA_NOME
390
0
  6
Continuous
100
AcDbLine
 10
263.3845506035081
 20
169.17140722381342
 30
0.0
 11
267.32960060350808
 21
169.74268722381342
 31
0.0
  0
LINE
  5
170
100
AcDbEntity
  8
SENZA_NOME
390
0
  6
Continuous
100
AcDbLine
 10
259.41459060350809
 20
168.64174722381344
 30
0.0
 11
263.3845506035081
 21
169.17140722381342
 31
0.0
  0
LINE
  5
171
100
AcDbEntity
  8
SENZA_NOME
390
0
  6
Continuous
100
AcDbLine
 10
255.42974060350809
 20
168.15866722381344
 30
0.0
 11
259.41459060350809
 21
168.64174722381344
 31
0.0
  0
LINE
  5
172
100
AcDbEntity
  8
SENZA_NOME
390
0
  6
Continuous
100
AcDbLine
 10
251.41727060350811
 20
167.71692722381343
 30
0.0
 11
255.42974060350809
 21
168.15866722381344
 31
0.0
  0
LINE
  5
173
100
AcDbEntity
  8
SENZA_NOME
390
0
  6
Continuous
100
AcDbLine
 10
247.3749606035081
 20
167.30434722381344
 30
0.0
 11
251.41727060350811
 21
167.71692722381343
 31
0.0
  0
LINE
  5
174
100
AcDbEntity
  8
SENZA_NOME
390
0
  6
Continuous
100
AcDbLine
 10
243.30076060350811
 20
166.91854722381342
 30
0.0
 11
247.3749606035081
 21
167.30434722381344
 31
0.0
  0
LINE
  5
175
100
AcDbEntity
  8
SENZA_NOME
390
0
  6
Continuous
100
AcDbLine
 10
239.19697060350811
 20
166.54972722381342
 30
0.0
 11
243.30076060350811
 21
166.91854722381342
 31
0.0
  0
LINE
  5
176
100
AcDbEntity
  8
SENZA_NOME
390
0
  6
Continuous
100
AcDbLine
 10
235.07103060350809
 20
166.19543722381343
 30
0.0
 11
239.19697060350811
 21
166.54972722381342
 31
0.0
  0
LINE
  5
177
100
AcDbEntity
  8
SENZA_NOME
390
0
  6
Continuous
100
AcDbLine
 10
230.92918060350812
 20
165.84597722381343
 30
0.0
 11
235.07103060350809
 21
166.19543722381343
 31
0.0
  0
LINE
  5
178
100
AcDbEntity
  8
SENZA_NOME
390
0
  6
Continuous
100
AcDbLine
 10
226.78214060350811
 20
165.50633722381343
 30
0.0
 11
230.92918060350812
 21
165.84597722381343
 31
0.0
  0
LINE
  5
179
100
AcDbEntity
  8
SENZA_NOME
390
0
  6
Continuous
100
AcDbLine
 10
222.63698060350811
 20
165.17157722381342
 30
0.0
 11
226.78214060350811
 21
165.50633722381343
 31
0.0
  0
LINE
  5
17A
100
AcDbEntity
  8
SENZA_NOME
390
0
  6
Continuous
100
AcDbLine
 10
218.49804060350812
 20
164.84429722381344
 30
0.0
 11
222.63698060350811
 21
165.17157722381342
 31
0.0
  0
LINE
  5
17B
100
AcDbEntity
  8
SENZA_NOME
390
0
  6
Continuous
100
AcDbLine
 10
214.36489060350812
 20
164.52938722381342
 30
0.0
 11
218.49804060350812
 21
164.84429722381344
 31
0.0
  0
LINE
  5
17C
100
AcDbEntity
  8
SENZA_NOME
390
0
  6
Continuous
100
AcDbLine
 10
210.2395806035081
 20
164.22681722381344
 30
0.0
 11
214.36489060350812
 21
164.52938722381342
 31
0.0
  0
LINE
  5
17D
100
AcDbEntity
  8
SENZA_NOME
390
0
  6
Continuous
100
AcDbLine
 10
206.1196706035081
 20
163.93903722381344
 30
0.0
 11
210.2395806035081
 21
164.22681722381344
 31
0.0
  0
LINE
  5
17E
100
AcDbEntity
  8
SENZA_NOME
390
0
  6
Continuous
100
AcDbLine
 10
202.00808060350809
 20
163.66608722381343
 30
0.0
 11
206.1196706035081
 21
163.93903722381344
 31
0.0
  0
LINE
  5
17F
100
AcDbEntity
  8
SENZA_NOME
390
0
  6
Continuous
100
AcDbLine
 10
197.89987060350811
 20
163.41285722381343
 30
0.0
 11
202.00808060350809
 21
163.66608722381343
 31
0.0
  0
LINE
  5
180
100
AcDbEntity
  8
SENZA_NOME
390
0
  6
Continuous
100
AcDbLine
 10
193.79907060350811
 20
163.17929722381342
 30
0.0
 11
197.89987060350811
 21
163.41285722381343
 31
0.0
  0
LINE
  5
181
100
AcDbEntity
  8
SENZA_NOME
390
0
  6
Continuous
100
AcDbLine
 10
189.70212060350809
 20
162.96547722381342
 30
0.0
 11
193.79907060350811
 21
163.17929722381342
 31
0.0
  0
LINE
  5
182
100
AcDbEntity
  8
SENZA_NOME
390
0
  6
Continuous
100
AcDbLine
 10
185.6105306035081
 20
162.77871722381343
 30
0.0
 11
189.70212060350809
 21
162.96547722381342
 31
0.0
  0
LINE
  5
183
100
AcDbEntity
  8
SENZA_NOME
390
0
  6
Continuous
100
AcDbLine
 10
181.5263906035081
 20
162.61406722381344
 30
0.0
 11
185.6105306035081
 21
162.77871722381343
 31
0.0
  0
LINE
  5
184
100
AcDbEntity
  8
SENZA_NOME
390
0
  6
Continuous
100
AcDbLine
 10
177.44321060350811
 20
162.47648722381342
 30
0.0
 11
181.5263906035081
 21
162.61406722381344
 31
0.0
  0
LINE
  5
185
100
AcDbEntity
  8
SENZA_NOME
390
0
  6
Continuous
100
AcDbLine
 10
173.36249060350809
 20
162.36593722381343
 30
0.0
 11
177.44321060350811
 21
162.47648722381342
 31
0.0
  0
LINE
  5
186
100
AcDbEntity
  8
SENZA_NOME
390
0
  6
Continuous
100
AcDbLine
 10
169.2847106035081
 20
162.28241722381344
 30
0.0
 11
173.36249060350809
 21
162.36593722381343
 31
0.0
  0
LINE
  5
187
100
AcDbEntity
  8
SENZA_NOME
390
0
  6
Continuous
100
AcDbLine
 10
165.20695060350809
 20
162.22836722381342
 30
0.0
 11
169.2847106035081
 21
162.28241722381344
 31
0.0
  0
LINE
  5
188
100
AcDbEntity
  8
SENZA_NOME
390
0
  6
Continuous
100
AcDbLine
 10
161.12627060350809
 20
162.20134722381343
 30
0.0
 11
165.20695060350809
 21
162.22836722381342
 31
0.0
  0
LINE
  5
189
100
AcDbEntity
  8
SENZA_NOME
390
0
  6
Continuous
100
AcDbLine
 10
157.84903060350808
 20
162.20134722381343
 30
0.0
 11
161.12627060350809
 21
162.20134722381343
 31
0.0
  0
LINE
  5
18A
100
AcDbEntity
  8
SENZA_NOME
390
0
  6
Continuous
100
AcDbLine
 10
157.84903060350808
 20
167.79892722381342
 30
0.0
 11
157.84903060350808
 21
162.20134722381343
 31
0.0
  0
LINE
  5
18B
100
AcDbEntity
  8
SENZA_NOME
390
0
  6
Continuous
100
AcDbLine
 10
147.84903060350808
 20
167.79892722381342
 30
0.0
 11
157.84903060350808
 21
167.79892722381342
 31
0.0
  0
LINE
  5
18C
100
AcDbEntity
  8
SENZA_NOME
390
0
  6
Continuous
100
AcDbLine
 10
147.84903060350808
 20
162.29892722381342
 30
0.0
 11
147.84903060350808
 21
167.79892722381342
 31
0.0
  0
LINE
  5
18D
100
AcDbEntity
  8
SENZA_NOME
390
0
  6
Continuous
100
AcDbLine
 10
144.77160060350809
 20
162.35615722381343
 30
0.0
 11
147.84903060350808
 21
162.29892722381342
 31
0.0
  0
LINE
  5
18E
100
AcDbEntity
  8
SENZA_NOME
390
0
  6
Continuous
100
AcDbLine
 10
140.67472060350809
 20
162.45691722381343
 30
0.0
 11
144.77160060350809
 21
162.35615722381343
 31
0.0
  0
LINE
  5
18F
100
AcDbEntity
  8
SENZA_NOME
390
0
  6
Continuous
100
AcDbLine
 10
136.57198060350811
 20
162.57982722381342
 30
0.0
 11
140.67472060350809
 21
162.45691722381343
 31
0.0
  0
LINE
  5
190
100
AcDbEntity
  8
SENZA_NOME
390
0
  6
Continuous
100
AcDbLine
 10
132.46384060350809
 20
162.72242722381344
 30
0.0
 11
136.57198060350811
 21
162.57982722381342
 31
0.0
  0
LINE
  5
191
100
AcDbEntity
  8
SENZA_NOME
390
0
  6
Continuous
100
AcDbLine
 10
128.3507906035081
 20
162.88468722381342
 30
0.0
 11
132.46384060350809
 21
162.72242722381344
 31
0.0
  0
LINE
  5
192
100
AcDbEntity
  8
SENZA_NOME
390
0
  6
Continuous
100
AcDbLine
 10
124.23684060350809
 20
163.06664722381342
 30
0.0
 11
128.3507906035081
 21
162.88468722381342
 31
0.0
  0
LINE
  5
193
100
AcDbEntity
  8
SENZA_NOME
390
0
  6
Continuous
100
AcDbLine
 10
120.11748060350808
 20
163.26339722381343
 30
0.0
 11
124.23684060350809
 21
163.06664722381342
 31
0.0
  0
LINE
  5
194
100
AcDbEntity
  8
SENZA_NOME
390
0
  6
Continuous
100
AcDbLine
 10
115.99614060350811
 20
163.47733722381344
 30
0.0
 11
120.11748060350808
 21
163.26339722381343
 31
0.0
  0
LINE
  5
195
100
AcDbEntity
  8
SENZA_NOME
390
0
  6
Continuous
100
AcDbLine
 10
111.87393060350809
 20
163.70852722381343
 30
0.0
 11
115.99614060350811
 21
163.47733722381344
 31
0.0
  0
LINE
  5
196
100
AcDbEntity
  8
SENZA_NOME
390
0
  6
Continuous
100
AcDbLine
 10
107.75127060350809
 20
163.95205722381343
 30
0.0
 11
111.87393060350809
 21
163.70852722381343
 31
0.0
  0
LINE
  5
197
100
AcDbEntity
  8
SENZA_NOME
390
0
  6
Continuous
100
AcDbLine
 10
103.62905060350809
 20
164.21030722381343
 30
0.0
 11
107.75127060350809
 21
163.95205722381343
 31
0.0
  0
LINE
  5
198
100
AcDbEntity
  8
SENZA_NOME
390
0
  6
Continuous
100
AcDbLine
 10
99.506920603508092
 20
164.48330722381343
 30
0.0
 11
103.62905060350809
 21
164.21030722381343
 31
0.0
  0
LINE
  5
199
100
AcDbEntity
  8
SENZA_NOME
390
0
  6
Continuous
100
AcDbLine
 10
95.392720603508096
 20
164.77103722381344
 30
0.0
 11
99.506920603508092
 21
164.48330722381343
 31
0.0
  0
LINE
  5
19A
100
AcDbEntity
  8
SENZA_NOME
390
0
  6
Continuous
100
AcDbLine
 10
91.28637060350809
 20
165.07593722381344
 30
0.0
 11
95.392720603508096
 21
164.77103722381344
 31
0.0
  0
LINE
  5
19B
100
AcDbEntity
  8
SENZA_NOME
390
0
  6
Continuous
100
AcDbLine
 10
90.495760603508103
 20
165.13806722381344
 30
0.0
 11
91.28637060350809
 21
165.07593722381344
 31
0.0
  0
LINE
  5
19C
100
AcDbEntity
  8
SENZA_NOME
390
0
  6
Continuous
100
AcDbLine
 10
90.495760603508103
 20
175.37381722381343
 30
0.0
 11
90.495760603508103
 21
165.13806722381344
 31
0.0
  0
LINE
  5
19D
100
AcDbEntity
  8
SENZA_NOME
390
0
  6
Continuous
100
AcDbLine
 10
87.495760603508103
 20
175.37381722381343
 30
0.0
 11
90.495760603508103
 21
175.37381722381343
 31
0.0
  0
LINE
  5
19E
100
AcDbEntity
  8
SENZA_NOME
390
0
  6
Continuous
100
AcDbLine
 10
87.495760603508103
 20
165.37381722381343
 30
0.0
 11
87.495760603508103
 21
175.37381722381343
 31
0.0
  0
LINE
  5
19F
100
AcDbEntity
  8
SENZA_NOME
390
0
  6
Continuous
100
AcDbLine
 10
87.187990603508098
 20
165.39800722381344
 30
0.0
 11
87.495760603508103
 21
165.37381722381343
 31
0.0
  0
LINE
  5
1A0
100
AcDbEntity
  8
SENZA_NOME
390
0
  6
Continuous
100
AcDbLine
 10
83.105980603508101
 20
165.73960722381344
 30
0.0
 11
87.187990603508098
 21
165.39800722381344
 31
0.0
  0
LINE
  5
1A1
100
AcDbEntity
  8
SENZA_NOME
390
0
  6
Continuous
100
AcDbLine
 10
79.048220603508099
 20
166.10558722381342
 30
0.0
 11
83.105980603508101
 21
165.73960722381344
 31
0.0
  0
LINE
  5
1A2
100
AcDbEntity
  8
SENZA_NOME
390
0
  6
Continuous
100
AcDbLine
 10
75.0201506035081
 20
166.50078722381343
 30
0.0
 11
79.048220603508099
 21
166.10558722381342
 31
0.0
  0
LINE
  5
1A3
100
AcDbEntity
  8
SENZA_NOME
390
0
  6
Continuous
100
AcDbLine
 10
71.029250603508103
 20
166.93250722381342
 30
0.0
 11
75.0201506035081
 21
166.50078722381343
 31
0.0
  0
LINE
  5
1A4
100
AcDbEntity
  8
SENZA_NOME
390
0
  6
Continuous
100
AcDbLine
 10
67.081740603508095
 20
167.40541722381343
 30
0.0
 11
71.029250603508103
 21
166.93250722381342
 31
0.0
  0
LINE
  5
1A5
100
AcDbEntity
  8
SENZA_NOME
390
0
  6
Continuous
100
AcDbLine
 10
63.195230603508094
 20
167.93161722381342
 30
0.0
 11
67.081740603508095
 21
167.40541722381343
 31
0.0
  0
LINE
  5
1A6
100
AcDbEntity
  8
SENZA_NOME
390
0
  6
Continuous
100
AcDbLine
 10
59.398310603508094
 20
168.51312722381343
 30
0.0
 11
63.195230603508094
 21
167.93161722381342
 31
0.0
  0
LINE
  5
1A7
100
AcDbEntity
  8
SENZA_NOME
390
0
  6
Continuous
100
AcDbLine
 10
55.779170603508092
 20
169.15408722381343
 30
0.0
 11
59.398310603508094
 21
168.51312722381343
 31
0.0
  0
LINE
  5
1A8
100
AcDbEntity
  8
SENZA_NOME
390
0
  6
Continuous
100
AcDbLine
 10
54.995760603508096
 20
169.31572722381344
 30
0.0
 11
55.779170603508092
 21
169.15408722381343
 31
0.0
  0
LINE
  5
1A9
100
AcDbEntity
  8
SENZA_NOME
390
0
  6
Continuous
100
AcDbLine
 10
53.995760603508096
 20
173.49542722381344
 30
0.0
 11
53.995760603508096
 21
173.53683722381342
 31
0.0
  0
LINE
  5
1AA
100
AcDbEntity
  8
SENZA_NOME
390
0
  6
Continuous
100
AcDbLine
 10
63.995760603508096
 20
173.49542722381344
 30
0.0
 11
53.995760603508096
 21
173.49542722381344
 31
0.0
  0
LINE
  5
1AB
100
AcDbEntity
  8
SENZA_NOME
390
0
  6
Continuous
100
AcDbLine
 10
63.995760603508096
 20
171.49542722381344
 30
0.0
 11
63.995760603508096
 21
173.49542722381344
 31
0.0
  0
LINE
  5
1AC
100
AcDbEntity
  8
SENZA_NOME
390
0
  6
Continuous
100
AcDbLine
 10
56.989540603508097
 20
178.72509722381344
 30
0.0
 11
53.995760603508096
 21
177.55160722381342
 31
0.0
  0
LINE
  5
1AD
100
AcDbEntity
  8
SENZA_NOME
390
0
  6
Continuous
100
AcDbLine
 10
60.339260603508095
 20
179.88853722381344
 30
0.0
 11
56.989540603508097
 21
178.72509722381344
 31
0.0
  0
LINE
  5
1AE
100
AcDbEntity
  8
SENZA_NOME
390
0
  6
Continuous
100
AcDbLine
 10
63.813380603508094
 20
180.95431722381343
 30
0.0
 11
60.339260603508095
 21
179.88853722381344
 31
0.0
  0
LINE
  5
1AF
100
AcDbEntity
  8
SENZA_NOME
390
0
  6
Continuous
100
AcDbLine
 10
67.377850603508094
 20
181.91959722381344
 30
0.0
 11
63.813380603508094
 21
180.95431722381343
 31
0.0
  0
LINE
  5
1B0
100
AcDbEntity
  8
SENZA_NOME
390
0
  6
Continuous
100
AcDbLine
 10
71.020920603508102
 20
182.78895722381344
 30
0.0
 11
67.377850603508094
 21
181.91959722381344
 31
0.0
  0
LINE
  5
1B1
100
AcDbEntity
  8
SENZA_NOME
390
0
  6
Continuous
100
AcDbLine
 10
74.730090603508103
 20
183.57176722381342
 30
0.0
 11
71.020920603508102
 21
182.78895722381344
 31
0.0
  0
LINE
  5
1B2
100
AcDbEntity
  8
SENZA_NOME
390
0
  6
Continuous
100
AcDbLine
 10
78.502440603508091
 20
184.27495722381343
 30
0.0
 11
74.730090603508103
 21
183.57176722381342
 31
0.0
  0
LINE
  5
1B3
100
AcDbEntity
  8
SENZA_NOME
390
0
  6
Continuous
100
AcDbLine
 10
82.332670603508092
 20
184.90803722381344
 30
0.0
 11
78.502440603508091
 21
184.27495722381343
 31
0.0
  0
LINE
  5
1B4
100
AcDbEntity
  8
SENZA_NOME
390
0
  6
Continuous
100
AcDbLine
 10
86.212900603508103
 20
185.47563722381344
 30
0.0
 11
82.332670603508092
 21
184.90803722381344
 31
0.0
  0
LINE
  5
1B5
100
AcDbEntity
  8
SENZA_NOME
390
0
  6
Continuous
100
AcDbLine
 10
90.133970603508089
 20
185.98505722381344
 30
0.0
 11
86.212900603508103
 21
185.47563722381344
 31
0.0
  0
LINE
  5
1B6
100
AcDbEntity
  8
SENZA_NOME
390
0
  6
Continuous
100
AcDbLine
 10
94.089330603508103
 20
186.44577722381342
 30
0.0
 11
90.133970603508089
 21
185.98505722381344
 31
0.0
  0
LINE
  5
1B7
100
AcDbEntity
  8
SENZA_NOME
390
0
  6
Continuous
100
AcDbLine
 10
98.074020603508103
 20
186.85773722381344
 30
0.0
 11
94.089330603508103
 21
186.44577722381342
 31
0.0
  0
LINE
  5
1B8
100
AcDbEntity
  8
SENZA_NOME
390
0
  6
Continuous
100
AcDbLine
 10
102.0805406035081
 20
187.23066722381344
 30
0.0
 11
98.074020603508103
 21
186.85773722381344
 31
0.0
  0
LINE
  5
1B9
100
AcDbEntity
  8
SENZA_NOME
390
0
  6
Continuous
100
AcDbLine
 10
106.10495060350809
 20
187.56439722381344
 30
0.0
 11
102.0805406035081
 21
187.23066722381344
 31
0.0
  0
LINE
  5
1BA
100
AcDbEntity
  8
SENZA_NOME
390
0
  6
Continuous
100
AcDbLine
 10
110.14274060350809
 20
187.86139722381341
 30
0.0
 11
106.10495060350809
 21
187.56439722381344
 31
0.0
  0
LINE
  5
1BB
100
AcDbEntity
  8
SENZA_NOME
390
0
  6
Continuous
100
AcDbLine
 10
114.1918406035081
 20
188.12413722381342
 30
0.0
 11
110.14274060350809
 21
187.86139722381341
 31
0.0
  0
LINE
  5
1BC
100
AcDbEntity
  8
SENZA_NOME
390
0
  6
Continuous
100
AcDbLine
 10
118.24885060350809
 20
188.35743722381343
 30
0.0
 11
114.1918406035081
 21
188.12413722381342
 31
0.0
  0
LINE
  5
1BD
100
AcDbEntity
  8
SENZA_NOME
390
0
  6
Continuous
100
AcDbLine
 10
122.31331060350809
 20
188.55881722381343
 30
0.0
 11
118.24885060350809
 21
188.35743722381343
 31
0.0
  0
LINE
  5
1BE
100
AcDbEntity
  8
SENZA_NOME
390
0
  6
Continuous
100
AcDbLine
 10
126.38029060350809
 20
188.73073722381343
 30
0.0
 11
122.31331060350809
 21
188.55881722381343
 31
0.0
  0
LINE
  5
1BF
100
AcDbEntity
  8
SENZA_NOME
390
0
  6
Continuous
100
AcDbLine
 10
130.4473006035081
 20
188.87071722381341
 30
0.0
 11
126.38029060350809
 21
188.73073722381343
 31
0.0
  0
LINE
  5
1C0
100
AcDbEntity
  8
SENZA_NOME
390
0
  6
Continuous
100
AcDbLine
 10
134.5147306035081
 20
188.98124722381343
 30
0.0
 11
130.4473006035081
 21
188.87071722381341
 31
0.0
  0
LINE
  5
1C1
100
AcDbEntity
  8
SENZA_NOME
390
0
  6
Continuous
100
AcDbLine
 10
138.58419060350809
 20
189.06229722381343
 30
0.0
 11
134.5147306035081
 21
188.98124722381343
 31
0.0
  0
LINE
  5
1C2
100
AcDbEntity
  8
SENZA_NOME
390
0
  6
Continuous
100
AcDbLine
 10
142.6458106035081
 20
189.11140722381344
 30
0.0
 11
138.58419060350809
 21
189.06229722381343
 31
0.0
  0
LINE
  5
1C3
100
AcDbEntity
  8
SENZA_NOME
390
0
  6
Continuous
100
AcDbLine
 10
146.70740060350809
 20
189.12859722381341
 30
0.0
 11
142.6458106035081
 21
189.11140722381344
 31
0.0
  0
LINE
  5
1C4
100
AcDbEntity
  8
SENZA_NOME
390
0
  6
Continuous
100
AcDbLine
 10
147.84903060350808
 20
189.12445722381344
 30
0.0
 11
146.70740060350809
 21
189.12859722381341
 31
0.0
  0
LINE
  5
1C5
100
AcDbEntity
  8
SENZA_NOME
390
0
  6
Continuous
100
AcDbLine
 10
147.84903060350808
 20
183.49986722381342
 30
0.0
 11
147.84903060350808
 21
189.12445722381344
 31
0.0
  0
LINE
  5
1C6
100
AcDbEntity
  8
SENZA_NOME
390
0
  6
Continuous
100
AcDbLine
 10
157.84903060350808
 20
183.49986722381342
 30
0.0
 11
147.84903060350808
 21
183.49986722381342
 31
0.0
  0
LINE
  5
1C7
100
AcDbEntity
  8
SENZA_NOME
390
0
  6
Continuous
100
AcDbLine
 10
157.84903060350808
 20
188.99986722381342
 30
0.0
 11
157.84903060350808
 21
183.49986722381342
 31
0.0
  0
LINE
  5
1C8
100
AcDbEntity
  8
SENZA_NOME
390
0
  6
Continuous
100
AcDbLine
 10
158.8701106035081
 20
188.97882722381343
 30
0.0
 11
157.84903060350808
 21
188.99986722381342
 31
0.0
  0
LINE
  5
1C9
100
AcDbEntity
  8
SENZA_NOME
390
0
  6
Continuous
100
AcDbLine
 10
162.9175006035081
 20
188.86101722381343
 30
0.0
 11
158.8701106035081
 21
188.97882722381343
 31
0.0
  0
LINE
  5
1CA
100
AcDbEntity
  8
SENZA_NOME
390
0
  6
Continuous
100
AcDbLine
 10
166.95998060350809
 20
188.70392722381342
 30
0.0
 11
162.9175006035081
 21
188.86101722381343
 31
0.0
  0
LINE
  5
1CB
100
AcDbEntity
  8
SENZA_NOME
390
0
  6
Continuous
100
AcDbLine
 10
171.00339060350811
 20
188.51243722381344
 30
0.0
 11
166.95998060350809
 21
188.70392722381342
 31
0.0
  0
LINE
  5
1CC
100
AcDbEntity
  8
SENZA_NOME
390
0
  6
Continuous
100
AcDbLine
 10
175.04389060350809
 20
188.28660722381343
 30
0.0
 11
171.00339060350811
 21
188.51243722381344
 31
0.0
  0
LINE
  5
1CD
100
AcDbEntity
  8
SENZA_NOME
390
0
  6
Continuous
100
AcDbLine
 10
179.0839506035081
 20
188.02397722381343
 30
0.0
 11
175.04389060350809
 21
188.28660722381343
 31
0.0
  0
LINE
  5
1CE
100
AcDbEntity
  8
SENZA_NOME
390
0
  6
Continuous
100
AcDbLine
 10
183.1220206035081
 20
187.72449722381344
 30
0.0
 11
179.0839506035081
 21
188.02397722381343
 31
0.0
  0
LINE
  5
1CF
100
AcDbEntity
  8
SENZA_NOME
390
0
  6
Continuous
100
AcDbLine
 10
187.16056060350812
 20
187.39060722381342
 30
0.0
 11
183.1220206035081
 21
187.72449722381344
 31
0.0
  0
LINE
  5
1D0
100
AcDbEntity
  8
SENZA_NOME
390
0
  6
Continuous
100
AcDbLine
 10
191.19665060350809
 20
187.02235722381343
 30
0.0
 11
187.16056060350812
 21
187.39060722381342
 31
0.0
  0
LINE
  5
1D1
100
AcDbEntity
  8
SENZA_NOME
390
0
  6
Continuous
100
AcDbLine
 10
195.23272060350811
 20
186.61972722381341
 30
0.0
 11
191.19665060350809
 21
187.02235722381343
 31
0.0
  0
LINE
  5
1D2
100
AcDbEntity
  8
SENZA_NOME
390
0
  6
Continuous
100
AcDbLine
 10
199.2642906035081
 20
186.18268722381342
 30
0.0
 11
195.23272060350811
 21
186.61972722381341
 31
0.0
  0
LINE
  5
1D3
100
AcDbEntity
  8
SENZA_NOME
390
0
  6
Continuous
100
AcDbLine
 10
203.2934006035081
 20
185.71373722381344
 30
0.0
 11
199.2642906035081
 21
186.18268722381342
 31
0.0
  0
LINE
  5
1D4
100
AcDbEntity
  8
SENZA_NOME
390
0
  6
Continuous
100
AcDbLine
 10
207.3170306035081
 20
185.21046722381342
 30
0.0
 11
203.2934006035081
 21
185.71373722381344
 31
0.0
  0
LINE
  5
1D5
100
AcDbEntity
  8
SENZA_NOME
390
0
  6
Continuous
100
AcDbLine
 10
211.33373060350812
 20
184.67278722381343
 30
0.0
 11
207.3170306035081
 21
185.21046722381342
 31
0.0
  0
LINE
  5
1D6
100
AcDbEntity
  8
SENZA_NOME
390
0
  6
Continuous
100
AcDbLine
 10
215.34493060350809
 20
184.10325722381344
 30
0.0
 11
211.33373060350812
 21
184.67278722381343
 31
0.0
  0
LINE
  5
1D7
100
AcDbEntity
  8
SENZA_NOME
390
0
  6
Continuous
100
AcDbLine
 10
219.34330060350811
 20
183.49699722381342
 30
0.0
 11
215.34493060350809
 21
184.10325722381344
 31
0.0
  0
LINE
  5
1D8
100
AcDbEntity
  8
SENZA_NOME
390
0
  6
Continuous
100
AcDbLine
 10
223.33375060350809
 20
182.85646722381344
 30
0.0
 11
219.34330060350811
 21
183.49699722381342
 31
0.0
  0
LINE
  5
1D9
100
AcDbEntity
  8
SENZA_NOME
390
0
  6
Continuous
100
AcDbLine
 10
224.9957606035081
 20
182.57228722381342
 30
0.0
 11
223.33375060350809
 21
182.85646722381344
 31
0.0
  0
LINE
  5
1DA
100
AcDbEntity
  8
SENZA_NOME
390
0
  6
Continuous
100
AcDbLine
 10
224.9957606035081
 20
176.74491722381342
 30
0.0
 11
224.9957606035081
 21
182.57228722381342
 31
0.0
  0
LINE
  5
1DB
100
AcDbEntity
  8
SENZA_NOME
390
0
  6
Continuous
100
AcDbLine
 10
239.9957606035081
 20
176.74491722381342
 30
0.0
 11
224.9957606035081
 21
176.74491722381342
 31
0.0
  0
LINE
  5
1DC
100
AcDbEntity
  8
SENZA_NOME
390
0
  6
Continuous
100
AcDbLine
 10
239.9957606035081
 20
179.74491722381342
 30
0.0
 11
239.9957606035081
 21
176.74491722381342
 31
0.0
  0
LINE
  5
1DD
100
AcDbEntity
  8
SENZA_NOME
390
0
  6
Continuous
100
AcDbLine
 10
243.22019060350812
 20
179.07348722381343
 30
0.0
 11
239.9957606035081
 21
179.74491722381342
 31
0.0
  0
LINE
  5
1DE
100
AcDbEntity
  8
SENZA_NOME
390
0
  6
Continuous
100
AcDbLine
 10
247.25177060350811
 20
178.21256722381344
 30
0.0
 11
243.22019060350812
 21
179.07348722381343
 31
0.0
  0
LINE
  5
1DF
100
AcDbEntity
  8
SENZA_NOME
390
0
  6
Continuous
100
AcDbLine
 10
251.31548060350809
 20
177.33824722381343
 30
0.0
 11
247.25177060350811
 21
178.21256722381344
 31
0.0
  0
LINE
  5
1E0
100
AcDbEntity
  8
SENZA_NOME
390
0
  6
Continuous
100
AcDbLine
 10
255.36255060350811
 20
176.47507722381343
 30
0.0
 11
251.31548060350809
 21
177.33824722381343
 31
0.0
  0
LINE
  5
1E1
100
AcDbEntity
  8
SENZA_NOME
390
0
  6
Continuous
100
AcDbLine
 10
259.36999060350809
 20
175.64543722381342
 30
0.0
 11
255.36255060350811
 21
176.47507722381343
 31
0.0
  0
LINE
  5
1E2
100
AcDbEntity
  8
SENZA_NOME
390
0
  6
Continuous
100
AcDbLine
 10
263.35432060350809
 20
174.85450722381341
 30
0.0
 11
259.36999060350809
 21
175.64543722381342
 31
0.0
  0
LINE
  5
1E3
100
AcDbEntity
  8
SENZA_NOME
390
0
  6
Continuous
100
AcDbLine
 10
267.30328060350809
 20
174.11716722381342
 30
0.0
 11
263.35432060350809
 21
174.85450722381341
 31
0.0
  0
LINE
  5
1E4
100
AcDbEntity
  8
SENZA_NOME
390
0
  6
Continuous
100
AcDbLine
 10
271.23192060350812
 20
173.43887722381342
 30
0.0
 11
267.30328060350809
 21
174.11716722381342
 31
0.0
  0
LINE
  5
1E5
100
AcDbEntity
  8
SENZA_NOME
390
0
  6
Continuous
100
AcDbLine
 10
275.21524060350811
 20
172.80758722381341
 30
0.0
 11
271.23192060350812
 21
173.43887722381342
 31
0.0
  0
LINE
  5
1E6
100
AcDbEntity
  8
SENZA_NOME
390
0
  6
Continuous
100
AcDbLine
 10
279.2053606035081
 20
172.23332722381343
 30
0.0
 11
275.21524060350811
 21
172.80758722381341
 31
0.0
  0
LINE
  5
1E7
100
AcDbEntity
  8
SENZA_NOME
390
0
  6
Continuous
100
AcDbLine
 10
280.68338060350811
 20
172.04010722381344
 30
0.0
 11
279.2053606035081
 21
172.23332722381343
 31
0.0
  0
CIRCLE
  5
1E8
100
AcDbEntity
  8
SENZA_NOME
390
0
100
AcDbCircle
 10
218.9957606035081
 20
174.22369722381342
 30
0.0
 40
3.0
  0
CIRCLE
  5
1E9
100
AcDbEntity
  8
SENZA_NOME
390
0
100
AcDbCircle
 10
78.995760603508103
 20
175.24317722381343
 30
0.0
 40
3.0
  0
LWPOLYLINE
  5
1EA
100
AcDbEntity
  8
SENZA_NOME
390
0
100
AcDbPolyline
 90
      146
 70
               0
 10
141.84903060350808
 20
178.02555722381342
 10
141.84258060350808
 20
178.27944722381343
 10
141.82325060350809
 20
178.53268722381344
 10
141.79108060350811
 20
178.78460722381342
 10
141.74616060350809
 20
179.03457722381341
 10
141.6886106035081
 20
179.28194722381343
 10
141.61857060350809
 20
179.52606722381341
 10
141.5362206035081
 20
179.76631722381342
 10
141.44178060350811
 20
180.00208722381342
 10
141.33549060350811
 20
180.23274722381342
 10
141.2176306035081
 20
180.45770722381343
 10
141.08849060350809
 20
180.67640722381344
 10
140.94842060350808
 20
180.88825722381344
 10
140.7977706035081
 20
181.09271722381342
 10
140.63693060350809
 20
181.28927722381343
 10
140.46631060350811
 20
181.47740722381343
 10
140.28637060350809
 20
181.65662722381342
 10
140.0975606035081
 20
181.82648722381342
 10
139.90036060350809
 20
181.98653722381343
 10
139.69529060350808
 20
182.13636722381344
 10
139.48288060350811
 20
182.27559722381343
 10
139.2636706035081
 20
182.40385722381342
 10
139.03824060350809
 20
182.52081722381342
 10
138.80715060350809
 20
182.62618722381342
 10
138.57102060350809
 20
182.71967722381342
 10
138.33043060350809
 20
182.80105722381342
 10
138.08603060350811
 20
182.87012722381343
 10
137.8384406035081
 20
182.92668722381342
 10
137.58829060350809
 20
182.97060722381343
 10
137.33624060350809
 20
183.00176722381343
 10
137.08293060350809
 20
183.02008722381342
 10
136.8290106035081
 20
183.02551722381344
 10
136.74947060350809
 20
183.02456722381342
 10
134.65596060350811
 20
182.98287722381343
 10
130.63199060350809
 20
182.87352722381343
 10
126.6102006035081
 20
182.73509722381343
 10
122.58847060350809
 20
182.56509722381344
 10
118.56955060350811
 20
182.36596722381341
 10
114.5583406035081
 20
182.13529722381344
 10
110.5570806035081
 20
181.87566722381342
 10
106.57296060350809
 20
181.58260722381343
 10
102.6065206035081
 20
181.25368722381342
 10
101.0323606035081
 20
181.10716722381343
 10
100.78016060350809
 20
181.07720722381342
 10
100.5298106035081
 20
181.03448722381341
 10
100.28195060350809
 20
180.97910722381343
 10
100.0372206035081
 20
180.91121722381342
 10
99.796250603508099
 20
180.83098722381342
 10
99.559670603508096
 20
180.73862722381344
 10
99.328080603508099
 20
180.63436722381343
 10
99.102090603508088
 20
180.51847722381342
 10
98.88227060350809
 20
180.39126722381343
 10
98.669190603508099
 20
180.25306722381342
 10
98.463410603508095
 20
180.10421722381344
 10
98.2654506035081
 20
179.94510722381344
 10
98.075830603508095
 20
179.77615722381341
 10
97.895030603508104
 20
179.59779722381342
 10
97.723520603508092
 20
179.41047722381342
 10
97.561740603508099
 20
179.21469722381343
 10
97.410120603508091
 20
179.01095722381342
 10
97.269030603508099
 20
178.79977722381344
 10
97.138850603508104
 20
178.58170722381342
 10
97.019910603508094
 20
178.35730722381342
 10
96.912520603508085
 20
178.12715722381341
 10
96.816950603508104
 20
177.89184722381344
 10
96.733460603508092
 20
177.65199722381342
 10
96.662250603508099
 20
177.40820722381343
 10
96.603510603508099
 20
177.16111722381342
 10
96.557400603508086
 20
176.91136722381344
 10
96.524030603508095
 20
176.65959722381342
 10
96.503480603508095
 20
176.40645722381342
 10
96.495820603508093
 20
176.15259722381342
 10
96.495760603508103
 20
176.12868722381342
 10
96.495760603508103
 20
175.37568722381343
 10
96.502210603508104
 20
175.12179722381342
 10
96.5215406035081
 20
174.86856722381344
 10
96.553710603508094
 20
174.61663722381343
 10
96.598630603508099
 20
174.36666722381344
 10
96.656180603508091
 20
174.11930722381342
 10
96.7262306035081
 20
173.87517722381344
 10
96.808570603508088
 20
173.63492722381343
 10
96.903010603508093
 20
173.39916722381344
 10
97.009300603508095
 20
173.16850722381344
 10
97.127160603508088
 20
172.94353722381342
 10
97.256300603508095
 20
172.72484722381341
 10
97.396370603508103
 20
172.51299722381344
 10
97.547030603508091
 20
172.30852722381343
 10
97.707860603508095
 20
172.11197722381343
 10
97.878480603508095
 20
171.92383722381342
 10
98.058420603508097
 20
171.74461722381344
 10
98.247230603508086
 20
171.57475722381344
 10
98.444430603508096
 20
171.41470722381342
 10
98.649500603508102
 20
171.26487722381341
 10
98.861910603508093
 20
171.12564722381342
 10
99.081120603508097
 20
170.99739722381344
 10
99.3065506035081
 20
170.88042722381343
 10
99.537640603508095
 20
170.77506722381344
 10
99.773780603508101
 20
170.68156722381343
 10
100.01436060350809
 20
170.60018722381344
 10
100.25876060350809
 20
170.53112722381343
 10
100.5063506035081
 20
170.47455722381343
 10
100.7565006035081
 20
170.43064722381342
 10
101.0085506035081
 20
170.39948722381342
 10
101.1653406035081
 20
170.38661722381343
 10
104.01488060350809
 20
170.19789722381341
 10
108.1157506035081
 20
169.94097722381343
 10
112.21882060350811
 20
169.69861722381341
 10
116.31966060350808
 20
169.46861722381342
 10
120.41612060350809
 20
169.25597722381343
 10
124.51253060350808
 20
169.06032722381343
 10
128.60162060350811
 20
168.87945722381343
 10
132.68617060350809
 20
168.71831722381341
 10
136.67559060350808
 20
168.57984722381343
 10
136.92955060350809
 20
168.57748722381342
 10
137.18330060350809
 20
168.58802722381344
 10
137.43619060350809
 20
168.61143722381343
 10
137.68757060350811
 20
168.64765722381344
 10
137.93678060350808
 20
168.69659722381343
 10
138.18319060350811
 20
168.75812722381343
 10
138.42615060350809
 20
168.83208722381343
 10
138.66505060350809
 20
168.91828722381342
 10
138.89926060350808
 20
169.01651722381342
 10
139.1281806035081
 20
169.12650722381343
 10
139.3512206035081
 20
169.24797722381342
 10
139.56780060350809
 20
169.38061722381343
 10
139.7773706035081
 20
169.52408722381344
 10
139.97939060350811
 20
169.67800722381344
 10
140.1733206035081
 20
169.84198722381342
 10
140.35868060350811
 20
170.01560722381342
 10
140.53499060350811
 20
170.19841722381344
 10
140.7017806035081
 20
170.38994722381344
 10
140.85864060350809
 20
170.58968722381343
 10
141.0051506035081
 20
170.79714722381343
 10
141.14093060350808
 20
171.01176722381342
 10
141.26565060350811
 20
171.23301722381342
 10
141.37896060350809
 20
171.46030722381343
 10
141.48059060350809
 20
171.69305722381344
 10
141.57027060350811
 20
171.93066722381343
 10
141.64777060350809
 20
172.17252722381343
 10
141.7128906035081
 20
172.41800722381342
 10
141.7654606035081
 20
172.66648722381342
 10
141.80534060350809
 20
172.91730722381342
 10
141.8324406035081
 20
173.16982722381343
 10
141.8466806035081
 20
173.42339722381342
 10
141.84903060350808
 20
173.57683722381341
 10
141.84903060350808
 20
178.02555722381342
  0
LWPOLYLINE
  5
1EB
100
AcDbEntity
  8
SENZA_NOME
390
0
100
AcDbPolyline
 90
      145
 70
               0
 10
202.85369060350811
 20
169.73542722381342
 10
203.1066006035081
 20
169.75868722381344
 10
203.35800060350812
 20
169.79474722381343
 10
203.6072406035081
 20
169.84353722381343
 10
203.85369060350811
 20
169.90491722381341
 10
204.09670060350811
 20
169.97872722381342
 10
204.3356406035081
 20
170.06478722381343
 10
204.56991060350811
 20
170.16286722381344
 10
204.79890060350812
 20
170.27271722381343
 10
205.02202060350811
 20
170.39404722381343
 10
205.2386806035081
 20
170.52655722381343
 10
205.44834060350811
 20
170.66989722381342
 10
205.65045060350809
 20
170.82369722381344
 10
205.84448060350809
 20
170.98755722381344
 10
206.0299506035081
 20
171.16106722381343
 10
206.20637060350811
 20
171.34376722381342
 10
206.37328060350811
 20
171.53518722381344
 10
206.53026060350811
 20
171.73483722381343
 10
206.6768906035081
 20
171.94219722381342
 10
206.8128106035081
 20
172.15674722381343
 10
206.93766060350811
 20
172.37790722381342
 10
207.05112060350811
 20
172.60512722381344
 10
207.1528906035081
 20
172.83781722381343
 10
207.2427206035081
 20
173.07537722381343
 10
207.32036060350811
 20
173.31718722381342
 10
207.3856306035081
 20
173.56263722381343
 10
207.4383506035081
 20
173.81107722381341
 10
207.4783906035081
 20
174.06186722381344
 10
207.50564060350811
 20
174.31437722381344
 10
207.52004060350811
 20
174.56793722381343
 10
207.5215406035081
 20
174.82190722381344
 10
207.51014060350809
 20
175.07562722381343
 10
207.48587060350809
 20
175.32843722381344
 10
207.44880060350809
 20
175.57968722381344
 10
207.39902060350809
 20
175.82873722381342
 10
207.3366506035081
 20
176.07493722381344
 10
207.2618706035081
 20
176.31764722381342
 10
207.1748506035081
 20
176.55624722381344
 10
207.07583060350811
 20
176.79011722381344
 10
206.96507060350811
 20
177.01866722381342
 10
206.84284060350811
 20
177.24129722381343
 10
206.70947060350809
 20
177.45742722381343
 10
206.56529060350809
 20
177.66650722381343
 10
206.4106806035081
 20
177.86799722381343
 10
206.24604060350811
 20
178.06137722381342
 10
206.07180060350811
 20
178.24614722381344
 10
205.8883906035081
 20
178.42183722381344
 10
205.69630060350809
 20
178.58797722381343
 10
205.4960306035081
 20
178.74415722381343
 10
205.28808060350809
 20
178.88995722381344
 10
205.07299060350809
 20
179.02501722381342
 10
204.8513306035081
 20
179.14897722381343
 10
204.62365060350811
 20
179.26152722381343
 10
204.39056060350811
 20
179.36236722381344
 10
204.1526406035081
 20
179.45123722381342
 10
203.9105206035081
 20
179.52791722381343
 10
203.6648206035081
 20
179.59220722381343
 10
203.41617060350811
 20
179.64392722381342
 10
203.16521060350811
 20
179.68296722381342
 10
203.14303060350809
 20
179.68578722381343
 10
202.57422060350811
 20
179.75693722381342
 10
198.59412060350812
 20
180.22018722381344
 10
194.61160060350809
 20
180.65190722381342
 10
190.62626060350811
 20
181.04947722381343
 10
186.64078060350809
 20
181.41311722381343
 10
182.65295060350812
 20
181.74280722381343
 10
178.66745060350812
 20
182.03838722381343
 10
174.68186060350811
 20
182.29747722381342
 10
170.69405060350809
 20
182.52036722381342
 10
169.0855606035081
 20
182.59654722381342
 10
168.83165060350811
 20
182.60210722381342
 10
168.5777806035081
 20
182.59477722381342
 10
168.32461060350809
 20
182.57456722381343
 10
168.07280060350809
 20
182.54151722381343
 10
167.82299060350809
 20
182.49572722381342
 10
167.57583060350811
 20
182.43731722381344
 10
167.33195060350809
 20
182.36642722381342
 10
167.09198060350809
 20
182.28324722381342
 10
166.85655060350808
 20
182.18798722381342
 10
166.62626060350809
 20
182.08089722381342
 10
166.40170060350809
 20
181.96225722381342
 10
166.18346060350811
 20
181.83235722381343
 10
165.9721006035081
 20
181.69154722381342
 10
165.76816060350811
 20
181.54018722381343
 10
165.57216060350811
 20
181.37866722381344
 10
165.3846306035081
 20
181.20739722381342
 10
165.20603060350808
 20
181.02683722381343
 10
165.03683060350809
 20
180.83742722381342
 10
164.8774606035081
 20
180.63967722381344
 10
164.72835060350809
 20
180.43409722381344
 10
164.5898606035081
 20
180.22119722381342
 10
164.4623606035081
 20
180.00154722381342
 10
164.34619060350809
 20
179.77570722381341
 10
164.2416306035081
 20
179.54425722381342
 10
164.1489506035081
 20
179.30779722381342
 10
164.06841060350808
 20
179.06693722381343
 10
164.00019060350809
 20
178.82229722381342
 10
163.94449060350809
 20
178.57450722381344
 10
163.90144060350809
 20
178.32420722381343
 10
163.87116060350809
 20
178.07204722381343
 10
163.85372060350809
 20
177.81866722381343
 10
163.84903060350808
 20
177.60213722381343
 10
163.84903060350808
 20
173.27760722381342
 10
163.85548060350808
 20
173.02371722381343
 10
163.87481060350811
 20
172.77047722381343
 10
163.90698060350809
 20
172.51855722381342
 10
163.95190060350811
 20
172.26858722381343
 10
164.0094606035081
 20
172.02121722381344
 10
164.07950060350811
 20
171.77709722381343
 10
164.1618406035081
 20
171.53683722381342
 10
164.25628060350809
 20
171.30107722381342
 10
164.36257060350809
 20
171.07041722381342
 10
164.4804406035081
 20
170.84544722381344
 10
164.6095706035081
 20
170.62675722381343
 10
164.74965060350809
 20
170.41490722381343
 10
164.9003006035081
 20
170.21043722381341
 10
165.0611306035081
 20
170.01388722381344
 10
165.23175060350809
 20
169.82575722381344
 10
165.41169060350811
 20
169.64652722381342
 10
165.6005106035081
 20
169.47667722381343
 10
165.7977006035081
 20
169.31662722381344
 10
166.00277060350808
 20
169.16678722381343
 10
166.21518060350809
 20
169.02756722381343
 10
166.43439060350809
 20
168.89930722381342
 10
166.65982060350811
 20
168.78234722381342
 10
166.8909106035081
 20
168.67697722381342
 10
167.12705060350811
 20
168.58348722381342
 10
167.3676306035081
 20
168.50209722381342
 10
167.61203060350809
 20
168.43303722381341
 10
167.85962060350809
 20
168.37647722381342
 10
168.10977060350808
 20
168.33255722381344
 10
168.36182060350811
 20
168.30139722381344
 10
168.61513060350811
 20
168.28307722381342
 10
168.8690506035081
 20
168.27764722381343
 10
168.91529060350808
 20
168.27804722381342
 10
169.1835206035081
 20
168.28159722381343
 10
173.21981060350811
 20
168.36426722381344
 10
177.26094060350809
 20
168.47375722381344
 10
181.30453060350811
 20
168.60999722381342
 10
185.35290060350809
 20
168.77319722381344
 10
189.4089706035081
 20
168.95834722381343
 10
193.4721206035081
 20
169.17039722381344
 10
197.54471060350809
 20
169.40234722381342
 10
201.6247806035081
 20
169.65384722381344
 10
202.85369060350811
 20
169.73542722381342
  0
LINE
  5
1EC
100
AcDbEntity
  8
SENZA_NOME
390
0
  6
Continuous
100
AcDbLine
 10
54.995760603508096
 20
135.50463570267513
 30
0.0
 11
54.995760603508096
 21
133.32493570267513
 31
0.0
  0
LINE
  5
1ED
100
AcDbEntity
  8
0
370
               0
390
0
  6
Continuous
100
AcDbLine
 10
63.995760603508096
 20
135.50463570267513
 30
0.0
 11
54.995760603508096
 21
135.50463570267513
 31
0.0
  0
LINE
  5
1EE
100
AcDbEntity
  8
SENZA_NOME
390
0
  6
Continuous
100
AcDbLine
 10
63.995760603508096
 20
137.50463570267513
 30
0.0
 11
63.995760603508096
 21
135.50463570267513
 31
0.0
  0
LINE
  5
1EF
100
AcDbEntity
  8
SENZA_NOME
390
0
  6
Continuous
100
AcDbLine
 10
53.995760603508096
 20
137.50463570267513
 30
0.0
 11
63.995760603508096
 21
137.50463570267513
 31
0.0
  0
LINE
  5
1F0
100
AcDbEntity
  8
SENZA_NOME
390
0
  6
Continuous
100
AcDbLine
 10
53.995760603508096
 20
141.56081570267511
 30
0.0
 11
53.995760603508096
 21
137.50463570267513
 31
0.0
  0
LINE
  5
1F1
100
AcDbEntity
  8
SENZA_NOME
390
0
  6
Continuous
100
AcDbLine
 10
279.21120060350808
 20
135.76776570267512
 30
0.0
 11
280.68338060350811
 21
136.04931570267513
 31
0.0
  0
LINE
  5
1F2
100
AcDbEntity
  8
SENZA_NOME
390
0
  6
Continuous
100
AcDbLine
 10
275.22924060350806
 20
135.04644570267513
 30
0.0
 11
279.21120060350808
 21
135.76776570267512
 31
0.0
  0
LINE
  5
1F3
100
AcDbEntity
  8
SENZA_NOME
390
0
  6
Continuous
100
AcDbLine
 10
271.25166060350807
 20
134.36962570267514
 30
0.0
 11
275.22924060350806
 21
135.04644570267513
 31
0.0
  0
LINE
  5
1F4
100
AcDbEntity
  8
SENZA_NOME
390
0
  6
Continuous
100
AcDbLine
 10
267.32960060350808
 20
133.75189570267511
 30
0.0
 11
271.25166060350807
 21
134.36962570267514
 31
0.0
  0
LINE
  5
1F5
100
AcDbEntity
  8
SENZA_NOME
390
0
  6
Continuous
100
AcDbLine
 10
263.3845506035081
 20
133.18061570267511
 30
0.0
 11
267.32960060350808
 21
133.75189570267511
 31
0.0
  0
LINE
  5
1F6
100
AcDbEntity
  8
SENZA_NOME
390
0
  6
Continuous
100
AcDbLine
 10
259.41459060350809
 20
132.65095570267513
 30
0.0
 11
263.3845506035081
 21
133.18061570267511
 31
0.0
  0
LINE
  5
1F7
100
AcDbEntity
  8
SENZA_NOME
390
0
  6
Continuous
100
AcDbLine
 10
255.42974060350809
 20
132.16787570267513
 30
0.0
 11
259.41459060350809
 21
132.65095570267513
 31
0.0
  0
LINE
  5
1F8
100
AcDbEntity
  8
SENZA_NOME
390
0
  6
Continuous
100
AcDbLine
 10
251.41727060350811
 20
131.72613570267512
 30
0.0
 11
255.42974060350809
 21
132.16787570267513
 31
0.0
  0
LINE
  5
1F9
100
AcDbEntity
  8
SENZA_NOME
390
0
  6
Continuous
100
AcDbLine
 10
247.3749606035081
 20
131.31355570267513
 30
0.0
 11
251.41727060350811
 21
131.72613570267512
 31
0.0
  0
LINE
  5
1FA
100
AcDbEntity
  8
SENZA_NOME
390
0
  6
Continuous
100
AcDbLine
 10
243.30076060350811
 20
130.92775570267511
 30
0.0
 11
247.3749606035081
 21
131.31355570267513
 31
0.0
  0
LINE
  5
1FB
100
AcDbEntity
  8
SENZA_NOME
390
0
  6
Continuous
100
AcDbLine
 10
239.19697060350811
 20
130.55893570267511
 30
0.0
 11
243.30076060350811
 21
130.92775570267511
 31
0.0
  0
LINE
  5
1FC
100
AcDbEntity
  8
SENZA_NOME
390
0
  6
Continuous
100
AcDbLine
 10
235.07103060350809
 20
130.20464570267512
 30
0.0
 11
239.19697060350811
 21
130.55893570267511
 31
0.0
  0
LINE
  5
1FD
100
AcDbEntity
  8
SENZA_NOME
390
0
  6
Continuous
100
AcDbLine
 10
230.92918060350812
 20
129.85518570267513
 30
0.0
 11
235.07103060350809
 21
130.20464570267512
 31
0.0
  0
LINE
  5
1FE
100
AcDbEntity
  8
SENZA_NOME
390
0
  6
Continuous
100
AcDbLine
 10
226.78214060350811
 20
129.51554570267513
 30
0.0
 11
230.92918060350812
 21
129.85518570267513
 31
0.0
  0
LINE
  5
1FF
100
AcDbEntity
  8
SENZA_NOME
390
0
  6
Continuous
100
AcDbLine
 10
222.63698060350811
 20
129.18078570267511
 30
0.0
 11
226.78214060350811
 21
129.51554570267513
 31
0.0
  0
LINE
  5
200
100
AcDbEntity
  8
SENZA_NOME
390
0
  6
Continuous
100
AcDbLine
 10
218.49804060350812
 20
128.85350570267514
 30
0.0
 11
222.63698060350811
 21
129.18078570267511
 31
0.0
  0
LINE
  5
201
100
AcDbEntity
  8
SENZA_NOME
390
0
  6
Continuous
100
AcDbLine
 10
214.36489060350812
 20
128.53859570267511
 30
0.0
 11
218.49804060350812
 21
128.85350570267514
 31
0.0
  0
LINE
  5
202
100
AcDbEntity
  8
SENZA_NOME
390
0
  6
Continuous
100
AcDbLine
 10
210.2395806035081
 20
128.23602570267514
 30
0.0
 11
214.36489060350812
 21
128.53859570267511
 31
0.0
  0
LINE
  5
203
100
AcDbEntity
  8
SENZA_NOME
390
0
  6
Continuous
100
AcDbLine
 10
206.1196706035081
 20
127.94824570267512
 30
0.0
 11
210.2395806035081
 21
128.23602570267514
 31
0.0
  0
LINE
  5
204
100
AcDbEntity
  8
SENZA_NOME
390
0
  6
Continuous
100
AcDbLine
 10
202.00808060350809
 20
127.67529570267513
 30
0.0
 11
206.1196706035081
 21
127.94824570267512
 31
0.0
  0
LINE
  5
205
100
AcDbEntity
  8
SENZA_NOME
390
0
  6
Continuous
100
AcDbLine
 10
197.89987060350811
 20
127.42206570267513
 30
0.0
 11
202.00808060350809
 21
127.67529570267513
 31
0.0
  0
LINE
  5
206
100
AcDbEntity
  8
SENZA_NOME
390
0
  6
Continuous
100
AcDbLine
 10
193.79907060350811
 20
127.18850570267512
 30
0.0
 11
197.89987060350811
 21
127.42206570267513
 31
0.0
  0
LINE
  5
207
100
AcDbEntity
  8
SENZA_NOME
390
0
  6
Continuous
100
AcDbLine
 10
189.70212060350809
 20
126.97468570267512
 30
0.0
 11
193.79907060350811
 21
127.18850570267512
 31
0.0
  0
LINE
  5
208
100
AcDbEntity
  8
SENZA_NOME
390
0
  6
Continuous
100
AcDbLine
 10
185.6105306035081
 20
126.78792570267512
 30
0.0
 11
189.70212060350809
 21
126.97468570267512
 31
0.0
  0
LINE
  5
209
100
AcDbEntity
  8
SENZA_NOME
390
0
  6
Continuous
100
AcDbLine
 10
181.5263906035081
 20
126.62327570267513
 30
0.0
 11
185.6105306035081
 21
126.78792570267512
 31
0.0
  0
LINE
  5
20A
100
AcDbEntity
  8
SENZA_NOME
390
0
  6
Continuous
100
AcDbLine
 10
177.44321060350811
 20
126.48569570267512
 30
0.0
 11
181.5263906035081
 21
126.62327570267513
 31
0.0
  0
LINE
  5
20B
100
AcDbEntity
  8
SENZA_NOME
390
0
  6
Continuous
100
AcDbLine
 10
173.36249060350809
 20
126.37514570267513
 30
0.0
 11
177.44321060350811
 21
126.48569570267512
 31
0.0
  0
LINE
  5
20C
100
AcDbEntity
  8
SENZA_NOME
390
0
  6
Continuous
100
AcDbLine
 10
169.2847106035081
 20
126.29162570267512
 30
0.0
 11
173.36249060350809
 21
126.37514570267513
 31
0.0
  0
LINE
  5
20D
100
AcDbEntity
  8
SENZA_NOME
390
0
  6
Continuous
100
AcDbLine
 10
165.20695060350809
 20
126.23757570267512
 30
0.0
 11
169.2847106035081
 21
126.29162570267512
 31
0.0
  0
LINE
  5
20E
100
AcDbEntity
  8
SENZA_NOME
390
0
  6
Continuous
100
AcDbLine
 10
161.12627060350809
 20
126.21055570267512
 30
0.0
 11
165.20695060350809
 21
126.23757570267512
 31
0.0
  0
LINE
  5
20F
100
AcDbEntity
  8
SENZA_NOME
390
0
  6
Continuous
100
AcDbLine
 10
157.84903060350808
 20
126.21055570267512
 30
0.0
 11
161.12627060350809
 21
126.21055570267512
 31
0.0
  0
LINE
  5
210
100
AcDbEntity
  8
SENZA_NOME
390
0
  6
Continuous
100
AcDbLine
 10
157.84903060350808
 20
131.80813570267512
 30
0.0
 11
157.84903060350808
 21
126.21055570267512
 31
0.0
  0
LINE
  5
211
100
AcDbEntity
  8
SENZA_NOME
390
0
  6
Continuous
100
AcDbLine
 10
147.84903060350808
 20
131.80813570267512
 30
0.0
 11
157.84903060350808
 21
131.80813570267512
 31
0.0
  0
LINE
  5
212
100
AcDbEntity
  8
SENZA_NOME
390
0
  6
Continuous
100
AcDbLine
 10
147.84903060350808
 20
126.30813570267512
 30
0.0
 11
147.84903060350808
 21
131.80813570267512
 31
0.0
  0
LINE
  5
213
100
AcDbEntity
  8
SENZA_NOME
390
0
  6
Continuous
100
AcDbLine
 10
144.77160060350809
 20
126.36536570267512
 30
0.0
 11
147.84903060350808
 21
126.30813570267512
 31
0.0
  0
LINE
  5
214
100
AcDbEntity
  8
SENZA_NOME
390
0
  6
Continuous
100
AcDbLine
 10
140.67472060350809
 20
126.46612570267513
 30
0.0
 11
144.77160060350809
 21
126.36536570267512
 31
0.0
  0
LINE
  5
215
100
AcDbEntity
  8
SENZA_NOME
390
0
  6
Continuous
100
AcDbLine
 10
136.57198060350811
 20
126.58903570267512
 30
0.0
 11
140.67472060350809
 21
126.46612570267513
 31
0.0
  0
LINE
  5
216
100
AcDbEntity
  8
SENZA_NOME
390
0
  6
Continuous
100
AcDbLine
 10
132.46384060350809
 20
126.73163570267512
 30
0.0
 11
136.57198060350811
 21
126.58903570267512
 31
0.0
  0
LINE
  5
217
100
AcDbEntity
  8
SENZA_NOME
390
0
  6
Continuous
100
AcDbLine
 10
128.3507906035081
 20
126.89389570267512
 30
0.0
 11
132.46384060350809
 21
126.73163570267512
 31
0.0
  0
LINE
  5
218
100
AcDbEntity
  8
SENZA_NOME
390
0
  6
Continuous
100
AcDbLine
 10
124.23684060350809
 20
127.07585570267513
 30
0.0
 11
128.3507906035081
 21
126.89389570267512
 31
0.0
  0
LINE
  5
219
100
AcDbEntity
  8
SENZA_NOME
390
0
  6
Continuous
100
AcDbLine
 10
120.11748060350808
 20
127.27260570267512
 30
0.0
 11
124.23684060350809
 21
127.07585570267513
 31
0.0
  0
LINE
  5
21A
100
AcDbEntity
  8
SENZA_NOME
390
0
  6
Continuous
100
AcDbLine
 10
115.99614060350811
 20
127.48654570267513
 30
0.0
 11
120.11748060350808
 21
127.27260570267512
 31
0.0
  0
LINE
  5
21B
100
AcDbEntity
  8
SENZA_NOME
390
0
  6
Continuous
100
AcDbLine
 10
111.87393060350809
 20
127.71773570267513
 30
0.0
 11
115.99614060350811
 21
127.48654570267513
 31
0.0
  0
LINE
  5
21C
100
AcDbEntity
  8
SENZA_NOME
390
0
  6
Continuous
100
AcDbLine
 10
107.75127060350809
 20
127.96126570267512
 30
0.0
 11
111.87393060350809
 21
127.71773570267513
 31
0.0
  0
LINE
  5
21D
100
AcDbEntity
  8
SENZA_NOME
390
0
  6
Continuous
100
AcDbLine
 10
103.62905060350809
 20
128.21951570267512
 30
0.0
 11
107.75127060350809
 21
127.96126570267512
 31
0.0
  0
LINE
  5
21E
100
AcDbEntity
  8
SENZA_NOME
390
0
  6
Continuous
100
AcDbLine
 10
99.506920603508092
 20
128.49251570267512
 30
0.0
 11
103.62905060350809
 21
128.21951570267512
 31
0.0
  0
LINE
  5
21F
100
AcDbEntity
  8
SENZA_NOME
390
0
  6
Continuous
100
AcDbLine
 10
95.392720603508096
 20
128.78024570267513
 30
0.0
 11
99.506920603508092
 21
128.49251570267512
 31
0.0
  0
LINE
  5
220
100
AcDbEntity
  8
SENZA_NOME
390
0
  6
Continuous
100
AcDbLine
 10
91.28637060350809
 20
129.08514570267513
 30
0.0
 11
95.392720603508096
 21
128.78024570267513
 31
0.0
  0
LINE
  5
221
100
AcDbEntity
  8
SENZA_NOME
390
0
  6
Continuous
100
AcDbLine
 10
90.495760603508103
 20
129.14727570267513
 30
0.0
 11
91.28637060350809
 21
129.08514570267513
 31
0.0
  0
LINE
  5
222
100
AcDbEntity
  8
SENZA_NOME
390
0
  6
Continuous
100
AcDbLine
 10
90.495760603508103
 20
139.38302570267513
 30
0.0
 11
90.495760603508103
 21
129.14727570267513
 31
0.0
  0
LINE
  5
223
100
AcDbEntity
  8
SENZA_NOME
390
0
  6
Continuous
100
AcDbLine
 10
87.495760603508103
 20
139.38302570267513
 30
0.0
 11
90.495760603508103
 21
139.38302570267513
 31
0.0
  0
LINE
  5
224
100
AcDbEntity
  8
SENZA_NOME
390
0
  6
Continuous
100
AcDbLine
 10
87.495760603508103
 20
129.38302570267513
 30
0.0
 11
87.495760603508103
 21
139.38302570267513
 31
0.0
  0
LINE
  5
225
100
AcDbEntity
  8
SENZA_NOME
390
0
  6
Continuous
100
AcDbLine
 10
87.187990603508098
 20
129.40721570267513
 30
0.0
 11
87.495760603508103
 21
129.38302570267513
 31
0.0
  0
LINE
  5
226
100
AcDbEntity
  8
SENZA_NOME
390
0
  6
Continuous
100
AcDbLine
 10
83.105980603508101
 20
129.74881570267513
 30
0.0
 11
87.187990603508098
 21
129.40721570267513
 31
0.0
  0
LINE
  5
227
100
AcDbEntity
  8
SENZA_NOME
390
0
  6
Continuous
100
AcDbLine
 10
79.048220603508099
 20
130.11479570267511
 30
0.0
 11
83.105980603508101
 21
129.74881570267513
 31
0.0
  0
LINE
  5
228
100
AcDbEntity
  8
SENZA_NOME
390
0
  6
Continuous
100
AcDbLine
 10
75.0201506035081
 20
130.50999570267513
 30
0.0
 11
79.048220603508099
 21
130.11479570267511
 31
0.0
  0
LINE
  5
229
100
AcDbEntity
  8
SENZA_NOME
390
0
  6
Continuous
100
AcDbLine
 10
71.029250603508103
 20
130.94171570267511
 30
0.0
 11
75.0201506035081
 21
130.50999570267513
 31
0.0
  0
LINE
  5
22A
100
AcDbEntity
  8
SENZA_NOME
390
0
  6
Continuous
100
AcDbLine
 10
67.081740603508095
 20
131.41462570267512
 30
0.0
 11
71.029250603508103
 21
130.94171570267511
 31
0.0
  0
LINE
  5
22B
100
AcDbEntity
  8
SENZA_NOME
390
0
  6
Continuous
100
AcDbLine
 10
63.195230603508094
 20
131.94082570267511
 30
0.0
 11
67.081740603508095
 21
131.41462570267512
 31
0.0
  0
LINE
  5
22C
100
AcDbEntity
  8
SENZA_NOME
390
0
  6
Continuous
100
AcDbLine
 10
59.398310603508094
 20
132.52233570267512
 30
0.0
 11
63.195230603508094
 21
131.94082570267511
 31
0.0
  0
LINE
  5
22D
100
AcDbEntity
  8
SENZA_NOME
390
0
  6
Continuous
100
AcDbLine
 10
55.779170603508092
 20
133.16329570267513
 30
0.0
 11
59.398310603508094
 21
132.52233570267512
 31
0.0
  0
LINE
  5
22E
100
AcDbEntity
  8
SENZA_NOME
390
0
  6
Continuous
100
AcDbLine
 10
54.995760603508096
 20
133.32493570267513
 30
0.0
 11
55.779170603508092
 21
133.16329570267513
 31
0.0
  0
LINE
  5
22F
100
AcDbEntity
  8
SENZA_NOME
390
0
  6
Continuous
100
AcDbLine
 10
53.995760603508096
 20
137.50463570267513
 30
0.0
 11
53.995760603508096
 21
137.54604570267512
 31
0.0
  0
LINE
  5
230
100
AcDbEntity
  8
SENZA_NOME
390
0
  6
Continuous
100
AcDbLine
 10
63.995760603508096
 20
137.50463570267513
 30
0.0
 11
53.995760603508096
 21
137.50463570267513
 31
0.0
  0
LINE
  5
231
100
AcDbEntity
  8
SENZA_NOME
390
0
  6
Continuous
100
AcDbLine
 10
63.995760603508096
 20
135.50463570267513
 30
0.0
 11
63.995760603508096
 21
137.50463570267513
 31
0.0
  0
LINE
  5
232
100
AcDbEntity
  8
SENZA_NOME
390
0
  6
Continuous
100
AcDbLine
 10
56.989540603508097
 20
142.73430570267513
 30
0.0
 11
53.995760603508096
 21
141.56081570267511
 31
0.0
  0
LINE
  5
233
100
AcDbEntity
  8
SENZA_NOME
390
0
  6
Continuous
100
AcDbLine
 10
60.339260603508095
 20
143.89774570267514
 30
0.0
 11
56.989540603508097
 21
142.73430570267513
 31
0.0
  0
LINE
  5
234
100
AcDbEntity
  8
SENZA_NOME
390
0
  6
Continuous
100
AcDbLine
 10
63.813380603508094
 20
144.96352570267513
 30
0.0
 11
60.339260603508095
 21
143.89774570267514
 31
0.0
  0
LINE
  5
235
100
AcDbEntity
  8
SENZA_NOME
390
0
  6
Continuous
100
AcDbLine
 10
67.377850603508094
 20
145.92880570267513
 30
0.0
 11
63.813380603508094
 21
144.96352570267513
 31
0.0
  0
LINE
  5
236
100
AcDbEntity
  8
SENZA_NOME
390
0
  6
Continuous
100
AcDbLine
 10
71.020920603508102
 20
146.79816570267513
 30
0.0
 11
67.377850603508094
 21
145.92880570267513
 31
0.0
  0
LINE
  5
237
100
AcDbEntity
  8
SENZA_NOME
390
0
  6
Continuous
100
AcDbLine
 10
74.730090603508103
 20
147.58097570267512
 30
0.0
 11
71.020920603508102
 21
146.79816570267513
 31
0.0
  0
LINE
  5
238
100
AcDbEntity
  8
SENZA_NOME
390
0
  6
Continuous
100
AcDbLine
 10
78.502440603508091
 20
148.28416570267512
 30
0.0
 11
74.730090603508103
 21
147.58097570267512
 31
0.0
  0
LINE
  5
239
100
AcDbEntity
  8
SENZA_NOME
390
0
  6
Continuous
100
AcDbLine
 10
82.332670603508092
 20
148.91724570267513
 30
0.0
 11
78.502440603508091
 21
148.28416570267512
 31
0.0
  0
LINE
  5
23A
100
AcDbEntity
  8
SENZA_NOME
390
0
  6
Continuous
100
AcDbLine
 10
86.212900603508103
 20
149.48484570267513
 30
0.0
 11
82.332670603508092
 21
148.91724570267513
 31
0.0
  0
LINE
  5
23B
100
AcDbEntity
  8
SENZA_NOME
390
0
  6
Continuous
100
AcDbLine
 10
90.133970603508089
 20
149.99426570267514
 30
0.0
 11
86.212900603508103
 21
149.48484570267513
 31
0.0
  0
LINE
  5
23C
100
AcDbEntity
  8
SENZA_NOME
390
0
  6
Continuous
100
AcDbLine
 10
94.089330603508103
 20
150.45498570267512
 30
0.0
 11
90.133970603508089
 21
149.99426570267514
 31
0.0
  0
LINE
  5
23D
100
AcDbEntity
  8
SENZA_NOME
390
0
  6
Continuous
100
AcDbLine
 10
98.074020603508103
 20
150.86694570267514
 30
0.0
 11
94.089330603508103
 21
150.45498570267512
 31
0.0
  0
LINE
  5
23E
100
AcDbEntity
  8
SENZA_NOME
390
0
  6
Continuous
100
AcDbLine
 10
102.0805406035081
 20
151.23987570267514
 30
0.0
 11
98.074020603508103
 21
150.86694570267514
 31
0.0
  0
LINE
  5
23F
100
AcDbEntity
  8
SENZA_NOME
390
0
  6
Continuous
100
AcDbLine
 10
106.10495060350809
 20
151.57360570267514
 30
0.0
 11
102.0805406035081
 21
151.23987570267514
 31
0.0
  0
LINE
  5
240
100
AcDbEntity
  8
SENZA_NOME
390
0
  6
Continuous
100
AcDbLine
 10
110.14274060350809
 20
151.87060570267511
 30
0.0
 11
106.10495060350809
 21
151.57360570267514
 31
0.0
  0
LINE
  5
241
100
AcDbEntity
  8
SENZA_NOME
390
0
  6
Continuous
100
AcDbLine
 10
114.1918406035081
 20
152.13334570267511
 30
0.0
 11
110.14274060350809
 21
151.87060570267511
 31
0.0
  0
LINE
  5
242
100
AcDbEntity
  8
SENZA_NOME
390
0
  6
Continuous
100
AcDbLine
 10
118.24885060350809
 20
152.36664570267513
 30
0.0
 11
114.1918406035081
 21
152.13334570267511
 31
0.0
  0
LINE
  5
243
100
AcDbEntity
  8
SENZA_NOME
390
0
  6
Continuous
100
AcDbLine
 10
122.31331060350809
 20
152.56802570267513
 30
0.0
 11
118.24885060350809
 21
152.36664570267513
 31
0.0
  0
LINE
  5
244
100
AcDbEntity
  8
SENZA_NOME
390
0
  6
Continuous
100
AcDbLine
 10
126.38029060350809
 20
152.73994570267513
 30
0.0
 11
122.31331060350809
 21
152.56802570267513
 31
0.0
  0
LINE
  5
245
100
AcDbEntity
  8
SENZA_NOME
390
0
  6
Continuous
100
AcDbLine
 10
130.4473006035081
 20
152.87992570267511
 30
0.0
 11
126.38029060350809
 21
152.73994570267513
 31
0.0
  0
LINE
  5
246
100
AcDbEntity
  8
SENZA_NOME
390
0
  6
Continuous
100
AcDbLine
 10
134.5147306035081
 20
152.99045570267512
 30
0.0
 11
130.4473006035081
 21
152.87992570267511
 31
0.0
  0
LINE
  5
247
100
AcDbEntity
  8
SENZA_NOME
390
0
  6
Continuous
100
AcDbLine
 10
138.58419060350809
 20
153.07150570267513
 30
0.0
 11
134.5147306035081
 21
152.99045570267512
 31
0.0
  0
LINE
  5
248
100
AcDbEntity
  8
SENZA_NOME
390
0
  6
Continuous
100
AcDbLine
 10
142.6458106035081
 20
153.12061570267514
 30
0.0
 11
138.58419060350809
 21
153.07150570267513
 31
0.0
  0
LINE
  5
249
100
AcDbEntity
  8
SENZA_NOME
390
0
  6
Continuous
100
AcDbLine
 10
146.70740060350809
 20
153.13780570267511
 30
0.0
 11
142.6458106035081
 21
153.12061570267514
 31
0.0
  0
LINE
  5
24A
100
AcDbEntity
  8
SENZA_NOME
390
0
  6
Continuous
100
AcDbLine
 10
147.84903060350808
 20
153.13366570267513
 30
0.0
 11
146.70740060350809
 21
153.13780570267511
 31
0.0
  0
LINE
  5
24B
100
AcDbEntity
  8
SENZA_NOME
390
0
  6
Continuous
100
AcDbLine
 10
147.84903060350808
 20
147.50907570267512
 30
0.0
 11
147.84903060350808
 21
153.13366570267513
 31
0.0
  0
LINE
  5
24C
100
AcDbEntity
  8
SENZA_NOME
390
0
  6
Continuous
100
AcDbLine
 10
157.84903060350808
 20
147.50907570267512
 30
0.0
 11
147.84903060350808
 21
147.50907570267512
 31
0.0
  0
LINE
  5
24D
100
AcDbEntity
  8
SENZA_NOME
390
0
  6
Continuous
100
AcDbLine
 10
157.84903060350808
 20
153.00907570267512
 30
0.0
 11
157.84903060350808
 21
147.50907570267512
 31
0.0
  0
LINE
  5
24E
100
AcDbEntity
  8
SENZA_NOME
390
0
  6
Continuous
100
AcDbLine
 10
158.8701106035081
 20
152.98803570267512
 30
0.0
 11
157.84903060350808
 21
153.00907570267512
 31
0.0
  0
LINE
  5
24F
100
AcDbEntity
  8
SENZA_NOME
390
0
  6
Continuous
100
AcDbLine
 10
162.9175006035081
 20
152.87022570267513
 30
0.0
 11
158.8701106035081
 21
152.98803570267512
 31
0.0
  0
LINE
  5
250
100
AcDbEntity
  8
SENZA_NOME
390
0
  6
Continuous
100
AcDbLine
 10
166.95998060350809
 20
152.71313570267512
 30
0.0
 11
162.9175006035081
 21
152.87022570267513
 31
0.0
  0
LINE
  5
251
100
AcDbEntity
  8
SENZA_NOME
390
0
  6
Continuous
100
AcDbLine
 10
171.00339060350811
 20
152.52164570267513
 30
0.0
 11
166.95998060350809
 21
152.71313570267512
 31
0.0
  0
LINE
  5
252
100
AcDbEntity
  8
SENZA_NOME
390
0
  6
Continuous
100
AcDbLine
 10
175.04389060350809
 20
152.29581570267513
 30
0.0
 11
171.00339060350811
 21
152.52164570267513
 31
0.0
  0
LINE
  5
253
100
AcDbEntity
  8
SENZA_NOME
390
0
  6
Continuous
100
AcDbLine
 10
179.0839506035081
 20
152.03318570267513
 30
0.0
 11
175.04389060350809
 21
152.29581570267513
 31
0.0
  0
LINE
  5
254
100
AcDbEntity
  8
SENZA_NOME
390
0
  6
Continuous
100
AcDbLine
 10
183.1220206035081
 20
151.73370570267514
 30
0.0
 11
179.0839506035081
 21
152.03318570267513
 31
0.0
  0
LINE
  5
255
100
AcDbEntity
  8
SENZA_NOME
390
0
  6
Continuous
100
AcDbLine
 10
187.16056060350812
 20
151.39981570267511
 30
0.0
 11
183.1220206035081
 21
151.73370570267514
 31
0.0
  0
LINE
  5
256
100
AcDbEntity
  8
SENZA_NOME
390
0
  6
Continuous
100
AcDbLine
 10
191.19665060350809
 20
151.03156570267512
 30
0.0
 11
187.16056060350812
 21
151.39981570267511
 31
0.0
  0
LINE
  5
257
100
AcDbEntity
  8
SENZA_NOME
390
0
  6
Continuous
100
AcDbLine
 10
195.23272060350811
 20
150.62893570267511
 30
0.0
 11
191.19665060350809
 21
151.03156570267512
 31
0.0
  0
LINE
  5
258
100
AcDbEntity
  8
SENZA_NOME
390
0
  6
Continuous
100
AcDbLine
 10
199.2642906035081
 20
150.19189570267511
 30
0.0
 11
195.23272060350811
 21
150.62893570267511
 31
0.0
  0
LINE
  5
259
100
AcDbEntity
  8
SENZA_NOME
390
0
  6
Continuous
100
AcDbLine
 10
203.2934006035081
 20
149.72294570267513
 30
0.0
 11
199.2642906035081
 21
150.19189570267511
 31
0.0
  0
LINE
  5
25A
100
AcDbEntity
  8
SENZA_NOME
390
0
  6
Continuous
100
AcDbLine
 10
207.3170306035081
 20
149.21967570267512
 30
0.0
 11
203.2934006035081
 21
149.72294570267513
 31
0.0
  0
LINE
  5
25B
100
AcDbEntity
  8
SENZA_NOME
390
0
  6
Continuous
100
AcDbLine
 10
211.33373060350812
 20
148.68199570267512
 30
0.0
 11
207.3170306035081
 21
149.21967570267512
 31
0.0
  0
LINE
  5
25C
100
AcDbEntity
  8
SENZA_NOME
390
0
  6
Continuous
100
AcDbLine
 10
215.34493060350809
 20
148.11246570267514
 30
0.0
 11
211.33373060350812
 21
148.68199570267512
 31
0.0
  0
LINE
  5
25D
100
AcDbEntity
  8
SENZA_NOME
390
0
  6
Continuous
100
AcDbLine
 10
219.34330060350811
 20
147.50620570267512
 30
0.0
 11
215.34493060350809
 21
148.11246570267514
 31
0.0
  0
LINE
  5
25E
100
AcDbEntity
  8
SENZA_NOME
390
0
  6
Continuous
100
AcDbLine
 10
223.33375060350809
 20
146.86567570267513
 30
0.0
 11
219.34330060350811
 21
147.50620570267512
 31
0.0
  0
LINE
  5
25F
100
AcDbEntity
  8
SENZA_NOME
390
0
  6
Continuous
100
AcDbLine
 10
224.9957606035081
 20
146.58149570267511
 30
0.0
 11
223.33375060350809
 21
146.86567570267513
 31
0.0
  0
LINE
  5
260
100
AcDbEntity
  8
SENZA_NOME
390
0
  6
Continuous
100
AcDbLine
 10
224.9957606035081
 20
140.75412570267511
 30
0.0
 11
224.9957606035081
 21
146.58149570267511
 31
0.0
  0
LINE
  5
261
100
AcDbEntity
  8
SENZA_NOME
390
0
  6
Continuous
100
AcDbLine
 10
239.9957606035081
 20
140.75412570267511
 30
0.0
 11
224.9957606035081
 21
140.75412570267511
 31
0.0
  0
LINE
  5
262
100
AcDbEntity
  8
SENZA_NOME
390
0
  6
Continuous
100
AcDbLine
 10
239.9957606035081
 20
143.75412570267511
 30
0.0
 11
239.9957606035081
 21
140.75412570267511
 31
0.0
  0
LINE
  5
263
100
AcDbEntity
  8
SENZA_NOME
390
0
  6
Continuous
100
AcDbLine
 10
243.22019060350812
 20
143.08269570267512
 30
0.0
 11
239.9957606035081
 21
143.75412570267511
 31
0.0
  0
LINE
  5
264
100
AcDbEntity
  8
SENZA_NOME
390
0
  6
Continuous
100
AcDbLine
 10
247.25177060350811
 20
142.22177570267513
 30
0.0
 11
243.22019060350812
 21
143.08269570267512
 31
0.0
  0
LINE
  5
265
100
AcDbEntity
  8
SENZA_NOME
390
0
  6
Continuous
100
AcDbLine
 10
251.31548060350809
 20
141.34745570267512
 30
0.0
 11
247.25177060350811
 21
142.22177570267513
 31
0.0
  0
LINE
  5
266
100
AcDbEntity
  8
SENZA_NOME
390
0
  6
Continuous
100
AcDbLine
 10
255.36255060350811
 20
140.48428570267512
 30
0.0
 11
251.31548060350809
 21
141.34745570267512
 31
0.0
  0
LINE
  5
267
100
AcDbEntity
  8
SENZA_NOME
390
0
  6
Continuous
100
AcDbLine
 10
259.36999060350809
 20
139.65464570267511
 30
0.0
 11
255.36255060350811
 21
140.48428570267512
 31
0.0
  0
LINE
  5
268
100
AcDbEntity
  8
SENZA_NOME
390
0
  6
Continuous
100
AcDbLine
 10
263.35432060350809
 20
138.86371570267511
 30
0.0
 11
259.36999060350809
 21
139.65464570267511
 31
0.0
  0
LINE
  5
269
100
AcDbEntity
  8
SENZA_NOME
390
0
  6
Continuous
100
AcDbLine
 10
267.30328060350809
 20
138.12637570267512
 30
0.0
 11
263.35432060350809
 21
138.86371570267511
 31
0.0
  0
LINE
  5
26A
100
AcDbEntity
  8
SENZA_NOME
390
0
  6
Continuous
100
AcDbLine
 10
271.23192060350812
 20
137.44808570267512
 30
0.0
 11
267.30328060350809
 21
138.12637570267512
 31
0.0
  0
LINE
  5
26B
100
AcDbEntity
  8
SENZA_NOME
390
0
  6
Continuous
100
AcDbLine
 10
275.21524060350811
 20
136.81679570267511
 30
0.0
 11
271.23192060350812
 21
137.44808570267512
 31
0.0
  0
LINE
  5
26C
100
AcDbEntity
  8
SENZA_NOME
390
0
  6
Continuous
100
AcDbLine
 10
279.2053606035081
 20
136.24253570267513
 30
0.0
 11
275.21524060350811
 21
136.81679570267511
 31
0.0
  0
LINE
  5
26D
100
AcDbEntity
  8
SENZA_NOME
390
0
  6
Continuous
100
AcDbLine
 10
280.68338060350811
 20
136.04931570267513
 30
0.0
 11
279.2053606035081
 21
136.24253570267513
 31
0.0
  0
CIRCLE
  5
26E
100
AcDbEntity
  8
SENZA_NOME
390
0
100
AcDbCircle
 10
218.9957606035081
 20
138.23290570267511
 30
0.0
 40
3.0
  0
CIRCLE
  5
26F
100
AcDbEntity
  8
SENZA_NOME
390
0
100
AcDbCircle
 10
78.995760603508103
 20
139.25238570267513
 30
0.0
 40
3.0
  0
LWPOLYLINE
  5
270
100
AcDbEntity
  8
SENZA_NOME
390
0
100
AcDbPolyline
 90
      146
 70
               0
 10
141.84903060350808
 20
142.03476570267512
 10
141.84258060350808
 20
142.28865570267513
 10
141.82325060350809
 20
142.54189570267513
 10
141.79108060350811
 20
142.79381570267512
 10
141.74616060350809
 20
143.04378570267511
 10
141.6886106035081
 20
143.29115570267513
 10
141.61857060350809
 20
143.53527570267511
 10
141.5362206035081
 20
143.77552570267511
 10
141.44178060350811
 20
144.01129570267511
 10
141.33549060350811
 20
144.24195570267511
 10
141.2176306035081
 20
144.46691570267512
 10
141.08849060350809
 20
144.68561570267514
 10
140.94842060350808
 20
144.89746570267513
 10
140.7977706035081
 20
145.10192570267512
 10
140.63693060350809
 20
145.29848570267512
 10
140.46631060350811
 20
145.48661570267512
 10
140.28637060350809
 20
145.66583570267511
 10
140.0975606035081
 20
145.83569570267511
 10
139.90036060350809
 20
145.99574570267512
 10
139.69529060350808
 20
146.14557570267513
 10
139.48288060350811
 20
146.28480570267513
 10
139.2636706035081
 20
146.41306570267511
 10
139.03824060350809
 20
146.53002570267512
 10
138.80715060350809
 20
146.63539570267511
 10
138.57102060350809
 20
146.72888570267511
 10
138.33043060350809
 20
146.81026570267511
 10
138.08603060350811
 20
146.87933570267512
 10
137.8384406035081
 20
146.93589570267511
 10
137.58829060350809
 20
146.97981570267513
 10
137.33624060350809
 20
147.01097570267513
 10
137.08293060350809
 20
147.02929570267511
 10
136.8290106035081
 20
147.03472570267513
 10
136.74947060350809
 20
147.03377570267511
 10
134.65596060350811
 20
146.99208570267513
 10
130.63199060350809
 20
146.88273570267512
 10
126.6102006035081
 20
146.74430570267512
 10
122.58847060350809
 20
146.57430570267513
 10
118.56955060350811
 20
146.37517570267511
 10
114.5583406035081
 20
146.14450570267513
 10
110.5570806035081
 20
145.88487570267512
 10
106.57296060350809
 20
145.59181570267512
 10
102.6065206035081
 20
145.26289570267511
 10
101.0323606035081
 20
145.11637570267513
 10
100.78016060350809
 20
145.08641570267511
 10
100.5298106035081
 20
145.04369570267511
 10
100.28195060350809
 20
144.98831570267512
 10
100.0372206035081
 20
144.92042570267512
 10
99.796250603508099
 20
144.84019570267512
 10
99.559670603508096
 20
144.74783570267513
 10
99.328080603508099
 20
144.64357570267512
 10
99.102090603508088
 20
144.52768570267511
 10
98.88227060350809
 20
144.40047570267512
 10
98.669190603508099
 20
144.26227570267511
 10
98.463410603508095
 20
144.11342570267513
 10
98.2654506035081
 20
143.95431570267513
 10
98.075830603508095
 20
143.78536570267511
 10
97.895030603508104
 20
143.60700570267511
 10
97.723520603508092
 20
143.41968570267511
 10
97.561740603508099
 20
143.22390570267513
 10
97.410120603508091
 20
143.02016570267511
 10
97.269030603508099
 20
142.80898570267513
 10
97.138850603508104
 20
142.59091570267512
 10
97.019910603508094
 20
142.36651570267512
 10
96.912520603508085
 20
142.13636570267511
 10
96.816950603508104
 20
141.90105570267514
 10
96.733460603508092
 20
141.66120570267512
 10
96.662250603508099
 20
141.41741570267513
 10
96.603510603508099
 20
141.17032570267511
 10
96.557400603508086
 20
140.92057570267514
 10
96.524030603508095
 20
140.66880570267512
 10
96.503480603508095
 20
140.41566570267511
 10
96.495820603508093
 20
140.16180570267511
 10
96.495760603508103
 20
140.13789570267511
 10
96.495760603508103
 20
139.38489570267512
 10
96.502210603508104
 20
139.13100570267511
 10
96.5215406035081
 20
138.87777570267514
 10
96.553710603508094
 20
138.62584570267512
 10
96.598630603508099
 20
138.37587570267513
 10
96.656180603508091
 20
138.12851570267512
 10
96.7262306035081
 20
137.88438570267513
 10
96.808570603508088
 20
137.64413570267513
 10
96.903010603508093
 20
137.40837570267513
 10
97.009300603508095
 20
137.17771570267513
 10
97.127160603508088
 20
136.95274570267512
 10
97.256300603508095
 20
136.73405570267511
 10
97.396370603508103
 20
136.52220570267514
 10
97.547030603508091
 20
136.31773570267512
 10
97.707860603508095
 20
136.12118570267512
 10
97.878480603508095
 20
135.93304570267512
 10
98.058420603508097
 20
135.75382570267513
 10
98.247230603508086
 20
135.58396570267513
 10
98.444430603508096
 20
135.42391570267512
 10
98.649500603508102
 20
135.27408570267511
 10
98.861910603508093
 20
135.13485570267511
 10
99.081120603508097
 20
135.00660570267513
 10
99.3065506035081
 20
134.88963570267512
 10
99.537640603508095
 20
134.78427570267513
 10
99.773780603508101
 20
134.69077570267513
 10
100.01436060350809
 20
134.60939570267513
 10
100.25876060350809
 20
134.54033570267512
 10
100.5063506035081
 20
134.48376570267513
 10
100.7565006035081
 20
134.43985570267512
 10
101.0085506035081
 20
134.40869570267512
 10
101.1653406035081
 20
134.39582570267513
 10
104.01488060350809
 20
134.20710570267511
 10
108.1157506035081
 20
133.95018570267513
 10
112.21882060350811
 20
133.70782570267511
 10
116.31966060350808
 20
133.47782570267512
 10
120.41612060350809
 20
133.26518570267513
 10
124.51253060350808
 20
133.06953570267513
 10
128.60162060350811
 20
132.88866570267513
 10
132.68617060350809
 20
132.72752570267511
 10
136.67559060350808
 20
132.58905570267513
 10
136.92955060350809
 20
132.58669570267512
 10
137.18330060350809
 20
132.59723570267514
 10
137.43619060350809
 20
132.62064570267512
 10
137.68757060350811
 20
132.65686570267513
 10
137.93678060350808
 20
132.70580570267512
 10
138.18319060350811
 20
132.76733570267513
 10
138.42615060350809
 20
132.84129570267513
 10
138.66505060350809
 20
132.92749570267512
 10
138.89926060350808
 20
133.02572570267512
 10
139.1281806035081
 20
133.13571570267513
 10
139.3512206035081
 20
133.25718570267512
 10
139.56780060350809
 20
133.38982570267513
 10
139.7773706035081
 20
133.53329570267513
 10
139.97939060350811
 20
133.68721570267513
 10
140.1733206035081
 20
133.85119570267511
 10
140.35868060350811
 20
134.02481570267511
 10
140.53499060350811
 20
134.20762570267513
 10
140.7017806035081
 20
134.39915570267513
 10
140.85864060350809
 20
134.59889570267512
 10
141.0051506035081
 20
134.80635570267512
 10
141.14093060350808
 20
135.02097570267512
 10
141.26565060350811
 20
135.24222570267511
 10
141.37896060350809
 20
135.46951570267512
 10
141.48059060350809
 20
135.70226570267513
 10
141.57027060350811
 20
135.93987570267512
 10
141.64777060350809
 20
136.18173570267513
 10
141.7128906035081
 20
136.42721570267511
 10
141.7654606035081
 20
136.67569570267511
 10
141.80534060350809
 20
136.92651570267512
 10
141.8324406035081
 20
137.17903570267512
 10
141.8466806035081
 20
137.43260570267512
 10
141.84903060350808
 20
137.58604570267511
 10
141.84903060350808
 20
142.03476570267512
  0
LWPOLYLINE
  5
271
100
AcDbEntity
  8
SENZA_NOME
390
0
100
AcDbPolyline
 90
      145
 70
               0
 10
202.85369060350811
 20
133.74463570267511
 10
203.1066006035081
 20
133.76789570267513
 10
203.35800060350812
 20
133.80395570267513
 10
203.6072406035081
 20
133.85274570267512
 10
203.85369060350811
 20
133.91412570267511
 10
204.09670060350811
 20
133.98793570267512
 10
204.3356406035081
 20
134.07399570267512
 10
204.56991060350811
 20
134.17207570267513
 10
204.79890060350812
 20
134.28192570267512
 10
205.02202060350811
 20
134.40325570267512
 10
205.2386806035081
 20
134.53576570267512
 10
205.44834060350811
 20
134.67910570267512
 10
205.65045060350809
 20
134.83290570267513
 10
205.84448060350809
 20
134.99676570267513
 10
206.0299506035081
 20
135.17027570267513
 10
206.20637060350811
 20
135.35297570267511
 10
206.37328060350811
 20
135.54439570267513
 10
206.53026060350811
 20
135.74404570267512
 10
206.6768906035081
 20
135.95140570267512
 10
206.8128106035081
 20
136.16595570267512
 10
206.93766060350811
 20
136.38711570267512
 10
207.05112060350811
 20
136.61433570267513
 10
207.1528906035081
 20
136.84702570267513
 10
207.2427206035081
 20
137.08458570267513
 10
207.32036060350811
 20
137.32639570267511
 10
207.3856306035081
 20
137.57184570267512
 10
207.4383506035081
 20
137.82028570267511
 10
207.4783906035081
 20
138.07107570267513
 10
207.50564060350811
 20
138.32358570267513
 10
207.52004060350811
 20
138.57714570267512
 10
207.5215406035081
 20
138.83111570267513
 10
207.51014060350809
 20
139.08483570267512
 10
207.48587060350809
 20
139.33764570267513
 10
207.44880060350809
 20
139.58889570267513
 10
207.39902060350809
 20
139.83794570267511
 10
207.3366506035081
 20
140.08414570267513
 10
207.2618706035081
 20
140.32685570267512
 10
207.1748506035081
 20
140.56545570267514
 10
207.07583060350811
 20
140.79932570267513
 10
206.96507060350811
 20
141.02787570267512
 10
206.84284060350811
 20
141.25050570267513
 10
206.70947060350809
 20
141.46663570267512
 10
206.56529060350809
 20
141.67571570267512
 10
206.4106806035081
 20
141.87720570267513
 10
206.24604060350811
 20
142.07058570267512
 10
206.07180060350811
 20
142.25535570267513
 10
205.8883906035081
 20
142.43104570267514
 10
205.69630060350809
 20
142.59718570267512
 10
205.4960306035081
 20
142.75336570267513
 10
205.28808060350809
 20
142.89916570267513
 10
205.07299060350809
 20
143.03422570267512
 10
204.8513306035081
 20
143.15818570267513
 10
204.62365060350811
 20
143.27073570267513
 10
204.39056060350811
 20
143.37157570267513
 10
204.1526406035081
 20
143.46044570267512
 10
203.9105206035081
 20
143.53712570267513
 10
203.6648206035081
 20
143.60141570267513
 10
203.41617060350811
 20
143.65313570267512
 10
203.16521060350811
 20
143.69217570267512
 10
203.14303060350809
 20
143.69499570267513
 10
202.57422060350811
 20
143.76614570267512
 10
198.59412060350812
 20
144.22939570267513
 10
194.61160060350809
 20
144.66111570267512
 10
190.62626060350811
 20
145.05868570267512
 10
186.64078060350809
 20
145.42232570267512
 10
182.65295060350812
 20
145.75201570267512
 10
178.66745060350812
 20
146.04759570267512
 10
174.68186060350811
 20
146.30668570267511
 10
170.69405060350809
 20
146.52957570267512
 10
169.0855606035081
 20
146.60575570267511
 10
168.83165060350811
 20
146.61131570267511
 10
168.5777806035081
 20
146.60398570267512
 10
168.32461060350809
 20
146.58377570267513
 10
168.07280060350809
 20
146.55072570267512
 10
167.82299060350809
 20
146.50493570267511
 10
167.57583060350811
 20
146.44652570267513
 10
167.33195060350809
 20
146.37563570267511
 10
167.09198060350809
 20
146.29245570267511
 10
166.85655060350808
 20
146.19719570267512
 10
166.62626060350809
 20
146.09010570267512
 10
166.40170060350809
 20
145.97146570267512
 10
166.18346060350811
 20
145.84156570267513
 10
165.9721006035081
 20
145.70075570267511
 10
165.76816060350811
 20
145.54939570267513
 10
165.57216060350811
 20
145.38787570267513
 10
165.3846306035081
 20
145.21660570267511
 10
165.20603060350808
 20
145.03604570267512
 10
165.03683060350809
 20
144.84663570267512
 10
164.8774606035081
 20
144.64888570267513
 10
164.72835060350809
 20
144.44330570267513
 10
164.5898606035081
 20
144.23040570267511
 10
164.4623606035081
 20
144.01075570267511
 10
164.34619060350809
 20
143.78491570267511
 10
164.2416306035081
 20
143.55346570267511
 10
164.1489506035081
 20
143.31700570267512
 10
164.06841060350808
 20
143.07614570267512
 10
164.00019060350809
 20
142.83150570267512
 10
163.94449060350809
 20
142.58371570267514
 10
163.90144060350809
 20
142.33341570267513
 10
163.87116060350809
 20
142.08125570267512
 10
163.85372060350809
 20
141.82787570267513
 10
163.84903060350808
 20
141.61134570267512
 10
163.84903060350808
 20
137.28681570267511
 10
163.85548060350808
 20
137.03292570267513
 10
163.87481060350811
 20
136.77968570267512
 10
163.90698060350809
 20
136.52776570267511
 10
163.95190060350811
 20
136.27779570267512
 10
164.0094606035081
 20
136.03042570267513
 10
164.07950060350811
 20
135.78630570267512
 10
164.1618406035081
 20
135.54604570267512
 10
164.25628060350809
 20
135.31028570267512
 10
164.36257060350809
 20
135.07962570267512
 10
164.4804406035081
 20
134.85465570267513
 10
164.6095706035081
 20
134.63596570267512
 10
164.74965060350809
 20
134.42411570267512
 10
164.9003006035081
 20
134.21964570267511
 10
165.0611306035081
 20
134.02309570267514
 10
165.23175060350809
 20
133.83496570267513
 10
165.41169060350811
 20
133.65573570267512
 10
165.6005106035081
 20
133.48588570267512
 10
165.7977006035081
 20
133.32583570267514
 10
166.00277060350808
 20
133.17599570267512
 10
166.21518060350809
 20
133.03677570267513
 10
166.43439060350809
 20
132.90851570267512
 10
166.65982060350811
 20
132.79155570267511
 10
166.8909106035081
 20
132.68618570267512
 10
167.12705060350811
 20
132.59269570267512
 10
167.3676306035081
 20
132.51130570267512
 10
167.61203060350809
 20
132.44224570267511
 10
167.85962060350809
 20
132.38568570267512
 10
168.10977060350808
 20
132.34176570267513
 10
168.36182060350811
 20
132.31060570267513
 10
168.61513060350811
 20
132.29228570267512
 10
168.8690506035081
 20
132.28685570267513
 10
168.91529060350808
 20
132.28725570267511
 10
169.1835206035081
 20
132.29080570267513
 10
173.21981060350811
 20
132.37347570267514
 10
177.26094060350809
 20
132.48296570267513
 10
181.30453060350811
 20
132.61920570267512
 10
185.35290060350809
 20
132.78240570267513
 10
189.4089706035081
 20
132.96755570267513
 10
193.4721206035081
 20
133.17960570267513
 10
197.54471060350809
 20
133.41155570267512
 10
201.6247806035081
 20
133.66305570267514
 10
202.85369060350811
 20
133.74463570267511
  0
ENDSEC
  0
SECTION
  2
OBJECTS
  0
DICTIONARY
  5
19
100
AcDbDictionary
280
               0
281
               1
  3
ACAD_GROUP
350
1A
  3
ACAD_MLINESTYLE
350
1B
  3
ACAD_LAYOUT
350
1E
  3
ACAD_PLOTSETTINGS
350
22
  3
ACAD_PLOTSTYLENAME
350
1F
  0
DICTIONARY
  5
1A
102
{ACAD_REACTORS
330
19
102
}
100
AcDbDictionary
280
               0
281
               1
  0
DICTIONARY
  5
1B
102
{ACAD_REACTORS
330
19
102
}
100
AcDbDictionary
280
               0
281
               1
  3
Standard
350
1C
  0
MLINESTYLE
  5
1C
102
{ACAD_REACTORS
330
1B
102
}
100
AcDbMlineStyle
  2
Standard
 70
               0
  3

 62
               0
 51
90.0
 52
90.0
 71
               2
 49
0.5
 62
             256
  6
ByLayer
 49
-0.5
 62
             256
  6
ByLayer
  0
ACDBDICTIONARYWDFLT
  5
1F
102
{ACAD_REACTORS
330
19
102
}
100
AcDbDictionary
281
               1
  3
Normal
350
1D
100
AcDbDictionaryWithDefault
340
1D
  0
ACDBPLACEHOLDER
  5
1D
102
{ACAD_REACTORS
330
1F
102
}
  0
LAYOUT
  5
20
102
{ACAD_REACTORS
330
1E
102
}
100
AcDbPlotSettings
  1

  2

  4

  6

 40
0.0
 41
0.0
 42
0.0
 43
0.0
 44
0.0
 45
0.0
 46
0.0
 47
0.0
 48
0.0
 49
0.0
140
0.0
141
0.0
142
1.0
143
1.0
 70
            1024
 72
               0
 73
               0
 74
               0
  7

 75
               0
147
1.0
148
0.0
149
0.0
100
AcDbLayout
  1
Model
 70
               0
 71
               0
 10
0.0
 20
0.0
 11
0.0
 21
0.0
 12
0.0
 22
0.0
 32
0.0
 14
0.0
 24
0.0
 34
0.0
 15
0.0
 25
0.0
 35
0.0
146
0.0
 13
0.0
 23
0.0
 33
0.0
 16
0.0
 26
0.0
 36
0.0
 17
0.0
 27
0.0
 37
0.0
 76
               0
330
A
331
0
345
0
346
0
  0
LAYOUT
  5
21
102
{ACAD_REACTORS
330
1E
102
}
100
AcDbPlotSettings
  1

  2

  4

  6

 40
0.0
 41
0.0
 42
0.0
 43
0.0
 44
0.0
 45
0.0
 46
0.0
 47
0.0
 48
0.0
 49
0.0
140
0.0
141
0.0
142
1.0
143
1.0
 70
               0
 72
               0
 73
               0
 74
               0
  7

 75
               0
147
1.0
148
0.0
149
0.0
100
AcDbLayout
  1
Layout1
 70
               0
 71
               0
 10
0.0
 20
0.0
 11
0.0
 21
0.0
 12
0.0
 22
0.0
 32
0.0
 14
0.0
 24
0.0
 34
0.0
 15
0.0
 25
0.0
 35
0.0
146
0.0
 13
0.0
 23
0.0
 33
0.0
 16
0.0
 26
0.0
 36
0.0
 17
0.0
 27
0.0
 37
0.0
 76
               0
330
B
331
0
345
0
346
0
  0
DICTIONARY
  5
1E
102
{ACAD_REACTORS
330
19
102
}
100
AcDbDictionary
280
               0
281
               1
  3
Layout1
350
21
  3
Model
350
20
  0
DICTIONARY
  5
22
102
{ACAD_REACTORS
330
19
102
}
100
AcDbDictionary
280
               0
281
               1
  0
ENDSEC
  0
EOF
