  0
SECTION
  2
HEADER
  9
$ACADVER
  1
AC1015
  9
$ACADMAINTVER
 70
               6
  9
$DWGCODEPAGE
  3
DOS437
  9
$INSBASE
 10
0.0
 20
0.0
 30
0.0
  9
$EXTMIN
 10
4.5924730284262045
 20
-252.27062614772399
 30
1.0000000000000000E+20
  9
$EXTMAX
 10
921.68768338460518
 20
163.60239398555538
 30
-1.0000000000000000E+20
  9
$LIMMIN
 10
0.0
 20
0.0
  9
$LIMMAX
 10
0.0
 20
0.0
  9
$ORTHOMODE
 70
               0
  9
$REGENMODE
 70
               1
  9
$FILLMODE
 70
               1
  9
$QTEXTMODE
 70
               0
  9
$MIRRTEXT
 70
               1
  9
$LTSCALE
 40
0.1
  9
$ATTMODE
 70
               1
  9
$TEXTSIZE
 40
0.2
  9
$TRACEWID
 40
0.05
  9
$TEXTSTYLE
  7
Standard
  9
$CLAYER
  8
0
  9
$CELTYPE
  6
ByLayer
  9
$CECOLOR
 62
             256
  9
$CELTSCALE
 40
1.0
  9
$DISPSILH
 70
               0
  9
$DIMSCALE
 40
1.0
  9
$DIMASZ
 40
0.18
  9
$DIMEXO
 40
0.0625
  9
$DIMDLI
 40
0.38
  9
$DIMRND
 40
0.0
  9
$DIMDLE
 40
0.0
  9
$DIMEXE
 40
0.18
  9
$DIMTP
 40
0.0
  9
$DIMTM
 40
0.0
  9
$DIMTXT
 40
0.18
  9
$DIMCEN
 40
0.09
  9
$DIMTSZ
 40
0.0
  9
$DIMTOL
 70
               0
  9
$DIMLIM
 70
               0
  9
$DIMTIH
 70
               1
  9
$DIMTOH
 70
               1
  9
$DIMSE1
 70
               0
  9
$DIMSE2
 70
               0
  9
$DIMTAD
 70
               0
  9
$DIMZIN
 70
               0
  9
$DIMBLK
  1

  9
$DIMASO
 70
               1
  9
$DIMSHO
 70
               1
  9
$DIMPOST
  1

  9
$DIMAPOST
  1

  9
$DIMALT
 70
               0
  9
$DIMALTD
 70
               2
  9
$DIMALTF
 40
25.399999999999999
  9
$DIMLFAC
 40
1.0
  9
$DIMTOFL
 70
               0
  9
$DIMTVP
 40
0.0
  9
$DIMTIX
 70
               0
  9
$DIMSOXD
 70
               0
  9
$DIMSAH
 70
               0
  9
$DIMBLK1
  1

  9
$DIMBLK2
  1

  9
$DIMSTYLE
  2
Standard
  9
$DIMCLRD
 70
               0
  9
$DIMCLRE
 70
               0
  9
$DIMCLRT
 70
               0
  9
$DIMTFAC
 40
1.0
  9
$DIMGAP
 40
0.09
  9
$DIMJUST
 70
               0
  9
$DIMSD1
 70
               0
  9
$DIMSD2
 70
               0
  9
$DIMTOLJ
 70
               1
  9
$DIMTZIN
 70
               0
  9
$DIMALTZ
 70
               0
  9
$DIMALTTZ
 70
               0
  9
$DIMUPT
 70
               0
  9
$DIMDEC
 70
               4
  9
$DIMTDEC
 70
               4
  9
$DIMALTU
 70
               2
  9
$DIMALTTD
 70
               2
  9
$DIMTXSTY
  7
Standard
  9
$DIMAUNIT
 70
               0
  9
$DIMADEC
 70
               0
  9
$DIMALTRND
 40
0.0
  9
$DIMAZIN
 70
               0
  9
$DIMDSEP
 70
               0
  9
$DIMATFIT
 70
               3
  9
$DIMFRAC
 70
               0
  9
$DIMLDRBLK
  1

  9
$DIMLUNIT
 70
               2
  9
$DIMLWD
 70
               0
  9
$DIMLWE
 70
               0
  9
$DIMTMOVE
 70
               0
  9
$LUNITS
 70
               2
  9
$LUPREC
 70
               4
  9
$SKETCHINC
 40
0.1
  9
$FILLETRAD
 40
0.0
  9
$AUNITS
 70
               0
  9
$AUPREC
 70
               0
  9
$MENU
  1
acad
  9
$ELEVATION
 40
0.0
  9
$PELEVATION
 40
0.0
  9
$THICKNESS
 40
0.0
  9
$LIMCHECK
 70
               0
  9
$CHAMFERA
 40
0.0
  9
$CHAMFERB
 40
0.0
  9
$CHAMFERC
 40
0.0
  9
$CHAMFERD
 40
0.0
  9
$SKPOLY
 70
               0
  9
$TDCREATE
 40
0.000000000
  9
$TDUCREATE
 40
0.000000000
  9
$TDUPDATE
 40
0.000000000
  9
$TDUUPDATE
 40
0.000000000
  9
$TDINDWG
 40
0.0000000000
  9
$TDUSRTIMER
 40
0.0000000000
  9
$USRTIMER
 70
               1
  9
$ANGBASE
 50
0.0
  9
$ANGDIR
 70
               0
  9
$PDMODE
 70
               2
  9
$PDSIZE
 40
1.5
  9
$PLINEWID
 40
0.0
  9
$SPLFRAME
 70
               0
  9
$SPLINETYPE
 70
               6
  9
$SPLINESEGS
 70
               8
  9
$HANDSEED
  5
323
  9
$SURFTAB1
 70
               6
  9
$SURFTAB2
 70
               6
  9
$SURFTYPE
 70
               6
  9
$SURFU
 70
               6
  9
$SURFV
 70
               6
  9
$UCSBASE
  2

  9
$UCSNAME
  2

  9
$UCSORG
 10
0.0
 20
0.0
 30
0.0
  9
$UCSXDIR
 10
1.0
 20
0.0
 30
0.0
  9
$UCSYDIR
 10
0.0
 20
1.0
 30
0.0
  9
$UCSORTHOREF
  2

  9
$UCSORTHOVIEW
 70
               0
  9
$UCSORGTOP
 10
0.0
 20
0.0
 30
0.0
  9
$UCSORGBOTTOM
 10
0.0
 20
0.0
 30
0.0
  9
$UCSORGLEFT
 10
0.0
 20
0.0
 30
0.0
  9
$UCSORGRIGHT
 10
0.0
 20
0.0
 30
0.0
  9
$UCSORGFRONT
 10
0.0
 20
0.0
 30
0.0
  9
$UCSORGBACK
 10
0.0
 20
0.0
 30
0.0
  9
$PUCSBASE
  2

  9
$PUCSNAME
  2

  9
$PUCSORG
 10
0.0
 20
0.0
 30
0.0
  9
$PUCSXDIR
 10
1.0
 20
0.0
 30
0.0
  9
$PUCSYDIR
 10
0.0
 20
1.0
 30
0.0
  9
$PUCSORTHOREF
  2

  9
$PUCSORTHOVIEW
 70
               0
  9
$PUCSORGTOP
 10
0.0
 20
0.0
 30
0.0
  9
$PUCSORGBOTTOM
 10
0.0
 20
0.0
 30
0.0
  9
$PUCSORGLEFT
 10
0.0
 20
0.0
 30
0.0
  9
$PUCSORGRIGHT
 10
0.0
 20
0.0
 30
0.0
  9
$PUCSORGFRONT
 10
0.0
 20
0.0
 30
0.0
  9
$PUCSORGBACK
 10
0.0
 20
0.0
 30
0.0
  9
$USERI1
 70
               0
  9
$USERI2
 70
               0
  9
$USERI3
 70
               0
  9
$USERI4
 70
               0
  9
$USERI5
 70
               0
  9
$USERR1
 40
0.0
  9
$USERR2
 40
0.0
  9
$USERR3
 40
0.0
  9
$USERR4
 40
0.0
  9
$USERR5
 40
0.0
  9
$WORLDVIEW
 70
               1
  9
$SHADEDGE
 70
               3
  9
$SHADEDIF
 70
              70
  9
$TILEMODE
 70
               1
  9
$MAXACTVP
 70
              16
  9
$PINSBASE
 10
0.0
 20
0.0
 30
0.0
  9
$PLIMCHECK
 70
               0
  9
$PEXTMIN
 10
1.0000000000000000E+20
 20
1.0000000000000000E+20
 30
1.0000000000000000E+20
  9
$PEXTMAX
 10
-1.0000000000000000E+20
 20
-1.0000000000000000E+20
 30
-1.0000000000000000E+20
  9
$PLIMMIN
 10
0.0
 20
0.0
  9
$PLIMMAX
 10
12.0
 20
9.0
  9
$UNITMODE
 70
               0
  9
$VISRETAIN
 70
               0
  9
$PLINEGEN
 70
               1
  9
$PSLTSCALE
 70
               0
  9
$TREEDEPTH
 70
            3020
  9
$CMLSTYLE
  2
Standard
  9
$CMLJUST
 70
               0
  9
$CMLSCALE
 40
1.0
  9
$PROXYGRAPHICS
 70
               0
  9
$MEASUREMENT
 70
               0
  9
$CELWEIGHT
370
              -1
  9
$ENDCAPS
280
               0
  9
$JOINSTYLE
280
               0
  9
$LWDISPLAY
290
               0
  9
$INSUNITS
 70
               0
  9
$HYPERLINKBASE
  1

  9
$STYLESHEET
  1

  9
$XEDIT
290
               1
  9
$CEPSNTYPE
380
               0
  9
$PSTYLEMODE
290
               1
  9
$FINGERPRINTGUID
  2

  9
$VERSIONGUID
  2

  9
$EXTNAMES
290
               1
  9
$PSVPSCALE
 40
0.0
  0
ENDSEC
  0
SECTION
  2
CLASSES
  0
CLASS
  1
LWPOLYLINE
  2
AcDbPolyline
  3
AutoCAD 2000
 90
        0
280
               0
281
               1
  0
CLASS
  1
IMAGE
  2
AcDbRasterImage
  3
ISM
 90
      127
280
               0
281
               1
  0
CLASS
  1
OLE2FRAME
  2
AcDbOle2Frame
  3
AutoCAD 2000
 90
        0
280
               0
281
               1
  0
CLASS
  1
HATCH
  2
AcDbHatch
  3
AutoCAD 2000
 90
        0
280
               0
281
               1
  0
CLASS
  1
DICTIONARYVAR
  2
AcDbDictionaryVar
  3
AutoCAD 2000
 90
        0
280
               0
281
               0
  0
CLASS
  1
RASTERVARIABLES
  2
AcDbRasterVariables
  3
ISM
 90
        0
280
               0
281
               0
  0
CLASS
  1
IMAGEDEF
  2
AcDbRasterImageDef
  3
ISM
 90
        0
280
               0
281
               0
  0
CLASS
  1
IMAGEDEF_REACTOR
  2
AcDbRasterImageDefReactor
  3
ISM
 90
        1
280
               0
281
               0
  0
CLASS
  1
IDBUFFER
  2
AcDbIdBuffer
  3
AutoCAD 2000
 90
        0
280
               0
281
               0
  0
CLASS
  1
SPATIAL_FILTER
  2
AcDbSpatialFilter
  3
AutoCAD 2000
 90
        0
280
               0
281
               0
  0
CLASS
  1
XRECORD
  2
AcDbXrecord
  3
AutoCAD 2000
 90
        0
280
               0
281
               0
  0
CLASS
  1
SORTENTSTABLE
  2
AcDbSortentsTable
  3
AutoCAD 2000
 90
        0
280
               0
281
               0
  0
CLASS
  1
LAYER_INDEX
  2
AcDbLayerIndex
  3
AutoCAD 2000
 90
        0
280
               0
281
               0
  0
CLASS
  1
SPATIAL_INDEX
  2
AcDbSpatialIndex
  3
AutoCAD 2000
 90
        0
280
               0
281
               0
  0
CLASS
  1
OBJECT_PTR
  2
CAseDLPNTableRecord
  3
"ASE-LPNTableRecord"
 90
        1
280
               0
281
               0
  0
CLASS
  1
LAYOUT
  2
AcDbLayout
  3
AutoCAD 2000
 90
        0
280
               0
281
               0
  0
CLASS
  1
PLOTSETTINGS
  2
AcDbPlotSettings
  3
AutoCAD 2000
 90
        0
280
               0
281
               0
  0
CLASS
  1
ACDBDICTIONARYWDFLT
  2
AcDbDictionaryWithDefault
  3
AutoCAD 2000
 90
        0
280
               0
281
               0
  0
CLASS
  1
ACDBPLACEHOLDER
  2
AcDbPlaceHolder
  3
AutoCAD 2000
 90
        0
280
               0
281
               0
  0
ENDSEC
  0
SECTION
  2
TABLES
  0
TABLE
  2
VPORT
  5
7
100
AcDbSymbolTable
 70
               1
  0
VPORT
  5
15
100
AcDbSymbolTableRecord
100
AcDbViewportTableRecord
  2
*ACTIVE
 70
               0
 10
0.0
 20
0.0
 11
1.0
 21
1.0
 12
6.5912879999999996
 22
4.5791839999999997
 13
0.0
 23
0.0
 14
1.0
 24
1.0
 15
0.0
 25
0.0
 16
0.0
 26
0.0
 36
1.0
 17
0.0
 27
0.0
 37
0.0
 40
9.1583690000000004
 41
0.688564
 42
50.0
 43
0.0
 44
0.0
 50
0.0
 51
0.0
 71
               0
 72
             100
 73
               1
 74
               1
 75
               0
 76
               0
 77
               0
 78
               0
281
               0
 65
               0
110
0.0
120
0.0
130
0.0
111
1.0
121
0.0
131
0.0
112
0.0
122
1.0
132
0.0
345
0
346
0
 79
               0
146
0.0
  0
ENDTAB
  0
TABLE
  2
LTYPE
  5
4
100
AcDbSymbolTable
 70
              48
  0
LTYPE
  5
11
100
AcDbSymbolTableRecord
100
AcDbLinetypeTableRecord
  2
ByBlock
 70
              64
  3

 72
              65
 73
               0
 40
0.0
  0
LTYPE
  5
12
100
AcDbSymbolTableRecord
100
AcDbLinetypeTableRecord
  2
ByLayer
 70
              64
  3

 72
              65
 73
               0
 40
0.0
  0
LTYPE
  5
13
100
AcDbSymbolTableRecord
100
AcDbLinetypeTableRecord
  2
Continuous
 70
              64
  3
Solid line
 72
              65
 73
               0
 40
0.0
  0
LTYPE
  5
23
100
AcDbSymbolTableRecord
100
AcDbLinetypeTableRecord
  2
DOTTED
 70
              64
  3
Punteggiato
 72
              65
 73
               2
 40
12.0
 49
2.0
 74
               0
 49
-10.0
 74
               0
  0
LTYPE
  5
24
100
AcDbSymbolTableRecord
100
AcDbLinetypeTableRecord
  2
DASHEDS
 70
              64
  3
Tratteggiato piccolo
 72
              65
 73
               2
 40
20.0
 49
10.0
 74
               0
 49
-10.0
 74
               0
  0
LTYPE
  5
25
100
AcDbSymbolTableRecord
100
AcDbLinetypeTableRecord
  2
DASHEDM
 70
              64
  3
Tratteggiato medio
 72
              65
 73
               2
 40
40.0
 49
20.0
 74
               0
 49
-20.0
 74
               0
  0
LTYPE
  5
26
100
AcDbSymbolTableRecord
100
AcDbLinetypeTableRecord
  2
DASHEDL
 70
              64
  3
Tratteggiato grande
 72
              65
 73
               2
 40
60.0
 49
40.0
 74
               0
 49
-20.0
 74
               0
  0
LTYPE
  5
27
100
AcDbSymbolTableRecord
100
AcDbLinetypeTableRecord
  2
CENTERED
 70
              64
  3
Tratteggiato misto
 72
              65
 73
               4
 40
70.0
 49
10.0
 74
               0
 49
-20.0
 74
               0
 49
20.0
 74
               0
 49
-20.0
 74
               0
  0
LTYPE
  5
28
100
AcDbSymbolTableRecord
100
AcDbLinetypeTableRecord
  2
POINTLINE
 70
              64
  3
Punto e linea
 72
              65
 73
               4
 40
62.0
 49
20.0
 74
               0
 49
-20.0
 74
               0
 49
2.0
 74
               0
 49
-20.0
 74
               0
  0
LTYPE
  5
29
100
AcDbSymbolTableRecord
100
AcDbLinetypeTableRecord
  2
2POINTLINE
 70
              64
  3
Due punti e linea
 72
              65
 73
               6
 40
84.0
 49
20.0
 74
               0
 49
-20.0
 74
               0
 49
2.0
 74
               0
 49
-20.0
 74
               0
 49
2.0
 74
               0
 49
-20.0
 74
               0
  0
LTYPE
  5
2A
100
AcDbSymbolTableRecord
100
AcDbLinetypeTableRecord
  2
ACAD_ISO02W100
 70
              64
  3
ISO Tratteggiata
 72
              65
 73
               2
 40
150.0
 49
120.0
 74
               0
 49
-30.0
 74
               0
  0
LTYPE
  5
2B
100
AcDbSymbolTableRecord
100
AcDbLinetypeTableRecord
  2
ACAD_ISO03W100
 70
              64
  3
ISO Tratto spazio
 72
              65
 73
               2
 40
300.0
 49
120.0
 74
               0
 49
-180.0
 74
               0
  0
LTYPE
  5
2C
100
AcDbSymbolTableRecord
100
AcDbLinetypeTableRecord
  2
ACAD_ISO04W100
 70
              64
  3
ISO Tratto lungo punto
 72
              65
 73
               4
 40
305.0
 49
240.0
 74
               0
 49
-30.0
 74
               0
 49
5.0
 74
               0
 49
-30.0
 74
               0
  0
LTYPE
  5
2D
100
AcDbSymbolTableRecord
100
AcDbLinetypeTableRecord
  2
ACAD_ISO05W100
 70
              64
  3
ISO Tratto lungo doppio punto
 72
              65
 73
               6
 40
340.0
 49
240.0
 74
               0
 49
-30.0
 74
               0
 49
5.0
 74
               0
 49
-30.0
 74
               0
 49
5.0
 74
               0
 49
-30.0
 74
               0
  0
LTYPE
  5
2E
100
AcDbSymbolTableRecord
100
AcDbLinetypeTableRecord
  2
ACAD_ISO06W100
 70
              64
  3
ISO Tratto lungo triplo punto
 72
              65
 73
               8
 40
375.0
 49
240.0
 74
               0
 49
-30.0
 74
               0
 49
5.0
 74
               0
 49
-30.0
 74
               0
 49
5.0
 74
               0
 49
-30.0
 74
               0
 49
5.0
 74
               0
 49
-30.0
 74
               0
  0
LTYPE
  5
2F
100
AcDbSymbolTableRecord
100
AcDbLinetypeTableRecord
  2
ACAD_ISO07W100
 70
              64
  3
ISO Punteggiata
 72
              65
 73
               2
 40
35.0
 49
5.0
 74
               0
 49
-30.0
 74
               0
  0
LTYPE
  5
30
100
AcDbSymbolTableRecord
100
AcDbLinetypeTableRecord
  2
ACAD_ISO08W100
 70
              64
  3
ISO Tratto lungo tratto corto
 72
              65
 73
               4
 40
360.0
 49
240.0
 74
               0
 49
-30.0
 74
               0
 49
60.0
 74
               0
 49
-30.0
 74
               0
  0
LTYPE
  5
31
100
AcDbSymbolTableRecord
100
AcDbLinetypeTableRecord
  2
ACAD_ISO09W100
 70
              64
  3
ISO Tratto lungo doppio tratto corto
 72
              65
 73
               6
 40
450.0
 49
240.0
 74
               0
 49
-30.0
 74
               0
 49
60.0
 74
               0
 49
-30.0
 74
               0
 49
60.0
 74
               0
 49
-30.0
 74
               0
  0
LTYPE
  5
32
100
AcDbSymbolTableRecord
100
AcDbLinetypeTableRecord
  2
ACAD_ISO10W100
 70
              64
  3
ISO Tratto punto
 72
              65
 73
               4
 40
185.0
 49
120.0
 74
               0
 49
-30.0
 74
               0
 49
5.0
 74
               0
 49
-30.0
 74
               0
  0
LTYPE
  5
33
100
AcDbSymbolTableRecord
100
AcDbLinetypeTableRecord
  2
ACAD_ISO11W100
 70
              64
  3
ISO Doppio tratto punto
 72
              65
 73
               6
 40
335.0
 49
120.0
 74
               0
 49
-30.0
 74
               0
 49
120.0
 74
               0
 49
-30.0
 74
               0
 49
5.0
 74
               0
 49
-30.0
 74
               0
  0
LTYPE
  5
34
100
AcDbSymbolTableRecord
100
AcDbLinetypeTableRecord
  2
ACAD_ISO12W100
 70
              64
  3
ISO Tratto doppio punto
 72
              65
 73
               6
 40
220.0
 49
120.0
 74
               0
 49
-30.0
 74
               0
 49
5.0
 74
               0
 49
-30.0
 74
               0
 49
5.0
 74
               0
 49
-30.0
 74
               0
  0
LTYPE
  5
35
100
AcDbSymbolTableRecord
100
AcDbLinetypeTableRecord
  2
ACAD_ISO13W100
 70
              64
  3
ISO Doppio tratto doppio punto
 72
              65
 73
               8
 40
370.0
 49
120.0
 74
               0
 49
-30.0
 74
               0
 49
120.0
 74
               0
 49
-30.0
 74
               0
 49
5.0
 74
               0
 49
-30.0
 74
               0
 49
5.0
 74
               0
 49
-30.0
 74
               0
  0
LTYPE
  5
36
100
AcDbSymbolTableRecord
100
AcDbLinetypeTableRecord
  2
ACAD_ISO14W100
 70
              64
  3
ISO Tratto triplo punto
 72
              65
 73
               8
 40
255.0
 49
120.0
 74
               0
 49
-30.0
 74
               0
 49
5.0
 74
               0
 49
-30.0
 74
               0
 49
5.0
 74
               0
 49
-30.0
 74
               0
 49
5.0
 74
               0
 49
-30.0
 74
               0
  0
LTYPE
  5
37
100
AcDbSymbolTableRecord
100
AcDbLinetypeTableRecord
  2
ACAD_ISO15W100
 70
              64
  3
ISO Doppio tratto triplo punto
 72
              65
 73
              10
 40
405.0
 49
120.0
 74
               0
 49
-30.0
 74
               0
 49
120.0
 74
               0
 49
-30.0
 74
               0
 49
5.0
 74
               0
 49
-30.0
 74
               0
 49
5.0
 74
               0
 49
-30.0
 74
               0
 49
5.0
 74
               0
 49
-30.0
 74
               0
  0
LTYPE
  5
38
100
AcDbSymbolTableRecord
100
AcDbLinetypeTableRecord
  2
BORDER
 70
              64
  3
AutoCAD BORDER
 72
              65
 73
               6
 40
450.0
 49
128.0
 74
               0
 49
-64.0
 74
               0
 49
128.0
 74
               0
 49
-64.0
 74
               0
 49
2.0
 74
               0
 49
-64.0
 74
               0
  0
LTYPE
  5
39
100
AcDbSymbolTableRecord
100
AcDbLinetypeTableRecord
  2
BORDER2
 70
              64
  3
AutoCAD BORDER2
 72
              65
 73
               6
 40
226.0
 49
64.0
 74
               0
 49
-32.0
 74
               0
 49
64.0
 74
               0
 49
-32.0
 74
               0
 49
2.0
 74
               0
 49
-32.0
 74
               0
  0
LTYPE
  5
3A
100
AcDbSymbolTableRecord
100
AcDbLinetypeTableRecord
  2
BORDERX2
 70
              64
  3
AutoCAD BORDERX2
 72
              65
 73
               6
 40
898.0
 49
256.0
 74
               0
 49
-128.0
 74
               0
 49
256.0
 74
               0
 49
-128.0
 74
               0
 49
2.0
 74
               0
 49
-128.0
 74
               0
  0
LTYPE
  5
3B
100
AcDbSymbolTableRecord
100
AcDbLinetypeTableRecord
  2
CENTER
 70
              64
  3
AutoCAD CENTER
 72
              65
 73
               4
 40
512.0
 49
320.0
 74
               0
 49
-64.0
 74
               0
 49
64.0
 74
               0
 49
-64.0
 74
               0
  0
LTYPE
  5
3C
100
AcDbSymbolTableRecord
100
AcDbLinetypeTableRecord
  2
CENTER2
 70
              64
  3
AutoCAD CENTER2
 72
              65
 73
               4
 40
256.0
 49
160.0
 74
               0
 49
-32.0
 74
               0
 49
32.0
 74
               0
 49
-32.0
 74
               0
  0
LTYPE
  5
3D
100
AcDbSymbolTableRecord
100
AcDbLinetypeTableRecord
  2
CENTERX2
 70
              64
  3
AutoCAD CENTERX2
 72
              65
 73
               4
 40
1024.0
 49
640.0
 74
               0
 49
-128.0
 74
               0
 49
128.0
 74
               0
 49
-128.0
 74
               0
  0
LTYPE
  5
3E
100
AcDbSymbolTableRecord
100
AcDbLinetypeTableRecord
  2
DASHDOT
 70
              64
  3
AutoCAD DASHDOT
 72
              65
 73
               4
 40
258.0
 49
128.0
 74
               0
 49
-64.0
 74
               0
 49
2.0
 74
               0
 49
-64.0
 74
               0
  0
LTYPE
  5
3F
100
AcDbSymbolTableRecord
100
AcDbLinetypeTableRecord
  2
DASHDOT2
 70
              64
  3
AutoCAD DASHDOT2
 72
              65
 73
               4
 40
130.0
 49
64.0
 74
               0
 49
-32.0
 74
               0
 49
2.0
 74
               0
 49
-32.0
 74
               0
  0
LTYPE
  5
40
100
AcDbSymbolTableRecord
100
AcDbLinetypeTableRecord
  2
DASHDOTX2
 70
              64
  3
AutoCAD DASHDOTX2
 72
              65
 73
               4
 40
514.0
 49
256.0
 74
               0
 49
-128.0
 74
               0
 49
2.0
 74
               0
 49
-128.0
 74
               0
  0
LTYPE
  5
41
100
AcDbSymbolTableRecord
100
AcDbLinetypeTableRecord
  2
DASHED
 70
              64
  3
AutoCAD DASHED
 72
              65
 73
               2
 40
192.0
 49
128.0
 74
               0
 49
-64.0
 74
               0
  0
LTYPE
  5
42
100
AcDbSymbolTableRecord
100
AcDbLinetypeTableRecord
  2
DASHED2
 70
              64
  3
AutoCAD DASHED2
 72
              65
 73
               2
 40
96.0
 49
64.0
 74
               0
 49
-32.0
 74
               0
  0
LTYPE
  5
43
100
AcDbSymbolTableRecord
100
AcDbLinetypeTableRecord
  2
DASHEDX2
 70
              64
  3
AutoCAD DASHEDX2
 72
              65
 73
               2
 40
384.0
 49
256.0
 74
               0
 49
-128.0
 74
               0
  0
LTYPE
  5
44
100
AcDbSymbolTableRecord
100
AcDbLinetypeTableRecord
  2
DIVIDE
 70
              64
  3
AutoCAD DIVIDE
 72
              65
 73
               6
 40
324.0
 49
128.0
 74
               0
 49
-64.0
 74
               0
 49
2.0
 74
               0
 49
-64.0
 74
               0
 49
2.0
 74
               0
 49
-64.0
 74
               0
  0
LTYPE
  5
45
100
AcDbSymbolTableRecord
100
AcDbLinetypeTableRecord
  2
DIVIDE2
 70
              64
  3
AutoCAD DIVIDE2
 72
              65
 73
               6
 40
164.0
 49
64.0
 74
               0
 49
-32.0
 74
               0
 49
2.0
 74
               0
 49
-32.0
 74
               0
 49
2.0
 74
               0
 49
-32.0
 74
               0
  0
LTYPE
  5
46
100
AcDbSymbolTableRecord
100
AcDbLinetypeTableRecord
  2
DIVIDEX2
 70
              64
  3
AutoCAD DIVIDEX2
 72
              65
 73
               6
 40
644.0
 49
256.0
 74
               0
 49
-128.0
 74
               0
 49
2.0
 74
               0
 49
-128.0
 74
               0
 49
2.0
 74
               0
 49
-128.0
 74
               0
  0
LTYPE
  5
47
100
AcDbSymbolTableRecord
100
AcDbLinetypeTableRecord
  2
DOT
 70
              64
  3
AutoCAD DOT
 72
              65
 73
               2
 40
66.0
 49
2.0
 74
               0
 49
-64.0
 74
               0
  0
LTYPE
  5
48
100
AcDbSymbolTableRecord
100
AcDbLinetypeTableRecord
  2
DOT2
 70
              64
  3
AutoCAD DOT2
 72
              65
 73
               2
 40
34.0
 49
2.0
 74
               0
 49
-32.0
 74
               0
  0
LTYPE
  5
49
100
AcDbSymbolTableRecord
100
AcDbLinetypeTableRecord
  2
DOTX2
 70
              64
  3
AutoCAD DOTX2
 72
              65
 73
               2
 40
130.0
 49
2.0
 74
               0
 49
-128.0
 74
               0
  0
LTYPE
  5
4A
100
AcDbSymbolTableRecord
100
AcDbLinetypeTableRecord
  2
HIDDEN
 70
              64
  3
AutoCAD HIDDEN
 72
              65
 73
               2
 40
96.0
 49
64.0
 74
               0
 49
-32.0
 74
               0
  0
LTYPE
  5
4B
100
AcDbSymbolTableRecord
100
AcDbLinetypeTableRecord
  2
HIDDEN2
 70
              64
  3
AutoCAD HIDDEN2
 72
              65
 73
               2
 40
48.0
 49
32.0
 74
               0
 49
-16.0
 74
               0
  0
LTYPE
  5
4C
100
AcDbSymbolTableRecord
100
AcDbLinetypeTableRecord
  2
HIDDENX2
 70
              64
  3
AutoCAD HIDDENX2
 72
              65
 73
               2
 40
192.0
 49
128.0
 74
               0
 49
-64.0
 74
               0
  0
LTYPE
  5
4D
100
AcDbSymbolTableRecord
100
AcDbLinetypeTableRecord
  2
PHANTOM
 70
              64
  3
AutoCAD PHANTOM
 72
              65
 73
               6
 40
640.0
 49
320.0
 74
               0
 49
-64.0
 74
               0
 49
64.0
 74
               0
 49
-64.0
 74
               0
 49
64.0
 74
               0
 49
-64.0
 74
               0
  0
LTYPE
  5
4E
100
AcDbSymbolTableRecord
100
AcDbLinetypeTableRecord
  2
PHANTOM2
 70
              64
  3
AutoCAD PHANTOM2
 72
              65
 73
               6
 40
320.0
 49
160.0
 74
               0
 49
-32.0
 74
               0
 49
32.0
 74
               0
 49
-32.0
 74
               0
 49
32.0
 74
               0
 49
-32.0
 74
               0
  0
LTYPE
  5
4F
100
AcDbSymbolTableRecord
100
AcDbLinetypeTableRecord
  2
PHANTOMX2
 70
              64
  3
AutoCAD PHANTOMX2
 72
              65
 73
               6
 40
1280.0
 49
640.0
 74
               0
 49
-128.0
 74
               0
 49
128.0
 74
               0
 49
-128.0
 74
               0
 49
128.0
 74
               0
 49
-128.0
 74
               0
  0
ENDTAB
  0
TABLE
  2
LAYER
  5
2
100
AcDbSymbolTable
 70
               4
  0
LAYER
  5
14
100
AcDbSymbolTableRecord
100
AcDbLayerTableRecord
  2
0
 70
               0
 62
               7
  6
Continuous
290
               1
370
              -3
390
1D
  0
LAYER
  5
50
100
AcDbSymbolTableRecord
100
AcDbLayerTableRecord
  2
SENZA_NOME
 70
               0
 62
               7
  6
Continuous
290
               1
370
              -3
390
1D
  0
LAYER
  5
51
100
AcDbSymbolTableRecord
100
AcDbLayerTableRecord
  2
SENZA_NOME_2
 70
               0
 62
               7
  6
Continuous
290
               1
370
              -3
390
1D
  0
LAYER
  5
52
100
AcDbSymbolTableRecord
100
AcDbLayerTableRecord
  2
SENZA_NOME_3
 70
               0
 62
               7
  6
Continuous
290
               1
370
              -3
390
1D
  0
ENDTAB
  0
TABLE
  2
STYLE
  5
3
100
AcDbSymbolTable
 70
              10
  0
STYLE
  5
17
100
AcDbSymbolTableRecord
100
AcDbTextStyleTableRecord
  2
Standard
 70
               0
 40
0.0
 41
1.0
 50
0.0
 71
               0
 42
0.0
  3
txt
  4

  0
STYLE
  5
53
100
AcDbSymbolTableRecord
100
AcDbTextStyleTableRecord
  2
SIMPLEX
 70
               0
 40
10.0
 41
0.8
 50
0.0
 71
               0
 42
10.0
  3
simplex
  4

  0
STYLE
  5
54
100
AcDbSymbolTableRecord
100
AcDbTextStyleTableRecord
  2
EUROSTYLE
 70
               0
 40
10.0
 41
0.88
 50
0.0
 71
               0
 42
10.0
  3
isocp
  4

  0
STYLE
  5
55
100
AcDbSymbolTableRecord
100
AcDbTextStyleTableRecord
  2
SANSERIF
 70
               0
 40
10.0
 41
0.9
 50
0.0
 71
               0
 42
10.0
  3
romand
  4

  0
STYLE
  5
56
100
AcDbSymbolTableRecord
100
AcDbTextStyleTableRecord
  2
TRIPLEX
 70
               0
 40
10.0
 41
0.86
 50
0.0
 71
               0
 42
10.0
  3
romant
  4

  0
STYLE
  5
57
100
AcDbSymbolTableRecord
100
AcDbTextStyleTableRecord
  2
COMPLEX
 70
               0
 40
10.0
 41
1.0
 50
0.0
 71
               0
 42
10.0
  3
complex
  4

  0
STYLE
  5
58
100
AcDbSymbolTableRecord
100
AcDbTextStyleTableRecord
  2
SCRIPT
 70
               0
 40
10.0
 41
0.98
 50
0.0
 71
               0
 42
10.0
  3
scripts
  4

  0
STYLE
  5
59
100
AcDbSymbolTableRecord
100
AcDbTextStyleTableRecord
  2
TRISCRIPT
 70
               0
 40
10.0
 41
0.89
 50
0.0
 71
               0
 42
10.0
  3
italict
  4

  0
STYLE
  5
5A
100
AcDbSymbolTableRecord
100
AcDbTextStyleTableRecord
  2
BOLD
 70
               0
 40
10.0
 41
0.77
 50
0.0
 71
               0
 42
10.0
  3
romand
  4

  0
STYLE
  5
5B
100
AcDbSymbolTableRecord
100
AcDbTextStyleTableRecord
  2
GOTHIC
 70
               0
 40
10.0
 41
0.86
 50
0.0
 71
               0
 42
10.0
  3
gothice
  4

  0
ENDTAB
  0
TABLE
  2
VIEW
  5
5
100
AcDbSymbolTable
 70
               0
  0
ENDTAB
  0
TABLE
  2
UCS
  5
6
100
AcDbSymbolTable
 70
               0
  0
ENDTAB
  0
TABLE
  2
APPID
  5
8
100
AcDbSymbolTable
 70
               1
  0
APPID
  5
16
100
AcDbSymbolTableRecord
100
AcDbRegAppTableRecord
  2
ACAD
 70
               0
  0
ENDTAB
  0
TABLE
  2
DIMSTYLE
  5
9
100
AcDbSymbolTable
 70
               1
100
AcDbDimStyleTable
 71
               0
  0
DIMSTYLE
105
18
100
AcDbSymbolTableRecord
100
AcDbDimStyleTableRecord
  2
Standard
 70
               0
  3

  4

 40
1.0
 41
0.18
 42
0.0625
 43
0.38
 44
0.18
 45
0.0
 46
0.0
 47
0.0
 48
0.0
 71
               0
 72
               0
 73
               1
 74
               1
 75
               0
 76
               0
 77
               0
 78
               0
 79
               0
140
0.18
141
0.09
142
0.0
143
25.399999999999999
144
1.0
145
0.0
146
1.0
147
0.09
148
0.0
170
               0
171
               2
172
               0
173
               0
174
               0
175
               0
176
               0
177
               0
178
               0
179
               0
271
               4
272
               4
273
               2
274
               2
275
               0
276
               0
277
               2
278
              46
279
               0
280
               0
281
               0
282
               0
283
               1
284
               0
285
               0
286
               0
288
               0
289
               3
340
17
341
0
342
0
343
0
344
0
371
              -2
372
              -2
  0
ENDTAB
  0
TABLE
  2
BLOCK_RECORD
  5
1
100
AcDbSymbolTable
 70
              16
  0
BLOCK_RECORD
  5
A
100
AcDbSymbolTableRecord
100
AcDbBlockTableRecord
  2
*MODEL_SPACE
340
20
  0
BLOCK_RECORD
  5
B
100
AcDbSymbolTableRecord
100
AcDbBlockTableRecord
  2
*PAPER_SPACE
340
21
  0
BLOCK_RECORD
  5
C1
100
AcDbSymbolTableRecord
100
AcDbBlockTableRecord
  2
B032F6380
340
0
102
{BLKREFS
331
C7
102
}
  0
BLOCK_RECORD
  5
D6
100
AcDbSymbolTableRecord
100
AcDbBlockTableRecord
  2
B032F6960
340
0
102
{BLKREFS
331
DD
102
}
  0
BLOCK_RECORD
  5
DE
100
AcDbSymbolTableRecord
100
AcDbBlockTableRecord
  2
B032F6AFC
340
0
102
{BLKREFS
331
E5
102
}
  0
BLOCK_RECORD
  5
18C
100
AcDbSymbolTableRecord
100
AcDbBlockTableRecord
  2
B02BC0180
340
0
102
{BLKREFS
331
1CF
102
}
  0
BLOCK_RECORD
  5
19A
100
AcDbSymbolTableRecord
100
AcDbBlockTableRecord
  2
B02BC05BC
340
0
102
{BLKREFS
331
1CD
102
}
  0
BLOCK_RECORD
  5
19C
100
AcDbSymbolTableRecord
100
AcDbBlockTableRecord
  2
B02BC0608
340
0
102
{BLKREFS
331
1AA
102
}
  0
BLOCK_RECORD
  5
1D0
100
AcDbSymbolTableRecord
100
AcDbBlockTableRecord
  2
B0247A4B4
340
0
102
{BLKREFS
331
1DC
102
}
  0
BLOCK_RECORD
  5
1DD
100
AcDbSymbolTableRecord
100
AcDbBlockTableRecord
  2
B0247A7EC
340
0
102
{BLKREFS
331
1E4
102
}
  0
BLOCK_RECORD
  5
1E5
100
AcDbSymbolTableRecord
100
AcDbBlockTableRecord
  2
B0247A988
340
0
102
{BLKREFS
331
1EC
102
}
  0
BLOCK_RECORD
  5
1F3
100
AcDbSymbolTableRecord
100
AcDbBlockTableRecord
  2
B0247AD1C
340
0
102
{BLKREFS
331
1FA
102
}
  0
BLOCK_RECORD
  5
1FB
100
AcDbSymbolTableRecord
100
AcDbBlockTableRecord
  2
B0247AEB8
340
0
102
{BLKREFS
331
202
102
}
  0
BLOCK_RECORD
  5
203
100
AcDbSymbolTableRecord
100
AcDbBlockTableRecord
  2
B0247B054
340
0
102
{BLKREFS
331
20F
102
}
  0
BLOCK_RECORD
  5
210
100
AcDbSymbolTableRecord
100
AcDbBlockTableRecord
  2
B0247B38C
340
0
102
{BLKREFS
331
253
102
}
  0
BLOCK_RECORD
  5
21E
100
AcDbSymbolTableRecord
100
AcDbBlockTableRecord
  2
B0247B7C8
340
0
102
{BLKREFS
331
251
102
}
  0
BLOCK_RECORD
  5
220
100
AcDbSymbolTableRecord
100
AcDbBlockTableRecord
  2
B0247B814
340
0
102
{BLKREFS
331
22E
102
}
  0
BLOCK_RECORD
  5
2E3
100
AcDbSymbolTableRecord
100
AcDbBlockTableRecord
  2
B02467B24
340
0
102
{BLKREFS
331
2EA
102
}
  0
ENDTAB
  0
ENDSEC
  0
SECTION
  2
BLOCKS
  0
BLOCK
  5
D
100
AcDbEntity
  8
0
390
0
100
AcDbBlockBegin
  2
*MODEL_SPACE
 70
               0
 10
0.0
 20
0.0
 30
0.0
  3
*MODEL_SPACE
  1

  0
ENDBLK
  5
E
100
AcDbEntity
  8
0
390
0
100
AcDbBlockEnd
  0
BLOCK
  5
F
100
AcDbEntity
 67
               1
  8
0
390
0
100
AcDbBlockBegin
  2
*PAPER_SPACE
 70
               0
 10
0.0
 20
0.0
 30
0.0
  3
*PAPER_SPACE
  1

  0
ENDBLK
  5
10
100
AcDbEntity
 67
               1
  8
0
390
0
100
AcDbBlockEnd
  0
BLOCK
  5
C2
100
AcDbEntity
  8
0
390
0
100
AcDbBlockBegin
  2
B032F6380
 70
               0
 10
0.0
 20
0.0
 30
0.0
  3

  1

  0
CIRCLE
  5
C3
100
AcDbEntity
  8
0
370
              -3
390
0
  6
Continuous
100
AcDbCircle
 10
447.91011412660419
 20
34.747476216894285
 30
0.0
 40
6.5
  0
CIRCLE
  5
C4
100
AcDbEntity
  8
0
370
              -3
390
0
  6
Continuous
100
AcDbCircle
 10
429.9224809610526
 20
34.411258774547527
 30
0.0
 40
6.5
  0
CIRCLE
  5
C5
100
AcDbEntity
  8
0
370
              -3
390
0
  6
Continuous
100
AcDbCircle
 10
411.59863035315425
 20
34.579367495720902
 30
0.0
 40
6.5
  0
ENDBLK
  5
C6
100
AcDbEntity
  8
0
390
0
100
AcDbBlockEnd
  0
BLOCK
  5
D7
100
AcDbEntity
  8
0
390
0
100
AcDbBlockBegin
  2
B032F6960
 70
               0
 10
0.0
 20
0.0
 30
0.0
  3

  1

  0
LINE
  5
D8
100
AcDbEntity
  8
0
390
0
100
AcDbLine
 10
460.5694689390553
 20
61.200061618814303
 30
0.0
 11
463.55078069712022
 21
61.200061618814303
 31
0.0
  0
LINE
  5
D9
100
AcDbEntity
  8
0
390
0
100
AcDbLine
 10
463.55078069712022
 20
61.200061618814303
 30
0.0
 11
463.55078069712022
 21
54.707687923455779
 31
0.0
  0
LINE
  5
DA
100
AcDbEntity
  8
0
390
0
100
AcDbLine
 10
463.55078069712022
 20
54.707687923455779
 30
0.0
 11
460.5694689390553
 21
54.707687923455779
 31
0.0
  0
LINE
  5
DB
100
AcDbEntity
  8
0
390
0
100
AcDbLine
 10
460.5694689390553
 20
47.595714068783721
 30
0.0
 11
460.5694689390553
 21
54.707687923455779
 31
0.0
  0
ENDBLK
  5
DC
100
AcDbEntity
  8
0
390
0
100
AcDbBlockEnd
  0
BLOCK
  5
DF
100
AcDbEntity
  8
0
390
0
100
AcDbBlockBegin
  2
B032F6AFC
 70
               0
 10
0.0
 20
0.0
 30
0.0
  3

  1

  0
LINE
  5
E0
100
AcDbEntity
  8
0
390
0
100
AcDbLine
 10
340.52851020001674
 20
-70.392542803574457
 30
0.0
 11
320.49471344482646
 21
-70.392545474723804
 31
0.0
  0
LINE
  5
E1
100
AcDbEntity
  8
0
390
0
100
AcDbLine
 10
340.52851020001674
 20
-75.399701659965871
 30
0.0
 11
340.52851020001674
 21
-70.392542803574457
 31
0.0
  0
LINE
  5
E2
100
AcDbEntity
  8
0
390
0
100
AcDbLine
 10
320.49471344482646
 20
-75.399701659965871
 30
0.0
 11
340.52851020001674
 21
-75.399701659965871
 31
0.0
  0
LINE
  5
E3
100
AcDbEntity
  8
0
390
0
100
AcDbLine
 10
320.49471344482646
 20
-70.392545474723804
 30
0.0
 11
320.49471344482646
 21
-75.399701659965871
 31
0.0
  0
ENDBLK
  5
E4
100
AcDbEntity
  8
0
390
0
100
AcDbBlockEnd
  0
BLOCK
  5
18D
100
AcDbEntity
  8
0
390
0
100
AcDbBlockBegin
  2
B02BC0180
 70
               0
 10
0.0
 20
0.0
 30
0.0
  3

  1

  0
LINE
  5
18E
100
AcDbEntity
  8
0
390
0
  6
Continuous
100
AcDbLine
 10
368.8632857511198
 20
-115.13742190462159
 30
0.0
 11
363.86559639544117
 21
-115.4535287573827
 31
0.0
  0
LINE
  5
18F
100
AcDbEntity
  8
0
390
0
  6
Continuous
100
AcDbLine
 10
381.97778575111982
 20
-114.24492190462159
 30
0.0
 11
368.8632857511198
 21
-115.13742190462159
 31
0.0
  0
LINE
  5
190
100
AcDbEntity
  8
0
390
0
  6
Continuous
100
AcDbLine
 10
395.05028575111982
 20
-113.2369219046216
 30
0.0
 11
381.97778575111982
 21
-114.24492190462159
 31
0.0
  0
LINE
  5
191
100
AcDbEntity
  8
0
390
0
  6
Continuous
100
AcDbLine
 10
408.47978575111983
 20
-112.20792190462159
 30
0.0
 11
395.05028575111982
 21
-113.2369219046216
 31
0.0
  0
LINE
  5
192
100
AcDbEntity
  8
0
390
0
  6
Continuous
100
AcDbLine
 10
422.26628575111977
 20
-111.13692190462159
 30
0.0
 11
408.47978575111983
 21
-112.20792190462159
 31
0.0
  0
LINE
  5
193
100
AcDbEntity
  8
0
390
0
  6
Continuous
100
AcDbLine
 10
436.17878575111979
 20
-110.06592190462159
 30
0.0
 11
422.26628575111977
 21
-111.13692190462159
 31
0.0
  0
LINE
  5
194
100
AcDbEntity
  8
0
390
0
  6
Continuous
100
AcDbLine
 10
450.17528575111987
 20
-108.9844219046216
 30
0.0
 11
436.17878575111979
 21
-110.06592190462159
 31
0.0
  0
LINE
  5
195
100
AcDbEntity
  8
0
390
0
  6
Continuous
100
AcDbLine
 10
464.20328575111978
 20
-107.90292190462159
 30
0.0
 11
450.17528575111987
 21
-108.9844219046216
 31
0.0
  0
LINE
  5
196
100
AcDbEntity
  8
0
390
0
  6
Continuous
100
AcDbLine
 10
478.27328575111983
 20
-106.81092190462159
 30
0.0
 11
464.20328575111978
 21
-107.90292190462159
 31
0.0
  0
LINE
  5
197
100
AcDbEntity
  8
0
390
0
  6
Continuous
100
AcDbLine
 10
492.3852857511198
 20
-105.7189219046216
 30
0.0
 11
478.27328575111983
 21
-106.81092190462159
 31
0.0
  0
LINE
  5
198
100
AcDbEntity
  8
0
390
0
  6
Continuous
100
AcDbLine
 10
506.52878575111981
 20
-104.6269219046216
 30
0.0
 11
492.3852857511198
 21
-105.7189219046216
 31
0.0
  0
LINE
  5
199
100
AcDbEntity
  8
0
390
0
  6
Continuous
100
AcDbLine
 10
520.67228575111983
 20
-103.5349219046216
 30
0.0
 11
506.52878575111981
 21
-104.6269219046216
 31
0.0
  0
INSERT
  5
1CD
100
AcDbEntity
  8
0
390
0
100
AcDbBlockReference
  2
B02BC05BC
 10
0.0
 20
0.0
 30
0.0
  0
ENDBLK
  5
1CE
100
AcDbEntity
  8
0
390
0
100
AcDbBlockEnd
  0
BLOCK
  5
19B
100
AcDbEntity
  8
0
390
0
100
AcDbBlockBegin
  2
B02BC05BC
 70
               0
 10
0.0
 20
0.0
 30
0.0
  3

  1

  0
INSERT
  5
1AA
100
AcDbEntity
  8
0
390
0
100
AcDbBlockReference
  2
B02BC0608
 10
0.0
 20
0.0
 30
0.0
  0
LINE
  5
1AB
100
AcDbEntity
  8
0
390
0
100
AcDbLine
 10
862.40205928939736
 20
-27.348802944293396
 30
0.0
 11
921.51576479992127
 21
-27.348802944293407
 31
0.0
  0
LINE
  5
1AC
100
AcDbEntity
  8
0
390
0
100
AcDbLine
 10
921.51576550479399
 20
-27.348802944293396
 30
0.0
 11
921.55820228998596
 21
-51.919279567773884
 31
0.0
  0
LINE
  5
1AD
100
AcDbEntity
  8
0
390
0
100
AcDbLine
 10
921.55820228998596
 20
-51.919279567773884
 30
0.0
 11
882.12365572831618
 21
-57.108281980521383
 31
0.0
  0
LINE
  5
1AE
100
AcDbEntity
  8
0
390
0
100
AcDbLine
 10
882.12365572831618
 20
-57.108281980521383
 30
0.0
 11
882.55518343314463
 21
-60.288712689035776
 31
0.0
  0
LINE
  5
1AF
100
AcDbEntity
  8
0
390
0
  6
Continuous
100
AcDbLine
 10
869.81828575111979
 20
-62.007421904621587
 30
0.0
 11
857.23785437413699
 21
-63.722506931296408
 31
0.0
  0
LINE
  5
1B0
100
AcDbEntity
  8
0
390
0
100
AcDbLine
 10
856.34532967808366
 20
-57.480538313880601
 30
0.0
 11
857.23785437413699
 21
-63.722506931296408
 31
0.0
  0
LINE
  5
1B1
100
AcDbEntity
  8
0
390
0
100
AcDbLine
 10
846.39382019992581
 20
-58.873418040724431
 30
0.0
 11
856.34532967808366
 21
-57.480538313880601
 31
0.0
  0
LINE
  5
1B2
100
AcDbEntity
  8
0
390
0
100
AcDbLine
 10
846.39382019992581
 20
-58.873418040724431
 30
0.0
 11
846.88677321688579
 21
-62.099433215111475
 31
0.0
  0
LINE
  5
1B3
100
AcDbEntity
  8
0
390
0
100
AcDbLine
 10
817.15470691095993
 20
-66.119208579673057
 30
0.0
 11
846.88677321688579
 21
-62.099433215111475
 31
0.0
  0
LINE
  5
1B4
100
AcDbEntity
  8
0
390
0
100
AcDbLine
 10
817.15470691095993
 20
-66.119208579673057
 30
0.0
 11
816.76779893203161
 21
-63.016189220466543
 31
0.0
  0
LINE
  5
1B5
100
AcDbEntity
  8
0
390
0
100
AcDbLine
 10
806.79244498208845
 20
-64.411098394326302
 30
0.0
 11
816.76779893203161
 21
-63.016189220466543
 31
0.0
  0
LINE
  5
1B6
100
AcDbEntity
  8
0
390
0
100
AcDbLine
 10
806.79244498208845
 20
-64.411098394326302
 30
0.0
 11
807.6142308720847
 21
-70.460630668876775
 31
0.0
  0
LINE
  5
1B7
100
AcDbEntity
  8
0
390
0
  6
Continuous
100
AcDbLine
 10
802.20878575111988
 20
-71.194921904621594
 30
0.0
 11
789.36728575111977
 21
-72.937921904621589
 31
0.0
  0
LINE
  5
1B8
100
AcDbEntity
  8
0
390
0
  6
Continuous
100
AcDbLine
 10
789.36728575111977
 20
-72.937921904621589
 30
0.0
 11
776.30528575111987
 21
-74.712421904621593
 31
0.0
  0
LINE
  5
1B9
100
AcDbEntity
  8
0
390
0
  6
Continuous
100
AcDbLine
 10
776.30528575111987
 20
-74.712421904621593
 30
0.0
 11
763.10678575111979
 21
-76.465921904621595
 31
0.0
  0
LINE
  5
1BA
100
AcDbEntity
  8
0
390
0
  6
Continuous
100
AcDbLine
 10
763.10678575111979
 20
-76.465921904621595
 30
0.0
 11
749.20478575111986
 21
-78.177421904621596
 31
0.0
  0
LINE
  5
1BB
100
AcDbEntity
  8
0
390
0
  6
Continuous
100
AcDbLine
 10
749.20478575111986
 20
-78.177421904621596
 30
0.0
 11
735.2502857511198
 21
-79.89942190462159
 31
0.0
  0
LINE
  5
1BC
100
AcDbEntity
  8
0
390
0
  6
Continuous
100
AcDbLine
 10
735.2502857511198
 20
-79.89942190462159
 30
0.0
 11
721.3272857511198
 21
-81.610921904621591
 31
0.0
  0
LINE
  5
1BD
100
AcDbEntity
  8
0
390
0
  6
Continuous
100
AcDbLine
 10
721.3272857511198
 20
-81.610921904621591
 30
0.0
 11
707.4042857511198
 21
-83.322421904621592
 31
0.0
  0
LINE
  5
1BE
100
AcDbEntity
  8
0
390
0
  6
Continuous
100
AcDbLine
 10
707.4042857511198
 20
-83.322421904621592
 30
0.0
 11
693.49178575111978
 21
-85.044421904621586
 31
0.0
  0
LINE
  5
1BF
100
AcDbEntity
  8
0
390
0
  6
Continuous
100
AcDbLine
 10
693.49178575111978
 20
-85.044421904621586
 30
0.0
 11
679.60028575111983
 21
-86.755921904621587
 31
0.0
  0
LINE
  5
1C0
100
AcDbEntity
  8
0
390
0
  6
Continuous
100
AcDbLine
 10
679.60028575111983
 20
-86.755921904621587
 30
0.0
 11
665.74028575111981
 21
-88.456921904621595
 31
0.0
  0
LINE
  5
1C1
100
AcDbEntity
  8
0
390
0
  6
Continuous
100
AcDbLine
 10
665.74028575111981
 20
-88.456921904621595
 30
0.0
 11
651.94328575111979
 21
-90.157921904621588
 31
0.0
  0
LINE
  5
1C2
100
AcDbEntity
  8
0
390
0
  6
Continuous
100
AcDbLine
 10
651.94328575111979
 20
-90.157921904621588
 30
0.0
 11
638.31428575111977
 21
-91.837921904621595
 31
0.0
  0
LINE
  5
1C3
100
AcDbEntity
  8
0
390
0
  6
Continuous
100
AcDbLine
 10
638.31428575111977
 20
-91.837921904621595
 30
0.0
 11
624.97928575111985
 21
-93.486421904621594
 31
0.0
  0
LINE
  5
1C4
100
AcDbEntity
  8
0
390
0
  6
Continuous
100
AcDbLine
 10
624.97928575111985
 20
-93.486421904621594
 30
0.0
 11
612.27428575111981
 21
-95.050921904621589
 31
0.0
  0
LINE
  5
1C5
100
AcDbEntity
  8
0
390
0
  6
Continuous
100
AcDbLine
 10
612.27428575111981
 20
-95.050921904621589
 30
0.0
 11
600.34628575111981
 21
-96.520921904621588
 31
0.0
  0
LINE
  5
1C6
100
AcDbEntity
  8
0
390
0
  6
Continuous
100
AcDbLine
 10
600.34628575111981
 20
-96.520921904621588
 30
0.0
 11
587.78828575111982
 21
-97.969921904621586
 31
0.0
  0
LINE
  5
1C7
100
AcDbEntity
  8
0
390
0
  6
Continuous
100
AcDbLine
 10
587.78828575111982
 20
-97.969921904621586
 30
0.0
 11
574.62128575111979
 21
-99.271921904621593
 31
0.0
  0
LINE
  5
1C8
100
AcDbEntity
  8
0
390
0
  6
Continuous
100
AcDbLine
 10
574.62128575111979
 20
-99.271921904621593
 30
0.0
 11
562.18928575111977
 21
-100.32192190462159
 31
0.0
  0
LINE
  5
1C9
100
AcDbEntity
  8
0
390
0
  6
Continuous
100
AcDbLine
 10
562.18928575111977
 20
-100.32192190462159
 30
0.0
 11
548.51828575111983
 21
-101.38242190462159
 31
0.0
  0
LINE
  5
1CA
100
AcDbEntity
  8
0
390
0
  6
Continuous
100
AcDbLine
 10
548.51828575111983
 20
-101.38242190462159
 30
0.0
 11
534.70028575111985
 21
-102.45342190462159
 31
0.0
  0
LINE
  5
1CB
100
AcDbEntity
  8
0
390
0
  6
Continuous
100
AcDbLine
 10
534.70028575111985
 20
-102.45342190462159
 30
0.0
 11
520.67228575111983
 21
-103.5349219046216
 31
0.0
  0
ENDBLK
  5
1CC
100
AcDbEntity
  8
0
390
0
100
AcDbBlockEnd
  0
BLOCK
  5
19D
100
AcDbEntity
  8
0
390
0
100
AcDbBlockBegin
  2
B02BC0608
 70
               0
 10
0.0
 20
0.0
 30
0.0
  3

  1

  0
LINE
  5
19E
100
AcDbEntity
  8
0
390
0
100
AcDbLine
 10
363.86559639544123
 20
-27.594947615667131
 30
0.0
 11
388.82248959913903
 21
-27.587613679143285
 31
0.0
  0
LINE
  5
19F
100
AcDbEntity
  8
0
390
0
100
AcDbLine
 10
388.82248959913903
 20
-27.587613679143285
 30
0.0
 11
388.82248959913909
 21
-33.591887159981439
 31
0.0
  0
LINE
  5
1A0
100
AcDbEntity
  8
0
390
0
100
AcDbLine
 10
388.82248959913909
 20
-33.591887159981439
 30
0.0
 11
398.82592063711331
 21
-33.591887159981439
 31
0.0
  0
LINE
  5
1A1
100
AcDbEntity
  8
0
390
0
100
AcDbLine
 10
398.82592063711331
 20
-33.591887159981439
 30
0.0
 11
398.82599375711573
 21
-30.561564308456099
 31
0.0
  0
LINE
  5
1A2
100
AcDbEntity
  8
0
390
0
100
AcDbLine
 10
398.82599375711573
 20
-30.561564308456099
 30
0.0
 11
445.15560125407433
 21
-30.561564308456099
 31
0.0
  0
LINE
  5
1A3
100
AcDbEntity
  8
0
390
0
100
AcDbLine
 10
445.16228770293162
 20
-33.57380961352942
 30
0.0
 11
445.15560125407433
 21
-30.561564308456099
 31
0.0
  0
LINE
  5
1A4
100
AcDbEntity
  8
0
390
0
100
AcDbLine
 10
455.16698326366145
 20
-33.57380961352942
 30
0.0
 11
445.16228770293162
 21
-33.57380961352942
 31
0.0
  0
LINE
  5
1A5
100
AcDbEntity
  8
0
390
0
100
AcDbLine
 10
455.16698326366139
 20
-27.572550332364806
 30
0.0
 11
455.16698326366145
 21
-33.57380961352942
 31
0.0
  0
LINE
  5
1A6
100
AcDbEntity
  8
0
390
0
100
AcDbLine
 10
455.16698326366139
 20
-27.572550332364806
 30
0.0
 11
742.21086746250387
 21
-27.493055386864569
 31
0.0
  0
LINE
  5
1A7
100
AcDbEntity
  8
0
390
0
100
AcDbLine
 10
742.21086746250387
 20
-27.493055386864569
 30
0.0
 11
742.21086746250387
 21
-33.624658083870031
 31
0.0
  0
LINE
  5
1A8
100
AcDbEntity
  8
0
390
0
100
AcDbLine
 10
862.39986862134219
 20
-34.414432416700066
 30
0.0
 11
742.21086746250387
 21
-33.624658083870031
 31
0.0
  0
ENDBLK
  5
1A9
100
AcDbEntity
  8
0
390
0
100
AcDbBlockEnd
  0
BLOCK
  5
1D1
100
AcDbEntity
  8
0
390
0
100
AcDbBlockBegin
  2
B0247A4B4
 70
               0
 10
0.0
 20
0.0
 30
0.0
  3

  1

  0
LINE
  5
1D2
100
AcDbEntity
  8
0
390
0
100
AcDbLine
 10
396.51047763160199
 20
-81.74215227094605
 30
0.0
 11
406.83955346402041
 21
-81.74215227094605
 31
0.0
  0
LINE
  5
1D3
100
AcDbEntity
  8
0
390
0
100
AcDbLine
 10
396.51047763160199
 20
-78.730158726680131
 30
0.0
 11
396.51047763160199
 21
-81.74215227094605
 31
0.0
  0
LINE
  5
1D4
100
AcDbEntity
  8
0
390
0
100
AcDbLine
 10
438.01929323073387
 20
-81.771580047450698
 30
0.0
 11
457.30336347802
 21
-81.771580047450698
 31
0.0
  0
CIRCLE
  5
1D5
100
AcDbEntity
  8
0
390
0
100
AcDbCircle
 10
450.52920702707166
 20
-76.862787190935663
 30
0.0
 40
1.0
  0
LINE
  5
1D6
100
AcDbEntity
  8
0
390
0
100
AcDbLine
 10
406.83955346402041
 20
-81.74215227094605
 30
0.0
 11
406.83955346402041
 21
-78.730157893130979
 31
0.0
  0
LINE
  5
1D7
100
AcDbEntity
  8
0
390
0
100
AcDbLine
 10
406.83955346402041
 20
-78.730157893130979
 30
0.0
 11
396.51047763160204
 21
-78.730157893130979
 31
0.0
  0
LINE
  5
1D8
100
AcDbEntity
  8
0
390
0
100
AcDbLine
 10
438.03076496123367
 20
-78.730158726680131
 30
0.0
 11
438.01929323073387
 21
-81.771580047450698
 31
0.0
  0
LINE
  5
1D9
100
AcDbEntity
  8
0
390
0
100
AcDbLine
 10
457.30324142108094
 20
-81.771580047450698
 30
0.0
 11
457.303241421081
 21
-78.730158726680116
 31
0.0
  0
LINE
  5
1DA
100
AcDbEntity
  8
0
390
0
100
AcDbLine
 10
457.303241421081
 20
-78.730158726680116
 30
0.0
 11
438.03076496123367
 21
-78.730158726680131
 31
0.0
  0
ENDBLK
  5
1DB
100
AcDbEntity
  8
0
390
0
100
AcDbBlockEnd
  0
BLOCK
  5
1DE
100
AcDbEntity
  8
0
390
0
100
AcDbBlockBegin
  2
B0247A7EC
 70
               0
 10
0.0
 20
0.0
 30
0.0
  3

  1

  0
LINE
  5
1DF
100
AcDbEntity
  8
0
390
0
100
AcDbLine
 10
388.56522707405992
 20
-79.380742971974172
 30
0.0
 11
385.18048770038433
 21
-79.380742971974172
 31
0.0
  0
LINE
  5
1E0
100
AcDbEntity
  8
0
390
0
100
AcDbLine
 10
388.56522707405992
 20
-64.43622090564169
 30
0.0
 11
388.56522707405992
 21
-79.380742971974172
 31
0.0
  0
LINE
  5
1E1
100
AcDbEntity
  8
0
390
0
100
AcDbLine
 10
385.1805087647611
 20
-64.43622090564169
 30
0.0
 11
388.56522707405992
 21
-64.43622090564169
 31
0.0
  0
LINE
  5
1E2
100
AcDbEntity
  8
0
390
0
100
AcDbLine
 10
385.18048770038433
 20
-79.380742971974172
 30
0.0
 11
385.18048770038433
 21
-64.436220905641704
 31
0.0
  0
ENDBLK
  5
1E3
100
AcDbEntity
  8
0
390
0
100
AcDbBlockEnd
  0
BLOCK
  5
1E6
100
AcDbEntity
  8
0
390
0
100
AcDbBlockBegin
  2
B0247A988
 70
               0
 10
0.0
 20
0.0
 30
0.0
  3

  1

  0
LINE
  5
1E7
100
AcDbEntity
  8
0
390
0
100
AcDbLine
 10
379.53212596903063
 20
-41.042760674956639
 30
0.0
 11
376.44032039387173
 21
-46.751612111325954
 31
0.0
  0
LINE
  5
1E8
100
AcDbEntity
  8
0
390
0
100
AcDbLine
 10
373.70697153598474
 20
-45.289063483584783
 30
0.0
 11
376.44032039387173
 21
-46.751612111325954
 31
0.0
  0
LINE
  5
1E9
100
AcDbEntity
  8
0
390
0
100
AcDbLine
 10
376.80818098387994
 20
-39.562848305843943
 30
0.0
 11
373.70697153598474
 21
-45.289063483584783
 31
0.0
  0
LINE
  5
1EA
100
AcDbEntity
  8
0
390
0
100
AcDbLine
 10
376.80818098387994
 20
-39.562848305843943
 30
0.0
 11
379.53212596903063
 21
-41.042760674956668
 31
0.0
  0
ENDBLK
  5
1EB
100
AcDbEntity
  8
0
390
0
100
AcDbBlockEnd
  0
BLOCK
  5
1F4
100
AcDbEntity
  8
0
390
0
100
AcDbBlockBegin
  2
B0247AD1C
 70
               0
 10
0.0
 20
0.0
 30
0.0
  3

  1

  0
LINE
  5
1F5
100
AcDbEntity
  8
0
390
0
100
AcDbLine
 10
379.66160706364985
 20
-173.54546491805903
 30
0.0
 11
376.56980148849095
 21
-179.25431635442834
 31
0.0
  0
LINE
  5
1F6
100
AcDbEntity
  8
0
390
0
100
AcDbLine
 10
373.83645263060396
 20
-177.79176772668717
 30
0.0
 11
376.56980148849095
 21
-179.25431635442834
 31
0.0
  0
LINE
  5
1F7
100
AcDbEntity
  8
0
390
0
100
AcDbLine
 10
376.93766207849916
 20
-172.06555254894633
 30
0.0
 11
373.83645263060396
 21
-177.79176772668717
 31
0.0
  0
LINE
  5
1F8
100
AcDbEntity
  8
0
390
0
100
AcDbLine
 10
376.93766207849916
 20
-172.06555254894633
 30
0.0
 11
379.66160706364985
 21
-173.54546491805905
 31
0.0
  0
ENDBLK
  5
1F9
100
AcDbEntity
  8
0
390
0
100
AcDbBlockEnd
  0
BLOCK
  5
1FC
100
AcDbEntity
  8
0
390
0
100
AcDbBlockBegin
  2
B0247AEB8
 70
               0
 10
0.0
 20
0.0
 30
0.0
  3

  1

  0
LINE
  5
1FD
100
AcDbEntity
  8
0
390
0
100
AcDbLine
 10
388.69470816867914
 20
-211.88344721507656
 30
0.0
 11
385.30996879500356
 21
-211.88344721507656
 31
0.0
  0
LINE
  5
1FE
100
AcDbEntity
  8
0
390
0
100
AcDbLine
 10
388.69470816867914
 20
-196.93892514874409
 30
0.0
 11
388.69470816867914
 21
-211.88344721507656
 31
0.0
  0
LINE
  5
1FF
100
AcDbEntity
  8
0
390
0
100
AcDbLine
 10
385.30998985938032
 20
-196.93892514874409
 30
0.0
 11
388.69470816867914
 21
-196.93892514874409
 31
0.0
  0
LINE
  5
200
100
AcDbEntity
  8
0
390
0
100
AcDbLine
 10
385.30996879500356
 20
-211.88344721507656
 30
0.0
 11
385.30996879500356
 21
-196.93892514874409
 31
0.0
  0
ENDBLK
  5
201
100
AcDbEntity
  8
0
390
0
100
AcDbBlockEnd
  0
BLOCK
  5
204
100
AcDbEntity
  8
0
390
0
100
AcDbBlockBegin
  2
B0247B054
 70
               0
 10
0.0
 20
0.0
 30
0.0
  3

  1

  0
LINE
  5
205
100
AcDbEntity
  8
0
390
0
100
AcDbLine
 10
396.63995872622121
 20
-214.24485651404842
 30
0.0
 11
406.96903455863963
 21
-214.24485651404842
 31
0.0
  0
LINE
  5
206
100
AcDbEntity
  8
0
390
0
100
AcDbLine
 10
396.63995872622121
 20
-211.2328629697825
 30
0.0
 11
396.63995872622121
 21
-214.24485651404842
 31
0.0
  0
LINE
  5
207
100
AcDbEntity
  8
0
390
0
100
AcDbLine
 10
438.14877432535309
 20
-214.27428429055308
 30
0.0
 11
457.43284457263923
 21
-214.27428429055308
 31
0.0
  0
CIRCLE
  5
208
100
AcDbEntity
  8
0
390
0
100
AcDbCircle
 10
450.65868812169089
 20
-209.36549143403806
 30
0.0
 40
1.0
  0
LINE
  5
209
100
AcDbEntity
  8
0
390
0
100
AcDbLine
 10
406.96903455863963
 20
-214.24485651404842
 30
0.0
 11
406.96903455863963
 21
-211.23286213623336
 31
0.0
  0
LINE
  5
20A
100
AcDbEntity
  8
0
390
0
100
AcDbLine
 10
406.96903455863963
 20
-211.23286213623336
 30
0.0
 11
396.63995872622127
 21
-211.23286213623336
 31
0.0
  0
LINE
  5
20B
100
AcDbEntity
  8
0
390
0
100
AcDbLine
 10
438.16024605585289
 20
-211.2328629697825
 30
0.0
 11
438.14877432535309
 21
-214.27428429055308
 31
0.0
  0
LINE
  5
20C
100
AcDbEntity
  8
0
390
0
100
AcDbLine
 10
457.43272251570016
 20
-214.27428429055308
 30
0.0
 11
457.43272251570022
 21
-211.2328629697825
 31
0.0
  0
LINE
  5
20D
100
AcDbEntity
  8
0
390
0
100
AcDbLine
 10
457.43272251570022
 20
-211.2328629697825
 30
0.0
 11
438.16024605585289
 21
-211.2328629697825
 31
0.0
  0
ENDBLK
  5
20E
100
AcDbEntity
  8
0
390
0
100
AcDbBlockEnd
  0
BLOCK
  5
211
100
AcDbEntity
  8
0
390
0
100
AcDbBlockBegin
  2
B0247B38C
 70
               0
 10
0.0
 20
0.0
 30
0.0
  3

  1

  0
LINE
  5
212
100
AcDbEntity
  8
0
390
0
  6
Continuous
100
AcDbLine
 10
368.99276684573903
 20
-247.64012614772398
 30
0.0
 11
363.9950774900604
 21
-247.9562330004851
 31
0.0
  0
LINE
  5
213
100
AcDbEntity
  8
0
390
0
  6
Continuous
100
AcDbLine
 10
382.10726684573905
 20
-246.74762614772396
 30
0.0
 11
368.99276684573903
 21
-247.64012614772398
 31
0.0
  0
LINE
  5
214
100
AcDbEntity
  8
0
390
0
  6
Continuous
100
AcDbLine
 10
395.17976684573904
 20
-245.73962614772398
 30
0.0
 11
382.10726684573905
 21
-246.74762614772396
 31
0.0
  0
LINE
  5
215
100
AcDbEntity
  8
0
390
0
  6
Continuous
100
AcDbLine
 10
408.60926684573906
 20
-244.71062614772399
 30
0.0
 11
395.17976684573904
 21
-245.73962614772398
 31
0.0
  0
LINE
  5
216
100
AcDbEntity
  8
0
390
0
  6
Continuous
100
AcDbLine
 10
422.39576684573899
 20
-243.63962614772396
 30
0.0
 11
408.60926684573906
 21
-244.71062614772399
 31
0.0
  0
LINE
  5
217
100
AcDbEntity
  8
0
390
0
  6
Continuous
100
AcDbLine
 10
436.30826684573901
 20
-242.56862614772399
 30
0.0
 11
422.39576684573899
 21
-243.63962614772396
 31
0.0
  0
LINE
  5
218
100
AcDbEntity
  8
0
390
0
  6
Continuous
100
AcDbLine
 10
450.3047668457391
 20
-241.48712614772398
 30
0.0
 11
436.30826684573901
 21
-242.56862614772399
 31
0.0
  0
LINE
  5
219
100
AcDbEntity
  8
0
390
0
  6
Continuous
100
AcDbLine
 10
464.332766845739
 20
-240.40562614772398
 30
0.0
 11
450.3047668457391
 21
-241.48712614772398
 31
0.0
  0
LINE
  5
21A
100
AcDbEntity
  8
0
390
0
  6
Continuous
100
AcDbLine
 10
478.40276684573905
 20
-239.31362614772399
 30
0.0
 11
464.332766845739
 21
-240.40562614772398
 31
0.0
  0
LINE
  5
21B
100
AcDbEntity
  8
0
390
0
  6
Continuous
100
AcDbLine
 10
492.51476684573902
 20
-238.22162614772398
 30
0.0
 11
478.40276684573905
 21
-239.31362614772399
 31
0.0
  0
LINE
  5
21C
100
AcDbEntity
  8
0
390
0
  6
Continuous
100
AcDbLine
 10
506.65826684573904
 20
-237.12962614772397
 30
0.0
 11
492.51476684573902
 21
-238.22162614772398
 31
0.0
  0
LINE
  5
21D
100
AcDbEntity
  8
0
390
0
  6
Continuous
100
AcDbLine
 10
520.80176684573905
 20
-236.03762614772398
 30
0.0
 11
506.65826684573904
 21
-237.12962614772397
 31
0.0
  0
INSERT
  5
251
100
AcDbEntity
  8
0
390
0
100
AcDbBlockReference
  2
B0247B7C8
 10
0.0
 20
0.0
 30
0.0
  0
ENDBLK
  5
252
100
AcDbEntity
  8
0
390
0
100
AcDbBlockEnd
  0
BLOCK
  5
21F
100
AcDbEntity
  8
0
390
0
100
AcDbBlockBegin
  2
B0247B7C8
 70
               0
 10
0.0
 20
0.0
 30
0.0
  3

  1

  0
INSERT
  5
22E
100
AcDbEntity
  8
0
390
0
100
AcDbBlockReference
  2
B0247B814
 10
0.0
 20
0.0
 30
0.0
  0
LINE
  5
22F
100
AcDbEntity
  8
0
390
0
100
AcDbLine
 10
862.53154038401658
 20
-159.85150718739578
 30
0.0
 11
921.64524589454049
 21
-159.85150718739578
 31
0.0
  0
LINE
  5
230
100
AcDbEntity
  8
0
390
0
100
AcDbLine
 10
921.64524659941321
 20
-159.85150718739578
 30
0.0
 11
921.68768338460518
 21
-184.42198381087627
 31
0.0
  0
LINE
  5
231
100
AcDbEntity
  8
0
390
0
100
AcDbLine
 10
921.68768338460518
 20
-184.42198381087627
 30
0.0
 11
882.2531368229354
 21
-189.61098622362377
 31
0.0
  0
LINE
  5
232
100
AcDbEntity
  8
0
390
0
100
AcDbLine
 10
882.2531368229354
 20
-189.61098622362377
 30
0.0
 11
882.68466452776386
 21
-192.79141693213816
 31
0.0
  0
LINE
  5
233
100
AcDbEntity
  8
0
390
0
  6
Continuous
100
AcDbLine
 10
869.94776684573901
 20
-194.51012614772398
 30
0.0
 11
857.36733546875621
 21
-196.22521117439879
 31
0.0
  0
LINE
  5
234
100
AcDbEntity
  8
0
390
0
100
AcDbLine
 10
856.47481077270288
 20
-189.98324255698299
 30
0.0
 11
857.36733546875621
 21
-196.22521117439879
 31
0.0
  0
LINE
  5
235
100
AcDbEntity
  8
0
390
0
100
AcDbLine
 10
846.52330129454504
 20
-191.37612228382682
 30
0.0
 11
856.47481077270288
 21
-189.98324255698299
 31
0.0
  0
LINE
  5
236
100
AcDbEntity
  8
0
390
0
100
AcDbLine
 10
846.52330129454504
 20
-191.37612228382682
 30
0.0
 11
847.01625431150501
 21
-194.60213745821386
 31
0.0
  0
LINE
  5
237
100
AcDbEntity
  8
0
390
0
100
AcDbLine
 10
817.28418800557915
 20
-198.62191282277544
 30
0.0
 11
847.01625431150501
 21
-194.60213745821386
 31
0.0
  0
LINE
  5
238
100
AcDbEntity
  8
0
390
0
100
AcDbLine
 10
817.28418800557915
 20
-198.62191282277544
 30
0.0
 11
816.89728002665083
 21
-195.51889346356893
 31
0.0
  0
LINE
  5
239
100
AcDbEntity
  8
0
390
0
100
AcDbLine
 10
806.92192607670768
 20
-196.91380263742869
 30
0.0
 11
816.89728002665083
 21
-195.51889346356893
 31
0.0
  0
LINE
  5
23A
100
AcDbEntity
  8
0
390
0
100
AcDbLine
 10
806.92192607670768
 20
-196.91380263742869
 30
0.0
 11
807.74371196670393
 21
-202.96333491197916
 31
0.0
  0
LINE
  5
23B
100
AcDbEntity
  8
0
390
0
  6
Continuous
100
AcDbLine
 10
802.3382668457391
 20
-203.69762614772398
 30
0.0
 11
789.49676684573899
 21
-205.44062614772398
 31
0.0
  0
LINE
  5
23C
100
AcDbEntity
  8
0
390
0
  6
Continuous
100
AcDbLine
 10
789.49676684573899
 20
-205.44062614772398
 30
0.0
 11
776.43476684573909
 21
-207.21512614772399
 31
0.0
  0
LINE
  5
23D
100
AcDbEntity
  8
0
390
0
  6
Continuous
100
AcDbLine
 10
776.43476684573909
 20
-207.21512614772399
 30
0.0
 11
763.23626684573901
 21
-208.96862614772397
 31
0.0
  0
LINE
  5
23E
100
AcDbEntity
  8
0
390
0
  6
Continuous
100
AcDbLine
 10
763.23626684573901
 20
-208.96862614772397
 30
0.0
 11
749.33426684573908
 21
-210.68012614772397
 31
0.0
  0
LINE
  5
23F
100
AcDbEntity
  8
0
390
0
  6
Continuous
100
AcDbLine
 10
749.33426684573908
 20
-210.68012614772397
 30
0.0
 11
735.37976684573903
 21
-212.40212614772398
 31
0.0
  0
LINE
  5
240
100
AcDbEntity
  8
0
390
0
  6
Continuous
100
AcDbLine
 10
735.37976684573903
 20
-212.40212614772398
 30
0.0
 11
721.45676684573903
 21
-214.11362614772398
 31
0.0
  0
LINE
  5
241
100
AcDbEntity
  8
0
390
0
  6
Continuous
100
AcDbLine
 10
721.45676684573903
 20
-214.11362614772398
 30
0.0
 11
707.53376684573902
 21
-215.82512614772398
 31
0.0
  0
LINE
  5
242
100
AcDbEntity
  8
0
390
0
  6
Continuous
100
AcDbLine
 10
707.53376684573902
 20
-215.82512614772398
 30
0.0
 11
693.621266845739
 21
-217.54712614772399
 31
0.0
  0
LINE
  5
243
100
AcDbEntity
  8
0
390
0
  6
Continuous
100
AcDbLine
 10
693.621266845739
 20
-217.54712614772399
 30
0.0
 11
679.72976684573905
 21
-219.25862614772399
 31
0.0
  0
LINE
  5
244
100
AcDbEntity
  8
0
390
0
  6
Continuous
100
AcDbLine
 10
679.72976684573905
 20
-219.25862614772399
 30
0.0
 11
665.86976684573904
 21
-220.95962614772398
 31
0.0
  0
LINE
  5
245
100
AcDbEntity
  8
0
390
0
  6
Continuous
100
AcDbLine
 10
665.86976684573904
 20
-220.95962614772398
 30
0.0
 11
652.07276684573901
 21
-222.66062614772397
 31
0.0
  0
LINE
  5
246
100
AcDbEntity
  8
0
390
0
  6
Continuous
100
AcDbLine
 10
652.07276684573901
 20
-222.66062614772397
 30
0.0
 11
638.44376684573899
 21
-224.34062614772398
 31
0.0
  0
LINE
  5
247
100
AcDbEntity
  8
0
390
0
  6
Continuous
100
AcDbLine
 10
638.44376684573899
 20
-224.34062614772398
 30
0.0
 11
625.10876684573907
 21
-225.98912614772399
 31
0.0
  0
LINE
  5
248
100
AcDbEntity
  8
0
390
0
  6
Continuous
100
AcDbLine
 10
625.10876684573907
 20
-225.98912614772399
 30
0.0
 11
612.40376684573903
 21
-227.55362614772397
 31
0.0
  0
LINE
  5
249
100
AcDbEntity
  8
0
390
0
  6
Continuous
100
AcDbLine
 10
612.40376684573903
 20
-227.55362614772397
 30
0.0
 11
600.47576684573903
 21
-229.02362614772397
 31
0.0
  0
LINE
  5
24A
100
AcDbEntity
  8
0
390
0
  6
Continuous
100
AcDbLine
 10
600.47576684573903
 20
-229.02362614772397
 30
0.0
 11
587.91776684573904
 21
-230.47262614772399
 31
0.0
  0
LINE
  5
24B
100
AcDbEntity
  8
0
390
0
  6
Continuous
100
AcDbLine
 10
587.91776684573904
 20
-230.47262614772399
 30
0.0
 11
574.75076684573901
 21
-231.77462614772398
 31
0.0
  0
LINE
  5
24C
100
AcDbEntity
  8
0
390
0
  6
Continuous
100
AcDbLine
 10
574.75076684573901
 20
-231.77462614772398
 30
0.0
 11
562.31876684573899
 21
-232.82462614772396
 31
0.0
  0
LINE
  5
24D
100
AcDbEntity
  8
0
390
0
  6
Continuous
100
AcDbLine
 10
562.31876684573899
 20
-232.82462614772396
 30
0.0
 11
548.64776684573906
 21
-233.88512614772398
 31
0.0
  0
LINE
  5
24E
100
AcDbEntity
  8
0
390
0
  6
Continuous
100
AcDbLine
 10
548.64776684573906
 20
-233.88512614772398
 30
0.0
 11
534.82976684573907
 21
-234.95612614772398
 31
0.0
  0
LINE
  5
24F
100
AcDbEntity
  8
0
390
0
  6
Continuous
100
AcDbLine
 10
534.82976684573907
 20
-234.95612614772398
 30
0.0
 11
520.80176684573905
 21
-236.03762614772398
 31
0.0
  0
ENDBLK
  5
250
100
AcDbEntity
  8
0
390
0
100
AcDbBlockEnd
  0
BLOCK
  5
221
100
AcDbEntity
  8
0
390
0
100
AcDbBlockBegin
  2
B0247B814
 70
               0
 10
0.0
 20
0.0
 30
0.0
  3

  1

  0
LINE
  5
222
100
AcDbEntity
  8
0
390
0
100
AcDbLine
 10
363.99507749006045
 20
-160.09765185876952
 30
0.0
 11
388.95197069375826
 21
-160.09031792224567
 31
0.0
  0
LINE
  5
223
100
AcDbEntity
  8
0
390
0
100
AcDbLine
 10
388.95197069375826
 20
-160.09031792224567
 30
0.0
 11
388.95197069375831
 21
-166.09459140308383
 31
0.0
  0
LINE
  5
224
100
AcDbEntity
  8
0
390
0
100
AcDbLine
 10
388.95197069375831
 20
-166.09459140308383
 30
0.0
 11
398.95540173173254
 21
-166.09459140308383
 31
0.0
  0
LINE
  5
225
100
AcDbEntity
  8
0
390
0
100
AcDbLine
 10
398.95540173173254
 20
-166.09459140308383
 30
0.0
 11
398.95547485173495
 21
-163.06426855155848
 31
0.0
  0
LINE
  5
226
100
AcDbEntity
  8
0
390
0
100
AcDbLine
 10
398.95547485173495
 20
-163.06426855155848
 30
0.0
 11
445.28508234869355
 21
-163.06426855155848
 31
0.0
  0
LINE
  5
227
100
AcDbEntity
  8
0
390
0
100
AcDbLine
 10
445.29176879755084
 20
-166.07651385663181
 30
0.0
 11
445.28508234869355
 21
-163.06426855155848
 31
0.0
  0
LINE
  5
228
100
AcDbEntity
  8
0
390
0
100
AcDbLine
 10
455.29646435828067
 20
-166.07651385663181
 30
0.0
 11
445.29176879755084
 21
-166.07651385663181
 31
0.0
  0
LINE
  5
229
100
AcDbEntity
  8
0
390
0
100
AcDbLine
 10
455.29646435828062
 20
-160.0752545754672
 30
0.0
 11
455.29646435828067
 21
-166.07651385663181
 31
0.0
  0
LINE
  5
22A
100
AcDbEntity
  8
0
390
0
100
AcDbLine
 10
455.29646435828062
 20
-160.0752545754672
 30
0.0
 11
742.34034855712309
 21
-159.99575962996695
 31
0.0
  0
LINE
  5
22B
100
AcDbEntity
  8
0
390
0
100
AcDbLine
 10
742.34034855712309
 20
-159.99575962996695
 30
0.0
 11
742.34034855712309
 21
-166.12736232697242
 31
0.0
  0
LINE
  5
22C
100
AcDbEntity
  8
0
390
0
100
AcDbLine
 10
862.52934971596142
 20
-166.91713665980245
 30
0.0
 11
742.34034855712309
 21
-166.12736232697242
 31
0.0
  0
ENDBLK
  5
22D
100
AcDbEntity
  8
0
390
0
100
AcDbBlockEnd
  0
BLOCK
  5
2E4
100
AcDbEntity
  8
0
390
0
100
AcDbBlockBegin
  2
B02467B24
 70
               0
 10
0.0
 20
0.0
 30
0.0
  3

  1

  0
LINE
  5
2E5
100
AcDbEntity
  8
0
390
0
100
AcDbLine
 10
340.65799129463596
 20
-202.89524704667684
 30
0.0
 11
320.62419453944568
 21
-202.89524971782618
 31
0.0
  0
LINE
  5
2E6
100
AcDbEntity
  8
0
390
0
100
AcDbLine
 10
340.65799129463596
 20
-207.90240590306826
 30
0.0
 11
340.65799129463596
 21
-202.89524704667684
 31
0.0
  0
LINE
  5
2E7
100
AcDbEntity
  8
0
390
0
100
AcDbLine
 10
320.62419453944568
 20
-207.90240590306826
 30
0.0
 11
340.65799129463596
 21
-207.90240590306826
 31
0.0
  0
LINE
  5
2E8
100
AcDbEntity
  8
0
390
0
100
AcDbLine
 10
320.62419453944568
 20
-202.89524971782618
 30
0.0
 11
320.62419453944568
 21
-207.90240590306826
 31
0.0
  0
ENDBLK
  5
2E9
100
AcDbEntity
  8
0
390
0
100
AcDbBlockEnd
  0
ENDSEC
  0
SECTION
  2
ENTITIES
  0
LINE
  5
5C
100
AcDbEntity
  8
SENZA_NOME_2
390
0
  6
Continuous
 62
               7
100
AcDbLine
 10
219.79470927132431
 20
82.857572957313209
 30
0.0
 11
187.01022836362304
 21
82.813772957313205
 31
0.0
  0
LINE
  5
5D
100
AcDbEntity
  8
SENZA_NOME_2
390
0
  6
Continuous
 62
               7
100
AcDbLine
 10
187.01022836362304
 20
82.813772957313205
 30
0.0
 11
155.25988879999022
 21
82.507142957313206
 31
0.0
  0
LINE
  5
5E
100
AcDbEntity
  8
SENZA_NOME_2
390
0
  6
Continuous
 62
               7
100
AcDbLine
 10
253.48131347917038
 20
82.65315295731321
 30
0.0
 11
219.79470927132431
 21
82.857572957313209
 31
0.0
  0
LINE
  5
5F
100
AcDbEntity
  8
SENZA_NOME_2
390
0
  6
Continuous
 62
               7
100
AcDbLine
 10
287.92702143957729
 20
82.22241295731321
 30
0.0
 11
253.48131347917038
 21
82.65315295731321
 31
0.0
  0
LINE
  5
60
100
AcDbEntity
  8
SENZA_NOME_2
390
0
  6
Continuous
 62
               7
100
AcDbLine
 10
358.50166742041739
 20
80.740372957313213
 30
0.0
 11
287.92702143957729
 21
82.22241295731321
 31
0.0
  0
LINE
  5
61
100
AcDbEntity
  8
SENZA_NOME_2
390
0
  6
Continuous
 62
               7
100
AcDbLine
 10
187.05200701143747
 20
15.809981570399707
 30
0.0
 11
155.30600701143749
 21
16.116611570399705
 31
0.0
  0
LINE
  5
62
100
AcDbEntity
  8
SENZA_NOME_2
390
0
  6
Continuous
 62
               7
100
AcDbLine
 10
219.8320070114375
 20
15.766181570399702
 30
0.0
 11
187.05200701143747
 21
15.809981570399707
 31
0.0
  0
LINE
  5
63
100
AcDbEntity
  8
SENZA_NOME_2
390
0
  6
Continuous
 62
               7
100
AcDbLine
 10
253.51400701143751
 20
15.970601570399708
 30
0.0
 11
219.8320070114375
 21
15.766181570399702
 31
0.0
  0
LINE
  5
64
100
AcDbEntity
  8
SENZA_NOME_2
390
0
  6
Continuous
 62
               7
100
AcDbLine
 10
287.95500701143749
 20
16.401341570399701
 30
0.0
 11
253.51400701143751
 21
15.970601570399708
 31
0.0
  0
LINE
  5
65
100
AcDbEntity
  8
SENZA_NOME_2
390
0
  6
Continuous
 62
               7
100
AcDbLine
 10
358.52000701143749
 20
17.883381570399706
 30
0.0
 11
287.95500701143749
 21
16.401341570399701
 31
0.0
  0
LINE
  5
66
100
AcDbEntity
  8
SENZA_NOME_2
390
0
  6
Continuous
 62
               7
100
AcDbLine
 10
155.25988879999022
 20
82.507142957313206
 30
0.0
 11
143.19210132242648
 21
82.288129663614129
 31
0.0
  0
LINE
  5
67
100
AcDbEntity
  8
SENZA_NOME_2
390
0
  6
Continuous
 62
               7
100
AcDbLine
 10
155.30600701143749
 20
16.116611570399705
 30
0.0
 11
143.19210132242648
 21
16.336491897221148
 31
0.0
  0
LINE
  5
68
100
AcDbEntity
  8
0
390
0
100
AcDbLine
 10
143.19210132242648
 20
82.288129663614129
 30
0.0
 11
143.19210132242648
 21
16.336491897221148
 31
0.0
  0
LINE
  5
69
100
AcDbEntity
  8
SENZA_NOME_2
390
0
  6
Continuous
 62
               7
100
AcDbLine
 10
386.72415813532888
 20
79.88228451553546
 30
0.0
 11
358.50166742041739
 21
80.740372957313213
 31
0.0
  0
LINE
  5
6A
100
AcDbEntity
  8
SENZA_NOME_2
390
0
  6
Continuous
 62
               7
100
AcDbLine
 10
386.72415813532888
 20
18.741029628932758
 30
0.0
 11
358.52000701143749
 21
17.883381570399706
 31
0.0
  0
LINE
  5
6B
100
AcDbEntity
  8
0
390
0
  6
Continuous
 62
               7
100
AcDbLine
 10
138.08401703163273
 20
82.288129663614129
 30
0.0
 11
138.08401703163273
 21
16.336491897221148
 31
0.0
  0
LINE
  5
6C
100
AcDbEntity
  8
SENZA_NOME_2
390
0
  6
Continuous
 62
               7
100
AcDbLine
 10
386.72415813532888
 20
79.88228451553546
 30
0.0
 11
386.72415813532888
 21
18.741029628932758
 31
0.0
  0
LINE
  5
6D
100
AcDbEntity
  8
0
390
0
100
AcDbLine
 10
755.57013204547127
 20
63.373116633327108
 30
0.0
 11
755.57013204547127
 21
35.25267765278091
 31
0.0
  0
LINE
  5
6E
100
AcDbEntity
  8
0
390
0
  6
Continuous
 62
               7
100
AcDbLine
 10
755.57013204547127
 20
35.25267765278091
 30
0.0
 11
717.10887139815929
 21
32.966631570399706
 31
0.0
  0
LINE
  5
6F
100
AcDbEntity
  8
0
390
0
  6
Continuous
 62
               7
100
AcDbLine
 10
755.57013204547127
 20
63.373116633327108
 30
0.0
 11
717.13793620183378
 21
65.657122957313206
 31
0.0
  0
LINE
  5
70
100
AcDbEntity
  8
0
390
0
100
AcDbLine
 10
468.40023882257498
 20
77.549228121728703
 30
0.0
 11
468.40023882257498
 21
21.074337302965095
 31
0.0
  0
LINE
  5
71
100
AcDbEntity
  8
0
390
0
  6
Continuous
 62
               7
100
AcDbLine
 10
513.89487139815924
 20
22.818661570399705
 30
0.0
 11
468.40023882257498
 21
21.074337302965095
 31
0.0
  0
LINE
  5
72
100
AcDbEntity
  8
0
390
0
  6
Continuous
 62
               7
100
AcDbLine
 10
513.89615758140656
 20
75.805092957313207
 30
0.0
 11
468.40023882257498
 21
77.549228121728703
 31
0.0
  0
LINE
  5
73
100
AcDbEntity
  8
0
390
0
  6
Continuous
 62
               7
100
AcDbLine
 10
717.10887139815929
 20
32.966631570399706
 30
0.0
 11
652.58287139815934
 21
29.418491570399706
 31
0.0
  0
LINE
  5
74
100
AcDbEntity
  8
0
390
0
  6
Continuous
 62
               7
100
AcDbLine
 10
652.58287139815934
 20
29.418491570399706
 30
0.0
 11
584.45987139815929
 21
25.987161570399703
 31
0.0
  0
LINE
  5
75
100
AcDbEntity
  8
0
390
0
  6
Continuous
 62
               7
100
AcDbLine
 10
584.45987139815929
 20
25.987161570399703
 30
0.0
 11
513.89487139815924
 21
22.818661570399705
 31
0.0
  0
LINE
  5
76
100
AcDbEntity
  8
0
390
0
  6
Continuous
 62
               7
100
AcDbLine
 10
717.13793620183378
 20
65.657122957313206
 30
0.0
 11
652.60311573049978
 21
69.205262957313209
 31
0.0
  0
LINE
  5
77
100
AcDbEntity
  8
0
390
0
  6
Continuous
 62
               7
100
AcDbLine
 10
652.60311573049978
 20
69.205262957313209
 30
0.0
 11
584.47080356224672
 21
72.636592957313212
 31
0.0
  0
LINE
  5
78
100
AcDbEntity
  8
0
390
0
  6
Continuous
 62
               7
100
AcDbLine
 10
584.47080356224672
 20
72.636592957313212
 30
0.0
 11
513.89615758140656
 21
75.805092957313207
 31
0.0
  0
LINE
  5
79
100
AcDbEntity
  8
0
390
0
100
AcDbLine
 10
4.5947213324444167
 20
61.753461619032379
 30
0.0
 11
9.6080540429859749
 21
61.753461619032379
 31
0.0
  0
LINE
  5
7A
100
AcDbEntity
  8
0
390
0
100
AcDbLine
 10
9.6080540429859749
 20
61.753461619032379
 30
0.0
 11
9.6080540429859749
 21
36.978955961190152
 31
0.0
  0
LINE
  5
7B
100
AcDbEntity
  8
0
390
0
  6
Continuous
 62
               7
100
AcDbLine
 10
9.6080540429859749
 20
36.978955961190152
 30
0.0
 11
4.5924730284262045
 21
36.978955961190152
 31
0.0
  0
POINT
  5
7C
100
AcDbEntity
  8
0
390
0
  6
Continuous
100
AcDbPoint
 10
4.6180453392662599
 20
77.752923037262576
 30
0.0
  0
POINT
  5
7D
100
AcDbEntity
  8
0
390
0
  6
Continuous
100
AcDbPoint
 10
4.6180453392662599
 20
20.599505406304942
 30
0.0
  0
POINT
  5
7E
100
AcDbEntity
  8
0
390
0
  6
Continuous
100
AcDbPoint
 10
119.57862583721599
 20
81.952282957313216
 30
0.0
  0
POINT
  5
7F
100
AcDbEntity
  8
0
390
0
  6
Continuous
100
AcDbPoint
 10
119.62892272064371
 20
16.671471570399703
 30
0.0
  0
ARC
  5
80
100
AcDbEntity
  8
0
390
0
100
AcDbCircle
 10
204.63181871126963
 20
4191.2086613667907
 30
0.0
 40
4175.4025244663471
100
AcDbArc
 50
267.25396552290073
 51
269.08677795850861
  0
LINE
  5
81
100
AcDbEntity
  8
0
390
0
  6
Continuous
 62
               7
100
AcDbLine
 10
4.5924730284262045
 20
36.978955961190152
 30
0.0
 11
4.5924730284262045
 21
20.600731879924751
 31
0.0
  0
ARC
  5
82
100
AcDbEntity
  8
0
390
0
100
AcDbCircle
 10
194.80551265437541
 20
-3553.104419553672
 30
0.0
 40
3635.8350230683236
100
AcDbArc
 50
90.893889334413558
 51
92.998830504484559
  0
LINE
  5
83
100
AcDbEntity
  8
0
390
0
  6
Continuous
 62
               7
100
AcDbLine
 10
4.5947213324444167
 20
77.751701230367416
 30
0.0
 11
4.5947213324444167
 21
61.753461619032379
 31
0.0
  0
LINE
  5
84
100
AcDbEntity
  8
0
390
0
 62
               7
100
AcDbLine
 10
868.46503946856456
 20
137.02924278740741
 30
0.0
 11
868.46503946856456
 21
122.94772354002731
 31
0.0
  0
LINE
  5
85
100
AcDbEntity
  8
0
390
0
 62
               7
100
AcDbLine
 10
913.32285165745418
 20
133.97040444654405
 30
0.0
 11
913.32285165745418
 21
126.0079708600349
 31
0.0
  0
LINE
  5
86
100
AcDbEntity
  8
0
390
0
  6
Continuous
 62
               7
100
AcDbLine
 10
913.32285165745418
 20
126.0079708600349
 30
0.0
 11
881.38802939796847
 21
123.81874444716334
 31
0.0
  0
LINE
  5
87
100
AcDbEntity
  8
0
390
0
  6
Continuous
 62
               7
100
AcDbLine
 10
913.32285165745418
 20
133.97040444654405
 30
0.0
 11
881.43914989095902
 21
136.15489583407685
 31
0.0
  0
LINE
  5
88
100
AcDbEntity
  8
0
390
0
  6
Continuous
 62
               7
100
AcDbLine
 10
881.43914989095902
 20
136.15489583407685
 30
0.0
 11
868.46503946856456
 21
137.02924278740741
 31
0.0
  0
LINE
  5
89
100
AcDbEntity
  8
0
390
0
  6
Continuous
 62
               7
100
AcDbLine
 10
881.38802939796847
 20
123.81874444716334
 30
0.0
 11
868.46503946856456
 21
122.94772354002731
 31
0.0
  0
LINE
  5
8A
100
AcDbEntity
  8
SENZA_NOME
390
0
100
AcDbLine
 10
813.67515643654781
 20
56.112691995829437
 30
0.0
 11
813.67923071348275
 21
43.43351370602403
 31
0.0
  0
LINE
  5
8B
100
AcDbEntity
  8
SENZA_NOME
390
0
100
AcDbLine
 10
813.67923071348275
 20
43.43351370602403
 30
0.0
 11
872.78540101455462
 21
47.616772390935751
 31
0.0
  0
LINE
  5
8C
100
AcDbEntity
  8
SENZA_NOME
390
0
100
AcDbLine
 10
813.67515643654781
 20
56.112691995829437
 30
0.0
 11
872.78540101455462
 21
51.895867696819209
 31
0.0
  0
LINE
  5
8D
100
AcDbEntity
  8
0
390
0
100
AcDbLine
 10
872.78540101455462
 20
47.616772390935751
 30
0.0
 11
872.78540101455462
 21
51.895867696819209
 31
0.0
  0
LINE
  5
8E
100
AcDbEntity
  8
0
390
0
100
AcDbLine
 10
7.5553503274709977
 20
-45.596930183982323
 30
0.0
 11
7.5553503274709977
 21
-58.455163893571445
 31
0.0
  0
LINE
  5
8F
100
AcDbEntity
  8
0
390
0
100
AcDbLine
 10
182.38316280766921
 20
-27.56935108813903
 30
0.0
 11
193.18379231468774
 21
-27.645104881104267
 31
0.0
  0
ARC
  5
90
100
AcDbEntity
  8
0
390
0
100
AcDbCircle
 10
159.27374673069045
 20
-660.19506812248073
 30
0.0
 40
633.04766247466227
100
AcDbArc
 50
87.907951733789872
 51
103.86667866261287
  0
LINE
  5
91
100
AcDbEntity
  8
0
390
0
100
AcDbLine
 10
7.5531536015397709
 20
-83.539828061822575
 30
0.0
 11
7.5531536015397709
 21
-96.641592419917544
 31
0.0
  0
ARC
  5
92
100
AcDbEntity
  8
0
390
0
100
AcDbCircle
 10
147.76103846700767
 20
374.66309549686844
 30
0.0
 40
491.71776440432507
100
AcDbArc
 50
253.43284579180644
 51
269.09445747286452
  0
POINT
  5
93
100
AcDbEntity
  8
0
390
0
  6
Continuous
100
AcDbPoint
 10
139.98991092926116
 20
-116.99325746481084
 30
0.0
  0
LINE
  5
94
100
AcDbEntity
  8
0
390
0
100
AcDbLine
 10
12.559950872237685
 20
-83.53982806182259
 30
0.0
 11
7.5531536015397709
 21
-83.539828061822575
 31
0.0
  0
LINE
  5
95
100
AcDbEntity
  8
0
390
0
100
AcDbLine
 10
12.559950872237687
 20
-58.455163893571438
 30
0.0
 11
12.559950872237685
 21
-83.53982806182259
 31
0.0
  0
LINE
  5
96
100
AcDbEntity
  8
0
390
0
100
AcDbLine
 10
7.5553503274709977
 20
-58.455163893571445
 30
0.0
 11
12.559950872237687
 21
-58.455163893571438
 31
0.0
  0
LINE
  5
97
100
AcDbEntity
  8
0
390
0
100
AcDbLine
 10
140.69023761258003
 20
-70.951843590694295
 30
0.0
 11
140.69023761258003
 21
-83.486569570357446
 31
0.0
  0
LINE
  5
98
100
AcDbEntity
  8
0
390
0
100
AcDbLine
 10
176.60966040327807
 20
-111.01281227076662
 30
0.0
 11
141.10622892615805
 21
-109.34237238974389
 31
0.0
  0
LINE
  5
99
100
AcDbEntity
  8
0
390
0
100
AcDbLine
 10
141.10622892615805
 20
-109.34237238974389
 30
0.0
 11
140.66579134166147
 21
-114.37659701664197
 31
0.0
  0
LINE
  5
9A
100
AcDbEntity
  8
0
390
0
100
AcDbLine
 10
140.69802348365016
 20
-114.37812197819842
 30
0.0
 11
176.16841319378398
 21
-116.05629095373163
 31
0.0
  0
LINE
  5
9B
100
AcDbEntity
  8
0
390
0
100
AcDbLine
 10
176.16841319378398
 20
-116.05629095373163
 30
0.0
 11
176.60966040327807
 21
-111.01281227076662
 31
0.0
  0
LINE
  5
9C
100
AcDbEntity
  8
0
390
0
  6
Continuous
100
AcDbLine
 10
206.8272857511198
 20
-119.53692190462159
 30
0.0
 11
193.32428575111982
 21
-119.2639219046216
 31
0.0
  0
LINE
  5
9D
100
AcDbEntity
  8
0
390
0
  6
Continuous
100
AcDbLine
 10
193.80206018209469
 20
-119.32033979115053
 30
0.0
 11
180.32279862461104
 21
-118.92171920747197
 31
0.0
  0
LINE
  5
9E
100
AcDbEntity
  8
0
390
0
  6
Continuous
100
AcDbLine
 10
166.8750061602577
 20
-118.40458980161871
 30
0.0
 11
153.4167239981943
 21
-117.75817804430211
 31
0.0
  0
LINE
  5
9F
100
AcDbEntity
  8
0
390
0
  6
Continuous
100
AcDbLine
 10
153.4167239981943
 20
-117.75817804430211
 30
0.0
 11
139.98991092926116
 21
-116.99325746481084
 31
0.0
  0
LINE
  5
A0
100
AcDbEntity
  8
0
390
0
  6
Continuous
100
AcDbLine
 10
180.32279862461104
 20
-118.92171920747197
 30
0.0
 11
166.8750061602577
 21
-118.40458980161871
 31
0.0
  0
LINE
  5
A1
100
AcDbEntity
  8
0
390
0
  6
Continuous
100
AcDbLine
 10
220.40378575111981
 20
-119.7049219046216
 30
0.0
 11
206.8272857511198
 21
-119.53692190462159
 31
0.0
  0
LINE
  5
A2
100
AcDbEntity
  8
0
390
0
  6
Continuous
100
AcDbLine
 10
261.47978575111983
 20
-119.57892190462159
 30
0.0
 11
247.73528575111982
 21
-119.7259219046216
 31
0.0
  0
LINE
  5
A3
100
AcDbEntity
  8
0
390
0
  6
Continuous
100
AcDbLine
 10
329.30978575111982
 20
-117.40542190462159
 30
0.0
 11
315.97478575111984
 21
-118.0144219046216
 31
0.0
  0
LINE
  5
A4
100
AcDbEntity
  8
0
390
0
  6
Continuous
100
AcDbLine
 10
234.03278575111983
 20
-119.7679219046216
 30
0.0
 11
220.40378575111981
 21
-119.7049219046216
 31
0.0
  0
LINE
  5
A5
100
AcDbEntity
  8
0
390
0
  6
Continuous
100
AcDbLine
 10
247.73528575111982
 20
-119.7259219046216
 30
0.0
 11
234.03278575111983
 21
-119.7679219046216
 31
0.0
  0
LINE
  5
A6
100
AcDbEntity
  8
0
390
0
  6
Continuous
100
AcDbLine
 10
275.23478575111983
 20
-119.3269219046216
 30
0.0
 11
261.47978575111983
 21
-119.57892190462159
 31
0.0
  0
LINE
  5
A7
100
AcDbEntity
  8
0
390
0
  6
Continuous
100
AcDbLine
 10
288.9477857511198
 20
-118.98042190462159
 30
0.0
 11
275.23478575111983
 21
-119.3269219046216
 31
0.0
  0
LINE
  5
A8
100
AcDbEntity
  8
0
390
0
  6
Continuous
100
AcDbLine
 10
302.53478575111984
 20
-118.53942190462159
 30
0.0
 11
288.9477857511198
 21
-118.98042190462159
 31
0.0
  0
LINE
  5
A9
100
AcDbEntity
  8
0
390
0
  6
Continuous
100
AcDbLine
 10
315.97478575111984
 20
-118.0144219046216
 30
0.0
 11
302.53478575111984
 21
-118.53942190462159
 31
0.0
  0
LINE
  5
AA
100
AcDbEntity
  8
0
390
0
  6
Continuous
100
AcDbLine
 10
342.53978575111984
 20
-116.7229219046216
 30
0.0
 11
329.30978575111982
 21
-117.40542190462159
 31
0.0
  0
LINE
  5
AB
100
AcDbEntity
  8
0
390
0
  6
Continuous
100
AcDbLine
 10
355.74878575111984
 20
-115.9669219046216
 30
0.0
 11
342.53978575111984
 21
-116.7229219046216
 31
0.0
  0
CIRCLE
  5
AC
100
AcDbEntity
  8
0
390
0
100
AcDbCircle
 10
202.19584060228789
 20
49.31231078041764
 30
0.0
 40
1.0
  0
LINE
  5
AD
100
AcDbEntity
  8
SENZA_NOME_3
370
              -3
390
0
  6
Continuous
100
AcDbLine
 10
450.56946893905524
 20
73.060838894830184
 30
0.0
 11
409.54600315311853
 21
73.060838894830184
 31
0.0
  0
CIRCLE
  5
AE
100
AcDbEntity
  8
SENZA_NOME_3
370
              -3
390
0
  6
Continuous
100
AcDbCircle
 10
447.91011412660419
 20
59.698797406184234
 30
0.0
 40
6.5
  0
CIRCLE
  5
AF
100
AcDbEntity
  8
SENZA_NOME_3
370
              -3
390
0
  6
Continuous
100
AcDbCircle
 10
429.9224809610526
 20
59.362579963837476
 30
0.0
 40
6.5
  0
CIRCLE
  5
B0
100
AcDbEntity
  8
SENZA_NOME_3
370
              -3
390
0
  6
Continuous
100
AcDbCircle
 10
411.59863035315425
 20
59.530688685010858
 30
0.0
 40
6.5
  0
LINE
  5
B1
100
AcDbEntity
  8
0
390
0
100
AcDbLine
 10
137.61239312640743
 20
-83.486569570357446
 30
0.0
 11
137.61226277689804
 21
-70.957857490458352
 31
0.0
  0
LINE
  5
B2
100
AcDbEntity
  8
0
390
0
100
AcDbLine
 10
137.61226277689804
 20
-70.957857490458352
 30
0.0
 11
140.69023761258003
 21
-70.951843590694295
 31
0.0
  0
LINE
  5
B3
100
AcDbEntity
  8
0
390
0
100
AcDbLine
 10
140.69023761258003
 20
-83.486569570357446
 30
0.0
 11
137.61239312640743
 21
-83.486569570357446
 31
0.0
  0
LINE
  5
B4
100
AcDbEntity
  8
0
390
0
100
AcDbLine
 10
141.09947078758086
 20
-40.450726456056003
 30
0.0
 11
144.15226453519892
 21
-40.450726456056003
 31
0.0
  0
LINE
  5
B5
100
AcDbEntity
  8
0
390
0
100
AcDbLine
 10
144.15226453519892
 20
-40.450726456056003
 30
0.0
 11
144.15226453519892
 21
-47.012424368919525
 31
0.0
  0
LINE
  5
B6
100
AcDbEntity
  8
0
390
0
100
AcDbLine
 10
144.15226453519892
 20
-47.012424368919525
 30
0.0
 11
141.12487005508066
 21
-47.012424368919525
 31
0.0
  0
LINE
  5
B7
100
AcDbEntity
  8
0
390
0
100
AcDbLine
 10
141.12487005508066
 20
-47.012424368919525
 30
0.0
 11
141.09947078758086
 21
-40.450726456056003
 31
0.0
  0
LINE
  5
B8
100
AcDbEntity
  8
SENZA_NOME_3
370
              -3
390
0
  6
Continuous
100
AcDbLine
 10
399.54600315311853
 20
47.595714068783721
 30
0.0
 11
460.56946893905524
 21
47.595714068783721
 31
0.0
  0
LINE
  5
B9
100
AcDbEntity
  8
SENZA_NOME_3
370
              -3
390
0
  6
Continuous
100
AcDbLine
 10
399.54600315311853
 20
61.200061618814303
 30
0.0
 11
409.54600315311853
 21
73.060838894830184
 31
0.0
  0
LINE
  5
BA
100
AcDbEntity
  8
SENZA_NOME_3
370
              -3
390
0
  6
Continuous
100
AcDbLine
 10
460.5694689390553
 20
61.200061618814303
 30
0.0
 11
450.5694689390553
 21
73.060838894830184
 31
0.0
  0
LINE
  5
BB
100
AcDbEntity
  8
0
390
0
100
AcDbLine
 10
399.54600315311853
 20
61.200061618814303
 30
0.0
 11
396.56469139505361
 21
61.200061618814303
 31
0.0
  0
LINE
  5
BC
100
AcDbEntity
  8
0
390
0
100
AcDbLine
 10
396.56469139505361
 20
61.200061618814303
 30
0.0
 11
396.56469139505361
 21
54.707687923455779
 31
0.0
  0
LINE
  5
BD
100
AcDbEntity
  8
0
390
0
100
AcDbLine
 10
396.56469139505361
 20
54.707687923455779
 30
0.0
 11
399.54600315311853
 21
54.707687923455779
 31
0.0
  0
LINE
  5
BE
100
AcDbEntity
  8
0
390
0
100
AcDbLine
 10
399.54600315311853
 20
47.595714068783721
 30
0.0
 11
399.54600315311853
 21
54.707687923455779
 31
0.0
  0
LINE
  5
BF
100
AcDbEntity
  8
0
390
0
100
AcDbLine
 10
396.99285899938195
 20
34.728160665106877
 30
0.0
 11
394.00098808363185
 21
34.728160665106877
 31
0.0
  0
LINE
  5
C0
100
AcDbEntity
  8
0
390
0
100
AcDbLine
 10
394.00098808363185
 20
34.728160665106877
 30
0.0
 11
394.00098808363185
 21
28.238120924119187
 31
0.0
  0
INSERT
  5
C7
100
AcDbEntity
  8
0
390
0
100
AcDbBlockReference
  2
B032F6380
 10
0.0
 20
0.0
 30
0.0
  0
LINE
  5
C8
100
AcDbEntity
  8
0
370
              -3
390
0
100
AcDbLine
 10
406.99285899938195
 20
44.728160665106877
 30
0.0
 11
452.96013212450333
 21
44.728160665106877
 31
0.0
  0
LINE
  5
C9
100
AcDbEntity
  8
0
370
              -3
390
0
  6
Continuous
100
AcDbLine
 10
396.99285899938195
 20
34.728160665106877
 30
0.0
 11
406.99285899938195
 21
44.728160665106877
 31
0.0
  0
LINE
  5
CA
100
AcDbEntity
  8
0
370
              -3
390
0
  6
Continuous
100
AcDbLine
 10
452.96013212450333
 20
44.728160665106877
 30
0.0
 11
462.96013212450333
 21
34.728160665106877
 31
0.0
  0
ARC
  5
CB
100
AcDbEntity
  8
0
370
              -3
390
0
100
AcDbCircle
 10
446.06190468357789
 20
22.133956430449498
 30
0.0
 40
3.0
100
AcDbArc
 50
358.43148647619233
 51
181.56851352380772
  0
LINE
  5
CC
100
AcDbEntity
  8
0
370
              -3
390
0
100
AcDbLine
 10
417.03518245476505
 20
22.051839512107168
 30
0.0
 11
443.06302875888179
 21
22.051839512107168
 31
0.0
  0
ARC
  5
CD
100
AcDbEntity
  8
0
370
              -3
390
0
100
AcDbCircle
 10
414.03630653006894
 20
22.133956430449498
 30
0.0
 40
3.0
100
AcDbArc
 50
358.43148647619233
 51
181.56851352380772
  0
LINE
  5
CE
100
AcDbEntity
  8
0
370
              -3
390
0
100
AcDbLine
 10
396.99378181417109
 20
22.051839512107168
 30
0.0
 11
411.03743060537283
 21
22.051839512107168
 31
0.0
  0
LINE
  5
CF
100
AcDbEntity
  8
0
390
0
100
AcDbLine
 10
394.00098808363185
 20
28.238120924119187
 30
0.0
 11
396.99333146327041
 21
28.238121651848228
 31
0.0
  0
LINE
  5
D0
100
AcDbEntity
  8
0
390
0
100
AcDbLine
 10
396.99333146327041
 20
28.238121651848228
 30
0.0
 11
396.99378181417109
 21
22.051839512107168
 31
0.0
  0
LINE
  5
D1
100
AcDbEntity
  8
0
390
0
100
AcDbLine
 10
466.09722313001504
 20
34.728160665106877
 30
0.0
 11
466.09722313001504
 21
28.238120924119187
 31
0.0
  0
LINE
  5
D2
100
AcDbEntity
  8
0
390
0
100
AcDbLine
 10
466.09722313001504
 20
28.238120924119187
 30
0.0
 11
463.10487975037648
 21
28.238121651848228
 31
0.0
  0
LINE
  5
D3
100
AcDbEntity
  8
0
390
0
100
AcDbLine
 10
463.10487975037648
 20
28.238121651848228
 30
0.0
 11
463.1044293994758
 21
22.051839512107168
 31
0.0
  0
LINE
  5
D4
100
AcDbEntity
  8
0
390
0
100
AcDbLine
 10
462.96013212450333
 20
34.728160665106877
 30
0.0
 11
466.09722313001504
 21
34.728160665106877
 31
0.0
  0
LINE
  5
D5
100
AcDbEntity
  8
0
370
              -3
390
0
100
AcDbLine
 10
449.060780608274
 20
22.051839512107168
 30
0.0
 11
463.1044293994758
 21
22.051839512107168
 31
0.0
  0
INSERT
  5
DD
100
AcDbEntity
  8
0
390
0
100
AcDbBlockReference
  2
B032F6960
 10
0.0
 20
0.0
 30
0.0
  0
INSERT
  5
E5
100
AcDbEntity
  8
0
390
0
100
AcDbBlockReference
  2
B032F6AFC
 10
0.0
 20
0.0
 30
0.0
  0
LINE
  5
E6
100
AcDbEntity
  8
0
390
0
100
AcDbLine
 10
193.18379231468774
 20
-27.645104881104267
 30
0.0
 11
363.86559639544123
 21
-27.594947615667131
 31
0.0
  0
LINE
  5
E7
100
AcDbEntity
  8
0
390
0
  6
Continuous
100
AcDbLine
 10
360.52324193863956
 20
-50.989273643824106
 30
0.0
 11
356.57512659293366
 21
-50.198829732466493
 31
0.0
  0
LINE
  5
E8
100
AcDbEntity
  8
0
390
0
  6
Continuous
100
AcDbLine
 10
356.57512659293366
 20
-50.198829732466493
 30
0.0
 11
352.60012525289176
 21
-49.369141894081196
 31
0.0
  0
LINE
  5
E9
100
AcDbEntity
  8
0
390
0
  6
Continuous
100
AcDbLine
 10
352.60012525289176
 20
-49.369141894081196
 30
0.0
 11
348.58107994512682
 21
-48.505082135365285
 31
0.0
  0
LINE
  5
EA
100
AcDbEntity
  8
0
390
0
  6
Continuous
100
AcDbLine
 10
348.58107994512682
 20
-48.505082135365285
 30
0.0
 11
344.54000465727779
 21
-47.628736409959629
 31
0.0
  0
LINE
  5
EB
100
AcDbEntity
  8
0
390
0
  6
Continuous
100
AcDbLine
 10
344.54000465727779
 20
-47.628736409959629
 30
0.0
 11
340.52585934298838
 21
-46.764684647466083
 31
0.0
  0
LINE
  5
EC
100
AcDbEntity
  8
0
390
0
  6
Continuous
100
AcDbLine
 10
340.52585934298838
 20
-46.764684647466083
 30
0.0
 11
336.53862001359107
 21
-45.927626828311446
 31
0.0
  0
LINE
  5
ED
100
AcDbEntity
  8
0
390
0
  6
Continuous
100
AcDbLine
 10
336.53862001359107
 20
-45.927626828311446
 30
0.0
 11
332.57092068642794
 21
-45.127350945113051
 31
0.0
  0
LINE
  5
EE
100
AcDbEntity
  8
0
390
0
  6
Continuous
100
AcDbLine
 10
332.57092068642794
 20
-45.127350945113051
 30
0.0
 11
328.61296137454781
 21
-44.363841005426167
 31
0.0
  0
LINE
  5
EF
100
AcDbEntity
  8
0
390
0
  6
Continuous
100
AcDbLine
 10
328.61296137454781
 20
-44.363841005426167
 30
0.0
 11
324.65248409803928
 21
-43.64197701217023
 31
0.0
  0
LINE
  5
F0
100
AcDbEntity
  8
0
390
0
  6
Continuous
100
AcDbLine
 10
324.65248409803928
 20
-43.64197701217023
 30
0.0
 11
320.68459685964922
 21
-42.956850975647257
 31
0.0
  0
LINE
  5
F1
100
AcDbEntity
  8
0
390
0
  6
Continuous
100
AcDbLine
 10
320.68459685964922
 20
-42.956850975647257
 30
0.0
 11
316.70194567105318
 21
-42.310900898261423
 31
0.0
  0
LINE
  5
F2
100
AcDbEntity
  8
0
390
0
  6
Continuous
100
AcDbLine
 10
316.70194567105318
 20
-42.310900898261423
 30
0.0
 11
312.71188851868692
 21
-41.699238780870814
 31
0.0
  0
LINE
  5
F3
100
AcDbEntity
  8
0
390
0
  6
Continuous
100
AcDbLine
 10
312.71188851868692
 20
-41.699238780870814
 30
0.0
 11
308.70952141096359
 21
-41.124306623990805
 31
0.0
  0
LINE
  5
F4
100
AcDbEntity
  8
0
390
0
  6
Continuous
100
AcDbLine
 10
308.70952141096359
 20
-41.124306623990805
 30
0.0
 11
304.70220233431917
 21
-40.581216428479422
 31
0.0
  0
LINE
  5
F5
100
AcDbEntity
  8
0
390
0
  6
Continuous
100
AcDbLine
 10
304.70220233431917
 20
-40.581216428479422
 30
0.0
 11
300.68747729390429
 21
-40.072414192963237
 31
0.0
  0
LINE
  5
F6
100
AcDbEntity
  8
0
390
0
  6
Continuous
100
AcDbLine
 10
300.68747729390429
 20
-40.072414192963237
 30
0.0
 11
296.66779628645702
 21
-39.597903915553559
 31
0.0
  0
LINE
  5
F7
100
AcDbEntity
  8
0
390
0
  6
Continuous
100
AcDbLine
 10
296.66779628645702
 20
-39.597903915553559
 30
0.0
 11
292.64561330682614
 21
-39.155239597623677
 31
0.0
  0
LINE
  5
F8
100
AcDbEntity
  8
0
390
0
  6
Continuous
100
AcDbLine
 10
292.64561330682614
 20
-39.155239597623677
 30
0.0
 11
288.61847436016285
 21
-38.746867237800217
 31
0.0
  0
LINE
  5
F9
100
AcDbEntity
  8
0
390
0
  6
Continuous
100
AcDbLine
 10
288.61847436016285
 20
-38.746867237800217
 30
0.0
 11
284.5912794399427
 21
-38.37279483230563
 31
0.0
  0
LINE
  5
FA
100
AcDbEntity
  8
0
390
0
  6
Continuous
100
AcDbLine
 10
284.5912794399427
 20
-38.37279483230563
 30
0.0
 11
280.56157854942774
 21
-38.033018383028661
 31
0.0
  0
LINE
  5
FB
100
AcDbEntity
  8
0
390
0
  6
Continuous
100
AcDbLine
 10
280.56157854942774
 20
-38.033018383028661
 30
0.0
 11
276.53182168535591
 21
-37.727541888080566
 31
0.0
  0
LINE
  5
FC
100
AcDbEntity
  8
0
390
0
  6
Continuous
100
AcDbLine
 10
276.53182168535591
 20
-37.727541888080566
 30
0.0
 11
272.49955485287819
 21
-37.458811346087828
 31
0.0
  0
LINE
  5
FD
100
AcDbEntity
  8
0
390
0
  6
Continuous
100
AcDbLine
 10
272.49955485287819
 20
-37.458811346087828
 30
0.0
 11
268.46722804873218
 21
-37.226830755161757
 31
0.0
  0
LINE
  5
FE
100
AcDbEntity
  8
0
390
0
  6
Continuous
100
AcDbLine
 10
268.46722804873218
 20
-37.226830755161757
 30
0.0
 11
264.43239527429159
 21
-37.029146120453305
 31
0.0
  0
LINE
  5
FF
100
AcDbEntity
  8
0
390
0
  6
Continuous
100
AcDbLine
 10
264.43239527429159
 20
-37.029146120453305
 30
0.0
 11
260.39750652629402
 21
-36.865761440073726
 31
0.0
  0
LINE
  5
100
100
AcDbEntity
  8
0
390
0
  6
Continuous
100
AcDbLine
 10
260.39750652629402
 20
-36.865761440073726
 30
0.0
 11
256.35765381504166
 21
-36.741568711276102
 31
0.0
  0
LINE
  5
101
100
AcDbEntity
  8
0
390
0
  6
Continuous
100
AcDbLine
 10
256.35765381504166
 20
-36.741568711276102
 30
0.0
 11
252.31529513349443
 21
-36.651671938696097
 31
0.0
  0
LINE
  5
102
100
AcDbEntity
  8
0
390
0
  6
Continuous
100
AcDbLine
 10
252.31529513349443
 20
-36.651671938696097
 30
0.0
 11
248.27043447976379
 21
-36.593621125595973
 31
0.0
  0
LINE
  5
103
100
AcDbEntity
  8
0
390
0
  6
Continuous
100
AcDbLine
 10
248.27043447976379
 20
-36.593621125595973
 30
0.0
 11
244.22061386088944
 21
-36.572312267340095
 31
0.0
  0
LINE
  5
104
100
AcDbEntity
  8
0
390
0
  6
Continuous
100
AcDbLine
 10
244.22061386088944
 20
-36.572312267340095
 30
0.0
 11
240.16829126983157
 21
-36.582849368563984
 31
0.0
  0
LINE
  5
105
100
AcDbEntity
  8
0
390
0
  6
Continuous
100
AcDbLine
 10
240.16829126983157
 20
-36.582849368563984
 30
0.0
 11
236.11591670332803
 21
-36.625236427379008
 31
0.0
  0
LINE
  5
106
100
AcDbEntity
  8
0
390
0
  6
Continuous
100
AcDbLine
 10
236.11591670332803
 20
-36.625236427379008
 30
0.0
 11
232.05614017116537
 21
-36.699461449451462
 31
0.0
  0
LINE
  5
107
100
AcDbEntity
  8
0
390
0
  6
Continuous
100
AcDbLine
 10
232.05614017116537
 20
-36.699461449451462
 30
0.0
 11
227.99876565840603
 21
-36.803090430488425
 31
0.0
  0
LINE
  5
108
100
AcDbEntity
  8
0
390
0
  6
Continuous
100
AcDbLine
 10
227.99876565840603
 20
-36.803090430488425
 30
0.0
 11
223.94134316831216
 21
-36.93611937237867
 31
0.0
  0
LINE
  5
109
100
AcDbEntity
  8
0
390
0
  6
Continuous
100
AcDbLine
 10
223.94134316831216
 20
-36.93611937237867
 30
0.0
 11
219.88386870277256
 21
-37.100998271860021
 31
0.0
  0
LINE
  5
10A
100
AcDbEntity
  8
0
390
0
  6
Continuous
100
AcDbLine
 10
219.88386870277256
 20
-37.100998271860021
 30
0.0
 11
215.82879625663625
 21
-37.295281130305824
 31
0.0
  0
LINE
  5
10B
100
AcDbEntity
  8
0
390
0
  6
Continuous
100
AcDbLine
 10
215.82879625663625
 20
-37.295281130305824
 30
0.0
 11
211.78102182526746
 21
-37.52142594067638
 31
0.0
  0
LINE
  5
10C
100
AcDbEntity
  8
0
390
0
  6
Continuous
100
AcDbLine
 10
211.78102182526746
 20
-37.52142594067638
 30
0.0
 11
207.74054940677755
 21
-37.776982706233838
 31
0.0
  0
LINE
  5
10D
100
AcDbEntity
  8
0
390
0
  6
Continuous
100
AcDbLine
 10
207.74054940677755
 20
-37.776982706233838
 30
0.0
 11
203.7098210016818
 21
-38.066855418564955
 31
0.0
  0
LINE
  5
10E
100
AcDbEntity
  8
0
390
0
  6
Continuous
100
AcDbLine
 10
203.7098210016818
 20
-38.066855418564955
 30
0.0
 11
199.6912826086068
 21
-38.393498072518753
 31
0.0
  0
LINE
  5
10F
100
AcDbEntity
  8
0
390
0
  6
Continuous
100
AcDbLine
 10
199.6912826086068
 20
-38.393498072518753
 30
0.0
 11
195.68983022291684
 21
-38.759368661055447
 31
0.0
  0
LINE
  5
110
100
AcDbEntity
  8
0
390
0
  6
Continuous
100
AcDbLine
 10
195.68983022291684
 20
-38.759368661055447
 30
0.0
 11
191.70791384134972
 21
-39.164471182286178
 31
0.0
  0
LINE
  5
111
100
AcDbEntity
  8
0
390
0
  6
Continuous
100
AcDbLine
 10
191.70791384134972
 20
-39.164471182286178
 30
0.0
 11
187.7528674616739
 21
-39.618617617495744
 31
0.0
  0
LINE
  5
112
100
AcDbEntity
  8
0
390
0
  6
Continuous
100
AcDbLine
 10
187.7528674616739
 20
-39.618617617495744
 30
0.0
 11
183.82959107736505
 21
-40.121815962906481
 31
0.0
  0
LINE
  5
113
100
AcDbEntity
  8
0
390
0
  6
Continuous
100
AcDbLine
 10
183.82959107736505
 20
-40.121815962906481
 30
0.0
 11
179.94296868945375
 21
-40.683874201691964
 31
0.0
  0
LINE
  5
114
100
AcDbEntity
  8
0
390
0
  6
Continuous
100
AcDbLine
 10
179.94296868945375
 20
-40.683874201691964
 30
0.0
 11
176.10278829055753
 21
-41.312158316510391
 31
0.0
  0
LINE
  5
115
100
AcDbEntity
  8
0
390
0
  6
Continuous
100
AcDbLine
 10
176.10278829055753
 20
-41.312158316510391
 30
0.0
 11
172.31639187466723
 21
-42.011580295170859
 31
0.0
  0
LINE
  5
116
100
AcDbEntity
  8
0
390
0
  6
Continuous
100
AcDbLine
 10
172.31639187466723
 20
-42.011580295170859
 30
0.0
 11
168.58866344281364
 21
-42.791948120846882
 31
0.0
  0
LINE
  5
117
100
AcDbEntity
  8
0
390
0
  6
Continuous
100
AcDbLine
 10
168.58866344281364
 20
-42.791948120846882
 30
0.0
 11
164.92204099740087
 21
-43.6606157818631
 31
0.0
  0
LINE
  5
118
100
AcDbEntity
  8
0
390
0
  6
Continuous
100
AcDbLine
 10
164.92204099740087
 20
-43.6606157818631
 30
0.0
 11
161.328758529673
 21
-44.627403255726534
 31
0.0
  0
LINE
  5
119
100
AcDbEntity
  8
0
390
0
  6
Continuous
100
AcDbLine
 10
161.328758529673
 20
-44.627403255726534
 30
0.0
 11
157.82105802709643
 21
-45.6972305264689
 31
0.0
  0
LINE
  5
11A
100
AcDbEntity
  8
0
390
0
  6
Continuous
100
AcDbLine
 10
157.82105802709643
 20
-45.6972305264689
 30
0.0
 11
154.43324344211118
 21
-46.867703570909242
 31
0.0
  0
LINE
  5
11B
100
AcDbEntity
  8
0
390
0
  6
Continuous
100
AcDbLine
 10
154.43324344211118
 20
-46.867703570909242
 30
0.0
 11
151.25601662946073
 21
-48.107120361571305
 31
0.0
  0
LINE
  5
11C
100
AcDbEntity
  8
0
390
0
  6
Continuous
100
AcDbLine
 10
151.25601662946073
 20
-48.107120361571305
 30
0.0
 11
148.50022124059726
 21
-49.327624853459213
 31
0.0
  0
LINE
  5
11D
100
AcDbEntity
  8
0
390
0
  6
Continuous
100
AcDbLine
 10
148.50022124059726
 20
-49.327624853459213
 30
0.0
 11
146.39393486447261
 21
-50.389939056862261
 31
0.0
  0
LINE
  5
11E
100
AcDbEntity
  8
0
390
0
  6
Continuous
100
AcDbLine
 10
146.39393486447261
 20
-50.389939056862261
 30
0.0
 11
144.92254148099568
 21
-51.242589051619944
 31
0.0
  0
LINE
  5
11F
100
AcDbEntity
  8
0
390
0
  6
Continuous
100
AcDbLine
 10
144.92254148099568
 20
-51.242589051619944
 30
0.0
 11
143.9071233604183
 21
-51.926932920156133
 31
0.0
  0
LINE
  5
120
100
AcDbEntity
  8
0
390
0
  6
Continuous
100
AcDbLine
 10
143.9071233604183
 20
-51.926932920156133
 30
0.0
 11
143.18832276578246
 21
-52.508860697162135
 31
0.0
  0
LINE
  5
121
100
AcDbEntity
  8
0
390
0
  6
Continuous
100
AcDbLine
 10
143.18832276578246
 20
-52.508860697162135
 30
0.0
 11
142.67542184989989
 21
-53.029874397065385
 31
0.0
  0
LINE
  5
122
100
AcDbEntity
  8
0
390
0
  6
Continuous
100
AcDbLine
 10
142.67542184989989
 20
-53.029874397065385
 30
0.0
 11
142.31936870256948
 21
-53.521744015232713
 31
0.0
  0
LINE
  5
123
100
AcDbEntity
  8
0
390
0
  6
Continuous
100
AcDbLine
 10
142.31936870256948
 20
-53.521744015232713
 30
0.0
 11
142.10054735744407
 21
-53.994237553725611
 31
0.0
  0
LINE
  5
124
100
AcDbEntity
  8
0
390
0
  6
Continuous
100
AcDbLine
 10
142.10054735744407
 20
-53.994237553725611
 30
0.0
 11
142.01161182242166
 21
-54.444893021472609
 31
0.0
  0
LINE
  5
125
100
AcDbEntity
  8
0
390
0
  6
Continuous
100
AcDbLine
 10
363.86559639544123
 20
-51.618993557202757
 30
0.0
 11
360.52324193863956
 21
-50.989273643824106
 31
0.0
  0
LINE
  5
126
100
AcDbEntity
  8
0
390
0
  6
Continuous
100
AcDbLine
 10
360.46266262838776
 20
-59.586236232562584
 30
0.0
 11
356.49525431790926
 21
-60.108962585873769
 31
0.0
  0
LINE
  5
127
100
AcDbEntity
  8
0
390
0
  6
Continuous
100
AcDbLine
 10
356.49525431790926
 20
-60.108962585873769
 30
0.0
 11
352.51322199111701
 21
-60.585115012499983
 31
0.0
  0
LINE
  5
128
100
AcDbEntity
  8
0
390
0
  6
Continuous
100
AcDbLine
 10
352.51322199111701
 20
-60.585115012499983
 30
0.0
 11
348.50675766483766
 21
-61.019577513471916
 31
0.0
  0
LINE
  5
129
100
AcDbEntity
  8
0
390
0
  6
Continuous
100
AcDbLine
 10
348.50675766483766
 20
-61.019577513471916
 30
0.0
 11
344.47339135177731
 21
-61.424596074367287
 31
0.0
  0
LINE
  5
12A
100
AcDbEntity
  8
0
390
0
  6
Continuous
100
AcDbLine
 10
344.47339135177731
 20
-61.424596074367287
 30
0.0
 11
340.41066905708692
 21
-61.802616693812581
 31
0.0
  0
LINE
  5
12B
100
AcDbEntity
  8
0
390
0
  6
Continuous
100
AcDbLine
 10
340.41066905708692
 20
-61.802616693812581
 30
0.0
 11
336.32102478505954
 21
-62.163443356870147
 31
0.0
  0
LINE
  5
12C
100
AcDbEntity
  8
0
390
0
  6
Continuous
100
AcDbLine
 10
336.32102478505954
 20
-62.163443356870147
 30
0.0
 11
332.2118045277972
 21
-62.509538054611397
 31
0.0
  0
LINE
  5
12D
100
AcDbEntity
  8
0
390
0
  6
Continuous
100
AcDbLine
 10
332.2118045277972
 20
-62.509538054611397
 30
0.0
 11
328.08789228633054
 21
-62.850708770209877
 31
0.0
  0
LINE
  5
12E
100
AcDbEntity
  8
0
390
0
  6
Continuous
100
AcDbLine
 10
328.08789228633054
 20
-62.850708770209877
 30
0.0
 11
323.95909604383326
 21
-63.182071502634784
 31
0.0
  0
LINE
  5
12F
100
AcDbEntity
  8
0
390
0
  6
Continuous
100
AcDbLine
 10
323.95909604383326
 20
-63.182071502634784
 30
0.0
 11
319.83275779429607
 21
-63.508538239695383
 31
0.0
  0
LINE
  5
130
100
AcDbEntity
  8
0
390
0
  6
Continuous
100
AcDbLine
 10
319.83275779429607
 20
-63.508538239695383
 30
0.0
 11
315.71133153256812
 21
-63.827662982765077
 31
0.0
  0
LINE
  5
131
100
AcDbEntity
  8
0
390
0
  6
Continuous
100
AcDbLine
 10
315.71133153256812
 20
-63.827662982765077
 30
0.0
 11
311.59482525487181
 21
-64.134545738368303
 31
0.0
  0
LINE
  5
132
100
AcDbEntity
  8
0
390
0
  6
Continuous
100
AcDbLine
 10
311.59482525487181
 20
-64.134545738368303
 30
0.0
 11
307.48568895794483
 21
-64.429190504616287
 31
0.0
  0
LINE
  5
133
100
AcDbEntity
  8
0
390
0
  6
Continuous
100
AcDbLine
 10
307.48568895794483
 20
-64.429190504616287
 30
0.0
 11
303.38147664316068
 21
-64.709143286660066
 31
0.0
  0
LINE
  5
134
100
AcDbEntity
  8
0
390
0
  6
Continuous
100
AcDbLine
 10
303.38147664316068
 20
-64.709143286660066
 30
0.0
 11
299.28463830725707
 21
-64.974408082610807
 31
0.0
  0
LINE
  5
135
100
AcDbEntity
  8
0
390
0
  6
Continuous
100
AcDbLine
 10
299.28463830725707
 20
-64.974408082610807
 30
0.0
 11
295.19028195298097
 21
-65.220076902770558
 31
0.0
  0
LINE
  5
136
100
AcDbEntity
  8
0
390
0
  6
Continuous
100
AcDbLine
 10
295.19028195298097
 20
-65.220076902770558
 30
0.0
 11
291.10330757380791
 21
-65.446157743361709
 31
0.0
  0
LINE
  5
137
100
AcDbEntity
  8
0
390
0
  6
Continuous
100
AcDbLine
 10
291.10330757380791
 20
-65.446157743361709
 30
0.0
 11
287.01881517626225
 21
-65.652642608161926
 31
0.0
  0
LINE
  5
138
100
AcDbEntity
  8
0
390
0
  6
Continuous
100
AcDbLine
 10
287.01881517626225
 20
-65.652642608161926
 30
0.0
 11
282.9392667514154
 21
-65.832185505068992
 31
0.0
  0
LINE
  5
139
100
AcDbEntity
  8
0
390
0
  6
Continuous
100
AcDbLine
 10
282.9392667514154
 20
-65.832185505068992
 30
0.0
 11
278.8671042997828
 21
-65.98969042566975
 31
0.0
  0
LINE
  5
13A
100
AcDbEntity
  8
0
390
0
  6
Continuous
100
AcDbLine
 10
278.8671042997828
 20
-65.98969042566975
 30
0.0
 11
274.79498582737347
 21
-66.120245382154991
 31
0.0
  0
LINE
  5
13B
100
AcDbEntity
  8
0
390
0
  6
Continuous
100
AcDbLine
 10
274.79498582737347
 20
-66.120245382154991
 30
0.0
 11
270.72536133092524
 21
-66.223854372635913
 31
0.0
  0
LINE
  5
13C
100
AcDbEntity
  8
0
390
0
  6
Continuous
100
AcDbLine
 10
270.72536133092524
 20
-66.223854372635913
 30
0.0
 11
266.65823081043811
 21
-66.300517397112486
 31
0.0
  0
LINE
  5
13D
100
AcDbEntity
  8
0
390
0
  6
Continuous
100
AcDbLine
 10
266.65823081043811
 20
-66.300517397112486
 30
0.0
 11
262.59114826728535
 21
-66.347780460735777
 31
0.0
  0
LINE
  5
13E
100
AcDbEntity
  8
0
390
0
  6
Continuous
100
AcDbLine
 10
262.59114826728535
 20
-66.347780460735777
 30
0.0
 11
258.52165970661838
 21
-66.368089562132354
 31
0.0
  0
LINE
  5
13F
100
AcDbEntity
  8
0
390
0
  6
Continuous
100
AcDbLine
 10
258.52165970661838
 20
-66.368089562132354
 30
0.0
 11
254.4497651284367
 21
-66.361444701302219
 31
0.0
  0
LINE
  5
140
100
AcDbEntity
  8
0
390
0
  6
Continuous
100
AcDbLine
 10
254.4497651284367
 20
-66.361444701302219
 30
0.0
 11
250.37546453274066
 21
-66.327845878245284
 31
0.0
  0
LINE
  5
141
100
AcDbEntity
  8
0
390
0
  6
Continuous
100
AcDbLine
 10
250.37546453274066
 20
-66.327845878245284
 30
0.0
 11
246.29875392141895
 21
-66.26974308969946
 31
0.0
  0
LINE
  5
142
100
AcDbEntity
  8
0
390
0
  6
Continuous
100
AcDbLine
 10
246.29875392141895
 20
-66.26974308969946
 30
0.0
 11
242.21473330099602
 21
-66.187128339442211
 31
0.0
  0
LINE
  5
143
100
AcDbEntity
  8
0
390
0
  6
Continuous
100
AcDbLine
 10
242.21473330099602
 20
-66.187128339442211
 30
0.0
 11
238.13075266168514
 21
-66.080013621807268
 31
0.0
  0
LINE
  5
144
100
AcDbEntity
  8
0
390
0
  6
Continuous
100
AcDbLine
 10
238.13075266168514
 20
-66.080013621807268
 30
0.0
 11
234.04190801189958
 21
-65.950840937309891
 31
0.0
  0
LINE
  5
145
100
AcDbEntity
  8
0
390
0
  6
Continuous
100
AcDbLine
 10
234.04190801189958
 20
-65.950840937309891
 30
0.0
 11
229.94819535352818
 21
-65.802060282687904
 31
0.0
  0
LINE
  5
146
100
AcDbEntity
  8
0
390
0
  6
Continuous
100
AcDbLine
 10
229.94819535352818
 20
-65.802060282687904
 30
0.0
 11
225.84961468657096
 21
-65.633671657941335
 31
0.0
  0
LINE
  5
147
100
AcDbEntity
  8
0
390
0
  6
Continuous
100
AcDbLine
 10
225.84961468657096
 20
-65.633671657941335
 30
0.0
 11
221.75106600450331
 21
-65.44568305929252
 31
0.0
  0
LINE
  5
148
100
AcDbEntity
  8
0
390
0
  6
Continuous
100
AcDbLine
 10
221.75106600450331
 20
-65.44568305929252
 30
0.0
 11
217.64764131762743
 21
-65.242986483994684
 31
0.0
  0
LINE
  5
149
100
AcDbEntity
  8
0
390
0
  6
Continuous
100
AcDbLine
 10
217.64764131762743
 20
-65.242986483994684
 30
0.0
 11
213.54179462079219
 21
-65.023135933421173
 31
0.0
  0
LINE
  5
14A
100
AcDbEntity
  8
0
390
0
  6
Continuous
100
AcDbLine
 10
213.54179462079219
 20
-65.023135933421173
 30
0.0
 11
209.43597591073546
 21
-64.786135405683268
 31
0.0
  0
LINE
  5
14B
100
AcDbEntity
  8
0
390
0
  6
Continuous
100
AcDbLine
 10
209.43597591073546
 20
-64.786135405683268
 30
0.0
 11
205.33017719123481
 21
-64.536884894256474
 31
0.0
  0
LINE
  5
14C
100
AcDbEntity
  8
0
390
0
  6
Continuous
100
AcDbLine
 10
205.33017719123481
 20
-64.536884894256474
 30
0.0
 11
201.22440246040136
 21
-64.272934402403052
 31
0.0
  0
LINE
  5
14D
100
AcDbEntity
  8
0
390
0
  6
Continuous
100
AcDbLine
 10
201.22440246040136
 20
-64.272934402403052
 30
0.0
 11
197.11865171823518
 21
-63.994283930122975
 31
0.0
  0
LINE
  5
14E
100
AcDbEntity
  8
0
390
0
  6
Continuous
100
AcDbLine
 10
197.11865171823518
 20
-63.994283930122975
 30
0.0
 11
193.02027495494963
 21
-63.700945471749833
 31
0.0
  0
LINE
  5
14F
100
AcDbEntity
  8
0
390
0
  6
Continuous
100
AcDbLine
 10
193.02027495494963
 20
-63.700945471749833
 30
0.0
 11
188.9292761686558
 21
-63.390469030545944
 31
0.0
  0
LINE
  5
150
100
AcDbEntity
  8
0
390
0
  6
Continuous
100
AcDbLine
 10
188.9292761686558
 20
-63.390469030545944
 30
0.0
 11
184.8456553593538
 21
-63.062854606511252
 31
0.0
  0
LINE
  5
151
100
AcDbEntity
  8
0
390
0
  6
Continuous
100
AcDbLine
 10
184.8456553593538
 20
-63.062854606511252
 30
0.0
 11
180.77676651536811
 21
-62.715664197241637
 31
0.0
  0
LINE
  5
152
100
AcDbEntity
  8
0
390
0
  6
Continuous
100
AcDbLine
 10
180.77676651536811
 20
-62.715664197241637
 30
0.0
 11
176.72996762313448
 21
-62.3440098035951
 31
0.0
  0
LINE
  5
153
100
AcDbEntity
  8
0
390
0
  6
Continuous
100
AcDbLine
 10
176.72996762313448
 20
-62.3440098035951
 30
0.0
 11
172.71016667235088
 21
-61.942999428318643
 31
0.0
  0
LINE
  5
154
100
AcDbEntity
  8
0
390
0
  6
Continuous
100
AcDbLine
 10
172.71016667235088
 20
-61.942999428318643
 30
0.0
 11
168.72472564756433
 21
-61.505295075532473
 31
0.0
  0
LINE
  5
155
100
AcDbEntity
  8
0
390
0
  6
Continuous
100
AcDbLine
 10
168.72472564756433
 20
-61.505295075532473
 30
0.0
 11
164.77855253847267
 21
-61.02600474798345
 31
0.0
  0
LINE
  5
156
100
AcDbEntity
  8
0
390
0
  6
Continuous
100
AcDbLine
 10
164.77855253847267
 20
-61.02600474798345
 30
0.0
 11
160.88881731279645
 21
-60.492906448761232
 31
0.0
  0
LINE
  5
157
100
AcDbEntity
  8
0
390
0
  6
Continuous
100
AcDbLine
 10
160.88881731279645
 20
-60.492906448761232
 30
0.0
 11
157.08247393276241
 21
-59.903594160351304
 31
0.0
  0
LINE
  5
158
100
AcDbEntity
  8
0
390
0
  6
Continuous
100
AcDbLine
 10
157.08247393276241
 20
-59.903594160351304
 30
0.0
 11
153.44528028041503
 21
-59.253307823170474
 31
0.0
  0
LINE
  5
159
100
AcDbEntity
  8
0
390
0
  6
Continuous
100
AcDbLine
 10
153.44528028041503
 20
-59.253307823170474
 30
0.0
 11
150.19278009512163
 21
-58.576699225334011
 31
0.0
  0
LINE
  5
15A
100
AcDbEntity
  8
0
390
0
  6
Continuous
100
AcDbLine
 10
150.19278009512163
 20
-58.576699225334011
 30
0.0
 11
147.63111102199011
 21
-57.942868039400764
 31
0.0
  0
LINE
  5
15B
100
AcDbEntity
  8
0
390
0
  6
Continuous
100
AcDbLine
 10
147.63111102199011
 20
-57.942868039400764
 30
0.0
 11
145.82878900934278
 21
-57.403376143977908
 31
0.0
  0
LINE
  5
15C
100
AcDbEntity
  8
0
390
0
  6
Continuous
100
AcDbLine
 10
145.82878900934278
 20
-57.403376143977908
 30
0.0
 11
144.58247632227801
 21
-56.950541705621788
 31
0.0
  0
LINE
  5
15D
100
AcDbEntity
  8
0
390
0
  6
Continuous
100
AcDbLine
 10
144.58247632227801
 20
-56.950541705621788
 30
0.0
 11
143.68888720133978
 21
-56.544832933297499
 31
0.0
  0
LINE
  5
15E
100
AcDbEntity
  8
0
390
0
  6
Continuous
100
AcDbLine
 10
143.68888720133978
 20
-56.544832933297499
 30
0.0
 11
143.03047377856069
 21
-56.154207960075951
 31
0.0
  0
LINE
  5
15F
100
AcDbEntity
  8
0
390
0
  6
Continuous
100
AcDbLine
 10
143.03047377856069
 20
-56.154207960075951
 30
0.0
 11
142.54602611660843
 21
-55.754066865799189
 31
0.0
  0
LINE
  5
160
100
AcDbEntity
  8
0
390
0
  6
Continuous
100
AcDbLine
 10
142.54602611660843
 20
-55.754066865799189
 30
0.0
 11
142.21841822698588
 21
-55.329681683262066
 31
0.0
  0
LINE
  5
161
100
AcDbEntity
  8
0
390
0
  6
Continuous
100
AcDbLine
 10
142.21841822698588
 20
-55.329681683262066
 30
0.0
 11
142.045196114844
 21
-54.88349841109121
 31
0.0
  0
LINE
  5
162
100
AcDbEntity
  8
0
390
0
  6
Continuous
100
AcDbLine
 10
142.045196114844
 20
-54.88349841109121
 30
0.0
 11
142.01161182242166
 21
-54.444893021472609
 31
0.0
  0
LINE
  5
163
100
AcDbEntity
  8
0
390
0
  6
Continuous
100
AcDbLine
 10
363.86559639544117
 20
-59.099124197673547
 30
0.0
 11
360.46266262838776
 21
-59.586236232562584
 31
0.0
  0
LINE
  5
164
100
AcDbEntity
  8
0
390
0
  6
Continuous
100
AcDbLine
 10
363.86559639544117
 20
-115.4535287573827
 30
0.0
 11
355.74878575111984
 21
-115.9669219046216
 31
0.0
  0
LINE
  5
165
100
AcDbEntity
  8
0
390
0
100
AcDbLine
 10
184.32905970452404
 20
96.511696707270687
 30
0.0
 11
178.64678279829016
 21
96.443786543497907
 31
0.0
  0
LINE
  5
166
100
AcDbEntity
  8
0
390
0
100
AcDbLine
 10
184.28728105670962
 20
163.51548809418418
 30
0.0
 11
178.64678279829056
 21
163.60239398555538
 31
0.0
  0
LINE
  5
167
100
AcDbEntity
  8
0
390
0
  6
Continuous
 62
               7
100
AcDbLine
 10
361.13740632848828
 20
98.747489040718932
 30
0.0
 11
355.79705970452403
 21
98.585096707270679
 31
0.0
  0
LINE
  5
168
100
AcDbEntity
  8
0
390
0
  6
Continuous
 62
               7
100
AcDbLine
 10
6.9798583163247834
 20
158.31468697225998
 30
0.0
 11
6.9798583163247834
 21
142.45517675590335
 31
0.0
  0
LINE
  5
169
100
AcDbEntity
  8
0
390
0
100
AcDbLine
 10
6.9798583163247834
 20
142.45517675590335
 30
0.0
 11
11.987659498609659
 21
142.45517675590335
 31
0.0
  0
LINE
  5
16A
100
AcDbEntity
  8
0
390
0
100
AcDbLine
 10
11.987659498609659
 20
142.45517675590335
 30
0.0
 11
11.987659498609659
 21
117.51197628210329
 31
0.0
  0
LINE
  5
16B
100
AcDbEntity
  8
0
390
0
  6
Continuous
 62
               7
100
AcDbLine
 10
6.9776100123065703
 20
117.51197628210329
 30
0.0
 11
6.9776100123065703
 21
101.31607445780307
 31
0.0
  0
LINE
  5
16C
100
AcDbEntity
  8
0
390
0
  6
Continuous
 62
               7
100
AcDbLine
 10
11.987659498609659
 20
117.51197628210329
 30
0.0
 11
6.9776100123065703
 21
117.51197628210329
 31
0.0
  0
ARC
  5
16D
100
AcDbEntity
  8
0
390
0
100
AcDbCircle
 10
230.36851850575471
 20
-4304.8104060503283
 30
0.0
 40
4468.7121287311757
100
AcDbArc
 50
90.663167205310785
 51
92.865381305668123
  0
LINE
  5
16E
100
AcDbEntity
  8
0
390
0
  6
Continuous
 62
               7
100
AcDbLine
 10
217.07176196441091
 20
163.55928809418418
 30
0.0
 11
184.28728105670962
 21
163.51548809418418
 31
0.0
  0
LINE
  5
16F
100
AcDbEntity
  8
0
390
0
  6
Continuous
 62
               7
100
AcDbLine
 10
250.75836617225698
 20
163.35486809418418
 30
0.0
 11
217.07176196441091
 21
163.55928809418418
 31
0.0
  0
LINE
  5
170
100
AcDbEntity
  8
0
390
0
  6
Continuous
 62
               7
100
AcDbLine
 10
285.20407413266389
 20
162.9241280941842
 30
0.0
 11
250.75836617225698
 21
163.35486809418418
 31
0.0
  0
LINE
  5
171
100
AcDbEntity
  8
0
390
0
  6
Continuous
 62
               7
100
AcDbLine
 10
355.77872011350394
 20
161.44208809418419
 30
0.0
 11
285.20407413266389
 21
162.9241280941842
 31
0.0
  0
LINE
  5
172
100
AcDbEntity
  8
0
390
0
  6
Continuous
 62
               7
100
AcDbLine
 10
361.13740632848828
 20
161.2791603515324
 30
0.0
 11
355.77872011350394
 21
161.44208809418419
 31
0.0
  0
LINE
  5
173
100
AcDbEntity
  8
0
390
0
  6
Continuous
 62
               7
100
AcDbLine
 10
355.79705970452403
 20
98.585096707270679
 30
0.0
 11
285.23205970452409
 21
97.103056707270667
 31
0.0
  0
LINE
  5
174
100
AcDbEntity
  8
0
390
0
  6
Continuous
 62
               7
100
AcDbLine
 10
285.23205970452409
 20
97.103056707270667
 30
0.0
 11
250.79105970452409
 21
96.672316707270681
 31
0.0
  0
LINE
  5
175
100
AcDbEntity
  8
0
390
0
  6
Continuous
 62
               7
100
AcDbLine
 10
250.79105970452409
 20
96.672316707270681
 30
0.0
 11
217.10905970452407
 21
96.467896707270683
 31
0.0
  0
LINE
  5
176
100
AcDbEntity
  8
0
390
0
  6
Continuous
 62
               7
100
AcDbLine
 10
217.10905970452407
 20
96.467896707270683
 30
0.0
 11
184.32905970452404
 21
96.511696707270687
 31
0.0
  0
ARC
  5
177
100
AcDbEntity
  8
0
390
0
100
AcDbCircle
 10
239.49928756045983
 20
5267.2222041698333
 30
0.0
 40
5171.1364777509152
100
AcDbArc
 50
267.422809409411
 51
269.32574354093555
  0
LINE
  5
178
100
AcDbEntity
  8
0
390
0
 62
               7
100
AcDbLine
 10
175.70494874758731
 20
106.93639457931036
 30
0.0
 11
140.4699135760915
 21
106.93639457931036
 31
0.0
  0
LINE
  5
179
100
AcDbEntity
  8
0
390
0
 62
               7
100
AcDbLine
 10
140.4699135760915
 20
106.93639457931036
 30
0.0
 11
140.4699135760915
 21
153.09618289532935
 31
0.0
  0
LINE
  5
17A
100
AcDbEntity
  8
0
390
0
 62
               7
100
AcDbLine
 10
140.4699135760915
 20
153.09618289532935
 30
0.0
 11
175.70494874758731
 21
153.09618289532935
 31
0.0
  0
LINE
  5
17B
100
AcDbEntity
  8
0
390
0
 62
               7
100
AcDbLine
 10
175.70494874758731
 20
153.09618289532935
 30
0.0
 11
175.70494874758731
 21
106.93639457931036
 31
0.0
  0
LINE
  5
17C
100
AcDbEntity
  8
0
390
0
  6
Continuous
100
AcDbLine
 10
368.3192946353646
 20
-52.403397765811008
 30
0.0
 11
364.43224529498752
 21
-51.725753657171282
 31
0.0
  0
LINE
  5
17D
100
AcDbEntity
  8
0
390
0
  6
Continuous
100
AcDbLine
 10
364.43224529498752
 20
-51.725753657171282
 30
0.0
 11
363.86559639544123
 21
-51.618993557202757
 31
0.0
  0
LINE
  5
17E
100
AcDbEntity
  8
0
390
0
  6
Continuous
100
AcDbLine
 10
372.26031986808573
 20
-53.034579894879585
 30
0.0
 11
368.3192946353646
 21
-52.403397765811008
 31
0.0
  0
LINE
  5
17F
100
AcDbEntity
  8
0
390
0
  6
Continuous
100
AcDbLine
 10
376.20878704757808
 20
-53.609424093313038
 30
0.0
 11
372.26031986808573
 21
-53.034579894879585
 31
0.0
  0
LINE
  5
180
100
AcDbEntity
  8
0
390
0
  6
Continuous
100
AcDbLine
 10
379.84380657286101
 20
-54.09065665747616
 30
0.0
 11
376.20878704757808
 21
-53.609424093313038
 31
0.0
  0
LINE
  5
181
100
AcDbEntity
  8
0
390
0
  6
Continuous
100
AcDbLine
 10
382.9351067373625
 20
-54.460751787751008
 30
0.0
 11
379.84380657286101
 21
-54.09065665747616
 31
0.0
  0
LINE
  5
182
100
AcDbEntity
  8
0
390
0
  6
Continuous
100
AcDbLine
 10
385.51449751756149
 20
-54.744261426960918
 30
0.0
 11
382.9351067373625
 21
-54.460751787751008
 31
0.0
  0
LINE
  5
183
100
AcDbEntity
  8
0
390
0
  6
Continuous
100
AcDbLine
 10
387.01128559989331
 20
-54.844704142420881
 30
0.0
 11
385.51449751756149
 21
-54.744261426960918
 31
0.0
  0
LINE
  5
184
100
AcDbEntity
  8
0
390
0
  6
Continuous
100
AcDbLine
 10
368.32664124384337
 20
-58.41081775361306
 30
0.0
 11
364.40563893937906
 21
-59.021819953597117
 31
0.0
  0
LINE
  5
185
100
AcDbEntity
  8
0
390
0
  6
Continuous
100
AcDbLine
 10
364.40563893937906
 20
-59.021819953597117
 30
0.0
 11
363.86559639544117
 21
-59.099124197673547
 31
0.0
  0
LINE
  5
186
100
AcDbEntity
  8
0
390
0
  6
Continuous
100
AcDbLine
 10
372.30163943120783
 20
-57.741103590369022
 30
0.0
 11
368.32664124384337
 21
-58.41081775361306
 31
0.0
  0
LINE
  5
187
100
AcDbEntity
  8
0
390
0
  6
Continuous
100
AcDbLine
 10
376.27915958131177
 20
-57.027293483956242
 30
0.0
 11
372.30163943120783
 21
-57.741103590369022
 31
0.0
  0
LINE
  5
188
100
AcDbEntity
  8
0
390
0
  6
Continuous
100
AcDbLine
 10
379.91854020049072
 20
-56.337431605574324
 30
0.0
 11
376.27915958131177
 21
-57.027293483956242
 31
0.0
  0
LINE
  5
189
100
AcDbEntity
  8
0
390
0
  6
Continuous
100
AcDbLine
 10
382.98938564072489
 20
-55.72994205447614
 30
0.0
 11
379.91854020049072
 21
-56.337431605574324
 31
0.0
  0
LINE
  5
18A
100
AcDbEntity
  8
0
390
0
  6
Continuous
100
AcDbLine
 10
385.53824184192058
 20
-55.207350791512397
 30
0.0
 11
382.98938564072489
 21
-55.72994205447614
 31
0.0
  0
LINE
  5
18B
100
AcDbEntity
  8
0
390
0
  6
Continuous
100
AcDbLine
 10
387.01128559989331
 20
-54.844704142420881
 30
0.0
 11
385.53824184192058
 21
-55.207350791512397
 31
0.0
  0
INSERT
  5
1CF
100
AcDbEntity
  8
0
390
0
100
AcDbBlockReference
  2
B02BC0180
 10
0.0
 20
0.0
 30
0.0
  0
INSERT
  5
1DC
100
AcDbEntity
  8
0
390
0
100
AcDbBlockReference
  2
B0247A4B4
 10
0.0
 20
0.0
 30
0.0
  0
INSERT
  5
1E4
100
AcDbEntity
  8
0
390
0
100
AcDbBlockReference
  2
B0247A7EC
 10
0.0
 20
0.0
 30
0.0
  0
INSERT
  5
1EC
100
AcDbEntity
  8
0
390
0
100
AcDbBlockReference
  2
B0247A988
 10
0.0
 20
0.0
 30
0.0
  0
LINE
  5
1ED
100
AcDbEntity
  8
0
390
0
  6
Continuous
100
AcDbLine
 10
807.61423087208459
 20
-70.460630668876775
 30
0.0
 11
802.20878575111988
 21
-71.194921904621594
 31
0.0
  0
LINE
  5
1EE
100
AcDbEntity
  8
0
390
0
  6
Continuous
100
AcDbLine
 10
882.55392300794279
 20
-60.279423146386989
 30
0.0
 11
869.81828575111979
 21
-62.007421904621587
 31
0.0
  0
LINE
  5
1EF
100
AcDbEntity
  8
0
390
0
100
AcDbLine
 10
862.39986862134219
 20
-34.414432416700066
 30
0.0
 11
862.40205928939736
 21
-27.348802944293407
 31
0.0
  0
LINE
  5
1F0
100
AcDbEntity
  8
0
390
0
100
AcDbLine
 10
862.52934971596142
 20
-166.91713665980245
 30
0.0
 11
862.53154038401658
 21
-159.85150718739578
 31
0.0
  0
LINE
  5
1F1
100
AcDbEntity
  8
0
390
0
  6
Continuous
100
AcDbLine
 10
882.68340410256201
 20
-192.78212738948937
 30
0.0
 11
869.94776684573901
 21
-194.51012614772398
 31
0.0
  0
LINE
  5
1F2
100
AcDbEntity
  8
0
390
0
  6
Continuous
100
AcDbLine
 10
807.74371196670381
 20
-202.96333491197916
 30
0.0
 11
802.3382668457391
 21
-203.69762614772398
 31
0.0
  0
INSERT
  5
1FA
100
AcDbEntity
  8
0
390
0
100
AcDbBlockReference
  2
B0247AD1C
 10
0.0
 20
0.0
 30
0.0
  0
INSERT
  5
202
100
AcDbEntity
  8
0
390
0
100
AcDbBlockReference
  2
B0247AEB8
 10
0.0
 20
0.0
 30
0.0
  0
INSERT
  5
20F
100
AcDbEntity
  8
0
390
0
100
AcDbBlockReference
  2
B0247B054
 10
0.0
 20
0.0
 30
0.0
  0
INSERT
  5
253
100
AcDbEntity
  8
0
390
0
100
AcDbBlockReference
  2
B0247B38C
 10
0.0
 20
0.0
 30
0.0
  0
LINE
  5
254
100
AcDbEntity
  8
0
390
0
  6
Continuous
100
AcDbLine
 10
387.14076669451254
 20
-187.34740838552327
 30
0.0
 11
385.6677229365398
 21
-187.71005503461478
 31
0.0
  0
LINE
  5
255
100
AcDbEntity
  8
0
390
0
  6
Continuous
100
AcDbLine
 10
385.6677229365398
 20
-187.71005503461478
 30
0.0
 11
383.11886673534411
 21
-188.23264629757853
 31
0.0
  0
LINE
  5
256
100
AcDbEntity
  8
0
390
0
  6
Continuous
100
AcDbLine
 10
383.11886673534411
 20
-188.23264629757853
 30
0.0
 11
380.04802129510995
 21
-188.84013584867671
 31
0.0
  0
LINE
  5
257
100
AcDbEntity
  8
0
390
0
  6
Continuous
100
AcDbLine
 10
380.04802129510995
 20
-188.84013584867671
 30
0.0
 11
376.408640675931
 21
-189.52999772705863
 31
0.0
  0
LINE
  5
258
100
AcDbEntity
  8
0
390
0
  6
Continuous
100
AcDbLine
 10
376.408640675931
 20
-189.52999772705863
 30
0.0
 11
372.43112052582705
 21
-190.24380783347141
 31
0.0
  0
LINE
  5
259
100
AcDbEntity
  8
0
390
0
  6
Continuous
100
AcDbLine
 10
372.43112052582705
 20
-190.24380783347141
 30
0.0
 11
368.45612233846259
 21
-190.91352199671545
 31
0.0
  0
LINE
  5
25A
100
AcDbEntity
  8
0
390
0
  6
Continuous
100
AcDbLine
 10
364.53512003399828
 20
-191.5245241966995
 30
0.0
 11
363.9950774900604
 21
-191.60182844077593
 31
0.0
  0
LINE
  5
25B
100
AcDbEntity
  8
0
390
0
  6
Continuous
100
AcDbLine
 10
368.45612233846259
 20
-190.91352199671545
 30
0.0
 11
364.53512003399828
 21
-191.5245241966995
 31
0.0
  0
LINE
  5
25C
100
AcDbEntity
  8
0
390
0
  6
Continuous
100
AcDbLine
 10
387.14076669451254
 20
-187.34740838552327
 30
0.0
 11
385.64397861218072
 21
-187.2469656700633
 31
0.0
  0
LINE
  5
25D
100
AcDbEntity
  8
0
390
0
  6
Continuous
100
AcDbLine
 10
385.64397861218072
 20
-187.2469656700633
 30
0.0
 11
383.06458783198173
 21
-186.96345603085339
 31
0.0
  0
LINE
  5
25E
100
AcDbEntity
  8
0
390
0
  6
Continuous
100
AcDbLine
 10
383.06458783198173
 20
-186.96345603085339
 30
0.0
 11
379.97328766748024
 21
-186.59336090057855
 31
0.0
  0
LINE
  5
25F
100
AcDbEntity
  8
0
390
0
  6
Continuous
100
AcDbLine
 10
379.97328766748024
 20
-186.59336090057855
 30
0.0
 11
376.33826814219731
 21
-186.11212833641542
 31
0.0
  0
LINE
  5
260
100
AcDbEntity
  8
0
390
0
  6
Continuous
100
AcDbLine
 10
376.33826814219731
 20
-186.11212833641542
 30
0.0
 11
372.38980096270495
 21
-185.53728413798197
 31
0.0
  0
LINE
  5
261
100
AcDbEntity
  8
0
390
0
  6
Continuous
100
AcDbLine
 10
372.38980096270495
 20
-185.53728413798197
 30
0.0
 11
368.44877572998382
 21
-184.90610200891339
 31
0.0
  0
LINE
  5
262
100
AcDbEntity
  8
0
390
0
  6
Continuous
100
AcDbLine
 10
364.56172638960675
 20
-184.22845790027367
 30
0.0
 11
363.99507749006045
 21
-184.12169780030513
 31
0.0
  0
LINE
  5
263
100
AcDbEntity
  8
0
390
0
  6
Continuous
100
AcDbLine
 10
368.44877572998382
 20
-184.90610200891339
 30
0.0
 11
364.56172638960675
 21
-184.22845790027367
 31
0.0
  0
LINE
  5
264
100
AcDbEntity
  8
0
390
0
  6
Continuous
100
AcDbLine
 10
363.9950774900604
 20
-247.9562330004851
 30
0.0
 11
355.87826684573906
 21
-248.469626147724
 31
0.0
  0
LINE
  5
265
100
AcDbEntity
  8
0
390
0
  6
Continuous
100
AcDbLine
 10
363.9950774900604
 20
-191.60182844077593
 30
0.0
 11
360.59214372300698
 21
-192.08894047566497
 31
0.0
  0
LINE
  5
266
100
AcDbEntity
  8
0
390
0
  6
Continuous
100
AcDbLine
 10
142.17467720946325
 20
-187.3862026541936
 30
0.0
 11
142.14109291704091
 21
-186.94759726457499
 31
0.0
  0
LINE
  5
267
100
AcDbEntity
  8
0
390
0
  6
Continuous
100
AcDbLine
 10
142.34789932160513
 20
-187.83238592636445
 30
0.0
 11
142.17467720946325
 21
-187.3862026541936
 31
0.0
  0
LINE
  5
268
100
AcDbEntity
  8
0
390
0
  6
Continuous
100
AcDbLine
 10
142.67550721122768
 20
-188.25677110890157
 30
0.0
 11
142.34789932160513
 21
-187.83238592636445
 31
0.0
  0
LINE
  5
269
100
AcDbEntity
  8
0
390
0
  6
Continuous
100
AcDbLine
 10
143.15995487317994
 20
-188.65691220317834
 30
0.0
 11
142.67550721122768
 21
-188.25677110890157
 31
0.0
  0
LINE
  5
26A
100
AcDbEntity
  8
0
390
0
  6
Continuous
100
AcDbLine
 10
143.81836829595903
 20
-189.04753717639989
 30
0.0
 11
143.15995487317994
 21
-188.65691220317834
 31
0.0
  0
LINE
  5
26B
100
AcDbEntity
  8
0
390
0
  6
Continuous
100
AcDbLine
 10
144.71195741689726
 20
-189.45324594872417
 30
0.0
 11
143.81836829595903
 21
-189.04753717639989
 31
0.0
  0
LINE
  5
26C
100
AcDbEntity
  8
0
390
0
  6
Continuous
100
AcDbLine
 10
145.95827010396204
 20
-189.90608038708029
 30
0.0
 11
144.71195741689726
 21
-189.45324594872417
 31
0.0
  0
LINE
  5
26D
100
AcDbEntity
  8
0
390
0
  6
Continuous
100
AcDbLine
 10
147.76059211660936
 20
-190.44557228250315
 30
0.0
 11
145.95827010396204
 21
-189.90608038708029
 31
0.0
  0
LINE
  5
26E
100
AcDbEntity
  8
0
390
0
  6
Continuous
100
AcDbLine
 10
150.32226118974089
 20
-191.0794034684364
 30
0.0
 11
147.76059211660936
 21
-190.44557228250315
 31
0.0
  0
LINE
  5
26F
100
AcDbEntity
  8
0
390
0
  6
Continuous
100
AcDbLine
 10
153.57476137503429
 20
-191.75601206627286
 30
0.0
 11
150.32226118974089
 21
-191.0794034684364
 31
0.0
  0
LINE
  5
270
100
AcDbEntity
  8
0
390
0
  6
Continuous
100
AcDbLine
 10
157.21195502738166
 20
-192.40629840345369
 30
0.0
 11
153.57476137503429
 21
-191.75601206627286
 31
0.0
  0
LINE
  5
271
100
AcDbEntity
  8
0
390
0
  6
Continuous
100
AcDbLine
 10
161.0182984074157
 20
-192.99561069186362
 30
0.0
 11
157.21195502738166
 21
-192.40629840345369
 31
0.0
  0
LINE
  5
272
100
AcDbEntity
  8
0
390
0
  6
Continuous
100
AcDbLine
 10
164.90803363309192
 20
-193.52870899108584
 30
0.0
 11
161.0182984074157
 21
-192.99561069186362
 31
0.0
  0
LINE
  5
273
100
AcDbEntity
  8
0
390
0
  6
Continuous
100
AcDbLine
 10
168.85420674218358
 20
-194.00799931863486
 30
0.0
 11
164.90803363309192
 21
-193.52870899108584
 31
0.0
  0
LINE
  5
274
100
AcDbEntity
  8
0
390
0
  6
Continuous
100
AcDbLine
 10
172.83964776697013
 20
-194.44570367142103
 30
0.0
 11
168.85420674218358
 21
-194.00799931863486
 31
0.0
  0
LINE
  5
275
100
AcDbEntity
  8
0
390
0
  6
Continuous
100
AcDbLine
 10
176.85944871775374
 20
-194.84671404669749
 30
0.0
 11
172.83964776697013
 21
-194.44570367142103
 31
0.0
  0
LINE
  5
276
100
AcDbEntity
  8
0
390
0
  6
Continuous
100
AcDbLine
 10
180.90624760998736
 20
-195.21836844034402
 30
0.0
 11
176.85944871775374
 21
-194.84671404669749
 31
0.0
  0
LINE
  5
277
100
AcDbEntity
  8
0
390
0
  6
Continuous
100
AcDbLine
 10
184.97513645397305
 20
-195.56555884961364
 30
0.0
 11
180.90624760998736
 21
-195.21836844034402
 31
0.0
  0
LINE
  5
278
100
AcDbEntity
  8
0
390
0
  6
Continuous
100
AcDbLine
 10
189.05875726327506
 20
-195.89317327364833
 30
0.0
 11
184.97513645397305
 21
-195.56555884961364
 31
0.0
  0
LINE
  5
279
100
AcDbEntity
  8
0
390
0
  6
Continuous
100
AcDbLine
 10
193.14975604956888
 20
-196.20364971485222
 30
0.0
 11
189.05875726327506
 21
-195.89317327364833
 31
0.0
  0
LINE
  5
27A
100
AcDbEntity
  8
0
390
0
  6
Continuous
100
AcDbLine
 10
197.24813281285444
 20
-196.49698817322536
 30
0.0
 11
193.14975604956888
 21
-196.20364971485222
 31
0.0
  0
LINE
  5
27B
100
AcDbEntity
  8
0
390
0
  6
Continuous
100
AcDbLine
 10
201.35388355502062
 20
-196.77563864550544
 30
0.0
 11
197.24813281285444
 21
-196.49698817322536
 31
0.0
  0
LINE
  5
27C
100
AcDbEntity
  8
0
390
0
  6
Continuous
100
AcDbLine
 10
205.45965828585406
 20
-197.03958913735886
 30
0.0
 11
201.35388355502062
 21
-196.77563864550544
 31
0.0
  0
LINE
  5
27D
100
AcDbEntity
  8
0
390
0
  6
Continuous
100
AcDbLine
 10
209.56545700535472
 20
-197.28883964878565
 30
0.0
 11
205.45965828585406
 21
-197.03958913735886
 31
0.0
  0
LINE
  5
27E
100
AcDbEntity
  8
0
390
0
  6
Continuous
100
AcDbLine
 10
213.67127571541144
 20
-197.52584017652356
 30
0.0
 11
209.56545700535472
 21
-197.28883964878565
 31
0.0
  0
LINE
  5
27F
100
AcDbEntity
  8
0
390
0
  6
Continuous
100
AcDbLine
 10
217.77712241224668
 20
-197.74569072709707
 30
0.0
 11
213.67127571541144
 21
-197.52584017652356
 31
0.0
  0
LINE
  5
280
100
AcDbEntity
  8
0
390
0
  6
Continuous
100
AcDbLine
 10
221.88054709912257
 20
-197.94838730239491
 30
0.0
 11
217.77712241224668
 21
-197.74569072709707
 31
0.0
  0
LINE
  5
281
100
AcDbEntity
  8
0
390
0
  6
Continuous
100
AcDbLine
 10
225.97909578119021
 20
-198.13637590104372
 30
0.0
 11
221.88054709912257
 21
-197.94838730239491
 31
0.0
  0
LINE
  5
282
100
AcDbEntity
  8
0
390
0
  6
Continuous
100
AcDbLine
 10
230.07767644814743
 20
-198.30476452579029
 30
0.0
 11
225.97909578119021
 21
-198.13637590104372
 31
0.0
  0
LINE
  5
283
100
AcDbEntity
  8
0
390
0
  6
Continuous
100
AcDbLine
 10
234.17138910651883
 20
-198.45354518041228
 30
0.0
 11
230.07767644814743
 21
-198.30476452579029
 31
0.0
  0
LINE
  5
284
100
AcDbEntity
  8
0
390
0
  6
Continuous
100
AcDbLine
 10
238.26023375630439
 20
-198.58271786490965
 30
0.0
 11
234.17138910651883
 21
-198.45354518041228
 31
0.0
  0
LINE
  5
285
100
AcDbEntity
  8
0
390
0
  6
Continuous
100
AcDbLine
 10
242.34421439561527
 20
-198.6898325825446
 30
0.0
 11
238.26023375630439
 21
-198.58271786490965
 31
0.0
  0
LINE
  5
286
100
AcDbEntity
  8
0
390
0
  6
Continuous
100
AcDbLine
 10
246.4282350160382
 20
-198.77244733280185
 30
0.0
 11
242.34421439561527
 21
-198.6898325825446
 31
0.0
  0
LINE
  5
287
100
AcDbEntity
  8
0
390
0
  6
Continuous
100
AcDbLine
 10
250.50494562735992
 20
-198.83055012134767
 30
0.0
 11
246.4282350160382
 21
-198.77244733280185
 31
0.0
  0
LINE
  5
288
100
AcDbEntity
  8
0
390
0
  6
Continuous
100
AcDbLine
 10
254.57924622305595
 20
-198.8641489444046
 30
0.0
 11
250.50494562735992
 21
-198.83055012134767
 31
0.0
  0
LINE
  5
289
100
AcDbEntity
  8
0
390
0
  6
Continuous
100
AcDbLine
 10
258.6511408012376
 20
-198.87079380523474
 30
0.0
 11
254.57924622305595
 21
-198.8641489444046
 31
0.0
  0
LINE
  5
28A
100
AcDbEntity
  8
0
390
0
  6
Continuous
100
AcDbLine
 10
262.72062936190457
 20
-198.85048470383816
 30
0.0
 11
258.6511408012376
 21
-198.87079380523474
 31
0.0
  0
LINE
  5
28B
100
AcDbEntity
  8
0
390
0
  6
Continuous
100
AcDbLine
 10
266.78771190505734
 20
-198.80322164021487
 30
0.0
 11
262.72062936190457
 21
-198.85048470383816
 31
0.0
  0
LINE
  5
28C
100
AcDbEntity
  8
0
390
0
  6
Continuous
100
AcDbLine
 10
270.85484242554446
 20
-198.7265586157383
 30
0.0
 11
266.78771190505734
 21
-198.80322164021487
 31
0.0
  0
LINE
  5
28D
100
AcDbEntity
  8
0
390
0
  6
Continuous
100
AcDbLine
 10
274.92446692199269
 20
-198.62294962525738
 30
0.0
 11
270.85484242554446
 21
-198.7265586157383
 31
0.0
  0
LINE
  5
28E
100
AcDbEntity
  8
0
390
0
  6
Continuous
100
AcDbLine
 10
278.99658539440202
 20
-198.49239466877214
 30
0.0
 11
274.92446692199269
 21
-198.62294962525738
 31
0.0
  0
LINE
  5
28F
100
AcDbEntity
  8
0
390
0
  6
Continuous
100
AcDbLine
 10
283.06874784603463
 20
-198.33488974817138
 30
0.0
 11
278.99658539440202
 21
-198.49239466877214
 31
0.0
  0
LINE
  5
290
100
AcDbEntity
  8
0
390
0
  6
Continuous
100
AcDbLine
 10
287.14829627088147
 20
-198.15534685126431
 30
0.0
 11
283.06874784603463
 21
-198.33488974817138
 31
0.0
  0
LINE
  5
291
100
AcDbEntity
  8
0
390
0
  6
Continuous
100
AcDbLine
 10
291.23278866842713
 20
-197.9488619864641
 30
0.0
 11
287.14829627088147
 21
-198.15534685126431
 31
0.0
  0
LINE
  5
292
100
AcDbEntity
  8
0
390
0
  6
Continuous
100
AcDbLine
 10
295.31976304760019
 20
-197.72278114587294
 30
0.0
 11
291.23278866842713
 21
-197.9488619864641
 31
0.0
  0
LINE
  5
293
100
AcDbEntity
  8
0
390
0
  6
Continuous
100
AcDbLine
 10
299.41411940187629
 20
-197.47711232571319
 30
0.0
 11
295.31976304760019
 21
-197.72278114587294
 31
0.0
  0
LINE
  5
294
100
AcDbEntity
  8
0
390
0
  6
Continuous
100
AcDbLine
 10
303.5109577377799
 20
-197.21184752976245
 30
0.0
 11
299.41411940187629
 21
-197.47711232571319
 31
0.0
  0
LINE
  5
295
100
AcDbEntity
  8
0
390
0
  6
Continuous
100
AcDbLine
 10
307.61517005256405
 20
-196.93189474771867
 30
0.0
 11
303.5109577377799
 21
-197.21184752976245
 31
0.0
  0
LINE
  5
296
100
AcDbEntity
  8
0
390
0
  6
Continuous
100
AcDbLine
 10
311.72430634949103
 20
-196.63724998147069
 30
0.0
 11
307.61517005256405
 21
-196.93189474771867
 31
0.0
  0
LINE
  5
297
100
AcDbEntity
  8
0
390
0
  6
Continuous
100
AcDbLine
 10
315.84081262718735
 20
-196.33036722586746
 30
0.0
 11
311.72430634949103
 21
-196.63724998147069
 31
0.0
  0
LINE
  5
298
100
AcDbEntity
  8
0
390
0
  6
Continuous
100
AcDbLine
 10
319.96223888891529
 20
-196.01124248279777
 30
0.0
 11
315.84081262718735
 21
-196.33036722586746
 31
0.0
  0
LINE
  5
299
100
AcDbEntity
  8
0
390
0
  6
Continuous
100
AcDbLine
 10
324.08857713845248
 20
-195.68477574573717
 30
0.0
 11
319.96223888891529
 21
-196.01124248279777
 31
0.0
  0
LINE
  5
29A
100
AcDbEntity
  8
0
390
0
  6
Continuous
100
AcDbLine
 10
328.21737338094977
 20
-195.35341301331226
 30
0.0
 11
324.08857713845248
 21
-195.68477574573717
 31
0.0
  0
LINE
  5
29B
100
AcDbEntity
  8
0
390
0
  6
Continuous
100
AcDbLine
 10
332.34128562241642
 20
-195.01224229771378
 30
0.0
 11
328.21737338094977
 21
-195.35341301331226
 31
0.0
  0
LINE
  5
29C
100
AcDbEntity
  8
0
390
0
  6
Continuous
100
AcDbLine
 10
336.45050587967876
 20
-194.66614759997253
 30
0.0
 11
332.34128562241642
 21
-195.01224229771378
 31
0.0
  0
LINE
  5
29D
100
AcDbEntity
  8
0
390
0
  6
Continuous
100
AcDbLine
 10
340.54015015170614
 20
-194.30532093691497
 30
0.0
 11
336.45050587967876
 21
-194.66614759997253
 31
0.0
  0
LINE
  5
29E
100
AcDbEntity
  8
0
390
0
  6
Continuous
100
AcDbLine
 10
344.60287244639653
 20
-193.92730031746967
 30
0.0
 11
340.54015015170614
 21
-194.30532093691497
 31
0.0
  0
LINE
  5
29F
100
AcDbEntity
  8
0
390
0
  6
Continuous
100
AcDbLine
 10
348.63623875945689
 20
-193.5222817565743
 30
0.0
 11
344.60287244639653
 21
-193.92730031746967
 31
0.0
  0
LINE
  5
2A0
100
AcDbEntity
  8
0
390
0
  6
Continuous
100
AcDbLine
 10
352.64270308573623
 20
-193.08781925560237
 30
0.0
 11
348.63623875945689
 21
-193.5222817565743
 31
0.0
  0
LINE
  5
2A1
100
AcDbEntity
  8
0
390
0
  6
Continuous
100
AcDbLine
 10
356.62473541252848
 20
-192.61166682897615
 30
0.0
 11
352.64270308573623
 21
-193.08781925560237
 31
0.0
  0
LINE
  5
2A2
100
AcDbEntity
  8
0
390
0
  6
Continuous
100
AcDbLine
 10
360.59214372300698
 20
-192.08894047566497
 30
0.0
 11
356.62473541252848
 21
-192.61166682897615
 31
0.0
  0
LINE
  5
2A3
100
AcDbEntity
  8
0
390
0
  6
Continuous
100
AcDbLine
 10
363.99507749006045
 20
-184.12169780030513
 30
0.0
 11
360.65272303325878
 21
-183.49197788692649
 31
0.0
  0
LINE
  5
2A4
100
AcDbEntity
  8
0
390
0
  6
Continuous
100
AcDbLine
 10
142.23002845206332
 20
-186.496941796828
 30
0.0
 11
142.14109291704091
 21
-186.94759726457499
 31
0.0
  0
LINE
  5
2A5
100
AcDbEntity
  8
0
390
0
  6
Continuous
100
AcDbLine
 10
142.44884979718873
 20
-186.0244482583351
 30
0.0
 11
142.23002845206332
 21
-186.496941796828
 31
0.0
  0
LINE
  5
2A6
100
AcDbEntity
  8
0
390
0
  6
Continuous
100
AcDbLine
 10
142.80490294451914
 20
-185.53257864016777
 30
0.0
 11
142.44884979718873
 21
-186.0244482583351
 31
0.0
  0
LINE
  5
2A7
100
AcDbEntity
  8
0
390
0
  6
Continuous
100
AcDbLine
 10
143.31780386040171
 20
-185.01156494026452
 30
0.0
 11
142.80490294451914
 21
-185.53257864016777
 31
0.0
  0
LINE
  5
2A8
100
AcDbEntity
  8
0
390
0
  6
Continuous
100
AcDbLine
 10
144.03660445503755
 20
-184.42963716325852
 30
0.0
 11
143.31780386040171
 21
-185.01156494026452
 31
0.0
  0
LINE
  5
2A9
100
AcDbEntity
  8
0
390
0
  6
Continuous
100
AcDbLine
 10
145.05202257561493
 20
-183.74529329472233
 30
0.0
 11
144.03660445503755
 21
-184.42963716325852
 31
0.0
  0
LINE
  5
2AA
100
AcDbEntity
  8
0
390
0
  6
Continuous
100
AcDbLine
 10
146.52341595909186
 20
-182.89264329996465
 30
0.0
 11
145.05202257561493
 21
-183.74529329472233
 31
0.0
  0
LINE
  5
2AB
100
AcDbEntity
  8
0
390
0
  6
Continuous
100
AcDbLine
 10
148.62970233521651
 20
-181.8303290965616
 30
0.0
 11
146.52341595909186
 21
-182.89264329996465
 31
0.0
  0
LINE
  5
2AC
100
AcDbEntity
  8
0
390
0
  6
Continuous
100
AcDbLine
 10
151.38549772407998
 20
-180.60982460467369
 30
0.0
 11
148.62970233521651
 21
-181.8303290965616
 31
0.0
  0
LINE
  5
2AD
100
AcDbEntity
  8
0
390
0
  6
Continuous
100
AcDbLine
 10
154.56272453673043
 20
-179.37040781401163
 30
0.0
 11
151.38549772407998
 21
-180.60982460467369
 31
0.0
  0
LINE
  5
2AE
100
AcDbEntity
  8
0
390
0
  6
Continuous
100
AcDbLine
 10
157.95053912171568
 20
-178.19993476957129
 30
0.0
 11
154.56272453673043
 21
-179.37040781401163
 31
0.0
  0
LINE
  5
2AF
100
AcDbEntity
  8
0
390
0
  6
Continuous
100
AcDbLine
 10
161.45823962429225
 20
-177.13010749882892
 30
0.0
 11
157.95053912171568
 21
-178.19993476957129
 31
0.0
  0
LINE
  5
2B0
100
AcDbEntity
  8
0
390
0
  6
Continuous
100
AcDbLine
 10
165.05152209202012
 20
-176.16332002496549
 30
0.0
 11
161.45823962429225
 21
-177.13010749882892
 31
0.0
  0
LINE
  5
2B1
100
AcDbEntity
  8
0
390
0
  6
Continuous
100
AcDbLine
 10
168.71814453743289
 20
-175.29465236394927
 30
0.0
 11
165.05152209202012
 21
-176.16332002496549
 31
0.0
  0
LINE
  5
2B2
100
AcDbEntity
  8
0
390
0
  6
Continuous
100
AcDbLine
 10
172.44587296928648
 20
-174.51428453827324
 30
0.0
 11
168.71814453743289
 21
-175.29465236394927
 31
0.0
  0
LINE
  5
2B3
100
AcDbEntity
  8
0
390
0
  6
Continuous
100
AcDbLine
 10
176.23226938517678
 20
-173.81486255961278
 30
0.0
 11
172.44587296928648
 21
-174.51428453827324
 31
0.0
  0
LINE
  5
2B4
100
AcDbEntity
  8
0
390
0
  6
Continuous
100
AcDbLine
 10
180.072449784073
 20
-173.18657844479435
 30
0.0
 11
176.23226938517678
 21
-173.81486255961278
 31
0.0
  0
LINE
  5
2B5
100
AcDbEntity
  8
0
390
0
  6
Continuous
100
AcDbLine
 10
183.9590721719843
 20
-172.62452020600887
 30
0.0
 11
180.072449784073
 21
-173.18657844479435
 31
0.0
  0
LINE
  5
2B6
100
AcDbEntity
  8
0
390
0
  6
Continuous
100
AcDbLine
 10
187.88234855629315
 20
-172.12132186059813
 30
0.0
 11
183.9590721719843
 21
-172.62452020600887
 31
0.0
  0
LINE
  5
2B7
100
AcDbEntity
  8
0
390
0
  6
Continuous
100
AcDbLine
 10
191.83739493596897
 20
-171.66717542538856
 30
0.0
 11
187.88234855629315
 21
-172.12132186059813
 31
0.0
  0
LINE
  5
2B8
100
AcDbEntity
  8
0
390
0
  6
Continuous
100
AcDbLine
 10
195.81931131753609
 20
-171.26207290415783
 30
0.0
 11
191.83739493596897
 21
-171.66717542538856
 31
0.0
  0
LINE
  5
2B9
100
AcDbEntity
  8
0
390
0
  6
Continuous
100
AcDbLine
 10
199.82076370322605
 20
-170.89620231562114
 30
0.0
 11
195.81931131753609
 21
-171.26207290415783
 31
0.0
  0
LINE
  5
2BA
100
AcDbEntity
  8
0
390
0
  6
Continuous
100
AcDbLine
 10
203.83930209630105
 20
-170.56955966166734
 30
0.0
 11
199.82076370322605
 21
-170.89620231562114
 31
0.0
  0
LINE
  5
2BB
100
AcDbEntity
  8
0
390
0
  6
Continuous
100
AcDbLine
 10
207.8700305013968
 20
-170.27968694933622
 30
0.0
 11
203.83930209630105
 21
-170.56955966166734
 31
0.0
  0
LINE
  5
2BC
100
AcDbEntity
  8
0
390
0
  6
Continuous
100
AcDbLine
 10
211.91050291988671
 20
-170.02413018377877
 30
0.0
 11
207.8700305013968
 21
-170.27968694933622
 31
0.0
  0
LINE
  5
2BD
100
AcDbEntity
  8
0
390
0
  6
Continuous
100
AcDbLine
 10
215.9582773512555
 20
-169.79798537340821
 30
0.0
 11
211.91050291988671
 21
-170.02413018377877
 31
0.0
  0
LINE
  5
2BE
100
AcDbEntity
  8
0
390
0
  6
Continuous
100
AcDbLine
 10
220.01334979739181
 20
-169.60370251496241
 30
0.0
 11
215.9582773512555
 21
-169.79798537340821
 31
0.0
  0
LINE
  5
2BF
100
AcDbEntity
  8
0
390
0
  6
Continuous
100
AcDbLine
 10
224.07082426293141
 20
-169.43882361548106
 30
0.0
 11
220.01334979739181
 21
-169.60370251496241
 31
0.0
  0
LINE
  5
2C0
100
AcDbEntity
  8
0
390
0
  6
Continuous
100
AcDbLine
 10
228.12824675302528
 20
-169.30579467359081
 30
0.0
 11
224.07082426293141
 21
-169.43882361548106
 31
0.0
  0
LINE
  5
2C1
100
AcDbEntity
  8
0
390
0
  6
Continuous
100
AcDbLine
 10
232.18562126578462
 20
-169.20216569255385
 30
0.0
 11
228.12824675302528
 21
-169.30579467359081
 31
0.0
  0
LINE
  5
2C2
100
AcDbEntity
  8
0
390
0
  6
Continuous
100
AcDbLine
 10
236.24539779794728
 20
-169.12794067048139
 30
0.0
 11
232.18562126578462
 21
-169.20216569255385
 31
0.0
  0
LINE
  5
2C3
100
AcDbEntity
  8
0
390
0
  6
Continuous
100
AcDbLine
 10
240.29777236445082
 20
-169.08555361166637
 30
0.0
 11
236.24539779794728
 21
-169.12794067048139
 31
0.0
  0
LINE
  5
2C4
100
AcDbEntity
  8
0
390
0
  6
Continuous
100
AcDbLine
 10
244.35009495550869
 20
-169.07501651044248
 30
0.0
 11
240.29777236445082
 21
-169.08555361166637
 31
0.0
  0
LINE
  5
2C5
100
AcDbEntity
  8
0
390
0
  6
Continuous
100
AcDbLine
 10
248.39991557438304
 20
-169.09632536869836
 30
0.0
 11
244.35009495550869
 21
-169.07501651044248
 31
0.0
  0
LINE
  5
2C6
100
AcDbEntity
  8
0
390
0
  6
Continuous
100
AcDbLine
 10
252.44477622811368
 20
-169.15437618179848
 30
0.0
 11
248.39991557438304
 21
-169.09632536869836
 31
0.0
  0
LINE
  5
2C7
100
AcDbEntity
  8
0
390
0
  6
Continuous
100
AcDbLine
 10
256.48713490966088
 20
-169.24427295437849
 30
0.0
 11
252.44477622811368
 21
-169.15437618179848
 31
0.0
  0
LINE
  5
2C8
100
AcDbEntity
  8
0
390
0
  6
Continuous
100
AcDbLine
 10
260.52698762091325
 20
-169.36846568317611
 30
0.0
 11
256.48713490966088
 21
-169.24427295437849
 31
0.0
  0
LINE
  5
2C9
100
AcDbEntity
  8
0
390
0
  6
Continuous
100
AcDbLine
 10
264.56187636891082
 20
-169.53185036355569
 30
0.0
 11
260.52698762091325
 21
-169.36846568317611
 31
0.0
  0
LINE
  5
2CA
100
AcDbEntity
  8
0
390
0
  6
Continuous
100
AcDbLine
 10
268.5967091433514
 20
-169.72953499826414
 30
0.0
 11
264.56187636891082
 21
-169.53185036355569
 31
0.0
  0
LINE
  5
2CB
100
AcDbEntity
  8
0
390
0
  6
Continuous
100
AcDbLine
 10
272.62903594749741
 20
-169.96151558919021
 30
0.0
 11
268.5967091433514
 21
-169.72953499826414
 31
0.0
  0
LINE
  5
2CC
100
AcDbEntity
  8
0
390
0
  6
Continuous
100
AcDbLine
 10
276.66130277997513
 20
-170.23024613118295
 30
0.0
 11
272.62903594749741
 21
-169.96151558919021
 31
0.0
  0
LINE
  5
2CD
100
AcDbEntity
  8
0
390
0
  6
Continuous
100
AcDbLine
 10
280.69105964404696
 20
-170.53572262613105
 30
0.0
 11
276.66130277997513
 21
-170.23024613118295
 31
0.0
  0
LINE
  5
2CE
100
AcDbEntity
  8
0
390
0
  6
Continuous
100
AcDbLine
 10
284.72076053456192
 20
-170.87549907540802
 30
0.0
 11
280.69105964404696
 21
-170.53572262613105
 31
0.0
  0
LINE
  5
2CF
100
AcDbEntity
  8
0
390
0
  6
Continuous
100
AcDbLine
 10
288.74795545478207
 20
-171.2495714809026
 30
0.0
 11
284.72076053456192
 21
-170.87549907540802
 31
0.0
  0
LINE
  5
2D0
100
AcDbEntity
  8
0
390
0
  6
Continuous
100
AcDbLine
 10
292.77509440144536
 20
-171.65794384072606
 30
0.0
 11
288.74795545478207
 21
-171.2495714809026
 31
0.0
  0
LINE
  5
2D1
100
AcDbEntity
  8
0
390
0
  6
Continuous
100
AcDbLine
 10
296.79727738107624
 20
-172.10060815865594
 30
0.0
 11
292.77509440144536
 21
-171.65794384072606
 31
0.0
  0
LINE
  5
2D2
100
AcDbEntity
  8
0
390
0
  6
Continuous
100
AcDbLine
 10
300.81695838852352
 20
-172.57511843606562
 30
0.0
 11
296.79727738107624
 21
-172.10060815865594
 31
0.0
  0
LINE
  5
2D3
100
AcDbEntity
  8
0
390
0
  6
Continuous
100
AcDbLine
 10
304.83168342893839
 20
-173.08392067158181
 30
0.0
 11
300.81695838852352
 21
-172.57511843606562
 31
0.0
  0
LINE
  5
2D4
100
AcDbEntity
  8
0
390
0
  6
Continuous
100
AcDbLine
 10
308.83900250558281
 20
-173.62701086709319
 30
0.0
 11
304.83168342893839
 21
-173.08392067158181
 31
0.0
  0
LINE
  5
2D5
100
AcDbEntity
  8
0
390
0
  6
Continuous
100
AcDbLine
 10
312.84136961330614
 20
-174.2019430239732
 30
0.0
 11
308.83900250558281
 21
-173.62701086709319
 31
0.0
  0
LINE
  5
2D6
100
AcDbEntity
  8
0
390
0
  6
Continuous
100
AcDbLine
 10
316.8314267656724
 20
-174.81360514136381
 30
0.0
 11
312.84136961330614
 21
-174.2019430239732
 31
0.0
  0
LINE
  5
2D7
100
AcDbEntity
  8
0
390
0
  6
Continuous
100
AcDbLine
 10
320.81407795426844
 20
-175.45955521874964
 30
0.0
 11
316.8314267656724
 21
-174.81360514136381
 31
0.0
  0
LINE
  5
2D8
100
AcDbEntity
  8
0
390
0
  6
Continuous
100
AcDbLine
 10
324.7819651926585
 20
-176.14468125527262
 30
0.0
 11
320.81407795426844
 21
-175.45955521874964
 31
0.0
  0
LINE
  5
2D9
100
AcDbEntity
  8
0
390
0
  6
Continuous
100
AcDbLine
 10
328.74244246916703
 20
-176.86654524852855
 30
0.0
 11
324.7819651926585
 21
-176.14468125527262
 31
0.0
  0
LINE
  5
2DA
100
AcDbEntity
  8
0
390
0
  6
Continuous
100
AcDbLine
 10
332.70040178104716
 20
-177.63005518821544
 30
0.0
 11
328.74244246916703
 21
-176.86654524852855
 31
0.0
  0
LINE
  5
2DB
100
AcDbEntity
  8
0
390
0
  6
Continuous
100
AcDbLine
 10
336.66810110821029
 20
-178.43033107141383
 30
0.0
 11
332.70040178104716
 21
-177.63005518821544
 31
0.0
  0
LINE
  5
2DC
100
AcDbEntity
  8
0
390
0
  6
Continuous
100
AcDbLine
 10
340.65534043760761
 20
-179.26738889056847
 30
0.0
 11
336.66810110821029
 21
-178.43033107141383
 31
0.0
  0
LINE
  5
2DD
100
AcDbEntity
  8
0
390
0
  6
Continuous
100
AcDbLine
 10
344.66948575189701
 20
-180.13144065306201
 30
0.0
 11
340.65534043760761
 21
-179.26738889056847
 31
0.0
  0
LINE
  5
2DE
100
AcDbEntity
  8
0
390
0
  6
Continuous
100
AcDbLine
 10
348.71056103974604
 20
-181.00778637846767
 30
0.0
 11
344.66948575189701
 21
-180.13144065306201
 31
0.0
  0
LINE
  5
2DF
100
AcDbEntity
  8
0
390
0
  6
Continuous
100
AcDbLine
 10
352.72960634751098
 20
-181.87184613718358
 30
0.0
 11
348.71056103974604
 21
-181.00778637846767
 31
0.0
  0
LINE
  5
2E0
100
AcDbEntity
  8
0
390
0
  6
Continuous
100
AcDbLine
 10
356.70460768755288
 20
-182.70153397556888
 30
0.0
 11
352.72960634751098
 21
-181.87184613718358
 31
0.0
  0
LINE
  5
2E1
100
AcDbEntity
  8
0
390
0
  6
Continuous
100
AcDbLine
 10
360.65272303325878
 20
-183.49197788692649
 30
0.0
 11
356.70460768755288
 21
-182.70153397556888
 31
0.0
  0
LINE
  5
2E2
100
AcDbEntity
  8
0
390
0
100
AcDbLine
 10
193.31327340930699
 20
-160.14780912420665
 30
0.0
 11
363.99507749006045
 21
-160.09765185876952
 31
0.0
  0
INSERT
  5
2EA
100
AcDbEntity
  8
0
390
0
100
AcDbBlockReference
  2
B02467B24
 10
0.0
 20
0.0
 30
0.0
  0
LINE
  5
2EB
100
AcDbEntity
  8
0
390
0
100
AcDbLine
 10
141.25435114969991
 20
-179.5151286120219
 30
0.0
 11
141.22895188220011
 21
-172.95343069915839
 31
0.0
  0
LINE
  5
2EC
100
AcDbEntity
  8
0
390
0
100
AcDbLine
 10
144.28174562981818
 20
-179.5151286120219
 30
0.0
 11
141.25435114969991
 21
-179.5151286120219
 31
0.0
  0
LINE
  5
2ED
100
AcDbEntity
  8
0
390
0
100
AcDbLine
 10
144.28174562981818
 20
-172.95343069915839
 30
0.0
 11
144.28174562981818
 21
-179.5151286120219
 31
0.0
  0
LINE
  5
2EE
100
AcDbEntity
  8
0
390
0
100
AcDbLine
 10
141.22895188220011
 20
-172.95343069915839
 30
0.0
 11
144.28174562981818
 21
-172.95343069915839
 31
0.0
  0
LINE
  5
2EF
100
AcDbEntity
  8
0
390
0
100
AcDbLine
 10
140.81971870719929
 20
-215.98927381345982
 30
0.0
 11
137.74187422102668
 21
-215.98927381345982
 31
0.0
  0
LINE
  5
2F0
100
AcDbEntity
  8
0
390
0
100
AcDbLine
 10
137.74174387151729
 20
-203.46056173356072
 30
0.0
 11
140.81971870719929
 21
-203.45454783379668
 31
0.0
  0
LINE
  5
2F1
100
AcDbEntity
  8
0
390
0
100
AcDbLine
 10
137.74187422102668
 20
-215.98927381345982
 30
0.0
 11
137.74174387151729
 21
-203.46056173356072
 31
0.0
  0
LINE
  5
2F2
100
AcDbEntity
  8
0
390
0
  6
Continuous
100
AcDbLine
 10
355.87826684573906
 20
-248.469626147724
 30
0.0
 11
342.66926684573906
 21
-249.22562614772397
 31
0.0
  0
LINE
  5
2F3
100
AcDbEntity
  8
0
390
0
  6
Continuous
100
AcDbLine
 10
342.66926684573906
 20
-249.22562614772397
 30
0.0
 11
329.43926684573904
 21
-249.90812614772398
 31
0.0
  0
LINE
  5
2F4
100
AcDbEntity
  8
0
390
0
  6
Continuous
100
AcDbLine
 10
316.10426684573906
 20
-250.51712614772399
 30
0.0
 11
302.66426684573906
 21
-251.04212614772399
 31
0.0
  0
LINE
  5
2F5
100
AcDbEntity
  8
0
390
0
  6
Continuous
100
AcDbLine
 10
302.66426684573906
 20
-251.04212614772399
 30
0.0
 11
289.07726684573902
 21
-251.48312614772397
 31
0.0
  0
LINE
  5
2F6
100
AcDbEntity
  8
0
390
0
  6
Continuous
100
AcDbLine
 10
289.07726684573902
 20
-251.48312614772397
 30
0.0
 11
275.36426684573905
 21
-251.82962614772399
 31
0.0
  0
LINE
  5
2F7
100
AcDbEntity
  8
0
390
0
  6
Continuous
100
AcDbLine
 10
275.36426684573905
 20
-251.82962614772399
 30
0.0
 11
261.60926684573906
 21
-252.08162614772397
 31
0.0
  0
LINE
  5
2F8
100
AcDbEntity
  8
0
390
0
  6
Continuous
100
AcDbLine
 10
247.86476684573907
 20
-252.22862614772399
 30
0.0
 11
234.16226684573908
 21
-252.27062614772399
 31
0.0
  0
LINE
  5
2F9
100
AcDbEntity
  8
0
390
0
  6
Continuous
100
AcDbLine
 10
234.16226684573908
 20
-252.27062614772399
 30
0.0
 11
220.53326684573906
 21
-252.207626147724
 31
0.0
  0
LINE
  5
2FA
100
AcDbEntity
  8
0
390
0
  6
Continuous
100
AcDbLine
 10
329.43926684573904
 20
-249.90812614772398
 30
0.0
 11
316.10426684573906
 21
-250.51712614772399
 31
0.0
  0
LINE
  5
2FB
100
AcDbEntity
  8
0
390
0
  6
Continuous
100
AcDbLine
 10
261.60926684573906
 20
-252.08162614772397
 30
0.0
 11
247.86476684573907
 21
-252.22862614772399
 31
0.0
  0
LINE
  5
2FC
100
AcDbEntity
  8
0
390
0
  6
Continuous
100
AcDbLine
 10
220.53326684573906
 20
-252.207626147724
 30
0.0
 11
206.95676684573905
 21
-252.03962614772399
 31
0.0
  0
LINE
  5
2FD
100
AcDbEntity
  8
0
390
0
  6
Continuous
100
AcDbLine
 10
180.45227971923029
 20
-251.42442345057435
 30
0.0
 11
167.00448725487695
 21
-250.90729404472108
 31
0.0
  0
LINE
  5
2FE
100
AcDbEntity
  8
0
390
0
  6
Continuous
100
AcDbLine
 10
153.54620509281355
 20
-250.26088228740451
 30
0.0
 11
140.11939202388041
 21
-249.49596170791324
 31
0.0
  0
LINE
  5
2FF
100
AcDbEntity
  8
0
390
0
  6
Continuous
100
AcDbLine
 10
167.00448725487695
 20
-250.90729404472108
 30
0.0
 11
153.54620509281355
 21
-250.26088228740451
 31
0.0
  0
LINE
  5
300
100
AcDbEntity
  8
0
390
0
  6
Continuous
100
AcDbLine
 10
193.93154127671394
 20
-251.82304403425292
 30
0.0
 11
180.45227971923029
 21
-251.42442345057435
 31
0.0
  0
LINE
  5
301
100
AcDbEntity
  8
0
390
0
  6
Continuous
100
AcDbLine
 10
206.95676684573905
 20
-252.03962614772399
 30
0.0
 11
193.45376684573907
 21
-251.76662614772397
 31
0.0
  0
LINE
  5
302
100
AcDbEntity
  8
0
390
0
100
AcDbLine
 10
176.29789428840323
 20
-248.55899519683402
 30
0.0
 11
176.73914149789732
 21
-243.51551651386899
 31
0.0
  0
LINE
  5
303
100
AcDbEntity
  8
0
390
0
100
AcDbLine
 10
140.82750457826941
 20
-246.88082622130082
 30
0.0
 11
176.29789428840323
 21
-248.55899519683402
 31
0.0
  0
LINE
  5
304
100
AcDbEntity
  8
0
390
0
100
AcDbLine
 10
141.2357100207773
 20
-241.84507663284626
 30
0.0
 11
140.79527243628073
 21
-246.87930125974435
 31
0.0
  0
LINE
  5
305
100
AcDbEntity
  8
0
390
0
100
AcDbLine
 10
176.73914149789732
 20
-243.51551651386899
 30
0.0
 11
141.2357100207773
 21
-241.84507663284626
 31
0.0
  0
LINE
  5
306
100
AcDbEntity
  8
0
390
0
100
AcDbLine
 10
140.81971870719929
 20
-203.45454783379668
 30
0.0
 11
140.81971870719929
 21
-215.98927381345982
 31
0.0
  0
LINE
  5
307
100
AcDbEntity
  8
0
390
0
100
AcDbLine
 10
7.6848314220902401
 20
-190.95786813667382
 30
0.0
 11
12.68943196685693
 21
-190.95786813667382
 31
0.0
  0
LINE
  5
308
100
AcDbEntity
  8
0
390
0
100
AcDbLine
 10
12.68943196685693
 20
-190.95786813667382
 30
0.0
 11
12.689431966856928
 21
-216.04253230492498
 31
0.0
  0
LINE
  5
309
100
AcDbEntity
  8
0
390
0
100
AcDbLine
 10
12.689431966856928
 20
-216.04253230492498
 30
0.0
 11
7.6826346961590133
 21
-216.04253230492498
 31
0.0
  0
POINT
  5
30A
100
AcDbEntity
  8
0
390
0
  6
Continuous
100
AcDbPoint
 10
140.11939202388041
 20
-249.49596170791324
 30
0.0
  0
ARC
  5
30B
100
AcDbEntity
  8
0
390
0
100
AcDbCircle
 10
147.89051956162692
 20
242.16039125376605
 30
0.0
 40
491.71776440432507
100
AcDbArc
 50
253.43284579180644
 51
269.09445747286452
  0
LINE
  5
30C
100
AcDbEntity
  8
0
390
0
100
AcDbLine
 10
7.6826346961590133
 20
-216.04253230492498
 30
0.0
 11
7.6826346961590133
 21
-229.14429666301993
 31
0.0
  0
ARC
  5
30D
100
AcDbEntity
  8
0
390
0
100
AcDbCircle
 10
159.4032278253097
 20
-792.69777236558309
 30
0.0
 40
633.04766247466227
100
AcDbArc
 50
87.907951733789872
 51
103.86667866261287
  0
LINE
  5
30E
100
AcDbEntity
  8
0
390
0
100
AcDbLine
 10
182.51264390228846
 20
-160.07205533124142
 30
0.0
 11
193.31327340930699
 21
-160.14780912420665
 31
0.0
  0
LINE
  5
30F
100
AcDbEntity
  8
0
390
0
100
AcDbLine
 10
7.6848314220902401
 20
-178.09963442708471
 30
0.0
 11
7.6848314220902401
 21
-190.95786813667382
 31
0.0
  0
LINE
  5
310
100
AcDbEntity
  8
0
390
0
  6
Continuous
 62
               7
100
AcDbLine
 10
427.57453300063764
 20
159.25917809418419
 30
0.0
 11
361.13740632848828
 21
161.2791603515324
 31
0.0
  0
LINE
  5
311
100
AcDbEntity
  8
0
390
0
  6
Continuous
 62
               7
100
AcDbLine
 10
499.37034588777129
 20
156.50680809418418
 30
0.0
 11
427.57453300063764
 21
159.25917809418419
 31
0.0
  0
LINE
  5
312
100
AcDbEntity
  8
0
390
0
  6
Continuous
 62
               7
100
AcDbLine
 10
569.9449918686114
 20
153.33830809418419
 30
0.0
 11
499.37034588777129
 21
156.50680809418418
 31
0.0
  0
LINE
  5
313
100
AcDbEntity
  8
0
390
0
  6
Continuous
 62
               7
100
AcDbLine
 10
638.07730403686446
 20
149.90697809418418
 30
0.0
 11
569.9449918686114
 21
153.33830809418419
 31
0.0
  0
LINE
  5
314
100
AcDbEntity
  8
0
390
0
  6
Continuous
 62
               7
100
AcDbLine
 10
702.61212450819858
 20
146.35883809418419
 30
0.0
 11
638.07730403686446
 21
149.90697809418418
 31
0.0
  0
LINE
  5
315
100
AcDbEntity
  8
0
390
0
  6
Continuous
 62
               7
100
AcDbLine
 10
762.43830141292324
 20
142.80339809418419
 30
0.0
 11
702.61212450819858
 21
146.35883809418419
 31
0.0
  0
LINE
  5
316
100
AcDbEntity
  8
0
390
0
  6
Continuous
 62
               7
100
AcDbLine
 10
810.97065794354694
 20
139.7314301140164
 30
0.0
 11
762.43830141292324
 21
142.80339809418419
 31
0.0
  0
LINE
  5
317
100
AcDbEntity
  8
0
390
0
100
AcDbLine
 10
810.97065794354671
 20
139.73143011401643
 30
0.0
 11
810.96363154723826
 21
120.29808742401607
 31
0.0
  0
LINE
  5
318
100
AcDbEntity
  8
0
390
0
  6
Continuous
 62
               7
100
AcDbLine
 10
810.96363154723826
 20
120.29808742401607
 30
0.0
 11
762.40105970452396
 21
117.22378670727068
 31
0.0
  0
LINE
  5
319
100
AcDbEntity
  8
0
390
0
  6
Continuous
 62
               7
100
AcDbLine
 10
762.40105970452396
 20
117.22378670727068
 30
0.0
 11
702.58305970452398
 21
113.66834670727067
 31
0.0
  0
LINE
  5
31A
100
AcDbEntity
  8
0
390
0
  6
Continuous
 62
               7
100
AcDbLine
 10
702.58305970452398
 20
113.66834670727067
 30
0.0
 11
638.05705970452414
 21
110.12020670727068
 31
0.0
  0
LINE
  5
31B
100
AcDbEntity
  8
0
390
0
  6
Continuous
 62
               7
100
AcDbLine
 10
638.05705970452414
 20
110.12020670727068
 30
0.0
 11
569.93405970452409
 21
106.68887670727068
 31
0.0
  0
LINE
  5
31C
100
AcDbEntity
  8
0
390
0
  6
Continuous
 62
               7
100
AcDbLine
 10
569.93405970452409
 20
106.68887670727068
 30
0.0
 11
499.36905970452398
 21
103.52037670727069
 31
0.0
  0
LINE
  5
31D
100
AcDbEntity
  8
0
390
0
  6
Continuous
 62
               7
100
AcDbLine
 10
499.36905970452398
 20
103.52037670727069
 30
0.0
 11
427.58305970452403
 21
100.76800670727067
 31
0.0
  0
LINE
  5
31E
100
AcDbEntity
  8
0
390
0
  6
Continuous
 62
               7
100
AcDbLine
 10
427.58305970452403
 20
100.76800670727067
 30
0.0
 11
361.13740632848823
 21
98.747489040718946
 31
0.0
  0
LINE
  5
31F
100
AcDbEntity
  8
0
390
0
 62
               7
100
AcDbLine
 10
384.2401539031132
 20
137.703166474965
 30
0.0
 11
384.2401539031132
 21
122.45553346148481
 31
0.0
  0
LINE
  5
320
100
AcDbEntity
  8
0
390
0
 62
               7
100
AcDbLine
 10
387.68516248557569
 20
137.703166474965
 30
0.0
 11
384.2401539031132
 21
137.703166474965
 31
0.0
  0
LINE
  5
321
100
AcDbEntity
  8
0
390
0
 62
               7
100
AcDbLine
 10
387.68516248557569
 20
122.45568334146265
 30
0.0
 11
387.68516248557569
 21
137.703166474965
 31
0.0
  0
LINE
  5
322
100
AcDbEntity
  8
0
390
0
 62
               7
100
AcDbLine
 10
384.24278560035964
 20
122.45568334146265
 30
0.0
 11
387.68516248557569
 21
122.45568334146265
 31
0.0
  0
ENDSEC
  0
SECTION
  2
OBJECTS
  0
DICTIONARY
  5
19
100
AcDbDictionary
280
               0
281
               1
  3
ACAD_GROUP
350
1A
  3
ACAD_MLINESTYLE
350
1B
  3
ACAD_LAYOUT
350
1E
  3
ACAD_PLOTSETTINGS
350
22
  3
ACAD_PLOTSTYLENAME
350
1F
  0
DICTIONARY
  5
1A
102
{ACAD_REACTORS
330
19
102
}
100
AcDbDictionary
280
               0
281
               1
  0
DICTIONARY
  5
1B
102
{ACAD_REACTORS
330
19
102
}
100
AcDbDictionary
280
               0
281
               1
  3
Standard
350
1C
  0
MLINESTYLE
  5
1C
102
{ACAD_REACTORS
330
1B
102
}
100
AcDbMlineStyle
  2
Standard
 70
               0
  3

 62
               0
 51
90.0
 52
90.0
 71
               2
 49
0.5
 62
             256
  6
ByLayer
 49
-0.5
 62
             256
  6
ByLayer
  0
ACDBDICTIONARYWDFLT
  5
1F
102
{ACAD_REACTORS
330
19
102
}
100
AcDbDictionary
281
               1
  3
Normal
350
1D
100
AcDbDictionaryWithDefault
340
1D
  0
ACDBPLACEHOLDER
  5
1D
102
{ACAD_REACTORS
330
1F
102
}
  0
LAYOUT
  5
20
102
{ACAD_REACTORS
330
1E
102
}
100
AcDbPlotSettings
  1

  2

  4

  6

 40
0.0
 41
0.0
 42
0.0
 43
0.0
 44
0.0
 45
0.0
 46
0.0
 47
0.0
 48
0.0
 49
0.0
140
0.0
141
0.0
142
1.0
143
1.0
 70
            1024
 72
               0
 73
               0
 74
               0
  7

 75
               0
147
1.0
148
0.0
149
0.0
100
AcDbLayout
  1
Model
 70
               0
 71
               0
 10
0.0
 20
0.0
 11
0.0
 21
0.0
 12
0.0
 22
0.0
 32
0.0
 14
0.0
 24
0.0
 34
0.0
 15
0.0
 25
0.0
 35
0.0
146
0.0
 13
0.0
 23
0.0
 33
0.0
 16
0.0
 26
0.0
 36
0.0
 17
0.0
 27
0.0
 37
0.0
 76
               0
330
A
331
0
345
0
346
0
  0
LAYOUT
  5
21
102
{ACAD_REACTORS
330
1E
102
}
100
AcDbPlotSettings
  1

  2

  4

  6

 40
0.0
 41
0.0
 42
0.0
 43
0.0
 44
0.0
 45
0.0
 46
0.0
 47
0.0
 48
0.0
 49
0.0
140
0.0
141
0.0
142
1.0
143
1.0
 70
               0
 72
               0
 73
               0
 74
               0
  7

 75
               0
147
1.0
148
0.0
149
0.0
100
AcDbLayout
  1
Layout1
 70
               0
 71
               0
 10
0.0
 20
0.0
 11
0.0
 21
0.0
 12
0.0
 22
0.0
 32
0.0
 14
0.0
 24
0.0
 34
0.0
 15
0.0
 25
0.0
 35
0.0
146
0.0
 13
0.0
 23
0.0
 33
0.0
 16
0.0
 26
0.0
 36
0.0
 17
0.0
 27
0.0
 37
0.0
 76
               0
330
B
331
0
345
0
346
0
  0
DICTIONARY
  5
1E
102
{ACAD_REACTORS
330
19
102
}
100
AcDbDictionary
280
               0
281
               1
  3
Layout1
350
21
  3
Model
350
20
  0
DICTIONARY
  5
22
102
{ACAD_REACTORS
330
19
102
}
100
AcDbDictionary
280
               0
281
               1
  0
ENDSEC
  0
EOF
