  0
SECTION
  2
HEADER
  9
$ACADVER
  1
AC1015
  9
$ACADMAINTVER
 70
               6
  9
$DWGCODEPAGE
  3
DOS437
  9
$INSBASE
 10
0.0
 20
0.0
 30
0.0
  9
$EXTMIN
 10
28.352666022183293
 20
-233.90427849067112
 30
1.0000000000000000E+20
  9
$EXTMAX
 10
252.94979373485603
 20
52.340181185823845
 30
-1.0000000000000000E+20
  9
$LIMMIN
 10
0.0
 20
0.0
  9
$LIMMAX
 10
0.0
 20
0.0
  9
$ORTHOMODE
 70
               0
  9
$REGENMODE
 70
               1
  9
$FILLMODE
 70
               1
  9
$QTEXTMODE
 70
               0
  9
$MIRRTEXT
 70
               1
  9
$LTSCALE
 40
0.1
  9
$ATTMODE
 70
               1
  9
$TEXTSIZE
 40
0.2
  9
$TRACEWID
 40
0.05
  9
$TEXTSTYLE
  7
Standard
  9
$CLAYER
  8
0
  9
$CELTYPE
  6
ByLayer
  9
$CECOLOR
 62
               1
  9
$CELTSCALE
 40
1.0
  9
$DISPSILH
 70
               0
  9
$DIMSCALE
 40
1.0
  9
$DIMASZ
 40
0.18
  9
$DIMEXO
 40
0.0625
  9
$DIMDLI
 40
0.38
  9
$DIMRND
 40
0.0
  9
$DIMDLE
 40
0.0
  9
$DIMEXE
 40
0.18
  9
$DIMTP
 40
0.0
  9
$DIMTM
 40
0.0
  9
$DIMTXT
 40
0.18
  9
$DIMCEN
 40
0.09
  9
$DIMTSZ
 40
0.0
  9
$DIMTOL
 70
               0
  9
$DIMLIM
 70
               0
  9
$DIMTIH
 70
               1
  9
$DIMTOH
 70
               1
  9
$DIMSE1
 70
               0
  9
$DIMSE2
 70
               0
  9
$DIMTAD
 70
               0
  9
$DIMZIN
 70
               0
  9
$DIMBLK
  1

  9
$DIMASO
 70
               1
  9
$DIMSHO
 70
               1
  9
$DIMPOST
  1

  9
$DIMAPOST
  1

  9
$DIMALT
 70
               0
  9
$DIMALTD
 70
               2
  9
$DIMALTF
 40
25.399999999999999
  9
$DIMLFAC
 40
1.0
  9
$DIMTOFL
 70
               0
  9
$DIMTVP
 40
0.0
  9
$DIMTIX
 70
               0
  9
$DIMSOXD
 70
               0
  9
$DIMSAH
 70
               0
  9
$DIMBLK1
  1

  9
$DIMBLK2
  1

  9
$DIMSTYLE
  2
Standard
  9
$DIMCLRD
 70
               0
  9
$DIMCLRE
 70
               0
  9
$DIMCLRT
 70
               0
  9
$DIMTFAC
 40
1.0
  9
$DIMGAP
 40
0.09
  9
$DIMJUST
 70
               0
  9
$DIMSD1
 70
               0
  9
$DIMSD2
 70
               0
  9
$DIMTOLJ
 70
               1
  9
$DIMTZIN
 70
               0
  9
$DIMALTZ
 70
               0
  9
$DIMALTTZ
 70
               0
  9
$DIMUPT
 70
               0
  9
$DIMDEC
 70
               4
  9
$DIMTDEC
 70
               4
  9
$DIMALTU
 70
               2
  9
$DIMALTTD
 70
               2
  9
$DIMTXSTY
  7
Standard
  9
$DIMAUNIT
 70
               0
  9
$DIMADEC
 70
               0
  9
$DIMALTRND
 40
0.0
  9
$DIMAZIN
 70
               0
  9
$DIMDSEP
 70
               0
  9
$DIMATFIT
 70
               3
  9
$DIMFRAC
 70
               0
  9
$DIMLDRBLK
  1

  9
$DIMLUNIT
 70
               2
  9
$DIMLWD
 70
               0
  9
$DIMLWE
 70
               0
  9
$DIMTMOVE
 70
               0
  9
$LUNITS
 70
               2
  9
$LUPREC
 70
               4
  9
$SKETCHINC
 40
0.1
  9
$FILLETRAD
 40
0.0
  9
$AUNITS
 70
               0
  9
$AUPREC
 70
               0
  9
$MENU
  1
acad
  9
$ELEVATION
 40
0.0
  9
$PELEVATION
 40
0.0
  9
$THICKNESS
 40
0.0
  9
$LIMCHECK
 70
               0
  9
$CHAMFERA
 40
0.0
  9
$CHAMFERB
 40
0.0
  9
$CHAMFERC
 40
0.0
  9
$CHAMFERD
 40
0.0
  9
$SKPOLY
 70
               0
  9
$TDCREATE
 40
0.000000000
  9
$TDUCREATE
 40
0.000000000
  9
$TDUPDATE
 40
0.000000000
  9
$TDUUPDATE
 40
0.000000000
  9
$TDINDWG
 40
0.0000000000
  9
$TDUSRTIMER
 40
0.0000000000
  9
$USRTIMER
 70
               1
  9
$ANGBASE
 50
0.0
  9
$ANGDIR
 70
               0
  9
$PDMODE
 70
               2
  9
$PDSIZE
 40
1.5
  9
$PLINEWID
 40
0.0
  9
$SPLFRAME
 70
               0
  9
$SPLINETYPE
 70
               6
  9
$SPLINESEGS
 70
               8
  9
$HANDSEED
  5
BB
  9
$SURFTAB1
 70
               6
  9
$SURFTAB2
 70
               6
  9
$SURFTYPE
 70
               6
  9
$SURFU
 70
               6
  9
$SURFV
 70
               6
  9
$UCSBASE
  2

  9
$UCSNAME
  2

  9
$UCSORG
 10
0.0
 20
0.0
 30
0.0
  9
$UCSXDIR
 10
1.0
 20
0.0
 30
0.0
  9
$UCSYDIR
 10
0.0
 20
1.0
 30
0.0
  9
$UCSORTHOREF
  2

  9
$UCSORTHOVIEW
 70
               0
  9
$UCSORGTOP
 10
0.0
 20
0.0
 30
0.0
  9
$UCSORGBOTTOM
 10
0.0
 20
0.0
 30
0.0
  9
$UCSORGLEFT
 10
0.0
 20
0.0
 30
0.0
  9
$UCSORGRIGHT
 10
0.0
 20
0.0
 30
0.0
  9
$UCSORGFRONT
 10
0.0
 20
0.0
 30
0.0
  9
$UCSORGBACK
 10
0.0
 20
0.0
 30
0.0
  9
$PUCSBASE
  2

  9
$PUCSNAME
  2

  9
$PUCSORG
 10
0.0
 20
0.0
 30
0.0
  9
$PUCSXDIR
 10
1.0
 20
0.0
 30
0.0
  9
$PUCSYDIR
 10
0.0
 20
1.0
 30
0.0
  9
$PUCSORTHOREF
  2

  9
$PUCSORTHOVIEW
 70
               0
  9
$PUCSORGTOP
 10
0.0
 20
0.0
 30
0.0
  9
$PUCSORGBOTTOM
 10
0.0
 20
0.0
 30
0.0
  9
$PUCSORGLEFT
 10
0.0
 20
0.0
 30
0.0
  9
$PUCSORGRIGHT
 10
0.0
 20
0.0
 30
0.0
  9
$PUCSORGFRONT
 10
0.0
 20
0.0
 30
0.0
  9
$PUCSORGBACK
 10
0.0
 20
0.0
 30
0.0
  9
$USERI1
 70
               0
  9
$USERI2
 70
               0
  9
$USERI3
 70
               0
  9
$USERI4
 70
               0
  9
$USERI5
 70
               0
  9
$USERR1
 40
0.0
  9
$USERR2
 40
0.0
  9
$USERR3
 40
0.0
  9
$USERR4
 40
0.0
  9
$USERR5
 40
0.0
  9
$WORLDVIEW
 70
               1
  9
$SHADEDGE
 70
               3
  9
$SHADEDIF
 70
              70
  9
$TILEMODE
 70
               1
  9
$MAXACTVP
 70
              16
  9
$PINSBASE
 10
0.0
 20
0.0
 30
0.0
  9
$PLIMCHECK
 70
               0
  9
$PEXTMIN
 10
1.0000000000000000E+20
 20
1.0000000000000000E+20
 30
1.0000000000000000E+20
  9
$PEXTMAX
 10
-1.0000000000000000E+20
 20
-1.0000000000000000E+20
 30
-1.0000000000000000E+20
  9
$PLIMMIN
 10
0.0
 20
0.0
  9
$PLIMMAX
 10
12.0
 20
9.0
  9
$UNITMODE
 70
               0
  9
$VISRETAIN
 70
               0
  9
$PLINEGEN
 70
               1
  9
$PSLTSCALE
 70
               0
  9
$TREEDEPTH
 70
            3020
  9
$CMLSTYLE
  2
Standard
  9
$CMLJUST
 70
               0
  9
$CMLSCALE
 40
1.0
  9
$PROXYGRAPHICS
 70
               0
  9
$MEASUREMENT
 70
               0
  9
$CELWEIGHT
370
              -1
  9
$ENDCAPS
280
               0
  9
$JOINSTYLE
280
               0
  9
$LWDISPLAY
290
               0
  9
$INSUNITS
 70
               0
  9
$HYPERLINKBASE
  1

  9
$STYLESHEET
  1

  9
$XEDIT
290
               1
  9
$CEPSNTYPE
380
               0
  9
$PSTYLEMODE
290
               1
  9
$FINGERPRINTGUID
  2

  9
$VERSIONGUID
  2

  9
$EXTNAMES
290
               1
  9
$PSVPSCALE
 40
0.0
  0
ENDSEC
  0
SECTION
  2
CLASSES
  0
CLASS
  1
LWPOLYLINE
  2
AcDbPolyline
  3
AutoCAD 2000
 90
        0
280
               0
281
               1
  0
CLASS
  1
IMAGE
  2
AcDbRasterImage
  3
ISM
 90
      127
280
               0
281
               1
  0
CLASS
  1
OLE2FRAME
  2
AcDbOle2Frame
  3
AutoCAD 2000
 90
        0
280
               0
281
               1
  0
CLASS
  1
HATCH
  2
AcDbHatch
  3
AutoCAD 2000
 90
        0
280
               0
281
               1
  0
CLASS
  1
DICTIONARYVAR
  2
AcDbDictionaryVar
  3
AutoCAD 2000
 90
        0
280
               0
281
               0
  0
CLASS
  1
RASTERVARIABLES
  2
AcDbRasterVariables
  3
ISM
 90
        0
280
               0
281
               0
  0
CLASS
  1
IMAGEDEF
  2
AcDbRasterImageDef
  3
ISM
 90
        0
280
               0
281
               0
  0
CLASS
  1
IMAGEDEF_REACTOR
  2
AcDbRasterImageDefReactor
  3
ISM
 90
        1
280
               0
281
               0
  0
CLASS
  1
IDBUFFER
  2
AcDbIdBuffer
  3
AutoCAD 2000
 90
        0
280
               0
281
               0
  0
CLASS
  1
SPATIAL_FILTER
  2
AcDbSpatialFilter
  3
AutoCAD 2000
 90
        0
280
               0
281
               0
  0
CLASS
  1
XRECORD
  2
AcDbXrecord
  3
AutoCAD 2000
 90
        0
280
               0
281
               0
  0
CLASS
  1
SORTENTSTABLE
  2
AcDbSortentsTable
  3
AutoCAD 2000
 90
        0
280
               0
281
               0
  0
CLASS
  1
LAYER_INDEX
  2
AcDbLayerIndex
  3
AutoCAD 2000
 90
        0
280
               0
281
               0
  0
CLASS
  1
SPATIAL_INDEX
  2
AcDbSpatialIndex
  3
AutoCAD 2000
 90
        0
280
               0
281
               0
  0
CLASS
  1
OBJECT_PTR
  2
CAseDLPNTableRecord
  3
"ASE-LPNTableRecord"
 90
        1
280
               0
281
               0
  0
CLASS
  1
LAYOUT
  2
AcDbLayout
  3
AutoCAD 2000
 90
        0
280
               0
281
               0
  0
CLASS
  1
PLOTSETTINGS
  2
AcDbPlotSettings
  3
AutoCAD 2000
 90
        0
280
               0
281
               0
  0
CLASS
  1
ACDBDICTIONARYWDFLT
  2
AcDbDictionaryWithDefault
  3
AutoCAD 2000
 90
        0
280
               0
281
               0
  0
CLASS
  1
ACDBPLACEHOLDER
  2
AcDbPlaceHolder
  3
AutoCAD 2000
 90
        0
280
               0
281
               0
  0
ENDSEC
  0
SECTION
  2
TABLES
  0
TABLE
  2
VPORT
  5
7
100
AcDbSymbolTable
 70
               1
  0
VPORT
  5
15
100
AcDbSymbolTableRecord
100
AcDbViewportTableRecord
  2
*ACTIVE
 70
               0
 10
0.0
 20
0.0
 11
1.0
 21
1.0
 12
6.5912879999999996
 22
4.5791839999999997
 13
0.0
 23
0.0
 14
1.0
 24
1.0
 15
0.0
 25
0.0
 16
0.0
 26
0.0
 36
1.0
 17
0.0
 27
0.0
 37
0.0
 40
9.1583690000000004
 41
0.688564
 42
50.0
 43
0.0
 44
0.0
 50
0.0
 51
0.0
 71
               0
 72
             100
 73
               1
 74
               1
 75
               0
 76
               0
 77
               0
 78
               0
281
               0
 65
               0
110
0.0
120
0.0
130
0.0
111
1.0
121
0.0
131
0.0
112
0.0
122
1.0
132
0.0
345
0
346
0
 79
               0
146
0.0
  0
ENDTAB
  0
TABLE
  2
LTYPE
  5
4
100
AcDbSymbolTable
 70
              48
  0
LTYPE
  5
11
100
AcDbSymbolTableRecord
100
AcDbLinetypeTableRecord
  2
ByBlock
 70
              64
  3

 72
              65
 73
               0
 40
0.0
  0
LTYPE
  5
12
100
AcDbSymbolTableRecord
100
AcDbLinetypeTableRecord
  2
ByLayer
 70
              64
  3

 72
              65
 73
               0
 40
0.0
  0
LTYPE
  5
13
100
AcDbSymbolTableRecord
100
AcDbLinetypeTableRecord
  2
Continuous
 70
              64
  3
Solid line
 72
              65
 73
               0
 40
0.0
  0
LTYPE
  5
23
100
AcDbSymbolTableRecord
100
AcDbLinetypeTableRecord
  2
DOTTED
 70
              64
  3
Punteggiato
 72
              65
 73
               2
 40
12.0
 49
2.0
 74
               0
 49
-10.0
 74
               0
  0
LTYPE
  5
24
100
AcDbSymbolTableRecord
100
AcDbLinetypeTableRecord
  2
DASHEDS
 70
              64
  3
Tratteggiato piccolo
 72
              65
 73
               2
 40
20.0
 49
10.0
 74
               0
 49
-10.0
 74
               0
  0
LTYPE
  5
25
100
AcDbSymbolTableRecord
100
AcDbLinetypeTableRecord
  2
DASHEDM
 70
              64
  3
Tratteggiato medio
 72
              65
 73
               2
 40
40.0
 49
20.0
 74
               0
 49
-20.0
 74
               0
  0
LTYPE
  5
26
100
AcDbSymbolTableRecord
100
AcDbLinetypeTableRecord
  2
DASHEDL
 70
              64
  3
Tratteggiato grande
 72
              65
 73
               2
 40
60.0
 49
40.0
 74
               0
 49
-20.0
 74
               0
  0
LTYPE
  5
27
100
AcDbSymbolTableRecord
100
AcDbLinetypeTableRecord
  2
CENTERED
 70
              64
  3
Tratteggiato misto
 72
              65
 73
               4
 40
70.0
 49
10.0
 74
               0
 49
-20.0
 74
               0
 49
20.0
 74
               0
 49
-20.0
 74
               0
  0
LTYPE
  5
28
100
AcDbSymbolTableRecord
100
AcDbLinetypeTableRecord
  2
POINTLINE
 70
              64
  3
Punto e linea
 72
              65
 73
               4
 40
62.0
 49
20.0
 74
               0
 49
-20.0
 74
               0
 49
2.0
 74
               0
 49
-20.0
 74
               0
  0
LTYPE
  5
29
100
AcDbSymbolTableRecord
100
AcDbLinetypeTableRecord
  2
2POINTLINE
 70
              64
  3
Due punti e linea
 72
              65
 73
               6
 40
84.0
 49
20.0
 74
               0
 49
-20.0
 74
               0
 49
2.0
 74
               0
 49
-20.0
 74
               0
 49
2.0
 74
               0
 49
-20.0
 74
               0
  0
LTYPE
  5
2A
100
AcDbSymbolTableRecord
100
AcDbLinetypeTableRecord
  2
ACAD_ISO02W100
 70
              64
  3
ISO Tratteggiata
 72
              65
 73
               2
 40
150.0
 49
120.0
 74
               0
 49
-30.0
 74
               0
  0
LTYPE
  5
2B
100
AcDbSymbolTableRecord
100
AcDbLinetypeTableRecord
  2
ACAD_ISO03W100
 70
              64
  3
ISO Tratto spazio
 72
              65
 73
               2
 40
300.0
 49
120.0
 74
               0
 49
-180.0
 74
               0
  0
LTYPE
  5
2C
100
AcDbSymbolTableRecord
100
AcDbLinetypeTableRecord
  2
ACAD_ISO04W100
 70
              64
  3
ISO Tratto lungo punto
 72
              65
 73
               4
 40
305.0
 49
240.0
 74
               0
 49
-30.0
 74
               0
 49
5.0
 74
               0
 49
-30.0
 74
               0
  0
LTYPE
  5
2D
100
AcDbSymbolTableRecord
100
AcDbLinetypeTableRecord
  2
ACAD_ISO05W100
 70
              64
  3
ISO Tratto lungo doppio punto
 72
              65
 73
               6
 40
340.0
 49
240.0
 74
               0
 49
-30.0
 74
               0
 49
5.0
 74
               0
 49
-30.0
 74
               0
 49
5.0
 74
               0
 49
-30.0
 74
               0
  0
LTYPE
  5
2E
100
AcDbSymbolTableRecord
100
AcDbLinetypeTableRecord
  2
ACAD_ISO06W100
 70
              64
  3
ISO Tratto lungo triplo punto
 72
              65
 73
               8
 40
375.0
 49
240.0
 74
               0
 49
-30.0
 74
               0
 49
5.0
 74
               0
 49
-30.0
 74
               0
 49
5.0
 74
               0
 49
-30.0
 74
               0
 49
5.0
 74
               0
 49
-30.0
 74
               0
  0
LTYPE
  5
2F
100
AcDbSymbolTableRecord
100
AcDbLinetypeTableRecord
  2
ACAD_ISO07W100
 70
              64
  3
ISO Punteggiata
 72
              65
 73
               2
 40
35.0
 49
5.0
 74
               0
 49
-30.0
 74
               0
  0
LTYPE
  5
30
100
AcDbSymbolTableRecord
100
AcDbLinetypeTableRecord
  2
ACAD_ISO08W100
 70
              64
  3
ISO Tratto lungo tratto corto
 72
              65
 73
               4
 40
360.0
 49
240.0
 74
               0
 49
-30.0
 74
               0
 49
60.0
 74
               0
 49
-30.0
 74
               0
  0
LTYPE
  5
31
100
AcDbSymbolTableRecord
100
AcDbLinetypeTableRecord
  2
ACAD_ISO09W100
 70
              64
  3
ISO Tratto lungo doppio tratto corto
 72
              65
 73
               6
 40
450.0
 49
240.0
 74
               0
 49
-30.0
 74
               0
 49
60.0
 74
               0
 49
-30.0
 74
               0
 49
60.0
 74
               0
 49
-30.0
 74
               0
  0
LTYPE
  5
32
100
AcDbSymbolTableRecord
100
AcDbLinetypeTableRecord
  2
ACAD_ISO10W100
 70
              64
  3
ISO Tratto punto
 72
              65
 73
               4
 40
185.0
 49
120.0
 74
               0
 49
-30.0
 74
               0
 49
5.0
 74
               0
 49
-30.0
 74
               0
  0
LTYPE
  5
33
100
AcDbSymbolTableRecord
100
AcDbLinetypeTableRecord
  2
ACAD_ISO11W100
 70
              64
  3
ISO Doppio tratto punto
 72
              65
 73
               6
 40
335.0
 49
120.0
 74
               0
 49
-30.0
 74
               0
 49
120.0
 74
               0
 49
-30.0
 74
               0
 49
5.0
 74
               0
 49
-30.0
 74
               0
  0
LTYPE
  5
34
100
AcDbSymbolTableRecord
100
AcDbLinetypeTableRecord
  2
ACAD_ISO12W100
 70
              64
  3
ISO Tratto doppio punto
 72
              65
 73
               6
 40
220.0
 49
120.0
 74
               0
 49
-30.0
 74
               0
 49
5.0
 74
               0
 49
-30.0
 74
               0
 49
5.0
 74
               0
 49
-30.0
 74
               0
  0
LTYPE
  5
35
100
AcDbSymbolTableRecord
100
AcDbLinetypeTableRecord
  2
ACAD_ISO13W100
 70
              64
  3
ISO Doppio tratto doppio punto
 72
              65
 73
               8
 40
370.0
 49
120.0
 74
               0
 49
-30.0
 74
               0
 49
120.0
 74
               0
 49
-30.0
 74
               0
 49
5.0
 74
               0
 49
-30.0
 74
               0
 49
5.0
 74
               0
 49
-30.0
 74
               0
  0
LTYPE
  5
36
100
AcDbSymbolTableRecord
100
AcDbLinetypeTableRecord
  2
ACAD_ISO14W100
 70
              64
  3
ISO Tratto triplo punto
 72
              65
 73
               8
 40
255.0
 49
120.0
 74
               0
 49
-30.0
 74
               0
 49
5.0
 74
               0
 49
-30.0
 74
               0
 49
5.0
 74
               0
 49
-30.0
 74
               0
 49
5.0
 74
               0
 49
-30.0
 74
               0
  0
LTYPE
  5
37
100
AcDbSymbolTableRecord
100
AcDbLinetypeTableRecord
  2
ACAD_ISO15W100
 70
              64
  3
ISO Doppio tratto triplo punto
 72
              65
 73
              10
 40
405.0
 49
120.0
 74
               0
 49
-30.0
 74
               0
 49
120.0
 74
               0
 49
-30.0
 74
               0
 49
5.0
 74
               0
 49
-30.0
 74
               0
 49
5.0
 74
               0
 49
-30.0
 74
               0
 49
5.0
 74
               0
 49
-30.0
 74
               0
  0
LTYPE
  5
38
100
AcDbSymbolTableRecord
100
AcDbLinetypeTableRecord
  2
BORDER
 70
              64
  3
AutoCAD BORDER
 72
              65
 73
               6
 40
450.0
 49
128.0
 74
               0
 49
-64.0
 74
               0
 49
128.0
 74
               0
 49
-64.0
 74
               0
 49
2.0
 74
               0
 49
-64.0
 74
               0
  0
LTYPE
  5
39
100
AcDbSymbolTableRecord
100
AcDbLinetypeTableRecord
  2
BORDER2
 70
              64
  3
AutoCAD BORDER2
 72
              65
 73
               6
 40
226.0
 49
64.0
 74
               0
 49
-32.0
 74
               0
 49
64.0
 74
               0
 49
-32.0
 74
               0
 49
2.0
 74
               0
 49
-32.0
 74
               0
  0
LTYPE
  5
3A
100
AcDbSymbolTableRecord
100
AcDbLinetypeTableRecord
  2
BORDERX2
 70
              64
  3
AutoCAD BORDERX2
 72
              65
 73
               6
 40
898.0
 49
256.0
 74
               0
 49
-128.0
 74
               0
 49
256.0
 74
               0
 49
-128.0
 74
               0
 49
2.0
 74
               0
 49
-128.0
 74
               0
  0
LTYPE
  5
3B
100
AcDbSymbolTableRecord
100
AcDbLinetypeTableRecord
  2
CENTER
 70
              64
  3
AutoCAD CENTER
 72
              65
 73
               4
 40
512.0
 49
320.0
 74
               0
 49
-64.0
 74
               0
 49
64.0
 74
               0
 49
-64.0
 74
               0
  0
LTYPE
  5
3C
100
AcDbSymbolTableRecord
100
AcDbLinetypeTableRecord
  2
CENTER2
 70
              64
  3
AutoCAD CENTER2
 72
              65
 73
               4
 40
256.0
 49
160.0
 74
               0
 49
-32.0
 74
               0
 49
32.0
 74
               0
 49
-32.0
 74
               0
  0
LTYPE
  5
3D
100
AcDbSymbolTableRecord
100
AcDbLinetypeTableRecord
  2
CENTERX2
 70
              64
  3
AutoCAD CENTERX2
 72
              65
 73
               4
 40
1024.0
 49
640.0
 74
               0
 49
-128.0
 74
               0
 49
128.0
 74
               0
 49
-128.0
 74
               0
  0
LTYPE
  5
3E
100
AcDbSymbolTableRecord
100
AcDbLinetypeTableRecord
  2
DASHDOT
 70
              64
  3
AutoCAD DASHDOT
 72
              65
 73
               4
 40
258.0
 49
128.0
 74
               0
 49
-64.0
 74
               0
 49
2.0
 74
               0
 49
-64.0
 74
               0
  0
LTYPE
  5
3F
100
AcDbSymbolTableRecord
100
AcDbLinetypeTableRecord
  2
DASHDOT2
 70
              64
  3
AutoCAD DASHDOT2
 72
              65
 73
               4
 40
130.0
 49
64.0
 74
               0
 49
-32.0
 74
               0
 49
2.0
 74
               0
 49
-32.0
 74
               0
  0
LTYPE
  5
40
100
AcDbSymbolTableRecord
100
AcDbLinetypeTableRecord
  2
DASHDOTX2
 70
              64
  3
AutoCAD DASHDOTX2
 72
              65
 73
               4
 40
514.0
 49
256.0
 74
               0
 49
-128.0
 74
               0
 49
2.0
 74
               0
 49
-128.0
 74
               0
  0
LTYPE
  5
41
100
AcDbSymbolTableRecord
100
AcDbLinetypeTableRecord
  2
DASHED
 70
              64
  3
AutoCAD DASHED
 72
              65
 73
               2
 40
192.0
 49
128.0
 74
               0
 49
-64.0
 74
               0
  0
LTYPE
  5
42
100
AcDbSymbolTableRecord
100
AcDbLinetypeTableRecord
  2
DASHED2
 70
              64
  3
AutoCAD DASHED2
 72
              65
 73
               2
 40
96.0
 49
64.0
 74
               0
 49
-32.0
 74
               0
  0
LTYPE
  5
43
100
AcDbSymbolTableRecord
100
AcDbLinetypeTableRecord
  2
DASHEDX2
 70
              64
  3
AutoCAD DASHEDX2
 72
              65
 73
               2
 40
384.0
 49
256.0
 74
               0
 49
-128.0
 74
               0
  0
LTYPE
  5
44
100
AcDbSymbolTableRecord
100
AcDbLinetypeTableRecord
  2
DIVIDE
 70
              64
  3
AutoCAD DIVIDE
 72
              65
 73
               6
 40
324.0
 49
128.0
 74
               0
 49
-64.0
 74
               0
 49
2.0
 74
               0
 49
-64.0
 74
               0
 49
2.0
 74
               0
 49
-64.0
 74
               0
  0
LTYPE
  5
45
100
AcDbSymbolTableRecord
100
AcDbLinetypeTableRecord
  2
DIVIDE2
 70
              64
  3
AutoCAD DIVIDE2
 72
              65
 73
               6
 40
164.0
 49
64.0
 74
               0
 49
-32.0
 74
               0
 49
2.0
 74
               0
 49
-32.0
 74
               0
 49
2.0
 74
               0
 49
-32.0
 74
               0
  0
LTYPE
  5
46
100
AcDbSymbolTableRecord
100
AcDbLinetypeTableRecord
  2
DIVIDEX2
 70
              64
  3
AutoCAD DIVIDEX2
 72
              65
 73
               6
 40
644.0
 49
256.0
 74
               0
 49
-128.0
 74
               0
 49
2.0
 74
               0
 49
-128.0
 74
               0
 49
2.0
 74
               0
 49
-128.0
 74
               0
  0
LTYPE
  5
47
100
AcDbSymbolTableRecord
100
AcDbLinetypeTableRecord
  2
DOT
 70
              64
  3
AutoCAD DOT
 72
              65
 73
               2
 40
66.0
 49
2.0
 74
               0
 49
-64.0
 74
               0
  0
LTYPE
  5
48
100
AcDbSymbolTableRecord
100
AcDbLinetypeTableRecord
  2
DOT2
 70
              64
  3
AutoCAD DOT2
 72
              65
 73
               2
 40
34.0
 49
2.0
 74
               0
 49
-32.0
 74
               0
  0
LTYPE
  5
49
100
AcDbSymbolTableRecord
100
AcDbLinetypeTableRecord
  2
DOTX2
 70
              64
  3
AutoCAD DOTX2
 72
              65
 73
               2
 40
130.0
 49
2.0
 74
               0
 49
-128.0
 74
               0
  0
LTYPE
  5
4A
100
AcDbSymbolTableRecord
100
AcDbLinetypeTableRecord
  2
HIDDEN
 70
              64
  3
AutoCAD HIDDEN
 72
              65
 73
               2
 40
96.0
 49
64.0
 74
               0
 49
-32.0
 74
               0
  0
LTYPE
  5
4B
100
AcDbSymbolTableRecord
100
AcDbLinetypeTableRecord
  2
HIDDEN2
 70
              64
  3
AutoCAD HIDDEN2
 72
              65
 73
               2
 40
48.0
 49
32.0
 74
               0
 49
-16.0
 74
               0
  0
LTYPE
  5
4C
100
AcDbSymbolTableRecord
100
AcDbLinetypeTableRecord
  2
HIDDENX2
 70
              64
  3
AutoCAD HIDDENX2
 72
              65
 73
               2
 40
192.0
 49
128.0
 74
               0
 49
-64.0
 74
               0
  0
LTYPE
  5
4D
100
AcDbSymbolTableRecord
100
AcDbLinetypeTableRecord
  2
PHANTOM
 70
              64
  3
AutoCAD PHANTOM
 72
              65
 73
               6
 40
640.0
 49
320.0
 74
               0
 49
-64.0
 74
               0
 49
64.0
 74
               0
 49
-64.0
 74
               0
 49
64.0
 74
               0
 49
-64.0
 74
               0
  0
LTYPE
  5
4E
100
AcDbSymbolTableRecord
100
AcDbLinetypeTableRecord
  2
PHANTOM2
 70
              64
  3
AutoCAD PHANTOM2
 72
              65
 73
               6
 40
320.0
 49
160.0
 74
               0
 49
-32.0
 74
               0
 49
32.0
 74
               0
 49
-32.0
 74
               0
 49
32.0
 74
               0
 49
-32.0
 74
               0
  0
LTYPE
  5
4F
100
AcDbSymbolTableRecord
100
AcDbLinetypeTableRecord
  2
PHANTOMX2
 70
              64
  3
AutoCAD PHANTOMX2
 72
              65
 73
               6
 40
1280.0
 49
640.0
 74
               0
 49
-128.0
 74
               0
 49
128.0
 74
               0
 49
-128.0
 74
               0
 49
128.0
 74
               0
 49
-128.0
 74
               0
  0
ENDTAB
  0
TABLE
  2
LAYER
  5
2
100
AcDbSymbolTable
 70
               1
  0
LAYER
  5
14
100
AcDbSymbolTableRecord
100
AcDbLayerTableRecord
  2
0
 70
               0
 62
               7
  6
Continuous
290
               1
370
              -3
390
1D
  0
ENDTAB
  0
TABLE
  2
STYLE
  5
3
100
AcDbSymbolTable
 70
              10
  0
STYLE
  5
17
100
AcDbSymbolTableRecord
100
AcDbTextStyleTableRecord
  2
Standard
 70
               0
 40
0.0
 41
1.0
 50
0.0
 71
               0
 42
0.0
  3
txt
  4

  0
STYLE
  5
50
100
AcDbSymbolTableRecord
100
AcDbTextStyleTableRecord
  2
SIMPLEX
 70
               0
 40
10.0
 41
0.8
 50
0.0
 71
               0
 42
10.0
  3
simplex
  4

  0
STYLE
  5
51
100
AcDbSymbolTableRecord
100
AcDbTextStyleTableRecord
  2
EUROSTYLE
 70
               0
 40
10.0
 41
0.88
 50
0.0
 71
               0
 42
10.0
  3
isocp
  4

  0
STYLE
  5
52
100
AcDbSymbolTableRecord
100
AcDbTextStyleTableRecord
  2
SANSERIF
 70
               0
 40
10.0
 41
0.9
 50
0.0
 71
               0
 42
10.0
  3
romand
  4

  0
STYLE
  5
53
100
AcDbSymbolTableRecord
100
AcDbTextStyleTableRecord
  2
TRIPLEX
 70
               0
 40
10.0
 41
0.86
 50
0.0
 71
               0
 42
10.0
  3
romant
  4

  0
STYLE
  5
54
100
AcDbSymbolTableRecord
100
AcDbTextStyleTableRecord
  2
COMPLEX
 70
               0
 40
10.0
 41
1.0
 50
0.0
 71
               0
 42
10.0
  3
complex
  4

  0
STYLE
  5
55
100
AcDbSymbolTableRecord
100
AcDbTextStyleTableRecord
  2
SCRIPT
 70
               0
 40
10.0
 41
0.98
 50
0.0
 71
               0
 42
10.0
  3
scripts
  4

  0
STYLE
  5
56
100
AcDbSymbolTableRecord
100
AcDbTextStyleTableRecord
  2
TRISCRIPT
 70
               0
 40
10.0
 41
0.89
 50
0.0
 71
               0
 42
10.0
  3
italict
  4

  0
STYLE
  5
57
100
AcDbSymbolTableRecord
100
AcDbTextStyleTableRecord
  2
BOLD
 70
               0
 40
10.0
 41
0.77
 50
0.0
 71
               0
 42
10.0
  3
romand
  4

  0
STYLE
  5
58
100
AcDbSymbolTableRecord
100
AcDbTextStyleTableRecord
  2
GOTHIC
 70
               0
 40
10.0
 41
0.86
 50
0.0
 71
               0
 42
10.0
  3
gothice
  4

  0
ENDTAB
  0
TABLE
  2
VIEW
  5
5
100
AcDbSymbolTable
 70
               0
  0
ENDTAB
  0
TABLE
  2
UCS
  5
6
100
AcDbSymbolTable
 70
               0
  0
ENDTAB
  0
TABLE
  2
APPID
  5
8
100
AcDbSymbolTable
 70
               1
  0
APPID
  5
16
100
AcDbSymbolTableRecord
100
AcDbRegAppTableRecord
  2
ACAD
 70
               0
  0
ENDTAB
  0
TABLE
  2
DIMSTYLE
  5
9
100
AcDbSymbolTable
 70
               1
100
AcDbDimStyleTable
 71
               0
  0
DIMSTYLE
105
18
100
AcDbSymbolTableRecord
100
AcDbDimStyleTableRecord
  2
Standard
 70
               0
  3

  4

 40
1.0
 41
0.18
 42
0.0625
 43
0.38
 44
0.18
 45
0.0
 46
0.0
 47
0.0
 48
0.0
 71
               0
 72
               0
 73
               1
 74
               1
 75
               0
 76
               0
 77
               0
 78
               0
 79
               0
140
0.18
141
0.09
142
0.0
143
25.399999999999999
144
1.0
145
0.0
146
1.0
147
0.09
148
0.0
170
               0
171
               2
172
               0
173
               0
174
               0
175
               0
176
               0
177
               0
178
               0
179
               0
271
               4
272
               4
273
               2
274
               2
275
               0
276
               0
277
               2
278
              46
279
               0
280
               0
281
               0
282
               0
283
               1
284
               0
285
               0
286
               0
288
               0
289
               3
340
17
341
0
342
0
343
0
344
0
371
              -2
372
              -2
  0
ENDTAB
  0
TABLE
  2
BLOCK_RECORD
  5
1
100
AcDbSymbolTable
 70
               1
  0
BLOCK_RECORD
  5
A
100
AcDbSymbolTableRecord
100
AcDbBlockTableRecord
  2
*MODEL_SPACE
340
20
  0
BLOCK_RECORD
  5
B
100
AcDbSymbolTableRecord
100
AcDbBlockTableRecord
  2
*PAPER_SPACE
340
21
  0
BLOCK_RECORD
  5
59
100
AcDbSymbolTableRecord
100
AcDbBlockTableRecord
  2
B032F4290
340
0
102
{BLKREFS
331
64
102
}
  0
ENDTAB
  0
ENDSEC
  0
SECTION
  2
BLOCKS
  0
BLOCK
  5
D
100
AcDbEntity
  8
0
390
0
100
AcDbBlockBegin
  2
*MODEL_SPACE
 70
               0
 10
0.0
 20
0.0
 30
0.0
  3
*MODEL_SPACE
  1

  0
ENDBLK
  5
E
100
AcDbEntity
  8
0
390
0
100
AcDbBlockEnd
  0
BLOCK
  5
F
100
AcDbEntity
 67
               1
  8
0
390
0
100
AcDbBlockBegin
  2
*PAPER_SPACE
 70
               0
 10
0.0
 20
0.0
 30
0.0
  3
*PAPER_SPACE
  1

  0
ENDBLK
  5
10
100
AcDbEntity
 67
               1
  8
0
390
0
100
AcDbBlockEnd
  0
BLOCK
  5
5A
100
AcDbEntity
  8
0
390
0
100
AcDbBlockBegin
  2
B032F4290
 70
               0
 10
0.0
 20
0.0
 30
0.0
  3

  1

  0
LINE
  5
5B
100
AcDbEntity
  8
0
390
0
 62
               7
100
AcDbLine
 10
28.924686166120118
 20
52.340181185823845
 30
0.0
 11
29.067237264519349
 21
27.014446721629575
 31
0.0
  0
LINE
  5
5C
100
AcDbEntity
  8
0
390
0
 62
               7
100
AcDbLine
 10
59.06993485794527
 20
24.379986103532964
 30
0.0
 11
59.263515341568876
 21
25.860569167884165
 31
0.0
  0
LINE
  5
5D
100
AcDbEntity
  8
0
390
0
 62
               7
100
AcDbLine
 10
59.263515341568876
 20
25.860569167884165
 30
0.0
 11
29.067237264519349
 21
27.014446721629575
 31
0.0
  0
LINE
  5
5E
100
AcDbEntity
  8
0
390
0
 62
               7
100
AcDbLine
 10
55.954037576835432
 20
26.003099538152327
 30
0.0
 11
55.953771130851294
 21
26.003111013269397
 31
0.0
  0
LINE
  5
5F
100
AcDbEntity
  8
0
390
0
 62
               7
100
AcDbLine
 10
203.76632880609878
 20
19.391124316756496
 30
0.0
 11
206.55742200096813
 21
30.988623935394003
 31
0.0
  0
LINE
  5
60
100
AcDbEntity
  8
0
390
0
 62
               7
100
AcDbLine
 10
59.069934857945263
 20
24.379986103532964
 30
0.0
 11
203.76632880609878
 21
19.391124316756496
 31
0.0
  0
LINE
  5
61
100
AcDbEntity
  8
0
390
0
 62
               7
100
AcDbLine
 10
206.55742200096813
 20
30.988623935394003
 30
0.0
 11
28.924686166120118
 21
52.340181185823845
 31
0.0
  0
LINE
  5
62
100
AcDbEntity
  8
0
390
0
 62
               7
100
AcDbLine
 10
205.35554797218799
 20
31.133089886518924
 30
0.0
 11
28.924686166120118
 21
52.340181185823845
 31
0.0
  0
ENDBLK
  5
63
100
AcDbEntity
  8
0
390
0
100
AcDbBlockEnd
  0
ENDSEC
  0
SECTION
  2
ENTITIES
  0
INSERT
  5
64
100
AcDbEntity
  8
0
390
0
100
AcDbBlockReference
  2
B032F4290
 10
0.0
 20
0.0
 30
0.0
  0
LINE
  5
65
100
AcDbEntity
  8
0
390
0
 62
               7
100
AcDbLine
 10
28.352666022183293
 20
20.307053125361435
 30
0.0
 11
28.495217120582524
 21
-5.0186813388328364
 31
0.0
  0
LINE
  5
66
100
AcDbEntity
  8
0
390
0
 62
               7
100
AcDbLine
 10
58.497914714008445
 20
-7.6531419569294474
 30
0.0
 11
58.691495197632051
 21
-6.1725588925782464
 31
0.0
  0
LINE
  5
67
100
AcDbEntity
  8
0
390
0
 62
               7
100
AcDbLine
 10
58.691495197632051
 20
-6.1725588925782464
 30
0.0
 11
28.495217120582524
 21
-5.0186813388328364
 31
0.0
  0
LINE
  5
68
100
AcDbEntity
  8
0
390
0
 62
               7
100
AcDbLine
 10
55.382017432898607
 20
-6.0300285223100811
 30
0.0
 11
55.381750986914469
 21
-6.0300170471930148
 31
0.0
  0
LINE
  5
69
100
AcDbEntity
  8
0
390
0
 62
               7
100
AcDbLine
 10
203.19430866216197
 20
-12.642003743705915
 30
0.0
 11
205.98540185703132
 21
-1.0445041250684088
 31
0.0
  0
LINE
  5
6A
100
AcDbEntity
  8
0
390
0
 62
               7
100
AcDbLine
 10
58.497914714008438
 20
-7.6531419569294439
 30
0.0
 11
203.19430866216197
 21
-12.642003743705915
 31
0.0
  0
LINE
  5
6B
100
AcDbEntity
  8
0
390
0
 62
               7
100
AcDbLine
 10
205.98540185703132
 20
-1.0445041250684088
 30
0.0
 11
28.352666022183293
 21
20.307053125361435
 31
0.0
  0
LINE
  5
6C
100
AcDbEntity
  8
0
390
0
 62
               7
100
AcDbLine
 10
204.78352782825118
 20
-0.900038173943484
 30
0.0
 11
28.352666022183293
 21
20.307053125361435
 31
0.0
  0
LINE
  5
6D
100
AcDbEntity
  8
0
390
0
 62
               7
100
AcDbLine
 10
58.391102548978786
 20
-141.46288197791475
 30
0.0
 11
58.341202612881148
 21
-142.95492163111962
 31
0.0
  0
LINE
  5
6E
100
AcDbEntity
  8
0
390
0
 62
               7
100
AcDbLine
 10
58.391102548978793
 20
-141.46288197791475
 30
0.0
 11
203.17346012898162
 21
-141.39887336142789
 31
0.0
  0
LINE
  5
6F
100
AcDbEntity
  8
0
390
0
 62
               7
100
AcDbLine
 10
205.5581061655916
 20
-129.71103087845339
 30
0.0
 11
203.17346012898162
 21
-141.39887336142789
 31
0.0
  0
LINE
  5
70
100
AcDbEntity
  8
0
390
0
100
AcDbLine
 10
205.5581061655916
 20
-129.71103087845339
 30
0.0
 11
252.88481778810748
 21
-133.62084938037853
 31
0.0
  0
LINE
  5
71
100
AcDbEntity
  8
0
390
0
100
AcDbLine
 10
252.88481778810748
 20
-133.62084938037853
 30
0.0
 11
240.10162596042562
 21
-196.02406323018266
 31
0.0
  0
LINE
  5
72
100
AcDbEntity
  8
0
390
0
 62
               7
100
AcDbLine
 10
28.431695214668583
 20
-142.96814469379359
 30
0.0
 11
58.341202612881148
 21
-142.95492163111962
 31
0.0
  0
LINE
  5
73
100
AcDbEntity
  8
0
390
0
100
AcDbLine
 10
28.432212370623173
 20
-142.96814446515774
 30
0.0
 11
31.63929296844557
 21
-233.90427849067112
 31
0.0
  0
LINE
  5
74
100
AcDbEntity
  8
0
390
0
100
AcDbLine
 10
213.01892028931044
 20
-219.91479830768608
 30
0.0
 11
31.63929296844557
 21
-233.90427849067112
 31
0.0
  0
ARC
  5
75
100
AcDbEntity
  8
0
390
0
100
AcDbCircle
 10
210.71192664537901
 20
-190.00363349708633
 30
0.0
 40
30.0
100
AcDbArc
 50
274.41038747209655
 51
348.423215644842
  0
CIRCLE
  5
76
100
AcDbEntity
  8
0
390
0
100
AcDbCircle
 10
215.11514089130392
 20
-149.72647611480048
 30
0.0
 40
7.0
  0
CIRCLE
  5
77
100
AcDbEntity
  8
0
390
0
100
AcDbCircle
 10
235.25934819371983
 20
-148.57232018856362
 30
0.0
 40
5.0128888249850831
  0
CIRCLE
  5
78
100
AcDbEntity
  8
0
390
0
100
AcDbCircle
 10
105.20047330026287
 20
-215.2333599971667
 30
0.0
 40
5.0128888249850831
  0
CIRCLE
  5
79
100
AcDbEntity
  8
0
390
0
100
AcDbCircle
 10
82.271368300903077
 20
-217.69298538909032
 30
0.0
 40
5.0128888249850831
  0
CIRCLE
  5
7A
100
AcDbEntity
  8
0
390
0
100
AcDbCircle
 10
55.729279940651317
 20
-219.24148303241864
 30
0.0
 40
7.0
  0
CIRCLE
  5
7B
100
AcDbEntity
  8
0
390
0
100
AcDbCircle
 10
71.700111598059053
 20
-166.95409148091838
 30
0.0
 40
7.0
  0
CIRCLE
  5
7C
100
AcDbEntity
  8
0
390
0
100
AcDbCircle
 10
49.70011404078609
 20
-166.9644587362915
 30
0.0
 40
7.0
  0
CIRCLE
  5
7D
100
AcDbEntity
  8
0
390
0
100
AcDbCircle
 10
93.700109155332015
 20
-166.94372422554525
 30
0.0
 40
7.0
  0
CIRCLE
  5
7E
100
AcDbEntity
  8
0
390
0
100
AcDbCircle
 10
115.70010671260495
 20
-166.93335697017213
 30
0.0
 40
7.0
  0
CIRCLE
  5
7F
100
AcDbEntity
  8
0
390
0
100
AcDbCircle
 10
137.70010426987793
 20
-166.92298971479892
 30
0.0
 40
7.0
  0
CIRCLE
  5
80
100
AcDbEntity
  8
0
390
0
100
AcDbCircle
 10
159.70010182715086
 20
-166.91262245942579
 30
0.0
 40
7.0
  0
CIRCLE
  5
81
100
AcDbEntity
  8
0
390
0
100
AcDbCircle
 10
181.70009938442379
 20
-166.90225520405264
 30
0.0
 40
7.0
  0
CIRCLE
  5
82
100
AcDbEntity
  8
0
390
0
100
AcDbCircle
 10
203.70009694169681
 20
-166.89188794867951
 30
0.0
 40
7.0
  0
CIRCLE
  5
83
100
AcDbEntity
  8
0
390
0
100
AcDbCircle
 10
225.70009449896972
 20
-166.88152069330636
 30
0.0
 40
7.0
  0
CIRCLE
  5
84
100
AcDbEntity
  8
0
390
0
100
AcDbCircle
 10
60.760764364595211
 20
-185.24374270641738
 30
0.0
 40
7.0
  0
CIRCLE
  5
85
100
AcDbEntity
  8
0
390
0
100
AcDbCircle
 10
82.760761921868166
 20
-185.23337545104425
 30
0.0
 40
7.0
  0
CIRCLE
  5
86
100
AcDbEntity
  8
0
390
0
100
AcDbCircle
 10
104.76075947914111
 20
-185.2230081956711
 30
0.0
 40
7.0
  0
CIRCLE
  5
87
100
AcDbEntity
  8
0
390
0
100
AcDbCircle
 10
126.76075703641406
 20
-185.21264094029797
 30
0.0
 40
7.0
  0
CIRCLE
  5
88
100
AcDbEntity
  8
0
390
0
100
AcDbCircle
 10
148.76075459368704
 20
-185.20227368492485
 30
0.0
 40
7.0
  0
CIRCLE
  5
89
100
AcDbEntity
  8
0
390
0
100
AcDbCircle
 10
170.76075215096
 20
-185.19190642955166
 30
0.0
 40
7.0
  0
CIRCLE
  5
8A
100
AcDbEntity
  8
0
390
0
100
AcDbCircle
 10
192.76074970823294
 20
-185.18153917417848
 30
0.0
 40
7.0
  0
CIRCLE
  5
8B
100
AcDbEntity
  8
0
390
0
100
AcDbCircle
 10
214.7607472655059
 20
-185.17117191880538
 30
0.0
 40
7.0
  0
CIRCLE
  5
8C
100
AcDbEntity
  8
0
390
0
100
AcDbCircle
 10
71.295925384458386
 20
-203.58237402866538
 30
0.0
 40
7.0
  0
CIRCLE
  5
8D
100
AcDbEntity
  8
0
390
0
100
AcDbCircle
 10
93.295922941731334
 20
-203.5720067732922
 30
0.0
 40
7.0
  0
CIRCLE
  5
8E
100
AcDbEntity
  8
0
390
0
100
AcDbCircle
 10
115.2959204990043
 20
-203.56163951791905
 30
0.0
 40
7.0
  0
CIRCLE
  5
8F
100
AcDbEntity
  8
0
390
0
100
AcDbCircle
 10
137.2959180562772
 20
-203.55127226254595
 30
0.0
 40
7.0
  0
CIRCLE
  5
90
100
AcDbEntity
  8
0
390
0
100
AcDbCircle
 10
159.29591561355019
 20
-203.54090500717277
 30
0.0
 40
7.0
  0
CIRCLE
  5
91
100
AcDbEntity
  8
0
390
0
100
AcDbCircle
 10
51.207167000671816
 20
-201.04343951522904
 30
0.0
 40
5.0128888249850831
  0
CIRCLE
  5
92
100
AcDbEntity
  8
0
390
0
100
AcDbCircle
 10
203.29591072809609
 20
-203.52017049642649
 30
0.0
 40
7.0
  0
CIRCLE
  5
93
100
AcDbEntity
  8
0
390
0
100
AcDbCircle
 10
181.2959131708231
 20
-203.53053775179967
 30
0.0
 40
7.0
  0
CIRCLE
  5
94
100
AcDbEntity
  8
0
390
0
100
AcDbCircle
 10
181.36088911757165
 20
-97.775007910648426
 30
0.0
 40
7.0
  0
CIRCLE
  5
95
100
AcDbEntity
  8
0
390
0
100
AcDbCircle
 10
203.36088667484464
 20
-97.764640655275244
 30
0.0
 40
7.0
  0
CIRCLE
  5
96
100
AcDbEntity
  8
0
390
0
100
AcDbCircle
 10
51.272142947420377
 20
-95.287909674077795
 30
0.0
 40
5.0128888249850831
  0
CIRCLE
  5
97
100
AcDbEntity
  8
0
390
0
100
AcDbCircle
 10
159.36089156029874
 20
-97.785375166021524
 30
0.0
 40
7.0
  0
CIRCLE
  5
98
100
AcDbEntity
  8
0
390
0
100
AcDbCircle
 10
137.36089400302575
 20
-97.795742421394706
 30
0.0
 40
7.0
  0
CIRCLE
  5
99
100
AcDbEntity
  8
0
390
0
100
AcDbCircle
 10
115.36089644575286
 20
-97.806109676767804
 30
0.0
 40
7.0
  0
CIRCLE
  5
9A
100
AcDbEntity
  8
0
390
0
100
AcDbCircle
 10
93.360898888479895
 20
-97.816476932140958
 30
0.0
 40
7.0
  0
CIRCLE
  5
9B
100
AcDbEntity
  8
0
390
0
100
AcDbCircle
 10
71.360901331206946
 20
-97.826844187514141
 30
0.0
 40
7.0
  0
CIRCLE
  5
9C
100
AcDbEntity
  8
0
390
0
100
AcDbCircle
 10
214.82572321225445
 20
-79.415642077654141
 30
0.0
 40
7.0
  0
CIRCLE
  5
9D
100
AcDbEntity
  8
0
390
0
100
AcDbCircle
 10
192.82572565498148
 20
-79.426009333027238
 30
0.0
 40
7.0
  0
CIRCLE
  5
9E
100
AcDbEntity
  8
0
390
0
100
AcDbCircle
 10
170.82572809770855
 20
-79.436376588400421
 30
0.0
 40
7.0
  0
CIRCLE
  5
9F
100
AcDbEntity
  8
0
390
0
100
AcDbCircle
 10
148.82573054043559
 20
-79.446743843773604
 30
0.0
 40
7.0
  0
CIRCLE
  5
A0
100
AcDbEntity
  8
0
390
0
100
AcDbCircle
 10
126.82573298316262
 20
-79.457111099146729
 30
0.0
 40
7.0
  0
CIRCLE
  5
A1
100
AcDbEntity
  8
0
390
0
100
AcDbCircle
 10
104.82573542588968
 20
-79.467478354519855
 30
0.0
 40
7.0
  0
CIRCLE
  5
A2
100
AcDbEntity
  8
0
390
0
100
AcDbCircle
 10
82.825737868616727
 20
-79.477845609893009
 30
0.0
 40
7.0
  0
CIRCLE
  5
A3
100
AcDbEntity
  8
0
390
0
100
AcDbCircle
 10
60.825740311343765
 20
-79.488212865266135
 30
0.0
 40
7.0
  0
CIRCLE
  5
A4
100
AcDbEntity
  8
0
390
0
100
AcDbCircle
 10
225.76507044571827
 20
-61.125990852155113
 30
0.0
 40
7.0
  0
CIRCLE
  5
A5
100
AcDbEntity
  8
0
390
0
100
AcDbCircle
 10
203.76507288844536
 20
-61.136358107528267
 30
0.0
 40
7.0
  0
CIRCLE
  5
A6
100
AcDbEntity
  8
0
390
0
100
AcDbCircle
 10
181.76507533117234
 20
-61.146725362901392
 30
0.0
 40
7.0
  0
CIRCLE
  5
A7
100
AcDbEntity
  8
0
390
0
100
AcDbCircle
 10
159.76507777389941
 20
-61.157092618274547
 30
0.0
 40
7.0
  0
CIRCLE
  5
A8
100
AcDbEntity
  8
0
390
0
100
AcDbCircle
 10
137.76508021662647
 20
-61.167459873647672
 30
0.0
 40
7.0
  0
CIRCLE
  5
A9
100
AcDbEntity
  8
0
390
0
100
AcDbCircle
 10
115.76508265935351
 20
-61.177827129020883
 30
0.0
 40
7.0
  0
CIRCLE
  5
AA
100
AcDbEntity
  8
0
390
0
100
AcDbCircle
 10
93.765085102080576
 20
-61.188194384394009
 30
0.0
 40
7.0
  0
CIRCLE
  5
AB
100
AcDbEntity
  8
0
390
0
100
AcDbCircle
 10
49.765089987534651
 20
-61.208928895140261
 30
0.0
 40
7.0
  0
CIRCLE
  5
AC
100
AcDbEntity
  8
0
390
0
100
AcDbCircle
 10
71.765087544807614
 20
-61.198561639767135
 30
0.0
 40
7.0
  0
CIRCLE
  5
AD
100
AcDbEntity
  8
0
390
0
100
AcDbCircle
 10
55.794255887399871
 20
-113.4859531912674
 30
0.0
 40
7.0
  0
CIRCLE
  5
AE
100
AcDbEntity
  8
0
390
0
100
AcDbCircle
 10
82.336344247651638
 20
-111.93745554793908
 30
0.0
 40
5.0128888249850831
  0
CIRCLE
  5
AF
100
AcDbEntity
  8
0
390
0
100
AcDbCircle
 10
105.26544924701143
 20
-109.47783015601546
 30
0.0
 40
5.0128888249850831
  0
CIRCLE
  5
B0
100
AcDbEntity
  8
0
390
0
100
AcDbCircle
 10
235.32432414046838
 20
-42.816790347412379
 30
0.0
 40
5.0128888249850831
  0
CIRCLE
  5
B1
100
AcDbEntity
  8
0
390
0
100
AcDbCircle
 10
215.18011683805247
 20
-43.970946273649233
 30
0.0
 40
7.0
  0
ARC
  5
B2
100
AcDbEntity
  8
0
390
0
100
AcDbCircle
 10
210.77690259212756
 20
-84.248103655935083
 30
0.0
 40
30.0
100
AcDbArc
 50
274.41038747209655
 51
348.423215644842
  0
LINE
  5
B3
100
AcDbEntity
  8
0
390
0
100
AcDbLine
 10
213.08389623605899
 20
-114.15926846653484
 30
0.0
 11
31.704268915194127
 21
-128.14874864951986
 31
0.0
  0
LINE
  5
B4
100
AcDbEntity
  8
0
390
0
100
AcDbLine
 10
28.49718831737173
 20
-37.212614624006491
 30
0.0
 11
31.704268915194127
 21
-128.14874864951986
 31
0.0
  0
LINE
  5
B5
100
AcDbEntity
  8
0
390
0
 62
               7
100
AcDbLine
 10
28.49667116141714
 20
-37.212614852642346
 30
0.0
 11
58.406178559629709
 21
-37.199391789968374
 31
0.0
  0
LINE
  5
B6
100
AcDbEntity
  8
0
390
0
100
AcDbLine
 10
252.94979373485603
 20
-27.865319539227286
 30
0.0
 11
240.16660190717417
 21
-90.268533389031418
 31
0.0
  0
LINE
  5
B7
100
AcDbEntity
  8
0
390
0
100
AcDbLine
 10
205.62308211234014
 20
-23.955501037302142
 30
0.0
 11
252.94979373485603
 21
-27.865319539227286
 31
0.0
  0
LINE
  5
B8
100
AcDbEntity
  8
0
390
0
 62
               7
100
AcDbLine
 10
205.62308211234014
 20
-23.955501037302142
 30
0.0
 11
203.23843607573016
 21
-35.643343520276645
 31
0.0
  0
LINE
  5
B9
100
AcDbEntity
  8
0
390
0
 62
               7
100
AcDbLine
 10
58.456078495727354
 20
-35.707352136763504
 30
0.0
 11
203.23843607573016
 21
-35.643343520276645
 31
0.0
  0
LINE
  5
BA
100
AcDbEntity
  8
0
390
0
 62
               7
100
AcDbLine
 10
58.45607849572734
 20
-35.707352136763504
 30
0.0
 11
58.406178559629709
 21
-37.199391789968374
 31
0.0
  0
ENDSEC
  0
SECTION
  2
OBJECTS
  0
DICTIONARY
  5
19
100
AcDbDictionary
280
               0
281
               1
  3
ACAD_GROUP
350
1A
  3
ACAD_MLINESTYLE
350
1B
  3
ACAD_LAYOUT
350
1E
  3
ACAD_PLOTSETTINGS
350
22
  3
ACAD_PLOTSTYLENAME
350
1F
  0
DICTIONARY
  5
1A
102
{ACAD_REACTORS
330
19
102
}
100
AcDbDictionary
280
               0
281
               1
  0
DICTIONARY
  5
1B
102
{ACAD_REACTORS
330
19
102
}
100
AcDbDictionary
280
               0
281
               1
  3
Standard
350
1C
  0
MLINESTYLE
  5
1C
102
{ACAD_REACTORS
330
1B
102
}
100
AcDbMlineStyle
  2
Standard
 70
               0
  3

 62
               0
 51
90.0
 52
90.0
 71
               2
 49
0.5
 62
             256
  6
ByLayer
 49
-0.5
 62
             256
  6
ByLayer
  0
ACDBDICTIONARYWDFLT
  5
1F
102
{ACAD_REACTORS
330
19
102
}
100
AcDbDictionary
281
               1
  3
Normal
350
1D
100
AcDbDictionaryWithDefault
340
1D
  0
ACDBPLACEHOLDER
  5
1D
102
{ACAD_REACTORS
330
1F
102
}
  0
LAYOUT
  5
20
102
{ACAD_REACTORS
330
1E
102
}
100
AcDbPlotSettings
  1

  2

  4

  6

 40
0.0
 41
0.0
 42
0.0
 43
0.0
 44
0.0
 45
0.0
 46
0.0
 47
0.0
 48
0.0
 49
0.0
140
0.0
141
0.0
142
1.0
143
1.0
 70
            1024
 72
               0
 73
               0
 74
               0
  7

 75
               0
147
1.0
148
0.0
149
0.0
100
AcDbLayout
  1
Model
 70
               0
 71
               0
 10
0.0
 20
0.0
 11
0.0
 21
0.0
 12
0.0
 22
0.0
 32
0.0
 14
0.0
 24
0.0
 34
0.0
 15
0.0
 25
0.0
 35
0.0
146
0.0
 13
0.0
 23
0.0
 33
0.0
 16
0.0
 26
0.0
 36
0.0
 17
0.0
 27
0.0
 37
0.0
 76
               0
330
A
331
0
345
0
346
0
  0
LAYOUT
  5
21
102
{ACAD_REACTORS
330
1E
102
}
100
AcDbPlotSettings
  1

  2

  4

  6

 40
0.0
 41
0.0
 42
0.0
 43
0.0
 44
0.0
 45
0.0
 46
0.0
 47
0.0
 48
0.0
 49
0.0
140
0.0
141
0.0
142
1.0
143
1.0
 70
               0
 72
               0
 73
               0
 74
               0
  7

 75
               0
147
1.0
148
0.0
149
0.0
100
AcDbLayout
  1
Layout1
 70
               0
 71
               0
 10
0.0
 20
0.0
 11
0.0
 21
0.0
 12
0.0
 22
0.0
 32
0.0
 14
0.0
 24
0.0
 34
0.0
 15
0.0
 25
0.0
 35
0.0
146
0.0
 13
0.0
 23
0.0
 33
0.0
 16
0.0
 26
0.0
 36
0.0
 17
0.0
 27
0.0
 37
0.0
 76
               0
330
B
331
0
345
0
346
0
  0
DICTIONARY
  5
1E
102
{ACAD_REACTORS
330
19
102
}
100
AcDbDictionary
280
               0
281
               1
  3
Layout1
350
21
  3
Model
350
20
  0
DICTIONARY
  5
22
102
{ACAD_REACTORS
330
19
102
}
100
AcDbDictionary
280
               0
281
               1
  0
ENDSEC
  0
EOF
