  0
SECTION
  2
HEADER
  9
$ACADVER
  1
AC1015
  9
$ACADMAINTVER
 70
               6
  9
$DWGCODEPAGE
  3
DOS437
  9
$INSBASE
 10
0.0
 20
0.0
 30
0.0
  9
$EXTMIN
 10
0.0
 20
-2.4245219354377809
 30
1.0000000000000000E+20
  9
$EXTMAX
 10
1235.5
 20
174.7826456095938
 30
-1.0000000000000000E+20
  9
$LIMMIN
 10
0.0
 20
0.0
  9
$LIMMAX
 10
0.0
 20
0.0
  9
$ORTHOMODE
 70
               0
  9
$REGENMODE
 70
               1
  9
$FILLMODE
 70
               1
  9
$QTEXTMODE
 70
               0
  9
$MIRRTEXT
 70
               1
  9
$LTSCALE
 40
0.1
  9
$ATTMODE
 70
               1
  9
$TEXTSIZE
 40
0.2
  9
$TRACEWID
 40
0.05
  9
$TEXTSTYLE
  7
Standard
  9
$CLAYER
  8
0
  9
$CELTYPE
  6
ByLayer
  9
$CECOLOR
 62
             256
  9
$CELTSCALE
 40
1.0
  9
$DISPSILH
 70
               0
  9
$DIMSCALE
 40
1.0
  9
$DIMASZ
 40
0.18
  9
$DIMEXO
 40
0.0625
  9
$DIMDLI
 40
0.38
  9
$DIMRND
 40
0.0
  9
$DIMDLE
 40
0.0
  9
$DIMEXE
 40
0.18
  9
$DIMTP
 40
0.0
  9
$DIMTM
 40
0.0
  9
$DIMTXT
 40
0.18
  9
$DIMCEN
 40
0.09
  9
$DIMTSZ
 40
0.0
  9
$DIMTOL
 70
               0
  9
$DIMLIM
 70
               0
  9
$DIMTIH
 70
               1
  9
$DIMTOH
 70
               1
  9
$DIMSE1
 70
               0
  9
$DIMSE2
 70
               0
  9
$DIMTAD
 70
               0
  9
$DIMZIN
 70
               0
  9
$DIMBLK
  1

  9
$DIMASO
 70
               1
  9
$DIMSHO
 70
               1
  9
$DIMPOST
  1

  9
$DIMAPOST
  1

  9
$DIMALT
 70
               0
  9
$DIMALTD
 70
               2
  9
$DIMALTF
 40
25.399999999999999
  9
$DIMLFAC
 40
1.0
  9
$DIMTOFL
 70
               0
  9
$DIMTVP
 40
0.0
  9
$DIMTIX
 70
               0
  9
$DIMSOXD
 70
               0
  9
$DIMSAH
 70
               0
  9
$DIMBLK1
  1

  9
$DIMBLK2
  1

  9
$DIMSTYLE
  2
Standard
  9
$DIMCLRD
 70
               0
  9
$DIMCLRE
 70
               0
  9
$DIMCLRT
 70
               0
  9
$DIMTFAC
 40
1.0
  9
$DIMGAP
 40
0.09
  9
$DIMJUST
 70
               0
  9
$DIMSD1
 70
               0
  9
$DIMSD2
 70
               0
  9
$DIMTOLJ
 70
               1
  9
$DIMTZIN
 70
               0
  9
$DIMALTZ
 70
               0
  9
$DIMALTTZ
 70
               0
  9
$DIMUPT
 70
               0
  9
$DIMDEC
 70
               4
  9
$DIMTDEC
 70
               4
  9
$DIMALTU
 70
               2
  9
$DIMALTTD
 70
               2
  9
$DIMTXSTY
  7
Standard
  9
$DIMAUNIT
 70
               0
  9
$DIMADEC
 70
               0
  9
$DIMALTRND
 40
0.0
  9
$DIMAZIN
 70
               0
  9
$DIMDSEP
 70
               0
  9
$DIMATFIT
 70
               3
  9
$DIMFRAC
 70
               0
  9
$DIMLDRBLK
  1

  9
$DIMLUNIT
 70
               2
  9
$DIMLWD
 70
               0
  9
$DIMLWE
 70
               0
  9
$DIMTMOVE
 70
               0
  9
$LUNITS
 70
               2
  9
$LUPREC
 70
               4
  9
$SKETCHINC
 40
0.1
  9
$FILLETRAD
 40
0.0
  9
$AUNITS
 70
               0
  9
$AUPREC
 70
               0
  9
$MENU
  1
acad
  9
$ELEVATION
 40
0.0
  9
$PELEVATION
 40
0.0
  9
$THICKNESS
 40
0.0
  9
$LIMCHECK
 70
               0
  9
$CHAMFERA
 40
0.0
  9
$CHAMFERB
 40
0.0
  9
$CHAMFERC
 40
0.0
  9
$CHAMFERD
 40
0.0
  9
$SKPOLY
 70
               0
  9
$TDCREATE
 40
0.000000000
  9
$TDUCREATE
 40
0.000000000
  9
$TDUPDATE
 40
0.000000000
  9
$TDUUPDATE
 40
0.000000000
  9
$TDINDWG
 40
0.0000000000
  9
$TDUSRTIMER
 40
0.0000000000
  9
$USRTIMER
 70
               1
  9
$ANGBASE
 50
0.0
  9
$ANGDIR
 70
               0
  9
$PDMODE
 70
               2
  9
$PDSIZE
 40
1.5
  9
$PLINEWID
 40
0.0
  9
$SPLFRAME
 70
               0
  9
$SPLINETYPE
 70
               6
  9
$SPLINESEGS
 70
               8
  9
$HANDSEED
  5
3E5
  9
$SURFTAB1
 70
               6
  9
$SURFTAB2
 70
               6
  9
$SURFTYPE
 70
               6
  9
$SURFU
 70
               6
  9
$SURFV
 70
               6
  9
$UCSBASE
  2

  9
$UCSNAME
  2

  9
$UCSORG
 10
0.0
 20
0.0
 30
0.0
  9
$UCSXDIR
 10
1.0
 20
0.0
 30
0.0
  9
$UCSYDIR
 10
0.0
 20
1.0
 30
0.0
  9
$UCSORTHOREF
  2

  9
$UCSORTHOVIEW
 70
               0
  9
$UCSORGTOP
 10
0.0
 20
0.0
 30
0.0
  9
$UCSORGBOTTOM
 10
0.0
 20
0.0
 30
0.0
  9
$UCSORGLEFT
 10
0.0
 20
0.0
 30
0.0
  9
$UCSORGRIGHT
 10
0.0
 20
0.0
 30
0.0
  9
$UCSORGFRONT
 10
0.0
 20
0.0
 30
0.0
  9
$UCSORGBACK
 10
0.0
 20
0.0
 30
0.0
  9
$PUCSBASE
  2

  9
$PUCSNAME
  2

  9
$PUCSORG
 10
0.0
 20
0.0
 30
0.0
  9
$PUCSXDIR
 10
1.0
 20
0.0
 30
0.0
  9
$PUCSYDIR
 10
0.0
 20
1.0
 30
0.0
  9
$PUCSORTHOREF
  2

  9
$PUCSORTHOVIEW
 70
               0
  9
$PUCSORGTOP
 10
0.0
 20
0.0
 30
0.0
  9
$PUCSORGBOTTOM
 10
0.0
 20
0.0
 30
0.0
  9
$PUCSORGLEFT
 10
0.0
 20
0.0
 30
0.0
  9
$PUCSORGRIGHT
 10
0.0
 20
0.0
 30
0.0
  9
$PUCSORGFRONT
 10
0.0
 20
0.0
 30
0.0
  9
$PUCSORGBACK
 10
0.0
 20
0.0
 30
0.0
  9
$USERI1
 70
               0
  9
$USERI2
 70
               0
  9
$USERI3
 70
               0
  9
$USERI4
 70
               0
  9
$USERI5
 70
               0
  9
$USERR1
 40
0.0
  9
$USERR2
 40
0.0
  9
$USERR3
 40
0.0
  9
$USERR4
 40
0.0
  9
$USERR5
 40
0.0
  9
$WORLDVIEW
 70
               1
  9
$SHADEDGE
 70
               3
  9
$SHADEDIF
 70
              70
  9
$TILEMODE
 70
               1
  9
$MAXACTVP
 70
              16
  9
$PINSBASE
 10
0.0
 20
0.0
 30
0.0
  9
$PLIMCHECK
 70
               0
  9
$PEXTMIN
 10
1.0000000000000000E+20
 20
1.0000000000000000E+20
 30
1.0000000000000000E+20
  9
$PEXTMAX
 10
-1.0000000000000000E+20
 20
-1.0000000000000000E+20
 30
-1.0000000000000000E+20
  9
$PLIMMIN
 10
0.0
 20
0.0
  9
$PLIMMAX
 10
12.0
 20
9.0
  9
$UNITMODE
 70
               0
  9
$VISRETAIN
 70
               0
  9
$PLINEGEN
 70
               1
  9
$PSLTSCALE
 70
               0
  9
$TREEDEPTH
 70
            3020
  9
$CMLSTYLE
  2
Standard
  9
$CMLJUST
 70
               0
  9
$CMLSCALE
 40
1.0
  9
$PROXYGRAPHICS
 70
               0
  9
$MEASUREMENT
 70
               0
  9
$CELWEIGHT
370
              -1
  9
$ENDCAPS
280
               0
  9
$JOINSTYLE
280
               0
  9
$LWDISPLAY
290
               0
  9
$INSUNITS
 70
               0
  9
$HYPERLINKBASE
  1

  9
$STYLESHEET
  1

  9
$XEDIT
290
               1
  9
$CEPSNTYPE
380
               0
  9
$PSTYLEMODE
290
               1
  9
$FINGERPRINTGUID
  2

  9
$VERSIONGUID
  2

  9
$EXTNAMES
290
               1
  9
$PSVPSCALE
 40
0.0
  0
ENDSEC
  0
SECTION
  2
CLASSES
  0
CLASS
  1
LWPOLYLINE
  2
AcDbPolyline
  3
AutoCAD 2000
 90
        0
280
               0
281
               1
  0
CLASS
  1
IMAGE
  2
AcDbRasterImage
  3
ISM
 90
      127
280
               0
281
               1
  0
CLASS
  1
OLE2FRAME
  2
AcDbOle2Frame
  3
AutoCAD 2000
 90
        0
280
               0
281
               1
  0
CLASS
  1
HATCH
  2
AcDbHatch
  3
AutoCAD 2000
 90
        0
280
               0
281
               1
  0
CLASS
  1
DICTIONARYVAR
  2
AcDbDictionaryVar
  3
AutoCAD 2000
 90
        0
280
               0
281
               0
  0
CLASS
  1
RASTERVARIABLES
  2
AcDbRasterVariables
  3
ISM
 90
        0
280
               0
281
               0
  0
CLASS
  1
IMAGEDEF
  2
AcDbRasterImageDef
  3
ISM
 90
        0
280
               0
281
               0
  0
CLASS
  1
IMAGEDEF_REACTOR
  2
AcDbRasterImageDefReactor
  3
ISM
 90
        1
280
               0
281
               0
  0
CLASS
  1
IDBUFFER
  2
AcDbIdBuffer
  3
AutoCAD 2000
 90
        0
280
               0
281
               0
  0
CLASS
  1
SPATIAL_FILTER
  2
AcDbSpatialFilter
  3
AutoCAD 2000
 90
        0
280
               0
281
               0
  0
CLASS
  1
XRECORD
  2
AcDbXrecord
  3
AutoCAD 2000
 90
        0
280
               0
281
               0
  0
CLASS
  1
SORTENTSTABLE
  2
AcDbSortentsTable
  3
AutoCAD 2000
 90
        0
280
               0
281
               0
  0
CLASS
  1
LAYER_INDEX
  2
AcDbLayerIndex
  3
AutoCAD 2000
 90
        0
280
               0
281
               0
  0
CLASS
  1
SPATIAL_INDEX
  2
AcDbSpatialIndex
  3
AutoCAD 2000
 90
        0
280
               0
281
               0
  0
CLASS
  1
OBJECT_PTR
  2
CAseDLPNTableRecord
  3
"ASE-LPNTableRecord"
 90
        1
280
               0
281
               0
  0
CLASS
  1
LAYOUT
  2
AcDbLayout
  3
AutoCAD 2000
 90
        0
280
               0
281
               0
  0
CLASS
  1
PLOTSETTINGS
  2
AcDbPlotSettings
  3
AutoCAD 2000
 90
        0
280
               0
281
               0
  0
CLASS
  1
ACDBDICTIONARYWDFLT
  2
AcDbDictionaryWithDefault
  3
AutoCAD 2000
 90
        0
280
               0
281
               0
  0
CLASS
  1
ACDBPLACEHOLDER
  2
AcDbPlaceHolder
  3
AutoCAD 2000
 90
        0
280
               0
281
               0
  0
ENDSEC
  0
SECTION
  2
TABLES
  0
TABLE
  2
VPORT
  5
7
100
AcDbSymbolTable
 70
               1
  0
VPORT
  5
15
100
AcDbSymbolTableRecord
100
AcDbViewportTableRecord
  2
*ACTIVE
 70
               0
 10
0.0
 20
0.0
 11
1.0
 21
1.0
 12
6.5912879999999996
 22
4.5791839999999997
 13
0.0
 23
0.0
 14
1.0
 24
1.0
 15
0.0
 25
0.0
 16
0.0
 26
0.0
 36
1.0
 17
0.0
 27
0.0
 37
0.0
 40
9.1583690000000004
 41
0.688564
 42
50.0
 43
0.0
 44
0.0
 50
0.0
 51
0.0
 71
               0
 72
             100
 73
               1
 74
               1
 75
               0
 76
               0
 77
               0
 78
               0
281
               0
 65
               0
110
0.0
120
0.0
130
0.0
111
1.0
121
0.0
131
0.0
112
0.0
122
1.0
132
0.0
345
0
346
0
 79
               0
146
0.0
  0
ENDTAB
  0
TABLE
  2
LTYPE
  5
4
100
AcDbSymbolTable
 70
              48
  0
LTYPE
  5
11
100
AcDbSymbolTableRecord
100
AcDbLinetypeTableRecord
  2
ByBlock
 70
              64
  3

 72
              65
 73
               0
 40
0.0
  0
LTYPE
  5
12
100
AcDbSymbolTableRecord
100
AcDbLinetypeTableRecord
  2
ByLayer
 70
              64
  3

 72
              65
 73
               0
 40
0.0
  0
LTYPE
  5
13
100
AcDbSymbolTableRecord
100
AcDbLinetypeTableRecord
  2
Continuous
 70
              64
  3
Solid line
 72
              65
 73
               0
 40
0.0
  0
LTYPE
  5
23
100
AcDbSymbolTableRecord
100
AcDbLinetypeTableRecord
  2
DOTTED
 70
              64
  3
Punteggiato
 72
              65
 73
               2
 40
12.0
 49
2.0
 74
               0
 49
-10.0
 74
               0
  0
LTYPE
  5
24
100
AcDbSymbolTableRecord
100
AcDbLinetypeTableRecord
  2
DASHEDS
 70
              64
  3
Tratteggiato piccolo
 72
              65
 73
               2
 40
20.0
 49
10.0
 74
               0
 49
-10.0
 74
               0
  0
LTYPE
  5
25
100
AcDbSymbolTableRecord
100
AcDbLinetypeTableRecord
  2
DASHEDM
 70
              64
  3
Tratteggiato medio
 72
              65
 73
               2
 40
40.0
 49
20.0
 74
               0
 49
-20.0
 74
               0
  0
LTYPE
  5
26
100
AcDbSymbolTableRecord
100
AcDbLinetypeTableRecord
  2
DASHEDL
 70
              64
  3
Tratteggiato grande
 72
              65
 73
               2
 40
60.0
 49
40.0
 74
               0
 49
-20.0
 74
               0
  0
LTYPE
  5
27
100
AcDbSymbolTableRecord
100
AcDbLinetypeTableRecord
  2
CENTERED
 70
              64
  3
Tratteggiato misto
 72
              65
 73
               4
 40
70.0
 49
10.0
 74
               0
 49
-20.0
 74
               0
 49
20.0
 74
               0
 49
-20.0
 74
               0
  0
LTYPE
  5
28
100
AcDbSymbolTableRecord
100
AcDbLinetypeTableRecord
  2
POINTLINE
 70
              64
  3
Punto e linea
 72
              65
 73
               4
 40
62.0
 49
20.0
 74
               0
 49
-20.0
 74
               0
 49
2.0
 74
               0
 49
-20.0
 74
               0
  0
LTYPE
  5
29
100
AcDbSymbolTableRecord
100
AcDbLinetypeTableRecord
  2
2POINTLINE
 70
              64
  3
Due punti e linea
 72
              65
 73
               6
 40
84.0
 49
20.0
 74
               0
 49
-20.0
 74
               0
 49
2.0
 74
               0
 49
-20.0
 74
               0
 49
2.0
 74
               0
 49
-20.0
 74
               0
  0
LTYPE
  5
2A
100
AcDbSymbolTableRecord
100
AcDbLinetypeTableRecord
  2
ACAD_ISO02W100
 70
              64
  3
ISO Tratteggiata
 72
              65
 73
               2
 40
150.0
 49
120.0
 74
               0
 49
-30.0
 74
               0
  0
LTYPE
  5
2B
100
AcDbSymbolTableRecord
100
AcDbLinetypeTableRecord
  2
ACAD_ISO03W100
 70
              64
  3
ISO Tratto spazio
 72
              65
 73
               2
 40
300.0
 49
120.0
 74
               0
 49
-180.0
 74
               0
  0
LTYPE
  5
2C
100
AcDbSymbolTableRecord
100
AcDbLinetypeTableRecord
  2
ACAD_ISO04W100
 70
              64
  3
ISO Tratto lungo punto
 72
              65
 73
               4
 40
305.0
 49
240.0
 74
               0
 49
-30.0
 74
               0
 49
5.0
 74
               0
 49
-30.0
 74
               0
  0
LTYPE
  5
2D
100
AcDbSymbolTableRecord
100
AcDbLinetypeTableRecord
  2
ACAD_ISO05W100
 70
              64
  3
ISO Tratto lungo doppio punto
 72
              65
 73
               6
 40
340.0
 49
240.0
 74
               0
 49
-30.0
 74
               0
 49
5.0
 74
               0
 49
-30.0
 74
               0
 49
5.0
 74
               0
 49
-30.0
 74
               0
  0
LTYPE
  5
2E
100
AcDbSymbolTableRecord
100
AcDbLinetypeTableRecord
  2
ACAD_ISO06W100
 70
              64
  3
ISO Tratto lungo triplo punto
 72
              65
 73
               8
 40
375.0
 49
240.0
 74
               0
 49
-30.0
 74
               0
 49
5.0
 74
               0
 49
-30.0
 74
               0
 49
5.0
 74
               0
 49
-30.0
 74
               0
 49
5.0
 74
               0
 49
-30.0
 74
               0
  0
LTYPE
  5
2F
100
AcDbSymbolTableRecord
100
AcDbLinetypeTableRecord
  2
ACAD_ISO07W100
 70
              64
  3
ISO Punteggiata
 72
              65
 73
               2
 40
35.0
 49
5.0
 74
               0
 49
-30.0
 74
               0
  0
LTYPE
  5
30
100
AcDbSymbolTableRecord
100
AcDbLinetypeTableRecord
  2
ACAD_ISO08W100
 70
              64
  3
ISO Tratto lungo tratto corto
 72
              65
 73
               4
 40
360.0
 49
240.0
 74
               0
 49
-30.0
 74
               0
 49
60.0
 74
               0
 49
-30.0
 74
               0
  0
LTYPE
  5
31
100
AcDbSymbolTableRecord
100
AcDbLinetypeTableRecord
  2
ACAD_ISO09W100
 70
              64
  3
ISO Tratto lungo doppio tratto corto
 72
              65
 73
               6
 40
450.0
 49
240.0
 74
               0
 49
-30.0
 74
               0
 49
60.0
 74
               0
 49
-30.0
 74
               0
 49
60.0
 74
               0
 49
-30.0
 74
               0
  0
LTYPE
  5
32
100
AcDbSymbolTableRecord
100
AcDbLinetypeTableRecord
  2
ACAD_ISO10W100
 70
              64
  3
ISO Tratto punto
 72
              65
 73
               4
 40
185.0
 49
120.0
 74
               0
 49
-30.0
 74
               0
 49
5.0
 74
               0
 49
-30.0
 74
               0
  0
LTYPE
  5
33
100
AcDbSymbolTableRecord
100
AcDbLinetypeTableRecord
  2
ACAD_ISO11W100
 70
              64
  3
ISO Doppio tratto punto
 72
              65
 73
               6
 40
335.0
 49
120.0
 74
               0
 49
-30.0
 74
               0
 49
120.0
 74
               0
 49
-30.0
 74
               0
 49
5.0
 74
               0
 49
-30.0
 74
               0
  0
LTYPE
  5
34
100
AcDbSymbolTableRecord
100
AcDbLinetypeTableRecord
  2
ACAD_ISO12W100
 70
              64
  3
ISO Tratto doppio punto
 72
              65
 73
               6
 40
220.0
 49
120.0
 74
               0
 49
-30.0
 74
               0
 49
5.0
 74
               0
 49
-30.0
 74
               0
 49
5.0
 74
               0
 49
-30.0
 74
               0
  0
LTYPE
  5
35
100
AcDbSymbolTableRecord
100
AcDbLinetypeTableRecord
  2
ACAD_ISO13W100
 70
              64
  3
ISO Doppio tratto doppio punto
 72
              65
 73
               8
 40
370.0
 49
120.0
 74
               0
 49
-30.0
 74
               0
 49
120.0
 74
               0
 49
-30.0
 74
               0
 49
5.0
 74
               0
 49
-30.0
 74
               0
 49
5.0
 74
               0
 49
-30.0
 74
               0
  0
LTYPE
  5
36
100
AcDbSymbolTableRecord
100
AcDbLinetypeTableRecord
  2
ACAD_ISO14W100
 70
              64
  3
ISO Tratto triplo punto
 72
              65
 73
               8
 40
255.0
 49
120.0
 74
               0
 49
-30.0
 74
               0
 49
5.0
 74
               0
 49
-30.0
 74
               0
 49
5.0
 74
               0
 49
-30.0
 74
               0
 49
5.0
 74
               0
 49
-30.0
 74
               0
  0
LTYPE
  5
37
100
AcDbSymbolTableRecord
100
AcDbLinetypeTableRecord
  2
ACAD_ISO15W100
 70
              64
  3
ISO Doppio tratto triplo punto
 72
              65
 73
              10
 40
405.0
 49
120.0
 74
               0
 49
-30.0
 74
               0
 49
120.0
 74
               0
 49
-30.0
 74
               0
 49
5.0
 74
               0
 49
-30.0
 74
               0
 49
5.0
 74
               0
 49
-30.0
 74
               0
 49
5.0
 74
               0
 49
-30.0
 74
               0
  0
LTYPE
  5
38
100
AcDbSymbolTableRecord
100
AcDbLinetypeTableRecord
  2
BORDER
 70
              64
  3
AutoCAD BORDER
 72
              65
 73
               6
 40
450.0
 49
128.0
 74
               0
 49
-64.0
 74
               0
 49
128.0
 74
               0
 49
-64.0
 74
               0
 49
2.0
 74
               0
 49
-64.0
 74
               0
  0
LTYPE
  5
39
100
AcDbSymbolTableRecord
100
AcDbLinetypeTableRecord
  2
BORDER2
 70
              64
  3
AutoCAD BORDER2
 72
              65
 73
               6
 40
226.0
 49
64.0
 74
               0
 49
-32.0
 74
               0
 49
64.0
 74
               0
 49
-32.0
 74
               0
 49
2.0
 74
               0
 49
-32.0
 74
               0
  0
LTYPE
  5
3A
100
AcDbSymbolTableRecord
100
AcDbLinetypeTableRecord
  2
BORDERX2
 70
              64
  3
AutoCAD BORDERX2
 72
              65
 73
               6
 40
898.0
 49
256.0
 74
               0
 49
-128.0
 74
               0
 49
256.0
 74
               0
 49
-128.0
 74
               0
 49
2.0
 74
               0
 49
-128.0
 74
               0
  0
LTYPE
  5
3B
100
AcDbSymbolTableRecord
100
AcDbLinetypeTableRecord
  2
CENTER
 70
              64
  3
AutoCAD CENTER
 72
              65
 73
               4
 40
512.0
 49
320.0
 74
               0
 49
-64.0
 74
               0
 49
64.0
 74
               0
 49
-64.0
 74
               0
  0
LTYPE
  5
3C
100
AcDbSymbolTableRecord
100
AcDbLinetypeTableRecord
  2
CENTER2
 70
              64
  3
AutoCAD CENTER2
 72
              65
 73
               4
 40
256.0
 49
160.0
 74
               0
 49
-32.0
 74
               0
 49
32.0
 74
               0
 49
-32.0
 74
               0
  0
LTYPE
  5
3D
100
AcDbSymbolTableRecord
100
AcDbLinetypeTableRecord
  2
CENTERX2
 70
              64
  3
AutoCAD CENTERX2
 72
              65
 73
               4
 40
1024.0
 49
640.0
 74
               0
 49
-128.0
 74
               0
 49
128.0
 74
               0
 49
-128.0
 74
               0
  0
LTYPE
  5
3E
100
AcDbSymbolTableRecord
100
AcDbLinetypeTableRecord
  2
DASHDOT
 70
              64
  3
AutoCAD DASHDOT
 72
              65
 73
               4
 40
258.0
 49
128.0
 74
               0
 49
-64.0
 74
               0
 49
2.0
 74
               0
 49
-64.0
 74
               0
  0
LTYPE
  5
3F
100
AcDbSymbolTableRecord
100
AcDbLinetypeTableRecord
  2
DASHDOT2
 70
              64
  3
AutoCAD DASHDOT2
 72
              65
 73
               4
 40
130.0
 49
64.0
 74
               0
 49
-32.0
 74
               0
 49
2.0
 74
               0
 49
-32.0
 74
               0
  0
LTYPE
  5
40
100
AcDbSymbolTableRecord
100
AcDbLinetypeTableRecord
  2
DASHDOTX2
 70
              64
  3
AutoCAD DASHDOTX2
 72
              65
 73
               4
 40
514.0
 49
256.0
 74
               0
 49
-128.0
 74
               0
 49
2.0
 74
               0
 49
-128.0
 74
               0
  0
LTYPE
  5
41
100
AcDbSymbolTableRecord
100
AcDbLinetypeTableRecord
  2
DASHED
 70
              64
  3
AutoCAD DASHED
 72
              65
 73
               2
 40
192.0
 49
128.0
 74
               0
 49
-64.0
 74
               0
  0
LTYPE
  5
42
100
AcDbSymbolTableRecord
100
AcDbLinetypeTableRecord
  2
DASHED2
 70
              64
  3
AutoCAD DASHED2
 72
              65
 73
               2
 40
96.0
 49
64.0
 74
               0
 49
-32.0
 74
               0
  0
LTYPE
  5
43
100
AcDbSymbolTableRecord
100
AcDbLinetypeTableRecord
  2
DASHEDX2
 70
              64
  3
AutoCAD DASHEDX2
 72
              65
 73
               2
 40
384.0
 49
256.0
 74
               0
 49
-128.0
 74
               0
  0
LTYPE
  5
44
100
AcDbSymbolTableRecord
100
AcDbLinetypeTableRecord
  2
DIVIDE
 70
              64
  3
AutoCAD DIVIDE
 72
              65
 73
               6
 40
324.0
 49
128.0
 74
               0
 49
-64.0
 74
               0
 49
2.0
 74
               0
 49
-64.0
 74
               0
 49
2.0
 74
               0
 49
-64.0
 74
               0
  0
LTYPE
  5
45
100
AcDbSymbolTableRecord
100
AcDbLinetypeTableRecord
  2
DIVIDE2
 70
              64
  3
AutoCAD DIVIDE2
 72
              65
 73
               6
 40
164.0
 49
64.0
 74
               0
 49
-32.0
 74
               0
 49
2.0
 74
               0
 49
-32.0
 74
               0
 49
2.0
 74
               0
 49
-32.0
 74
               0
  0
LTYPE
  5
46
100
AcDbSymbolTableRecord
100
AcDbLinetypeTableRecord
  2
DIVIDEX2
 70
              64
  3
AutoCAD DIVIDEX2
 72
              65
 73
               6
 40
644.0
 49
256.0
 74
               0
 49
-128.0
 74
               0
 49
2.0
 74
               0
 49
-128.0
 74
               0
 49
2.0
 74
               0
 49
-128.0
 74
               0
  0
LTYPE
  5
47
100
AcDbSymbolTableRecord
100
AcDbLinetypeTableRecord
  2
DOT
 70
              64
  3
AutoCAD DOT
 72
              65
 73
               2
 40
66.0
 49
2.0
 74
               0
 49
-64.0
 74
               0
  0
LTYPE
  5
48
100
AcDbSymbolTableRecord
100
AcDbLinetypeTableRecord
  2
DOT2
 70
              64
  3
AutoCAD DOT2
 72
              65
 73
               2
 40
34.0
 49
2.0
 74
               0
 49
-32.0
 74
               0
  0
LTYPE
  5
49
100
AcDbSymbolTableRecord
100
AcDbLinetypeTableRecord
  2
DOTX2
 70
              64
  3
AutoCAD DOTX2
 72
              65
 73
               2
 40
130.0
 49
2.0
 74
               0
 49
-128.0
 74
               0
  0
LTYPE
  5
4A
100
AcDbSymbolTableRecord
100
AcDbLinetypeTableRecord
  2
HIDDEN
 70
              64
  3
AutoCAD HIDDEN
 72
              65
 73
               2
 40
96.0
 49
64.0
 74
               0
 49
-32.0
 74
               0
  0
LTYPE
  5
4B
100
AcDbSymbolTableRecord
100
AcDbLinetypeTableRecord
  2
HIDDEN2
 70
              64
  3
AutoCAD HIDDEN2
 72
              65
 73
               2
 40
48.0
 49
32.0
 74
               0
 49
-16.0
 74
               0
  0
LTYPE
  5
4C
100
AcDbSymbolTableRecord
100
AcDbLinetypeTableRecord
  2
HIDDENX2
 70
              64
  3
AutoCAD HIDDENX2
 72
              65
 73
               2
 40
192.0
 49
128.0
 74
               0
 49
-64.0
 74
               0
  0
LTYPE
  5
4D
100
AcDbSymbolTableRecord
100
AcDbLinetypeTableRecord
  2
PHANTOM
 70
              64
  3
AutoCAD PHANTOM
 72
              65
 73
               6
 40
640.0
 49
320.0
 74
               0
 49
-64.0
 74
               0
 49
64.0
 74
               0
 49
-64.0
 74
               0
 49
64.0
 74
               0
 49
-64.0
 74
               0
  0
LTYPE
  5
4E
100
AcDbSymbolTableRecord
100
AcDbLinetypeTableRecord
  2
PHANTOM2
 70
              64
  3
AutoCAD PHANTOM2
 72
              65
 73
               6
 40
320.0
 49
160.0
 74
               0
 49
-32.0
 74
               0
 49
32.0
 74
               0
 49
-32.0
 74
               0
 49
32.0
 74
               0
 49
-32.0
 74
               0
  0
LTYPE
  5
4F
100
AcDbSymbolTableRecord
100
AcDbLinetypeTableRecord
  2
PHANTOMX2
 70
              64
  3
AutoCAD PHANTOMX2
 72
              65
 73
               6
 40
1280.0
 49
640.0
 74
               0
 49
-128.0
 74
               0
 49
128.0
 74
               0
 49
-128.0
 74
               0
 49
128.0
 74
               0
 49
-128.0
 74
               0
  0
ENDTAB
  0
TABLE
  2
LAYER
  5
2
100
AcDbSymbolTable
 70
               1
  0
LAYER
  5
14
100
AcDbSymbolTableRecord
100
AcDbLayerTableRecord
  2
0
 70
               0
 62
               7
  6
Continuous
290
               1
370
              -3
390
1D
  0
ENDTAB
  0
TABLE
  2
STYLE
  5
3
100
AcDbSymbolTable
 70
              10
  0
STYLE
  5
17
100
AcDbSymbolTableRecord
100
AcDbTextStyleTableRecord
  2
Standard
 70
               0
 40
0.0
 41
1.0
 50
0.0
 71
               0
 42
0.0
  3
txt
  4

  0
STYLE
  5
50
100
AcDbSymbolTableRecord
100
AcDbTextStyleTableRecord
  2
SIMPLEX
 70
               0
 40
10.0
 41
0.8
 50
0.0
 71
               0
 42
10.0
  3
simplex
  4

  0
STYLE
  5
51
100
AcDbSymbolTableRecord
100
AcDbTextStyleTableRecord
  2
EUROSTYLE
 70
               0
 40
10.0
 41
0.88
 50
0.0
 71
               0
 42
10.0
  3
isocp
  4

  0
STYLE
  5
52
100
AcDbSymbolTableRecord
100
AcDbTextStyleTableRecord
  2
SANSERIF
 70
               0
 40
10.0
 41
0.9
 50
0.0
 71
               0
 42
10.0
  3
romand
  4

  0
STYLE
  5
53
100
AcDbSymbolTableRecord
100
AcDbTextStyleTableRecord
  2
TRIPLEX
 70
               0
 40
10.0
 41
0.86
 50
0.0
 71
               0
 42
10.0
  3
romant
  4

  0
STYLE
  5
54
100
AcDbSymbolTableRecord
100
AcDbTextStyleTableRecord
  2
COMPLEX
 70
               0
 40
10.0
 41
1.0
 50
0.0
 71
               0
 42
10.0
  3
complex
  4

  0
STYLE
  5
55
100
AcDbSymbolTableRecord
100
AcDbTextStyleTableRecord
  2
SCRIPT
 70
               0
 40
10.0
 41
0.98
 50
0.0
 71
               0
 42
10.0
  3
scripts
  4

  0
STYLE
  5
56
100
AcDbSymbolTableRecord
100
AcDbTextStyleTableRecord
  2
TRISCRIPT
 70
               0
 40
10.0
 41
0.89
 50
0.0
 71
               0
 42
10.0
  3
italict
  4

  0
STYLE
  5
57
100
AcDbSymbolTableRecord
100
AcDbTextStyleTableRecord
  2
BOLD
 70
               0
 40
10.0
 41
0.77
 50
0.0
 71
               0
 42
10.0
  3
romand
  4

  0
STYLE
  5
58
100
AcDbSymbolTableRecord
100
AcDbTextStyleTableRecord
  2
GOTHIC
 70
               0
 40
10.0
 41
0.86
 50
0.0
 71
               0
 42
10.0
  3
gothice
  4

  0
ENDTAB
  0
TABLE
  2
VIEW
  5
5
100
AcDbSymbolTable
 70
               0
  0
ENDTAB
  0
TABLE
  2
UCS
  5
6
100
AcDbSymbolTable
 70
               0
  0
ENDTAB
  0
TABLE
  2
APPID
  5
8
100
AcDbSymbolTable
 70
               1
  0
APPID
  5
16
100
AcDbSymbolTableRecord
100
AcDbRegAppTableRecord
  2
ACAD
 70
               0
  0
ENDTAB
  0
TABLE
  2
DIMSTYLE
  5
9
100
AcDbSymbolTable
 70
               1
100
AcDbDimStyleTable
 71
               0
  0
DIMSTYLE
105
18
100
AcDbSymbolTableRecord
100
AcDbDimStyleTableRecord
  2
Standard
 70
               0
  3

  4

 40
1.0
 41
0.18
 42
0.0625
 43
0.38
 44
0.18
 45
0.0
 46
0.0
 47
0.0
 48
0.0
 71
               0
 72
               0
 73
               1
 74
               1
 75
               0
 76
               0
 77
               0
 78
               0
 79
               0
140
0.18
141
0.09
142
0.0
143
25.399999999999999
144
1.0
145
0.0
146
1.0
147
0.09
148
0.0
170
               0
171
               2
172
               0
173
               0
174
               0
175
               0
176
               0
177
               0
178
               0
179
               0
271
               4
272
               4
273
               2
274
               2
275
               0
276
               0
277
               2
278
              46
279
               0
280
               0
281
               0
282
               0
283
               1
284
               0
285
               0
286
               0
288
               0
289
               3
340
17
341
0
342
0
343
0
344
0
371
              -2
372
              -2
  0
ENDTAB
  0
TABLE
  2
BLOCK_RECORD
  5
1
100
AcDbSymbolTable
 70
             111
  0
BLOCK_RECORD
  5
A
100
AcDbSymbolTableRecord
100
AcDbBlockTableRecord
  2
*MODEL_SPACE
340
20
  0
BLOCK_RECORD
  5
B
100
AcDbSymbolTableRecord
100
AcDbBlockTableRecord
  2
*PAPER_SPACE
340
21
  0
BLOCK_RECORD
  5
59
100
AcDbSymbolTableRecord
100
AcDbBlockTableRecord
  2
B024984B4
340
0
102
{BLKREFS
331
60
102
}
  0
BLOCK_RECORD
  5
61
100
AcDbSymbolTableRecord
100
AcDbBlockTableRecord
  2
B02498650
340
0
102
{BLKREFS
331
68
102
}
  0
BLOCK_RECORD
  5
69
100
AcDbSymbolTableRecord
100
AcDbBlockTableRecord
  2
B024987EC
340
0
102
{BLKREFS
331
70
102
}
  0
BLOCK_RECORD
  5
71
100
AcDbSymbolTableRecord
100
AcDbBlockTableRecord
  2
B02498988
340
0
102
{BLKREFS
331
78
102
}
  0
BLOCK_RECORD
  5
79
100
AcDbSymbolTableRecord
100
AcDbBlockTableRecord
  2
B02498B24
340
0
102
{BLKREFS
331
80
102
}
  0
BLOCK_RECORD
  5
81
100
AcDbSymbolTableRecord
100
AcDbBlockTableRecord
  2
B02498CC0
340
0
102
{BLKREFS
331
88
102
}
  0
BLOCK_RECORD
  5
89
100
AcDbSymbolTableRecord
100
AcDbBlockTableRecord
  2
B02498E5C
340
0
102
{BLKREFS
331
90
102
}
  0
BLOCK_RECORD
  5
91
100
AcDbSymbolTableRecord
100
AcDbBlockTableRecord
  2
B02498FF8
340
0
102
{BLKREFS
331
98
102
}
  0
BLOCK_RECORD
  5
99
100
AcDbSymbolTableRecord
100
AcDbBlockTableRecord
  2
B02499194
340
0
102
{BLKREFS
331
A0
102
}
  0
BLOCK_RECORD
  5
A1
100
AcDbSymbolTableRecord
100
AcDbBlockTableRecord
  2
B02499330
340
0
102
{BLKREFS
331
A8
102
}
  0
BLOCK_RECORD
  5
A9
100
AcDbSymbolTableRecord
100
AcDbBlockTableRecord
  2
B024994CC
340
0
102
{BLKREFS
331
B0
102
}
  0
BLOCK_RECORD
  5
B1
100
AcDbSymbolTableRecord
100
AcDbBlockTableRecord
  2
B02499668
340
0
102
{BLKREFS
331
B8
102
}
  0
BLOCK_RECORD
  5
B9
100
AcDbSymbolTableRecord
100
AcDbBlockTableRecord
  2
B02499804
340
0
102
{BLKREFS
331
C0
102
}
  0
BLOCK_RECORD
  5
C1
100
AcDbSymbolTableRecord
100
AcDbBlockTableRecord
  2
B02BC0138
340
0
102
{BLKREFS
331
C8
102
}
  0
BLOCK_RECORD
  5
C9
100
AcDbSymbolTableRecord
100
AcDbBlockTableRecord
  2
B02BC02D4
340
0
102
{BLKREFS
331
D0
102
}
  0
BLOCK_RECORD
  5
D1
100
AcDbSymbolTableRecord
100
AcDbBlockTableRecord
  2
B02BC0470
340
0
102
{BLKREFS
331
D8
102
}
  0
BLOCK_RECORD
  5
D9
100
AcDbSymbolTableRecord
100
AcDbBlockTableRecord
  2
B02BC060C
340
0
102
{BLKREFS
331
E0
102
}
  0
BLOCK_RECORD
  5
E1
100
AcDbSymbolTableRecord
100
AcDbBlockTableRecord
  2
B02BC07A8
340
0
102
{BLKREFS
331
E8
102
}
  0
BLOCK_RECORD
  5
E9
100
AcDbSymbolTableRecord
100
AcDbBlockTableRecord
  2
B02BC0944
340
0
102
{BLKREFS
331
F0
102
}
  0
BLOCK_RECORD
  5
F1
100
AcDbSymbolTableRecord
100
AcDbBlockTableRecord
  2
B02BC0AE0
340
0
102
{BLKREFS
331
F8
102
}
  0
BLOCK_RECORD
  5
F9
100
AcDbSymbolTableRecord
100
AcDbBlockTableRecord
  2
B02BC0C7C
340
0
102
{BLKREFS
331
100
102
}
  0
BLOCK_RECORD
  5
101
100
AcDbSymbolTableRecord
100
AcDbBlockTableRecord
  2
B0249ABEC
340
0
102
{BLKREFS
331
108
102
}
  0
BLOCK_RECORD
  5
109
100
AcDbSymbolTableRecord
100
AcDbBlockTableRecord
  2
B0249AD88
340
0
102
{BLKREFS
331
110
102
}
  0
BLOCK_RECORD
  5
111
100
AcDbSymbolTableRecord
100
AcDbBlockTableRecord
  2
B0249AF24
340
0
102
{BLKREFS
331
118
102
}
  0
BLOCK_RECORD
  5
119
100
AcDbSymbolTableRecord
100
AcDbBlockTableRecord
  2
B0247A3E8
340
0
102
{BLKREFS
331
120
102
}
  0
BLOCK_RECORD
  5
121
100
AcDbSymbolTableRecord
100
AcDbBlockTableRecord
  2
B0247A584
340
0
102
{BLKREFS
331
128
102
}
  0
BLOCK_RECORD
  5
129
100
AcDbSymbolTableRecord
100
AcDbBlockTableRecord
  2
B0247A720
340
0
102
{BLKREFS
331
130
102
}
  0
BLOCK_RECORD
  5
131
100
AcDbSymbolTableRecord
100
AcDbBlockTableRecord
  2
B0247A8BC
340
0
102
{BLKREFS
331
138
102
}
  0
BLOCK_RECORD
  5
139
100
AcDbSymbolTableRecord
100
AcDbBlockTableRecord
  2
B0247AA58
340
0
102
{BLKREFS
331
140
102
}
  0
BLOCK_RECORD
  5
141
100
AcDbSymbolTableRecord
100
AcDbBlockTableRecord
  2
B0247ABF4
340
0
102
{BLKREFS
331
148
102
}
  0
BLOCK_RECORD
  5
149
100
AcDbSymbolTableRecord
100
AcDbBlockTableRecord
  2
B0247AD90
340
0
102
{BLKREFS
331
150
102
}
  0
BLOCK_RECORD
  5
151
100
AcDbSymbolTableRecord
100
AcDbBlockTableRecord
  2
B0247AF2C
340
0
102
{BLKREFS
331
158
102
}
  0
BLOCK_RECORD
  5
159
100
AcDbSymbolTableRecord
100
AcDbBlockTableRecord
  2
B0247B0C8
340
0
102
{BLKREFS
331
160
102
}
  0
BLOCK_RECORD
  5
161
100
AcDbSymbolTableRecord
100
AcDbBlockTableRecord
  2
B02C1EB4C
340
0
102
{BLKREFS
331
168
102
}
  0
BLOCK_RECORD
  5
169
100
AcDbSymbolTableRecord
100
AcDbBlockTableRecord
  2
B02C1ECE8
340
0
102
{BLKREFS
331
170
102
}
  0
BLOCK_RECORD
  5
171
100
AcDbSymbolTableRecord
100
AcDbBlockTableRecord
  2
B02C1EE84
340
0
102
{BLKREFS
331
178
102
}
  0
BLOCK_RECORD
  5
179
100
AcDbSymbolTableRecord
100
AcDbBlockTableRecord
  2
B02C3C018
340
0
102
{BLKREFS
331
180
102
}
  0
BLOCK_RECORD
  5
181
100
AcDbSymbolTableRecord
100
AcDbBlockTableRecord
  2
B02486608
340
0
102
{BLKREFS
331
188
102
}
  0
BLOCK_RECORD
  5
189
100
AcDbSymbolTableRecord
100
AcDbBlockTableRecord
  2
B024867A4
340
0
102
{BLKREFS
331
190
102
}
  0
BLOCK_RECORD
  5
191
100
AcDbSymbolTableRecord
100
AcDbBlockTableRecord
  2
B02486940
340
0
102
{BLKREFS
331
198
102
}
  0
BLOCK_RECORD
  5
199
100
AcDbSymbolTableRecord
100
AcDbBlockTableRecord
  2
B02486ADC
340
0
102
{BLKREFS
331
1A0
102
}
  0
BLOCK_RECORD
  5
1A1
100
AcDbSymbolTableRecord
100
AcDbBlockTableRecord
  2
B02486C78
340
0
102
{BLKREFS
331
1A8
102
}
  0
BLOCK_RECORD
  5
1A9
100
AcDbSymbolTableRecord
100
AcDbBlockTableRecord
  2
B02486E14
340
0
102
{BLKREFS
331
1B0
102
}
  0
BLOCK_RECORD
  5
1B1
100
AcDbSymbolTableRecord
100
AcDbBlockTableRecord
  2
B02486FB0
340
0
102
{BLKREFS
331
1B8
102
}
  0
BLOCK_RECORD
  5
1B9
100
AcDbSymbolTableRecord
100
AcDbBlockTableRecord
  2
B02492E38
340
0
102
{BLKREFS
331
1C0
102
}
  0
BLOCK_RECORD
  5
1C1
100
AcDbSymbolTableRecord
100
AcDbBlockTableRecord
  2
B02492FD4
340
0
102
{BLKREFS
331
1C8
102
}
  0
BLOCK_RECORD
  5
1C9
100
AcDbSymbolTableRecord
100
AcDbBlockTableRecord
  2
B02482BA4
340
0
102
{BLKREFS
331
1D0
102
}
  0
BLOCK_RECORD
  5
1D1
100
AcDbSymbolTableRecord
100
AcDbBlockTableRecord
  2
B02482D40
340
0
102
{BLKREFS
331
1D8
102
}
  0
BLOCK_RECORD
  5
1D9
100
AcDbSymbolTableRecord
100
AcDbBlockTableRecord
  2
B02482EDC
340
0
102
{BLKREFS
331
1E0
102
}
  0
BLOCK_RECORD
  5
1E1
100
AcDbSymbolTableRecord
100
AcDbBlockTableRecord
  2
B02483078
340
0
102
{BLKREFS
331
1E8
102
}
  0
BLOCK_RECORD
  5
1E9
100
AcDbSymbolTableRecord
100
AcDbBlockTableRecord
  2
B02483214
340
0
102
{BLKREFS
331
1F0
102
}
  0
BLOCK_RECORD
  5
1F1
100
AcDbSymbolTableRecord
100
AcDbBlockTableRecord
  2
B024833B0
340
0
102
{BLKREFS
331
1F8
102
}
  0
BLOCK_RECORD
  5
1F9
100
AcDbSymbolTableRecord
100
AcDbBlockTableRecord
  2
B0248354C
340
0
102
{BLKREFS
331
200
102
}
  0
BLOCK_RECORD
  5
201
100
AcDbSymbolTableRecord
100
AcDbBlockTableRecord
  2
B024836E8
340
0
102
{BLKREFS
331
208
102
}
  0
BLOCK_RECORD
  5
209
100
AcDbSymbolTableRecord
100
AcDbBlockTableRecord
  2
B02483884
340
0
102
{BLKREFS
331
210
102
}
  0
BLOCK_RECORD
  5
211
100
AcDbSymbolTableRecord
100
AcDbBlockTableRecord
  2
B02483A20
340
0
102
{BLKREFS
331
218
102
}
  0
BLOCK_RECORD
  5
219
100
AcDbSymbolTableRecord
100
AcDbBlockTableRecord
  2
B02483BBC
340
0
102
{BLKREFS
331
220
102
}
  0
BLOCK_RECORD
  5
221
100
AcDbSymbolTableRecord
100
AcDbBlockTableRecord
  2
B02483D58
340
0
102
{BLKREFS
331
228
102
}
  0
BLOCK_RECORD
  5
229
100
AcDbSymbolTableRecord
100
AcDbBlockTableRecord
  2
B02483EF4
340
0
102
{BLKREFS
331
230
102
}
  0
BLOCK_RECORD
  5
231
100
AcDbSymbolTableRecord
100
AcDbBlockTableRecord
  2
B02484090
340
0
102
{BLKREFS
331
238
102
}
  0
BLOCK_RECORD
  5
239
100
AcDbSymbolTableRecord
100
AcDbBlockTableRecord
  2
B0248422C
340
0
102
{BLKREFS
331
240
102
}
  0
BLOCK_RECORD
  5
241
100
AcDbSymbolTableRecord
100
AcDbBlockTableRecord
  2
B024843C8
340
0
102
{BLKREFS
331
248
102
}
  0
BLOCK_RECORD
  5
249
100
AcDbSymbolTableRecord
100
AcDbBlockTableRecord
  2
B02484564
340
0
102
{BLKREFS
331
250
102
}
  0
BLOCK_RECORD
  5
251
100
AcDbSymbolTableRecord
100
AcDbBlockTableRecord
  2
B02484700
340
0
102
{BLKREFS
331
258
102
}
  0
BLOCK_RECORD
  5
259
100
AcDbSymbolTableRecord
100
AcDbBlockTableRecord
  2
B0248489C
340
0
102
{BLKREFS
331
260
102
}
  0
BLOCK_RECORD
  5
261
100
AcDbSymbolTableRecord
100
AcDbBlockTableRecord
  2
B02484A38
340
0
102
{BLKREFS
331
268
102
}
  0
BLOCK_RECORD
  5
269
100
AcDbSymbolTableRecord
100
AcDbBlockTableRecord
  2
B02484BD4
340
0
102
{BLKREFS
331
270
102
}
  0
BLOCK_RECORD
  5
271
100
AcDbSymbolTableRecord
100
AcDbBlockTableRecord
  2
B02484D70
340
0
102
{BLKREFS
331
278
102
}
  0
BLOCK_RECORD
  5
279
100
AcDbSymbolTableRecord
100
AcDbBlockTableRecord
  2
B02484F0C
340
0
102
{BLKREFS
331
280
102
}
  0
BLOCK_RECORD
  5
281
100
AcDbSymbolTableRecord
100
AcDbBlockTableRecord
  2
B024850A8
340
0
102
{BLKREFS
331
288
102
}
  0
BLOCK_RECORD
  5
289
100
AcDbSymbolTableRecord
100
AcDbBlockTableRecord
  2
B02485244
340
0
102
{BLKREFS
331
290
102
}
  0
BLOCK_RECORD
  5
291
100
AcDbSymbolTableRecord
100
AcDbBlockTableRecord
  2
B024853E0
340
0
102
{BLKREFS
331
298
102
}
  0
BLOCK_RECORD
  5
299
100
AcDbSymbolTableRecord
100
AcDbBlockTableRecord
  2
B02C46F38
340
0
102
{BLKREFS
331
2A0
102
}
  0
BLOCK_RECORD
  5
2A1
100
AcDbSymbolTableRecord
100
AcDbBlockTableRecord
  2
B02467830
340
0
102
{BLKREFS
331
2A8
102
}
  0
BLOCK_RECORD
  5
2A9
100
AcDbSymbolTableRecord
100
AcDbBlockTableRecord
  2
B024679CC
340
0
102
{BLKREFS
331
2B0
102
}
  0
BLOCK_RECORD
  5
2B1
100
AcDbSymbolTableRecord
100
AcDbBlockTableRecord
  2
B02467B68
340
0
102
{BLKREFS
331
2B8
102
}
  0
BLOCK_RECORD
  5
2B9
100
AcDbSymbolTableRecord
100
AcDbBlockTableRecord
  2
B02467D04
340
0
102
{BLKREFS
331
2C0
102
}
  0
BLOCK_RECORD
  5
2C1
100
AcDbSymbolTableRecord
100
AcDbBlockTableRecord
  2
B02467EA0
340
0
102
{BLKREFS
331
2C8
102
}
  0
BLOCK_RECORD
  5
2C9
100
AcDbSymbolTableRecord
100
AcDbBlockTableRecord
  2
B0246803C
340
0
102
{BLKREFS
331
2D0
102
}
  0
BLOCK_RECORD
  5
2D1
100
AcDbSymbolTableRecord
100
AcDbBlockTableRecord
  2
B024681D8
340
0
102
{BLKREFS
331
2D8
102
}
  0
BLOCK_RECORD
  5
2D9
100
AcDbSymbolTableRecord
100
AcDbBlockTableRecord
  2
B02468374
340
0
102
{BLKREFS
331
2E0
102
}
  0
BLOCK_RECORD
  5
2E1
100
AcDbSymbolTableRecord
100
AcDbBlockTableRecord
  2
B02468510
340
0
102
{BLKREFS
331
2E8
102
}
  0
BLOCK_RECORD
  5
2E9
100
AcDbSymbolTableRecord
100
AcDbBlockTableRecord
  2
B024686AC
340
0
102
{BLKREFS
331
2F0
102
}
  0
BLOCK_RECORD
  5
2F1
100
AcDbSymbolTableRecord
100
AcDbBlockTableRecord
  2
B02468848
340
0
102
{BLKREFS
331
2F8
102
}
  0
BLOCK_RECORD
  5
2F9
100
AcDbSymbolTableRecord
100
AcDbBlockTableRecord
  2
B024689E4
340
0
102
{BLKREFS
331
300
102
}
  0
BLOCK_RECORD
  5
301
100
AcDbSymbolTableRecord
100
AcDbBlockTableRecord
  2
B02468B80
340
0
102
{BLKREFS
331
308
102
}
  0
BLOCK_RECORD
  5
309
100
AcDbSymbolTableRecord
100
AcDbBlockTableRecord
  2
B02468D1C
340
0
102
{BLKREFS
331
310
102
}
  0
BLOCK_RECORD
  5
311
100
AcDbSymbolTableRecord
100
AcDbBlockTableRecord
  2
B02468EB8
340
0
102
{BLKREFS
331
318
102
}
  0
BLOCK_RECORD
  5
319
100
AcDbSymbolTableRecord
100
AcDbBlockTableRecord
  2
B02469054
340
0
102
{BLKREFS
331
320
102
}
  0
BLOCK_RECORD
  5
321
100
AcDbSymbolTableRecord
100
AcDbBlockTableRecord
  2
B024691F0
340
0
102
{BLKREFS
331
328
102
}
  0
BLOCK_RECORD
  5
329
100
AcDbSymbolTableRecord
100
AcDbBlockTableRecord
  2
B0246938C
340
0
102
{BLKREFS
331
330
102
}
  0
BLOCK_RECORD
  5
331
100
AcDbSymbolTableRecord
100
AcDbBlockTableRecord
  2
B02469528
340
0
102
{BLKREFS
331
338
102
}
  0
BLOCK_RECORD
  5
339
100
AcDbSymbolTableRecord
100
AcDbBlockTableRecord
  2
B024696C4
340
0
102
{BLKREFS
331
340
102
}
  0
BLOCK_RECORD
  5
341
100
AcDbSymbolTableRecord
100
AcDbBlockTableRecord
  2
B02469860
340
0
102
{BLKREFS
331
348
102
}
  0
BLOCK_RECORD
  5
349
100
AcDbSymbolTableRecord
100
AcDbBlockTableRecord
  2
B024699FC
340
0
102
{BLKREFS
331
350
102
}
  0
BLOCK_RECORD
  5
351
100
AcDbSymbolTableRecord
100
AcDbBlockTableRecord
  2
B02469B98
340
0
102
{BLKREFS
331
358
102
}
  0
BLOCK_RECORD
  5
359
100
AcDbSymbolTableRecord
100
AcDbBlockTableRecord
  2
B02469D34
340
0
102
{BLKREFS
331
360
102
}
  0
BLOCK_RECORD
  5
361
100
AcDbSymbolTableRecord
100
AcDbBlockTableRecord
  2
B02469ED0
340
0
102
{BLKREFS
331
368
102
}
  0
BLOCK_RECORD
  5
369
100
AcDbSymbolTableRecord
100
AcDbBlockTableRecord
  2
B0246A06C
340
0
102
{BLKREFS
331
370
102
}
  0
BLOCK_RECORD
  5
371
100
AcDbSymbolTableRecord
100
AcDbBlockTableRecord
  2
B0246A208
340
0
102
{BLKREFS
331
378
102
}
  0
BLOCK_RECORD
  5
379
100
AcDbSymbolTableRecord
100
AcDbBlockTableRecord
  2
B0246A3A4
340
0
102
{BLKREFS
331
380
102
}
  0
BLOCK_RECORD
  5
381
100
AcDbSymbolTableRecord
100
AcDbBlockTableRecord
  2
B02BC8154
340
0
102
{BLKREFS
331
388
102
}
  0
BLOCK_RECORD
  5
389
100
AcDbSymbolTableRecord
100
AcDbBlockTableRecord
  2
B02BC82F0
340
0
102
{BLKREFS
331
390
102
}
  0
BLOCK_RECORD
  5
391
100
AcDbSymbolTableRecord
100
AcDbBlockTableRecord
  2
B02BC848C
340
0
102
{BLKREFS
331
398
102
}
  0
BLOCK_RECORD
  5
399
100
AcDbSymbolTableRecord
100
AcDbBlockTableRecord
  2
B02BC8628
340
0
102
{BLKREFS
331
3A0
102
}
  0
BLOCK_RECORD
  5
3A1
100
AcDbSymbolTableRecord
100
AcDbBlockTableRecord
  2
B02BC87C4
340
0
102
{BLKREFS
331
3A8
102
}
  0
BLOCK_RECORD
  5
3A9
100
AcDbSymbolTableRecord
100
AcDbBlockTableRecord
  2
B02BC8960
340
0
102
{BLKREFS
331
3B0
102
}
  0
BLOCK_RECORD
  5
3B1
100
AcDbSymbolTableRecord
100
AcDbBlockTableRecord
  2
B02BC8AFC
340
0
102
{BLKREFS
331
3B8
102
}
  0
BLOCK_RECORD
  5
3B9
100
AcDbSymbolTableRecord
100
AcDbBlockTableRecord
  2
B02BC8C98
340
0
102
{BLKREFS
331
3C0
102
}
  0
BLOCK_RECORD
  5
3C1
100
AcDbSymbolTableRecord
100
AcDbBlockTableRecord
  2
B02BC8E34
340
0
102
{BLKREFS
331
3C8
102
}
  0
BLOCK_RECORD
  5
3C9
100
AcDbSymbolTableRecord
100
AcDbBlockTableRecord
  2
B02BC8FD0
340
0
102
{BLKREFS
331
3D0
102
}
  0
ENDTAB
  0
ENDSEC
  0
SECTION
  2
BLOCKS
  0
BLOCK
  5
D
100
AcDbEntity
  8
0
390
0
100
AcDbBlockBegin
  2
*MODEL_SPACE
 70
               0
 10
0.0
 20
0.0
 30
0.0
  3
*MODEL_SPACE
  1

  0
ENDBLK
  5
E
100
AcDbEntity
  8
0
390
0
100
AcDbBlockEnd
  0
BLOCK
  5
F
100
AcDbEntity
 67
               1
  8
0
390
0
100
AcDbBlockBegin
  2
*PAPER_SPACE
 70
               0
 10
0.0
 20
0.0
 30
0.0
  3
*PAPER_SPACE
  1

  0
ENDBLK
  5
10
100
AcDbEntity
 67
               1
  8
0
390
0
100
AcDbBlockEnd
  0
BLOCK
  5
5A
100
AcDbEntity
  8
0
390
0
100
AcDbBlockBegin
  2
B024984B4
 70
               0
 10
0.0
 20
0.0
 30
0.0
  3

  1

  0
LINE
  5
5B
100
AcDbEntity
  8
0
390
0
100
AcDbLine
 10
0.0
 20
121.7826456095938
 30
0.0
 11
0.0
 21
174.7826456095938
 31
0.0
  0
LINE
  5
5C
100
AcDbEntity
  8
0
390
0
100
AcDbLine
 10
26.5
 20
121.7826456095938
 30
0.0
 11
26.5
 21
174.7826456095938
 31
0.0
  0
LINE
  5
5D
100
AcDbEntity
  8
0
390
0
100
AcDbLine
 10
0.0
 20
174.7826456095938
 30
0.0
 11
26.5
 21
174.7826456095938
 31
0.0
  0
LINE
  5
5E
100
AcDbEntity
  8
0
390
0
100
AcDbLine
 10
0.0
 20
121.7826456095938
 30
0.0
 11
26.5
 21
121.7826456095938
 31
0.0
  0
ENDBLK
  5
5F
100
AcDbEntity
  8
0
390
0
100
AcDbBlockEnd
  0
BLOCK
  5
62
100
AcDbEntity
  8
0
390
0
100
AcDbBlockBegin
  2
B02498650
 70
               0
 10
0.0
 20
0.0
 30
0.0
  3

  1

  0
LINE
  5
63
100
AcDbEntity
  8
0
390
0
100
AcDbLine
 10
31.0
 20
121.7826456095938
 30
0.0
 11
31.0
 21
174.7826456095938
 31
0.0
  0
LINE
  5
64
100
AcDbEntity
  8
0
390
0
100
AcDbLine
 10
57.5
 20
121.7826456095938
 30
0.0
 11
57.5
 21
174.7826456095938
 31
0.0
  0
LINE
  5
65
100
AcDbEntity
  8
0
390
0
100
AcDbLine
 10
31.0
 20
174.7826456095938
 30
0.0
 11
57.5
 21
174.7826456095938
 31
0.0
  0
LINE
  5
66
100
AcDbEntity
  8
0
390
0
100
AcDbLine
 10
31.0
 20
121.7826456095938
 30
0.0
 11
57.5
 21
121.7826456095938
 31
0.0
  0
ENDBLK
  5
67
100
AcDbEntity
  8
0
390
0
100
AcDbBlockEnd
  0
BLOCK
  5
6A
100
AcDbEntity
  8
0
390
0
100
AcDbBlockBegin
  2
B024987EC
 70
               0
 10
0.0
 20
0.0
 30
0.0
  3

  1

  0
LINE
  5
6B
100
AcDbEntity
  8
0
390
0
100
AcDbLine
 10
62.0
 20
121.7826456095938
 30
0.0
 11
62.0
 21
174.7826456095938
 31
0.0
  0
LINE
  5
6C
100
AcDbEntity
  8
0
390
0
100
AcDbLine
 10
88.5
 20
121.7826456095938
 30
0.0
 11
88.5
 21
174.7826456095938
 31
0.0
  0
LINE
  5
6D
100
AcDbEntity
  8
0
390
0
100
AcDbLine
 10
62.0
 20
174.7826456095938
 30
0.0
 11
88.5
 21
174.7826456095938
 31
0.0
  0
LINE
  5
6E
100
AcDbEntity
  8
0
390
0
100
AcDbLine
 10
62.0
 20
121.7826456095938
 30
0.0
 11
88.5
 21
121.7826456095938
 31
0.0
  0
ENDBLK
  5
6F
100
AcDbEntity
  8
0
390
0
100
AcDbBlockEnd
  0
BLOCK
  5
72
100
AcDbEntity
  8
0
390
0
100
AcDbBlockBegin
  2
B02498988
 70
               0
 10
0.0
 20
0.0
 30
0.0
  3

  1

  0
LINE
  5
73
100
AcDbEntity
  8
0
390
0
100
AcDbLine
 10
93.0
 20
121.7826456095938
 30
0.0
 11
93.0
 21
174.7826456095938
 31
0.0
  0
LINE
  5
74
100
AcDbEntity
  8
0
390
0
100
AcDbLine
 10
119.5
 20
121.7826456095938
 30
0.0
 11
119.5
 21
174.7826456095938
 31
0.0
  0
LINE
  5
75
100
AcDbEntity
  8
0
390
0
100
AcDbLine
 10
93.0
 20
174.7826456095938
 30
0.0
 11
119.5
 21
174.7826456095938
 31
0.0
  0
LINE
  5
76
100
AcDbEntity
  8
0
390
0
100
AcDbLine
 10
93.0
 20
121.7826456095938
 30
0.0
 11
119.5
 21
121.7826456095938
 31
0.0
  0
ENDBLK
  5
77
100
AcDbEntity
  8
0
390
0
100
AcDbBlockEnd
  0
BLOCK
  5
7A
100
AcDbEntity
  8
0
390
0
100
AcDbBlockBegin
  2
B02498B24
 70
               0
 10
0.0
 20
0.0
 30
0.0
  3

  1

  0
LINE
  5
7B
100
AcDbEntity
  8
0
390
0
100
AcDbLine
 10
124.0
 20
121.7826456095938
 30
0.0
 11
124.0
 21
174.7826456095938
 31
0.0
  0
LINE
  5
7C
100
AcDbEntity
  8
0
390
0
100
AcDbLine
 10
150.5
 20
121.7826456095938
 30
0.0
 11
150.5
 21
174.7826456095938
 31
0.0
  0
LINE
  5
7D
100
AcDbEntity
  8
0
390
0
100
AcDbLine
 10
124.0
 20
174.7826456095938
 30
0.0
 11
150.5
 21
174.7826456095938
 31
0.0
  0
LINE
  5
7E
100
AcDbEntity
  8
0
390
0
100
AcDbLine
 10
124.0
 20
121.7826456095938
 30
0.0
 11
150.5
 21
121.7826456095938
 31
0.0
  0
ENDBLK
  5
7F
100
AcDbEntity
  8
0
390
0
100
AcDbBlockEnd
  0
BLOCK
  5
82
100
AcDbEntity
  8
0
390
0
100
AcDbBlockBegin
  2
B02498CC0
 70
               0
 10
0.0
 20
0.0
 30
0.0
  3

  1

  0
LINE
  5
83
100
AcDbEntity
  8
0
390
0
100
AcDbLine
 10
155.0
 20
121.7826456095938
 30
0.0
 11
155.0
 21
174.7826456095938
 31
0.0
  0
LINE
  5
84
100
AcDbEntity
  8
0
390
0
100
AcDbLine
 10
181.5
 20
121.7826456095938
 30
0.0
 11
181.5
 21
174.7826456095938
 31
0.0
  0
LINE
  5
85
100
AcDbEntity
  8
0
390
0
100
AcDbLine
 10
155.0
 20
174.7826456095938
 30
0.0
 11
181.5
 21
174.7826456095938
 31
0.0
  0
LINE
  5
86
100
AcDbEntity
  8
0
390
0
100
AcDbLine
 10
155.0
 20
121.7826456095938
 30
0.0
 11
181.5
 21
121.7826456095938
 31
0.0
  0
ENDBLK
  5
87
100
AcDbEntity
  8
0
390
0
100
AcDbBlockEnd
  0
BLOCK
  5
8A
100
AcDbEntity
  8
0
390
0
100
AcDbBlockBegin
  2
B02498E5C
 70
               0
 10
0.0
 20
0.0
 30
0.0
  3

  1

  0
LINE
  5
8B
100
AcDbEntity
  8
0
390
0
100
AcDbLine
 10
186.0
 20
121.7826456095938
 30
0.0
 11
186.0
 21
174.7826456095938
 31
0.0
  0
LINE
  5
8C
100
AcDbEntity
  8
0
390
0
100
AcDbLine
 10
212.5
 20
121.7826456095938
 30
0.0
 11
212.5
 21
174.7826456095938
 31
0.0
  0
LINE
  5
8D
100
AcDbEntity
  8
0
390
0
100
AcDbLine
 10
186.0
 20
174.7826456095938
 30
0.0
 11
212.5
 21
174.7826456095938
 31
0.0
  0
LINE
  5
8E
100
AcDbEntity
  8
0
390
0
100
AcDbLine
 10
186.0
 20
121.7826456095938
 30
0.0
 11
212.5
 21
121.7826456095938
 31
0.0
  0
ENDBLK
  5
8F
100
AcDbEntity
  8
0
390
0
100
AcDbBlockEnd
  0
BLOCK
  5
92
100
AcDbEntity
  8
0
390
0
100
AcDbBlockBegin
  2
B02498FF8
 70
               0
 10
0.0
 20
0.0
 30
0.0
  3

  1

  0
LINE
  5
93
100
AcDbEntity
  8
0
390
0
100
AcDbLine
 10
217.0
 20
121.7826456095938
 30
0.0
 11
217.0
 21
174.7826456095938
 31
0.0
  0
LINE
  5
94
100
AcDbEntity
  8
0
390
0
100
AcDbLine
 10
243.5
 20
121.7826456095938
 30
0.0
 11
243.5
 21
174.7826456095938
 31
0.0
  0
LINE
  5
95
100
AcDbEntity
  8
0
390
0
100
AcDbLine
 10
217.0
 20
174.7826456095938
 30
0.0
 11
243.5
 21
174.7826456095938
 31
0.0
  0
LINE
  5
96
100
AcDbEntity
  8
0
390
0
100
AcDbLine
 10
217.0
 20
121.7826456095938
 30
0.0
 11
243.5
 21
121.7826456095938
 31
0.0
  0
ENDBLK
  5
97
100
AcDbEntity
  8
0
390
0
100
AcDbBlockEnd
  0
BLOCK
  5
9A
100
AcDbEntity
  8
0
390
0
100
AcDbBlockBegin
  2
B02499194
 70
               0
 10
0.0
 20
0.0
 30
0.0
  3

  1

  0
LINE
  5
9B
100
AcDbEntity
  8
0
390
0
100
AcDbLine
 10
248.0
 20
121.7826456095938
 30
0.0
 11
248.0
 21
174.7826456095938
 31
0.0
  0
LINE
  5
9C
100
AcDbEntity
  8
0
390
0
100
AcDbLine
 10
274.5
 20
121.7826456095938
 30
0.0
 11
274.5
 21
174.7826456095938
 31
0.0
  0
LINE
  5
9D
100
AcDbEntity
  8
0
390
0
100
AcDbLine
 10
248.0
 20
174.7826456095938
 30
0.0
 11
274.5
 21
174.7826456095938
 31
0.0
  0
LINE
  5
9E
100
AcDbEntity
  8
0
390
0
100
AcDbLine
 10
248.0
 20
121.7826456095938
 30
0.0
 11
274.5
 21
121.7826456095938
 31
0.0
  0
ENDBLK
  5
9F
100
AcDbEntity
  8
0
390
0
100
AcDbBlockEnd
  0
BLOCK
  5
A2
100
AcDbEntity
  8
0
390
0
100
AcDbBlockBegin
  2
B02499330
 70
               0
 10
0.0
 20
0.0
 30
0.0
  3

  1

  0
LINE
  5
A3
100
AcDbEntity
  8
0
390
0
100
AcDbLine
 10
279.0
 20
121.7826456095938
 30
0.0
 11
279.0
 21
174.7826456095938
 31
0.0
  0
LINE
  5
A4
100
AcDbEntity
  8
0
390
0
100
AcDbLine
 10
305.5
 20
121.7826456095938
 30
0.0
 11
305.5
 21
174.7826456095938
 31
0.0
  0
LINE
  5
A5
100
AcDbEntity
  8
0
390
0
100
AcDbLine
 10
279.0
 20
174.7826456095938
 30
0.0
 11
305.5
 21
174.7826456095938
 31
0.0
  0
LINE
  5
A6
100
AcDbEntity
  8
0
390
0
100
AcDbLine
 10
279.0
 20
121.7826456095938
 30
0.0
 11
305.5
 21
121.7826456095938
 31
0.0
  0
ENDBLK
  5
A7
100
AcDbEntity
  8
0
390
0
100
AcDbBlockEnd
  0
BLOCK
  5
AA
100
AcDbEntity
  8
0
390
0
100
AcDbBlockBegin
  2
B024994CC
 70
               0
 10
0.0
 20
0.0
 30
0.0
  3

  1

  0
LINE
  5
AB
100
AcDbEntity
  8
0
390
0
100
AcDbLine
 10
310.0
 20
121.7826456095938
 30
0.0
 11
310.0
 21
174.7826456095938
 31
0.0
  0
LINE
  5
AC
100
AcDbEntity
  8
0
390
0
100
AcDbLine
 10
336.5
 20
121.7826456095938
 30
0.0
 11
336.5
 21
174.7826456095938
 31
0.0
  0
LINE
  5
AD
100
AcDbEntity
  8
0
390
0
100
AcDbLine
 10
310.0
 20
174.7826456095938
 30
0.0
 11
336.5
 21
174.7826456095938
 31
0.0
  0
LINE
  5
AE
100
AcDbEntity
  8
0
390
0
100
AcDbLine
 10
310.0
 20
121.7826456095938
 30
0.0
 11
336.5
 21
121.7826456095938
 31
0.0
  0
ENDBLK
  5
AF
100
AcDbEntity
  8
0
390
0
100
AcDbBlockEnd
  0
BLOCK
  5
B2
100
AcDbEntity
  8
0
390
0
100
AcDbBlockBegin
  2
B02499668
 70
               0
 10
0.0
 20
0.0
 30
0.0
  3

  1

  0
LINE
  5
B3
100
AcDbEntity
  8
0
390
0
100
AcDbLine
 10
341.0
 20
121.7826456095938
 30
0.0
 11
341.0
 21
174.7826456095938
 31
0.0
  0
LINE
  5
B4
100
AcDbEntity
  8
0
390
0
100
AcDbLine
 10
367.5
 20
121.7826456095938
 30
0.0
 11
367.5
 21
174.7826456095938
 31
0.0
  0
LINE
  5
B5
100
AcDbEntity
  8
0
390
0
100
AcDbLine
 10
341.0
 20
174.7826456095938
 30
0.0
 11
367.5
 21
174.7826456095938
 31
0.0
  0
LINE
  5
B6
100
AcDbEntity
  8
0
390
0
100
AcDbLine
 10
341.0
 20
121.7826456095938
 30
0.0
 11
367.5
 21
121.7826456095938
 31
0.0
  0
ENDBLK
  5
B7
100
AcDbEntity
  8
0
390
0
100
AcDbBlockEnd
  0
BLOCK
  5
BA
100
AcDbEntity
  8
0
390
0
100
AcDbBlockBegin
  2
B02499804
 70
               0
 10
0.0
 20
0.0
 30
0.0
  3

  1

  0
LINE
  5
BB
100
AcDbEntity
  8
0
390
0
100
AcDbLine
 10
372.0
 20
121.7826456095938
 30
0.0
 11
372.0
 21
174.7826456095938
 31
0.0
  0
LINE
  5
BC
100
AcDbEntity
  8
0
390
0
100
AcDbLine
 10
398.5
 20
121.7826456095938
 30
0.0
 11
398.5
 21
174.7826456095938
 31
0.0
  0
LINE
  5
BD
100
AcDbEntity
  8
0
390
0
100
AcDbLine
 10
372.0
 20
174.7826456095938
 30
0.0
 11
398.5
 21
174.7826456095938
 31
0.0
  0
LINE
  5
BE
100
AcDbEntity
  8
0
390
0
100
AcDbLine
 10
372.0
 20
121.7826456095938
 30
0.0
 11
398.5
 21
121.7826456095938
 31
0.0
  0
ENDBLK
  5
BF
100
AcDbEntity
  8
0
390
0
100
AcDbBlockEnd
  0
BLOCK
  5
C2
100
AcDbEntity
  8
0
390
0
100
AcDbBlockBegin
  2
B02BC0138
 70
               0
 10
0.0
 20
0.0
 30
0.0
  3

  1

  0
LINE
  5
C3
100
AcDbEntity
  8
0
390
0
100
AcDbLine
 10
403.0
 20
121.7826456095938
 30
0.0
 11
403.0
 21
174.7826456095938
 31
0.0
  0
LINE
  5
C4
100
AcDbEntity
  8
0
390
0
100
AcDbLine
 10
429.5
 20
121.7826456095938
 30
0.0
 11
429.5
 21
174.7826456095938
 31
0.0
  0
LINE
  5
C5
100
AcDbEntity
  8
0
390
0
100
AcDbLine
 10
403.0
 20
174.7826456095938
 30
0.0
 11
429.5
 21
174.7826456095938
 31
0.0
  0
LINE
  5
C6
100
AcDbEntity
  8
0
390
0
100
AcDbLine
 10
403.0
 20
121.7826456095938
 30
0.0
 11
429.5
 21
121.7826456095938
 31
0.0
  0
ENDBLK
  5
C7
100
AcDbEntity
  8
0
390
0
100
AcDbBlockEnd
  0
BLOCK
  5
CA
100
AcDbEntity
  8
0
390
0
100
AcDbBlockBegin
  2
B02BC02D4
 70
               0
 10
0.0
 20
0.0
 30
0.0
  3

  1

  0
LINE
  5
CB
100
AcDbEntity
  8
0
390
0
100
AcDbLine
 10
434.0
 20
121.7826456095938
 30
0.0
 11
434.0
 21
174.7826456095938
 31
0.0
  0
LINE
  5
CC
100
AcDbEntity
  8
0
390
0
100
AcDbLine
 10
460.5
 20
121.7826456095938
 30
0.0
 11
460.5
 21
174.7826456095938
 31
0.0
  0
LINE
  5
CD
100
AcDbEntity
  8
0
390
0
100
AcDbLine
 10
434.0
 20
174.7826456095938
 30
0.0
 11
460.5
 21
174.7826456095938
 31
0.0
  0
LINE
  5
CE
100
AcDbEntity
  8
0
390
0
100
AcDbLine
 10
434.0
 20
121.7826456095938
 30
0.0
 11
460.5
 21
121.7826456095938
 31
0.0
  0
ENDBLK
  5
CF
100
AcDbEntity
  8
0
390
0
100
AcDbBlockEnd
  0
BLOCK
  5
D2
100
AcDbEntity
  8
0
390
0
100
AcDbBlockBegin
  2
B02BC0470
 70
               0
 10
0.0
 20
0.0
 30
0.0
  3

  1

  0
LINE
  5
D3
100
AcDbEntity
  8
0
390
0
100
AcDbLine
 10
465.0
 20
121.7826456095938
 30
0.0
 11
465.0
 21
174.7826456095938
 31
0.0
  0
LINE
  5
D4
100
AcDbEntity
  8
0
390
0
100
AcDbLine
 10
491.5
 20
121.7826456095938
 30
0.0
 11
491.5
 21
174.7826456095938
 31
0.0
  0
LINE
  5
D5
100
AcDbEntity
  8
0
390
0
100
AcDbLine
 10
465.0
 20
174.7826456095938
 30
0.0
 11
491.5
 21
174.7826456095938
 31
0.0
  0
LINE
  5
D6
100
AcDbEntity
  8
0
390
0
100
AcDbLine
 10
465.0
 20
121.7826456095938
 30
0.0
 11
491.5
 21
121.7826456095938
 31
0.0
  0
ENDBLK
  5
D7
100
AcDbEntity
  8
0
390
0
100
AcDbBlockEnd
  0
BLOCK
  5
DA
100
AcDbEntity
  8
0
390
0
100
AcDbBlockBegin
  2
B02BC060C
 70
               0
 10
0.0
 20
0.0
 30
0.0
  3

  1

  0
LINE
  5
DB
100
AcDbEntity
  8
0
390
0
100
AcDbLine
 10
496.0
 20
121.7826456095938
 30
0.0
 11
496.0
 21
174.7826456095938
 31
0.0
  0
LINE
  5
DC
100
AcDbEntity
  8
0
390
0
100
AcDbLine
 10
522.5
 20
121.7826456095938
 30
0.0
 11
522.5
 21
174.7826456095938
 31
0.0
  0
LINE
  5
DD
100
AcDbEntity
  8
0
390
0
100
AcDbLine
 10
496.0
 20
174.7826456095938
 30
0.0
 11
522.5
 21
174.7826456095938
 31
0.0
  0
LINE
  5
DE
100
AcDbEntity
  8
0
390
0
100
AcDbLine
 10
496.0
 20
121.7826456095938
 30
0.0
 11
522.5
 21
121.7826456095938
 31
0.0
  0
ENDBLK
  5
DF
100
AcDbEntity
  8
0
390
0
100
AcDbBlockEnd
  0
BLOCK
  5
E2
100
AcDbEntity
  8
0
390
0
100
AcDbBlockBegin
  2
B02BC07A8
 70
               0
 10
0.0
 20
0.0
 30
0.0
  3

  1

  0
LINE
  5
E3
100
AcDbEntity
  8
0
390
0
100
AcDbLine
 10
527.0
 20
121.7826456095938
 30
0.0
 11
527.0
 21
174.7826456095938
 31
0.0
  0
LINE
  5
E4
100
AcDbEntity
  8
0
390
0
100
AcDbLine
 10
553.5
 20
121.7826456095938
 30
0.0
 11
553.5
 21
174.7826456095938
 31
0.0
  0
LINE
  5
E5
100
AcDbEntity
  8
0
390
0
100
AcDbLine
 10
527.0
 20
174.7826456095938
 30
0.0
 11
553.5
 21
174.7826456095938
 31
0.0
  0
LINE
  5
E6
100
AcDbEntity
  8
0
390
0
100
AcDbLine
 10
527.0
 20
121.7826456095938
 30
0.0
 11
553.5
 21
121.7826456095938
 31
0.0
  0
ENDBLK
  5
E7
100
AcDbEntity
  8
0
390
0
100
AcDbBlockEnd
  0
BLOCK
  5
EA
100
AcDbEntity
  8
0
390
0
100
AcDbBlockBegin
  2
B02BC0944
 70
               0
 10
0.0
 20
0.0
 30
0.0
  3

  1

  0
LINE
  5
EB
100
AcDbEntity
  8
0
390
0
100
AcDbLine
 10
558.0
 20
121.7826456095938
 30
0.0
 11
558.0
 21
174.7826456095938
 31
0.0
  0
LINE
  5
EC
100
AcDbEntity
  8
0
390
0
100
AcDbLine
 10
584.5
 20
121.7826456095938
 30
0.0
 11
584.5
 21
174.7826456095938
 31
0.0
  0
LINE
  5
ED
100
AcDbEntity
  8
0
390
0
100
AcDbLine
 10
558.0
 20
174.7826456095938
 30
0.0
 11
584.5
 21
174.7826456095938
 31
0.0
  0
LINE
  5
EE
100
AcDbEntity
  8
0
390
0
100
AcDbLine
 10
558.0
 20
121.7826456095938
 30
0.0
 11
584.5
 21
121.7826456095938
 31
0.0
  0
ENDBLK
  5
EF
100
AcDbEntity
  8
0
390
0
100
AcDbBlockEnd
  0
BLOCK
  5
F2
100
AcDbEntity
  8
0
390
0
100
AcDbBlockBegin
  2
B02BC0AE0
 70
               0
 10
0.0
 20
0.0
 30
0.0
  3

  1

  0
LINE
  5
F3
100
AcDbEntity
  8
0
390
0
100
AcDbLine
 10
589.0
 20
121.7826456095938
 30
0.0
 11
589.0
 21
174.7826456095938
 31
0.0
  0
LINE
  5
F4
100
AcDbEntity
  8
0
390
0
100
AcDbLine
 10
615.5
 20
121.7826456095938
 30
0.0
 11
615.5
 21
174.7826456095938
 31
0.0
  0
LINE
  5
F5
100
AcDbEntity
  8
0
390
0
100
AcDbLine
 10
589.0
 20
174.7826456095938
 30
0.0
 11
615.5
 21
174.7826456095938
 31
0.0
  0
LINE
  5
F6
100
AcDbEntity
  8
0
390
0
100
AcDbLine
 10
589.0
 20
121.7826456095938
 30
0.0
 11
615.5
 21
121.7826456095938
 31
0.0
  0
ENDBLK
  5
F7
100
AcDbEntity
  8
0
390
0
100
AcDbBlockEnd
  0
BLOCK
  5
FA
100
AcDbEntity
  8
0
390
0
100
AcDbBlockBegin
  2
B02BC0C7C
 70
               0
 10
0.0
 20
0.0
 30
0.0
  3

  1

  0
LINE
  5
FB
100
AcDbEntity
  8
0
390
0
100
AcDbLine
 10
620.0
 20
121.7826456095938
 30
0.0
 11
620.0
 21
174.7826456095938
 31
0.0
  0
LINE
  5
FC
100
AcDbEntity
  8
0
390
0
100
AcDbLine
 10
646.5
 20
121.7826456095938
 30
0.0
 11
646.5
 21
174.7826456095938
 31
0.0
  0
LINE
  5
FD
100
AcDbEntity
  8
0
390
0
100
AcDbLine
 10
620.0
 20
174.7826456095938
 30
0.0
 11
646.5
 21
174.7826456095938
 31
0.0
  0
LINE
  5
FE
100
AcDbEntity
  8
0
390
0
100
AcDbLine
 10
620.0
 20
121.7826456095938
 30
0.0
 11
646.5
 21
121.7826456095938
 31
0.0
  0
ENDBLK
  5
FF
100
AcDbEntity
  8
0
390
0
100
AcDbBlockEnd
  0
BLOCK
  5
102
100
AcDbEntity
  8
0
390
0
100
AcDbBlockBegin
  2
B0249ABEC
 70
               0
 10
0.0
 20
0.0
 30
0.0
  3

  1

  0
LINE
  5
103
100
AcDbEntity
  8
0
390
0
100
AcDbLine
 10
651.0
 20
121.7826456095938
 30
0.0
 11
651.0
 21
174.7826456095938
 31
0.0
  0
LINE
  5
104
100
AcDbEntity
  8
0
390
0
100
AcDbLine
 10
677.5
 20
121.7826456095938
 30
0.0
 11
677.5
 21
174.7826456095938
 31
0.0
  0
LINE
  5
105
100
AcDbEntity
  8
0
390
0
100
AcDbLine
 10
651.0
 20
174.7826456095938
 30
0.0
 11
677.5
 21
174.7826456095938
 31
0.0
  0
LINE
  5
106
100
AcDbEntity
  8
0
390
0
100
AcDbLine
 10
651.0
 20
121.7826456095938
 30
0.0
 11
677.5
 21
121.7826456095938
 31
0.0
  0
ENDBLK
  5
107
100
AcDbEntity
  8
0
390
0
100
AcDbBlockEnd
  0
BLOCK
  5
10A
100
AcDbEntity
  8
0
390
0
100
AcDbBlockBegin
  2
B0249AD88
 70
               0
 10
0.0
 20
0.0
 30
0.0
  3

  1

  0
LINE
  5
10B
100
AcDbEntity
  8
0
390
0
100
AcDbLine
 10
682.0
 20
121.7826456095938
 30
0.0
 11
682.0
 21
174.7826456095938
 31
0.0
  0
LINE
  5
10C
100
AcDbEntity
  8
0
390
0
100
AcDbLine
 10
708.5
 20
121.7826456095938
 30
0.0
 11
708.5
 21
174.7826456095938
 31
0.0
  0
LINE
  5
10D
100
AcDbEntity
  8
0
390
0
100
AcDbLine
 10
682.0
 20
174.7826456095938
 30
0.0
 11
708.5
 21
174.7826456095938
 31
0.0
  0
LINE
  5
10E
100
AcDbEntity
  8
0
390
0
100
AcDbLine
 10
682.0
 20
121.7826456095938
 30
0.0
 11
708.5
 21
121.7826456095938
 31
0.0
  0
ENDBLK
  5
10F
100
AcDbEntity
  8
0
390
0
100
AcDbBlockEnd
  0
BLOCK
  5
112
100
AcDbEntity
  8
0
390
0
100
AcDbBlockBegin
  2
B0249AF24
 70
               0
 10
0.0
 20
0.0
 30
0.0
  3

  1

  0
LINE
  5
113
100
AcDbEntity
  8
0
390
0
100
AcDbLine
 10
713.0
 20
121.7826456095938
 30
0.0
 11
713.0
 21
174.7826456095938
 31
0.0
  0
LINE
  5
114
100
AcDbEntity
  8
0
390
0
100
AcDbLine
 10
739.5
 20
121.7826456095938
 30
0.0
 11
739.5
 21
174.7826456095938
 31
0.0
  0
LINE
  5
115
100
AcDbEntity
  8
0
390
0
100
AcDbLine
 10
713.0
 20
174.7826456095938
 30
0.0
 11
739.5
 21
174.7826456095938
 31
0.0
  0
LINE
  5
116
100
AcDbEntity
  8
0
390
0
100
AcDbLine
 10
713.0
 20
121.7826456095938
 30
0.0
 11
739.5
 21
121.7826456095938
 31
0.0
  0
ENDBLK
  5
117
100
AcDbEntity
  8
0
390
0
100
AcDbBlockEnd
  0
BLOCK
  5
11A
100
AcDbEntity
  8
0
390
0
100
AcDbBlockBegin
  2
B0247A3E8
 70
               0
 10
0.0
 20
0.0
 30
0.0
  3

  1

  0
LINE
  5
11B
100
AcDbEntity
  8
0
390
0
100
AcDbLine
 10
744.0
 20
121.7826456095938
 30
0.0
 11
744.0
 21
174.7826456095938
 31
0.0
  0
LINE
  5
11C
100
AcDbEntity
  8
0
390
0
100
AcDbLine
 10
770.5
 20
121.7826456095938
 30
0.0
 11
770.5
 21
174.7826456095938
 31
0.0
  0
LINE
  5
11D
100
AcDbEntity
  8
0
390
0
100
AcDbLine
 10
744.0
 20
174.7826456095938
 30
0.0
 11
770.5
 21
174.7826456095938
 31
0.0
  0
LINE
  5
11E
100
AcDbEntity
  8
0
390
0
100
AcDbLine
 10
744.0
 20
121.7826456095938
 30
0.0
 11
770.5
 21
121.7826456095938
 31
0.0
  0
ENDBLK
  5
11F
100
AcDbEntity
  8
0
390
0
100
AcDbBlockEnd
  0
BLOCK
  5
122
100
AcDbEntity
  8
0
390
0
100
AcDbBlockBegin
  2
B0247A584
 70
               0
 10
0.0
 20
0.0
 30
0.0
  3

  1

  0
LINE
  5
123
100
AcDbEntity
  8
0
390
0
100
AcDbLine
 10
775.0
 20
121.7826456095938
 30
0.0
 11
775.0
 21
174.7826456095938
 31
0.0
  0
LINE
  5
124
100
AcDbEntity
  8
0
390
0
100
AcDbLine
 10
801.5
 20
121.7826456095938
 30
0.0
 11
801.5
 21
174.7826456095938
 31
0.0
  0
LINE
  5
125
100
AcDbEntity
  8
0
390
0
100
AcDbLine
 10
775.0
 20
174.7826456095938
 30
0.0
 11
801.5
 21
174.7826456095938
 31
0.0
  0
LINE
  5
126
100
AcDbEntity
  8
0
390
0
100
AcDbLine
 10
775.0
 20
121.7826456095938
 30
0.0
 11
801.5
 21
121.7826456095938
 31
0.0
  0
ENDBLK
  5
127
100
AcDbEntity
  8
0
390
0
100
AcDbBlockEnd
  0
BLOCK
  5
12A
100
AcDbEntity
  8
0
390
0
100
AcDbBlockBegin
  2
B0247A720
 70
               0
 10
0.0
 20
0.0
 30
0.0
  3

  1

  0
LINE
  5
12B
100
AcDbEntity
  8
0
390
0
100
AcDbLine
 10
806.0
 20
121.7826456095938
 30
0.0
 11
806.0
 21
174.7826456095938
 31
0.0
  0
LINE
  5
12C
100
AcDbEntity
  8
0
390
0
100
AcDbLine
 10
832.5
 20
121.7826456095938
 30
0.0
 11
832.5
 21
174.7826456095938
 31
0.0
  0
LINE
  5
12D
100
AcDbEntity
  8
0
390
0
100
AcDbLine
 10
806.0
 20
174.7826456095938
 30
0.0
 11
832.5
 21
174.7826456095938
 31
0.0
  0
LINE
  5
12E
100
AcDbEntity
  8
0
390
0
100
AcDbLine
 10
806.0
 20
121.7826456095938
 30
0.0
 11
832.5
 21
121.7826456095938
 31
0.0
  0
ENDBLK
  5
12F
100
AcDbEntity
  8
0
390
0
100
AcDbBlockEnd
  0
BLOCK
  5
132
100
AcDbEntity
  8
0
390
0
100
AcDbBlockBegin
  2
B0247A8BC
 70
               0
 10
0.0
 20
0.0
 30
0.0
  3

  1

  0
LINE
  5
133
100
AcDbEntity
  8
0
390
0
100
AcDbLine
 10
837.0
 20
121.7826456095938
 30
0.0
 11
837.0
 21
174.7826456095938
 31
0.0
  0
LINE
  5
134
100
AcDbEntity
  8
0
390
0
100
AcDbLine
 10
863.5
 20
121.7826456095938
 30
0.0
 11
863.5
 21
174.7826456095938
 31
0.0
  0
LINE
  5
135
100
AcDbEntity
  8
0
390
0
100
AcDbLine
 10
837.0
 20
174.7826456095938
 30
0.0
 11
863.5
 21
174.7826456095938
 31
0.0
  0
LINE
  5
136
100
AcDbEntity
  8
0
390
0
100
AcDbLine
 10
837.0
 20
121.7826456095938
 30
0.0
 11
863.5
 21
121.7826456095938
 31
0.0
  0
ENDBLK
  5
137
100
AcDbEntity
  8
0
390
0
100
AcDbBlockEnd
  0
BLOCK
  5
13A
100
AcDbEntity
  8
0
390
0
100
AcDbBlockBegin
  2
B0247AA58
 70
               0
 10
0.0
 20
0.0
 30
0.0
  3

  1

  0
LINE
  5
13B
100
AcDbEntity
  8
0
390
0
100
AcDbLine
 10
868.0
 20
121.7826456095938
 30
0.0
 11
868.0
 21
174.7826456095938
 31
0.0
  0
LINE
  5
13C
100
AcDbEntity
  8
0
390
0
100
AcDbLine
 10
894.5
 20
121.7826456095938
 30
0.0
 11
894.5
 21
174.7826456095938
 31
0.0
  0
LINE
  5
13D
100
AcDbEntity
  8
0
390
0
100
AcDbLine
 10
868.0
 20
174.7826456095938
 30
0.0
 11
894.5
 21
174.7826456095938
 31
0.0
  0
LINE
  5
13E
100
AcDbEntity
  8
0
390
0
100
AcDbLine
 10
868.0
 20
121.7826456095938
 30
0.0
 11
894.5
 21
121.7826456095938
 31
0.0
  0
ENDBLK
  5
13F
100
AcDbEntity
  8
0
390
0
100
AcDbBlockEnd
  0
BLOCK
  5
142
100
AcDbEntity
  8
0
390
0
100
AcDbBlockBegin
  2
B0247ABF4
 70
               0
 10
0.0
 20
0.0
 30
0.0
  3

  1

  0
LINE
  5
143
100
AcDbEntity
  8
0
390
0
100
AcDbLine
 10
899.0
 20
121.7826456095938
 30
0.0
 11
899.0
 21
174.7826456095938
 31
0.0
  0
LINE
  5
144
100
AcDbEntity
  8
0
390
0
100
AcDbLine
 10
925.5
 20
121.7826456095938
 30
0.0
 11
925.5
 21
174.7826456095938
 31
0.0
  0
LINE
  5
145
100
AcDbEntity
  8
0
390
0
100
AcDbLine
 10
899.0
 20
174.7826456095938
 30
0.0
 11
925.5
 21
174.7826456095938
 31
0.0
  0
LINE
  5
146
100
AcDbEntity
  8
0
390
0
100
AcDbLine
 10
899.0
 20
121.7826456095938
 30
0.0
 11
925.5
 21
121.7826456095938
 31
0.0
  0
ENDBLK
  5
147
100
AcDbEntity
  8
0
390
0
100
AcDbBlockEnd
  0
BLOCK
  5
14A
100
AcDbEntity
  8
0
390
0
100
AcDbBlockBegin
  2
B0247AD90
 70
               0
 10
0.0
 20
0.0
 30
0.0
  3

  1

  0
LINE
  5
14B
100
AcDbEntity
  8
0
390
0
100
AcDbLine
 10
930.0
 20
121.7826456095938
 30
0.0
 11
930.0
 21
174.7826456095938
 31
0.0
  0
LINE
  5
14C
100
AcDbEntity
  8
0
390
0
100
AcDbLine
 10
956.5
 20
121.7826456095938
 30
0.0
 11
956.5
 21
174.7826456095938
 31
0.0
  0
LINE
  5
14D
100
AcDbEntity
  8
0
390
0
100
AcDbLine
 10
930.0
 20
174.7826456095938
 30
0.0
 11
956.5
 21
174.7826456095938
 31
0.0
  0
LINE
  5
14E
100
AcDbEntity
  8
0
390
0
100
AcDbLine
 10
930.0
 20
121.7826456095938
 30
0.0
 11
956.5
 21
121.7826456095938
 31
0.0
  0
ENDBLK
  5
14F
100
AcDbEntity
  8
0
390
0
100
AcDbBlockEnd
  0
BLOCK
  5
152
100
AcDbEntity
  8
0
390
0
100
AcDbBlockBegin
  2
B0247AF2C
 70
               0
 10
0.0
 20
0.0
 30
0.0
  3

  1

  0
LINE
  5
153
100
AcDbEntity
  8
0
390
0
100
AcDbLine
 10
961.0
 20
121.7826456095938
 30
0.0
 11
961.0
 21
174.7826456095938
 31
0.0
  0
LINE
  5
154
100
AcDbEntity
  8
0
390
0
100
AcDbLine
 10
987.5
 20
121.7826456095938
 30
0.0
 11
987.5
 21
174.7826456095938
 31
0.0
  0
LINE
  5
155
100
AcDbEntity
  8
0
390
0
100
AcDbLine
 10
961.0
 20
174.7826456095938
 30
0.0
 11
987.5
 21
174.7826456095938
 31
0.0
  0
LINE
  5
156
100
AcDbEntity
  8
0
390
0
100
AcDbLine
 10
961.0
 20
121.7826456095938
 30
0.0
 11
987.5
 21
121.7826456095938
 31
0.0
  0
ENDBLK
  5
157
100
AcDbEntity
  8
0
390
0
100
AcDbBlockEnd
  0
BLOCK
  5
15A
100
AcDbEntity
  8
0
390
0
100
AcDbBlockBegin
  2
B0247B0C8
 70
               0
 10
0.0
 20
0.0
 30
0.0
  3

  1

  0
LINE
  5
15B
100
AcDbEntity
  8
0
390
0
100
AcDbLine
 10
961.0
 20
111.86204023211801
 30
0.0
 11
961.0
 21
58.862040232118005
 31
0.0
  0
LINE
  5
15C
100
AcDbEntity
  8
0
390
0
100
AcDbLine
 10
987.5
 20
111.86204023211801
 30
0.0
 11
987.5
 21
58.862040232118005
 31
0.0
  0
LINE
  5
15D
100
AcDbEntity
  8
0
390
0
100
AcDbLine
 10
961.0
 20
58.862040232118005
 30
0.0
 11
987.5
 21
58.862040232118005
 31
0.0
  0
LINE
  5
15E
100
AcDbEntity
  8
0
390
0
100
AcDbLine
 10
961.0
 20
111.86204023211801
 30
0.0
 11
987.5
 21
111.86204023211801
 31
0.0
  0
ENDBLK
  5
15F
100
AcDbEntity
  8
0
390
0
100
AcDbBlockEnd
  0
BLOCK
  5
162
100
AcDbEntity
  8
0
390
0
100
AcDbBlockBegin
  2
B02C1EB4C
 70
               0
 10
0.0
 20
0.0
 30
0.0
  3

  1

  0
LINE
  5
163
100
AcDbEntity
  8
0
390
0
100
AcDbLine
 10
930.0
 20
111.86204023211801
 30
0.0
 11
930.0
 21
58.862040232118005
 31
0.0
  0
LINE
  5
164
100
AcDbEntity
  8
0
390
0
100
AcDbLine
 10
956.5
 20
111.86204023211801
 30
0.0
 11
956.5
 21
58.862040232118005
 31
0.0
  0
LINE
  5
165
100
AcDbEntity
  8
0
390
0
100
AcDbLine
 10
930.0
 20
58.862040232118005
 30
0.0
 11
956.5
 21
58.862040232118005
 31
0.0
  0
LINE
  5
166
100
AcDbEntity
  8
0
390
0
100
AcDbLine
 10
930.0
 20
111.86204023211801
 30
0.0
 11
956.5
 21
111.86204023211801
 31
0.0
  0
ENDBLK
  5
167
100
AcDbEntity
  8
0
390
0
100
AcDbBlockEnd
  0
BLOCK
  5
16A
100
AcDbEntity
  8
0
390
0
100
AcDbBlockBegin
  2
B02C1ECE8
 70
               0
 10
0.0
 20
0.0
 30
0.0
  3

  1

  0
LINE
  5
16B
100
AcDbEntity
  8
0
390
0
100
AcDbLine
 10
899.0
 20
111.86204023211801
 30
0.0
 11
899.0
 21
58.862040232118005
 31
0.0
  0
LINE
  5
16C
100
AcDbEntity
  8
0
390
0
100
AcDbLine
 10
925.5
 20
111.86204023211801
 30
0.0
 11
925.5
 21
58.862040232118005
 31
0.0
  0
LINE
  5
16D
100
AcDbEntity
  8
0
390
0
100
AcDbLine
 10
899.0
 20
58.862040232118005
 30
0.0
 11
925.5
 21
58.862040232118005
 31
0.0
  0
LINE
  5
16E
100
AcDbEntity
  8
0
390
0
100
AcDbLine
 10
899.0
 20
111.86204023211801
 30
0.0
 11
925.5
 21
111.86204023211801
 31
0.0
  0
ENDBLK
  5
16F
100
AcDbEntity
  8
0
390
0
100
AcDbBlockEnd
  0
BLOCK
  5
172
100
AcDbEntity
  8
0
390
0
100
AcDbBlockBegin
  2
B02C1EE84
 70
               0
 10
0.0
 20
0.0
 30
0.0
  3

  1

  0
LINE
  5
173
100
AcDbEntity
  8
0
390
0
100
AcDbLine
 10
868.0
 20
111.86204023211801
 30
0.0
 11
868.0
 21
58.862040232118005
 31
0.0
  0
LINE
  5
174
100
AcDbEntity
  8
0
390
0
100
AcDbLine
 10
894.5
 20
111.86204023211801
 30
0.0
 11
894.5
 21
58.862040232118005
 31
0.0
  0
LINE
  5
175
100
AcDbEntity
  8
0
390
0
100
AcDbLine
 10
868.0
 20
58.862040232118005
 30
0.0
 11
894.5
 21
58.862040232118005
 31
0.0
  0
LINE
  5
176
100
AcDbEntity
  8
0
390
0
100
AcDbLine
 10
868.0
 20
111.86204023211801
 30
0.0
 11
894.5
 21
111.86204023211801
 31
0.0
  0
ENDBLK
  5
177
100
AcDbEntity
  8
0
390
0
100
AcDbBlockEnd
  0
BLOCK
  5
17A
100
AcDbEntity
  8
0
390
0
100
AcDbBlockBegin
  2
B02C3C018
 70
               0
 10
0.0
 20
0.0
 30
0.0
  3

  1

  0
LINE
  5
17B
100
AcDbEntity
  8
0
390
0
100
AcDbLine
 10
837.0
 20
111.86204023211801
 30
0.0
 11
837.0
 21
58.862040232118005
 31
0.0
  0
LINE
  5
17C
100
AcDbEntity
  8
0
390
0
100
AcDbLine
 10
863.5
 20
111.86204023211801
 30
0.0
 11
863.5
 21
58.862040232118005
 31
0.0
  0
LINE
  5
17D
100
AcDbEntity
  8
0
390
0
100
AcDbLine
 10
837.0
 20
58.862040232118005
 30
0.0
 11
863.5
 21
58.862040232118005
 31
0.0
  0
LINE
  5
17E
100
AcDbEntity
  8
0
390
0
100
AcDbLine
 10
837.0
 20
111.86204023211801
 30
0.0
 11
863.5
 21
111.86204023211801
 31
0.0
  0
ENDBLK
  5
17F
100
AcDbEntity
  8
0
390
0
100
AcDbBlockEnd
  0
BLOCK
  5
182
100
AcDbEntity
  8
0
390
0
100
AcDbBlockBegin
  2
B02486608
 70
               0
 10
0.0
 20
0.0
 30
0.0
  3

  1

  0
LINE
  5
183
100
AcDbEntity
  8
0
390
0
100
AcDbLine
 10
806.0
 20
111.86204023211801
 30
0.0
 11
806.0
 21
58.862040232118005
 31
0.0
  0
LINE
  5
184
100
AcDbEntity
  8
0
390
0
100
AcDbLine
 10
832.5
 20
111.86204023211801
 30
0.0
 11
832.5
 21
58.862040232118005
 31
0.0
  0
LINE
  5
185
100
AcDbEntity
  8
0
390
0
100
AcDbLine
 10
806.0
 20
58.862040232118005
 30
0.0
 11
832.5
 21
58.862040232118005
 31
0.0
  0
LINE
  5
186
100
AcDbEntity
  8
0
390
0
100
AcDbLine
 10
806.0
 20
111.86204023211801
 30
0.0
 11
832.5
 21
111.86204023211801
 31
0.0
  0
ENDBLK
  5
187
100
AcDbEntity
  8
0
390
0
100
AcDbBlockEnd
  0
BLOCK
  5
18A
100
AcDbEntity
  8
0
390
0
100
AcDbBlockBegin
  2
B024867A4
 70
               0
 10
0.0
 20
0.0
 30
0.0
  3

  1

  0
LINE
  5
18B
100
AcDbEntity
  8
0
390
0
100
AcDbLine
 10
775.0
 20
111.86204023211801
 30
0.0
 11
775.0
 21
58.862040232118005
 31
0.0
  0
LINE
  5
18C
100
AcDbEntity
  8
0
390
0
100
AcDbLine
 10
801.5
 20
111.86204023211801
 30
0.0
 11
801.5
 21
58.862040232118005
 31
0.0
  0
LINE
  5
18D
100
AcDbEntity
  8
0
390
0
100
AcDbLine
 10
775.0
 20
58.862040232118005
 30
0.0
 11
801.5
 21
58.862040232118005
 31
0.0
  0
LINE
  5
18E
100
AcDbEntity
  8
0
390
0
100
AcDbLine
 10
775.0
 20
111.86204023211801
 30
0.0
 11
801.5
 21
111.86204023211801
 31
0.0
  0
ENDBLK
  5
18F
100
AcDbEntity
  8
0
390
0
100
AcDbBlockEnd
  0
BLOCK
  5
192
100
AcDbEntity
  8
0
390
0
100
AcDbBlockBegin
  2
B02486940
 70
               0
 10
0.0
 20
0.0
 30
0.0
  3

  1

  0
LINE
  5
193
100
AcDbEntity
  8
0
390
0
100
AcDbLine
 10
744.0
 20
111.86204023211801
 30
0.0
 11
744.0
 21
58.862040232118005
 31
0.0
  0
LINE
  5
194
100
AcDbEntity
  8
0
390
0
100
AcDbLine
 10
770.5
 20
111.86204023211801
 30
0.0
 11
770.5
 21
58.862040232118005
 31
0.0
  0
LINE
  5
195
100
AcDbEntity
  8
0
390
0
100
AcDbLine
 10
744.0
 20
58.862040232118005
 30
0.0
 11
770.5
 21
58.862040232118005
 31
0.0
  0
LINE
  5
196
100
AcDbEntity
  8
0
390
0
100
AcDbLine
 10
744.0
 20
111.86204023211801
 30
0.0
 11
770.5
 21
111.86204023211801
 31
0.0
  0
ENDBLK
  5
197
100
AcDbEntity
  8
0
390
0
100
AcDbBlockEnd
  0
BLOCK
  5
19A
100
AcDbEntity
  8
0
390
0
100
AcDbBlockBegin
  2
B02486ADC
 70
               0
 10
0.0
 20
0.0
 30
0.0
  3

  1

  0
LINE
  5
19B
100
AcDbEntity
  8
0
390
0
100
AcDbLine
 10
713.0
 20
111.86204023211801
 30
0.0
 11
713.0
 21
58.862040232118005
 31
0.0
  0
LINE
  5
19C
100
AcDbEntity
  8
0
390
0
100
AcDbLine
 10
739.5
 20
111.86204023211801
 30
0.0
 11
739.5
 21
58.862040232118005
 31
0.0
  0
LINE
  5
19D
100
AcDbEntity
  8
0
390
0
100
AcDbLine
 10
713.0
 20
58.862040232118005
 30
0.0
 11
739.5
 21
58.862040232118005
 31
0.0
  0
LINE
  5
19E
100
AcDbEntity
  8
0
390
0
100
AcDbLine
 10
713.0
 20
111.86204023211801
 30
0.0
 11
739.5
 21
111.86204023211801
 31
0.0
  0
ENDBLK
  5
19F
100
AcDbEntity
  8
0
390
0
100
AcDbBlockEnd
  0
BLOCK
  5
1A2
100
AcDbEntity
  8
0
390
0
100
AcDbBlockBegin
  2
B02486C78
 70
               0
 10
0.0
 20
0.0
 30
0.0
  3

  1

  0
LINE
  5
1A3
100
AcDbEntity
  8
0
390
0
100
AcDbLine
 10
682.0
 20
111.86204023211801
 30
0.0
 11
682.0
 21
58.862040232118005
 31
0.0
  0
LINE
  5
1A4
100
AcDbEntity
  8
0
390
0
100
AcDbLine
 10
708.5
 20
111.86204023211801
 30
0.0
 11
708.5
 21
58.862040232118005
 31
0.0
  0
LINE
  5
1A5
100
AcDbEntity
  8
0
390
0
100
AcDbLine
 10
682.0
 20
58.862040232118005
 30
0.0
 11
708.5
 21
58.862040232118005
 31
0.0
  0
LINE
  5
1A6
100
AcDbEntity
  8
0
390
0
100
AcDbLine
 10
682.0
 20
111.86204023211801
 30
0.0
 11
708.5
 21
111.86204023211801
 31
0.0
  0
ENDBLK
  5
1A7
100
AcDbEntity
  8
0
390
0
100
AcDbBlockEnd
  0
BLOCK
  5
1AA
100
AcDbEntity
  8
0
390
0
100
AcDbBlockBegin
  2
B02486E14
 70
               0
 10
0.0
 20
0.0
 30
0.0
  3

  1

  0
LINE
  5
1AB
100
AcDbEntity
  8
0
390
0
100
AcDbLine
 10
651.0
 20
111.86204023211801
 30
0.0
 11
651.0
 21
58.862040232118005
 31
0.0
  0
LINE
  5
1AC
100
AcDbEntity
  8
0
390
0
100
AcDbLine
 10
677.5
 20
111.86204023211801
 30
0.0
 11
677.5
 21
58.862040232118005
 31
0.0
  0
LINE
  5
1AD
100
AcDbEntity
  8
0
390
0
100
AcDbLine
 10
651.0
 20
58.862040232118005
 30
0.0
 11
677.5
 21
58.862040232118005
 31
0.0
  0
LINE
  5
1AE
100
AcDbEntity
  8
0
390
0
100
AcDbLine
 10
651.0
 20
111.86204023211801
 30
0.0
 11
677.5
 21
111.86204023211801
 31
0.0
  0
ENDBLK
  5
1AF
100
AcDbEntity
  8
0
390
0
100
AcDbBlockEnd
  0
BLOCK
  5
1B2
100
AcDbEntity
  8
0
390
0
100
AcDbBlockBegin
  2
B02486FB0
 70
               0
 10
0.0
 20
0.0
 30
0.0
  3

  1

  0
LINE
  5
1B3
100
AcDbEntity
  8
0
390
0
100
AcDbLine
 10
620.0
 20
111.86204023211801
 30
0.0
 11
620.0
 21
58.862040232118005
 31
0.0
  0
LINE
  5
1B4
100
AcDbEntity
  8
0
390
0
100
AcDbLine
 10
646.5
 20
111.86204023211801
 30
0.0
 11
646.5
 21
58.862040232118005
 31
0.0
  0
LINE
  5
1B5
100
AcDbEntity
  8
0
390
0
100
AcDbLine
 10
620.0
 20
58.862040232118005
 30
0.0
 11
646.5
 21
58.862040232118005
 31
0.0
  0
LINE
  5
1B6
100
AcDbEntity
  8
0
390
0
100
AcDbLine
 10
620.0
 20
111.86204023211801
 30
0.0
 11
646.5
 21
111.86204023211801
 31
0.0
  0
ENDBLK
  5
1B7
100
AcDbEntity
  8
0
390
0
100
AcDbBlockEnd
  0
BLOCK
  5
1BA
100
AcDbEntity
  8
0
390
0
100
AcDbBlockBegin
  2
B02492E38
 70
               0
 10
0.0
 20
0.0
 30
0.0
  3

  1

  0
LINE
  5
1BB
100
AcDbEntity
  8
0
390
0
100
AcDbLine
 10
589.0
 20
111.86204023211801
 30
0.0
 11
589.0
 21
58.862040232118005
 31
0.0
  0
LINE
  5
1BC
100
AcDbEntity
  8
0
390
0
100
AcDbLine
 10
615.5
 20
111.86204023211801
 30
0.0
 11
615.5
 21
58.862040232118005
 31
0.0
  0
LINE
  5
1BD
100
AcDbEntity
  8
0
390
0
100
AcDbLine
 10
589.0
 20
58.862040232118005
 30
0.0
 11
615.5
 21
58.862040232118005
 31
0.0
  0
LINE
  5
1BE
100
AcDbEntity
  8
0
390
0
100
AcDbLine
 10
589.0
 20
111.86204023211801
 30
0.0
 11
615.5
 21
111.86204023211801
 31
0.0
  0
ENDBLK
  5
1BF
100
AcDbEntity
  8
0
390
0
100
AcDbBlockEnd
  0
BLOCK
  5
1C2
100
AcDbEntity
  8
0
390
0
100
AcDbBlockBegin
  2
B02492FD4
 70
               0
 10
0.0
 20
0.0
 30
0.0
  3

  1

  0
LINE
  5
1C3
100
AcDbEntity
  8
0
390
0
100
AcDbLine
 10
558.0
 20
111.86204023211801
 30
0.0
 11
558.0
 21
58.862040232118005
 31
0.0
  0
LINE
  5
1C4
100
AcDbEntity
  8
0
390
0
100
AcDbLine
 10
584.5
 20
111.86204023211801
 30
0.0
 11
584.5
 21
58.862040232118005
 31
0.0
  0
LINE
  5
1C5
100
AcDbEntity
  8
0
390
0
100
AcDbLine
 10
558.0
 20
58.862040232118005
 30
0.0
 11
584.5
 21
58.862040232118005
 31
0.0
  0
LINE
  5
1C6
100
AcDbEntity
  8
0
390
0
100
AcDbLine
 10
558.0
 20
111.86204023211801
 30
0.0
 11
584.5
 21
111.86204023211801
 31
0.0
  0
ENDBLK
  5
1C7
100
AcDbEntity
  8
0
390
0
100
AcDbBlockEnd
  0
BLOCK
  5
1CA
100
AcDbEntity
  8
0
390
0
100
AcDbBlockBegin
  2
B02482BA4
 70
               0
 10
0.0
 20
0.0
 30
0.0
  3

  1

  0
LINE
  5
1CB
100
AcDbEntity
  8
0
390
0
100
AcDbLine
 10
527.0
 20
111.86204023211801
 30
0.0
 11
527.0
 21
58.862040232118005
 31
0.0
  0
LINE
  5
1CC
100
AcDbEntity
  8
0
390
0
100
AcDbLine
 10
553.5
 20
111.86204023211801
 30
0.0
 11
553.5
 21
58.862040232118005
 31
0.0
  0
LINE
  5
1CD
100
AcDbEntity
  8
0
390
0
100
AcDbLine
 10
527.0
 20
58.862040232118005
 30
0.0
 11
553.5
 21
58.862040232118005
 31
0.0
  0
LINE
  5
1CE
100
AcDbEntity
  8
0
390
0
100
AcDbLine
 10
527.0
 20
111.86204023211801
 30
0.0
 11
553.5
 21
111.86204023211801
 31
0.0
  0
ENDBLK
  5
1CF
100
AcDbEntity
  8
0
390
0
100
AcDbBlockEnd
  0
BLOCK
  5
1D2
100
AcDbEntity
  8
0
390
0
100
AcDbBlockBegin
  2
B02482D40
 70
               0
 10
0.0
 20
0.0
 30
0.0
  3

  1

  0
LINE
  5
1D3
100
AcDbEntity
  8
0
390
0
100
AcDbLine
 10
496.0
 20
111.86204023211801
 30
0.0
 11
496.0
 21
58.862040232118005
 31
0.0
  0
LINE
  5
1D4
100
AcDbEntity
  8
0
390
0
100
AcDbLine
 10
522.5
 20
111.86204023211801
 30
0.0
 11
522.5
 21
58.862040232118005
 31
0.0
  0
LINE
  5
1D5
100
AcDbEntity
  8
0
390
0
100
AcDbLine
 10
496.0
 20
58.862040232118005
 30
0.0
 11
522.5
 21
58.862040232118005
 31
0.0
  0
LINE
  5
1D6
100
AcDbEntity
  8
0
390
0
100
AcDbLine
 10
496.0
 20
111.86204023211801
 30
0.0
 11
522.5
 21
111.86204023211801
 31
0.0
  0
ENDBLK
  5
1D7
100
AcDbEntity
  8
0
390
0
100
AcDbBlockEnd
  0
BLOCK
  5
1DA
100
AcDbEntity
  8
0
390
0
100
AcDbBlockBegin
  2
B02482EDC
 70
               0
 10
0.0
 20
0.0
 30
0.0
  3

  1

  0
LINE
  5
1DB
100
AcDbEntity
  8
0
390
0
100
AcDbLine
 10
434.0
 20
111.86204023211801
 30
0.0
 11
434.0
 21
58.862040232118005
 31
0.0
  0
LINE
  5
1DC
100
AcDbEntity
  8
0
390
0
100
AcDbLine
 10
460.5
 20
111.86204023211801
 30
0.0
 11
460.5
 21
58.862040232118005
 31
0.0
  0
LINE
  5
1DD
100
AcDbEntity
  8
0
390
0
100
AcDbLine
 10
434.0
 20
58.862040232118005
 30
0.0
 11
460.5
 21
58.862040232118005
 31
0.0
  0
LINE
  5
1DE
100
AcDbEntity
  8
0
390
0
100
AcDbLine
 10
434.0
 20
111.86204023211801
 30
0.0
 11
460.5
 21
111.86204023211801
 31
0.0
  0
ENDBLK
  5
1DF
100
AcDbEntity
  8
0
390
0
100
AcDbBlockEnd
  0
BLOCK
  5
1E2
100
AcDbEntity
  8
0
390
0
100
AcDbBlockBegin
  2
B02483078
 70
               0
 10
0.0
 20
0.0
 30
0.0
  3

  1

  0
LINE
  5
1E3
100
AcDbEntity
  8
0
390
0
100
AcDbLine
 10
403.0
 20
111.86204023211801
 30
0.0
 11
403.0
 21
58.862040232118005
 31
0.0
  0
LINE
  5
1E4
100
AcDbEntity
  8
0
390
0
100
AcDbLine
 10
429.5
 20
111.86204023211801
 30
0.0
 11
429.5
 21
58.862040232118005
 31
0.0
  0
LINE
  5
1E5
100
AcDbEntity
  8
0
390
0
100
AcDbLine
 10
403.0
 20
58.862040232118005
 30
0.0
 11
429.5
 21
58.862040232118005
 31
0.0
  0
LINE
  5
1E6
100
AcDbEntity
  8
0
390
0
100
AcDbLine
 10
403.0
 20
111.86204023211801
 30
0.0
 11
429.5
 21
111.86204023211801
 31
0.0
  0
ENDBLK
  5
1E7
100
AcDbEntity
  8
0
390
0
100
AcDbBlockEnd
  0
BLOCK
  5
1EA
100
AcDbEntity
  8
0
390
0
100
AcDbBlockBegin
  2
B02483214
 70
               0
 10
0.0
 20
0.0
 30
0.0
  3

  1

  0
LINE
  5
1EB
100
AcDbEntity
  8
0
390
0
100
AcDbLine
 10
372.0
 20
111.86204023211801
 30
0.0
 11
372.0
 21
58.862040232118005
 31
0.0
  0
LINE
  5
1EC
100
AcDbEntity
  8
0
390
0
100
AcDbLine
 10
398.5
 20
111.86204023211801
 30
0.0
 11
398.5
 21
58.862040232118005
 31
0.0
  0
LINE
  5
1ED
100
AcDbEntity
  8
0
390
0
100
AcDbLine
 10
372.0
 20
58.862040232118005
 30
0.0
 11
398.5
 21
58.862040232118005
 31
0.0
  0
LINE
  5
1EE
100
AcDbEntity
  8
0
390
0
100
AcDbLine
 10
372.0
 20
111.86204023211801
 30
0.0
 11
398.5
 21
111.86204023211801
 31
0.0
  0
ENDBLK
  5
1EF
100
AcDbEntity
  8
0
390
0
100
AcDbBlockEnd
  0
BLOCK
  5
1F2
100
AcDbEntity
  8
0
390
0
100
AcDbBlockBegin
  2
B024833B0
 70
               0
 10
0.0
 20
0.0
 30
0.0
  3

  1

  0
LINE
  5
1F3
100
AcDbEntity
  8
0
390
0
100
AcDbLine
 10
341.0
 20
111.86204023211801
 30
0.0
 11
341.0
 21
58.862040232118005
 31
0.0
  0
LINE
  5
1F4
100
AcDbEntity
  8
0
390
0
100
AcDbLine
 10
367.5
 20
111.86204023211801
 30
0.0
 11
367.5
 21
58.862040232118005
 31
0.0
  0
LINE
  5
1F5
100
AcDbEntity
  8
0
390
0
100
AcDbLine
 10
341.0
 20
58.862040232118005
 30
0.0
 11
367.5
 21
58.862040232118005
 31
0.0
  0
LINE
  5
1F6
100
AcDbEntity
  8
0
390
0
100
AcDbLine
 10
341.0
 20
111.86204023211801
 30
0.0
 11
367.5
 21
111.86204023211801
 31
0.0
  0
ENDBLK
  5
1F7
100
AcDbEntity
  8
0
390
0
100
AcDbBlockEnd
  0
BLOCK
  5
1FA
100
AcDbEntity
  8
0
390
0
100
AcDbBlockBegin
  2
B0248354C
 70
               0
 10
0.0
 20
0.0
 30
0.0
  3

  1

  0
LINE
  5
1FB
100
AcDbEntity
  8
0
390
0
100
AcDbLine
 10
310.0
 20
111.86204023211801
 30
0.0
 11
310.0
 21
58.862040232118005
 31
0.0
  0
LINE
  5
1FC
100
AcDbEntity
  8
0
390
0
100
AcDbLine
 10
336.5
 20
111.86204023211801
 30
0.0
 11
336.5
 21
58.862040232118005
 31
0.0
  0
LINE
  5
1FD
100
AcDbEntity
  8
0
390
0
100
AcDbLine
 10
310.0
 20
58.862040232118005
 30
0.0
 11
336.5
 21
58.862040232118005
 31
0.0
  0
LINE
  5
1FE
100
AcDbEntity
  8
0
390
0
100
AcDbLine
 10
310.0
 20
111.86204023211801
 30
0.0
 11
336.5
 21
111.86204023211801
 31
0.0
  0
ENDBLK
  5
1FF
100
AcDbEntity
  8
0
390
0
100
AcDbBlockEnd
  0
BLOCK
  5
202
100
AcDbEntity
  8
0
390
0
100
AcDbBlockBegin
  2
B024836E8
 70
               0
 10
0.0
 20
0.0
 30
0.0
  3

  1

  0
LINE
  5
203
100
AcDbEntity
  8
0
390
0
100
AcDbLine
 10
279.0
 20
111.86204023211801
 30
0.0
 11
279.0
 21
58.862040232118005
 31
0.0
  0
LINE
  5
204
100
AcDbEntity
  8
0
390
0
100
AcDbLine
 10
305.5
 20
111.86204023211801
 30
0.0
 11
305.5
 21
58.862040232118005
 31
0.0
  0
LINE
  5
205
100
AcDbEntity
  8
0
390
0
100
AcDbLine
 10
279.0
 20
58.862040232118005
 30
0.0
 11
305.5
 21
58.862040232118005
 31
0.0
  0
LINE
  5
206
100
AcDbEntity
  8
0
390
0
100
AcDbLine
 10
279.0
 20
111.86204023211801
 30
0.0
 11
305.5
 21
111.86204023211801
 31
0.0
  0
ENDBLK
  5
207
100
AcDbEntity
  8
0
390
0
100
AcDbBlockEnd
  0
BLOCK
  5
20A
100
AcDbEntity
  8
0
390
0
100
AcDbBlockBegin
  2
B02483884
 70
               0
 10
0.0
 20
0.0
 30
0.0
  3

  1

  0
LINE
  5
20B
100
AcDbEntity
  8
0
390
0
100
AcDbLine
 10
248.0
 20
111.86204023211801
 30
0.0
 11
248.0
 21
58.862040232118005
 31
0.0
  0
LINE
  5
20C
100
AcDbEntity
  8
0
390
0
100
AcDbLine
 10
274.5
 20
111.86204023211801
 30
0.0
 11
274.5
 21
58.862040232118005
 31
0.0
  0
LINE
  5
20D
100
AcDbEntity
  8
0
390
0
100
AcDbLine
 10
248.0
 20
58.862040232118005
 30
0.0
 11
274.5
 21
58.862040232118005
 31
0.0
  0
LINE
  5
20E
100
AcDbEntity
  8
0
390
0
100
AcDbLine
 10
248.0
 20
111.86204023211801
 30
0.0
 11
274.5
 21
111.86204023211801
 31
0.0
  0
ENDBLK
  5
20F
100
AcDbEntity
  8
0
390
0
100
AcDbBlockEnd
  0
BLOCK
  5
212
100
AcDbEntity
  8
0
390
0
100
AcDbBlockBegin
  2
B02483A20
 70
               0
 10
0.0
 20
0.0
 30
0.0
  3

  1

  0
LINE
  5
213
100
AcDbEntity
  8
0
390
0
100
AcDbLine
 10
217.0
 20
111.86204023211801
 30
0.0
 11
217.0
 21
58.862040232118005
 31
0.0
  0
LINE
  5
214
100
AcDbEntity
  8
0
390
0
100
AcDbLine
 10
243.5
 20
111.86204023211801
 30
0.0
 11
243.5
 21
58.862040232118005
 31
0.0
  0
LINE
  5
215
100
AcDbEntity
  8
0
390
0
100
AcDbLine
 10
217.0
 20
58.862040232118005
 30
0.0
 11
243.5
 21
58.862040232118005
 31
0.0
  0
LINE
  5
216
100
AcDbEntity
  8
0
390
0
100
AcDbLine
 10
217.0
 20
111.86204023211801
 30
0.0
 11
243.5
 21
111.86204023211801
 31
0.0
  0
ENDBLK
  5
217
100
AcDbEntity
  8
0
390
0
100
AcDbBlockEnd
  0
BLOCK
  5
21A
100
AcDbEntity
  8
0
390
0
100
AcDbBlockBegin
  2
B02483BBC
 70
               0
 10
0.0
 20
0.0
 30
0.0
  3

  1

  0
LINE
  5
21B
100
AcDbEntity
  8
0
390
0
100
AcDbLine
 10
186.0
 20
111.86204023211801
 30
0.0
 11
186.0
 21
58.862040232118005
 31
0.0
  0
LINE
  5
21C
100
AcDbEntity
  8
0
390
0
100
AcDbLine
 10
212.5
 20
111.86204023211801
 30
0.0
 11
212.5
 21
58.862040232118005
 31
0.0
  0
LINE
  5
21D
100
AcDbEntity
  8
0
390
0
100
AcDbLine
 10
186.0
 20
58.862040232118005
 30
0.0
 11
212.5
 21
58.862040232118005
 31
0.0
  0
LINE
  5
21E
100
AcDbEntity
  8
0
390
0
100
AcDbLine
 10
186.0
 20
111.86204023211801
 30
0.0
 11
212.5
 21
111.86204023211801
 31
0.0
  0
ENDBLK
  5
21F
100
AcDbEntity
  8
0
390
0
100
AcDbBlockEnd
  0
BLOCK
  5
222
100
AcDbEntity
  8
0
390
0
100
AcDbBlockBegin
  2
B02483D58
 70
               0
 10
0.0
 20
0.0
 30
0.0
  3

  1

  0
LINE
  5
223
100
AcDbEntity
  8
0
390
0
100
AcDbLine
 10
155.0
 20
111.86204023211801
 30
0.0
 11
155.0
 21
58.862040232118005
 31
0.0
  0
LINE
  5
224
100
AcDbEntity
  8
0
390
0
100
AcDbLine
 10
181.5
 20
111.86204023211801
 30
0.0
 11
181.5
 21
58.862040232118005
 31
0.0
  0
LINE
  5
225
100
AcDbEntity
  8
0
390
0
100
AcDbLine
 10
155.0
 20
58.862040232118005
 30
0.0
 11
181.5
 21
58.862040232118005
 31
0.0
  0
LINE
  5
226
100
AcDbEntity
  8
0
390
0
100
AcDbLine
 10
155.0
 20
111.86204023211801
 30
0.0
 11
181.5
 21
111.86204023211801
 31
0.0
  0
ENDBLK
  5
227
100
AcDbEntity
  8
0
390
0
100
AcDbBlockEnd
  0
BLOCK
  5
22A
100
AcDbEntity
  8
0
390
0
100
AcDbBlockBegin
  2
B02483EF4
 70
               0
 10
0.0
 20
0.0
 30
0.0
  3

  1

  0
LINE
  5
22B
100
AcDbEntity
  8
0
390
0
100
AcDbLine
 10
124.0
 20
111.86204023211801
 30
0.0
 11
124.0
 21
58.862040232118005
 31
0.0
  0
LINE
  5
22C
100
AcDbEntity
  8
0
390
0
100
AcDbLine
 10
150.5
 20
111.86204023211801
 30
0.0
 11
150.5
 21
58.862040232118005
 31
0.0
  0
LINE
  5
22D
100
AcDbEntity
  8
0
390
0
100
AcDbLine
 10
124.0
 20
58.862040232118005
 30
0.0
 11
150.5
 21
58.862040232118005
 31
0.0
  0
LINE
  5
22E
100
AcDbEntity
  8
0
390
0
100
AcDbLine
 10
124.0
 20
111.86204023211801
 30
0.0
 11
150.5
 21
111.86204023211801
 31
0.0
  0
ENDBLK
  5
22F
100
AcDbEntity
  8
0
390
0
100
AcDbBlockEnd
  0
BLOCK
  5
232
100
AcDbEntity
  8
0
390
0
100
AcDbBlockBegin
  2
B02484090
 70
               0
 10
0.0
 20
0.0
 30
0.0
  3

  1

  0
LINE
  5
233
100
AcDbEntity
  8
0
390
0
100
AcDbLine
 10
93.0
 20
111.86204023211801
 30
0.0
 11
93.0
 21
58.862040232118005
 31
0.0
  0
LINE
  5
234
100
AcDbEntity
  8
0
390
0
100
AcDbLine
 10
119.5
 20
111.86204023211801
 30
0.0
 11
119.5
 21
58.862040232118005
 31
0.0
  0
LINE
  5
235
100
AcDbEntity
  8
0
390
0
100
AcDbLine
 10
93.0
 20
58.862040232118005
 30
0.0
 11
119.5
 21
58.862040232118005
 31
0.0
  0
LINE
  5
236
100
AcDbEntity
  8
0
390
0
100
AcDbLine
 10
93.0
 20
111.86204023211801
 30
0.0
 11
119.5
 21
111.86204023211801
 31
0.0
  0
ENDBLK
  5
237
100
AcDbEntity
  8
0
390
0
100
AcDbBlockEnd
  0
BLOCK
  5
23A
100
AcDbEntity
  8
0
390
0
100
AcDbBlockBegin
  2
B0248422C
 70
               0
 10
0.0
 20
0.0
 30
0.0
  3

  1

  0
LINE
  5
23B
100
AcDbEntity
  8
0
390
0
100
AcDbLine
 10
62.0
 20
111.86204023211801
 30
0.0
 11
62.0
 21
58.862040232118005
 31
0.0
  0
LINE
  5
23C
100
AcDbEntity
  8
0
390
0
100
AcDbLine
 10
88.5
 20
111.86204023211801
 30
0.0
 11
88.5
 21
58.862040232118005
 31
0.0
  0
LINE
  5
23D
100
AcDbEntity
  8
0
390
0
100
AcDbLine
 10
62.0
 20
58.862040232118005
 30
0.0
 11
88.5
 21
58.862040232118005
 31
0.0
  0
LINE
  5
23E
100
AcDbEntity
  8
0
390
0
100
AcDbLine
 10
62.0
 20
111.86204023211801
 30
0.0
 11
88.5
 21
111.86204023211801
 31
0.0
  0
ENDBLK
  5
23F
100
AcDbEntity
  8
0
390
0
100
AcDbBlockEnd
  0
BLOCK
  5
242
100
AcDbEntity
  8
0
390
0
100
AcDbBlockBegin
  2
B024843C8
 70
               0
 10
0.0
 20
0.0
 30
0.0
  3

  1

  0
LINE
  5
243
100
AcDbEntity
  8
0
390
0
100
AcDbLine
 10
31.0
 20
111.86204023211801
 30
0.0
 11
31.0
 21
58.862040232118005
 31
0.0
  0
LINE
  5
244
100
AcDbEntity
  8
0
390
0
100
AcDbLine
 10
57.5
 20
111.86204023211801
 30
0.0
 11
57.5
 21
58.862040232118005
 31
0.0
  0
LINE
  5
245
100
AcDbEntity
  8
0
390
0
100
AcDbLine
 10
31.0
 20
58.862040232118005
 30
0.0
 11
57.5
 21
58.862040232118005
 31
0.0
  0
LINE
  5
246
100
AcDbEntity
  8
0
390
0
100
AcDbLine
 10
31.0
 20
111.86204023211801
 30
0.0
 11
57.5
 21
111.86204023211801
 31
0.0
  0
ENDBLK
  5
247
100
AcDbEntity
  8
0
390
0
100
AcDbBlockEnd
  0
BLOCK
  5
24A
100
AcDbEntity
  8
0
390
0
100
AcDbBlockBegin
  2
B02484564
 70
               0
 10
0.0
 20
0.0
 30
0.0
  3

  1

  0
LINE
  5
24B
100
AcDbEntity
  8
0
390
0
100
AcDbLine
 10
0.0
 20
111.86204023211801
 30
0.0
 11
0.0
 21
58.862040232118005
 31
0.0
  0
LINE
  5
24C
100
AcDbEntity
  8
0
390
0
100
AcDbLine
 10
26.5
 20
111.86204023211801
 30
0.0
 11
26.5
 21
58.862040232118005
 31
0.0
  0
LINE
  5
24D
100
AcDbEntity
  8
0
390
0
100
AcDbLine
 10
0.0
 20
58.862040232118005
 30
0.0
 11
26.5
 21
58.862040232118005
 31
0.0
  0
LINE
  5
24E
100
AcDbEntity
  8
0
390
0
100
AcDbLine
 10
0.0
 20
111.86204023211801
 30
0.0
 11
26.5
 21
111.86204023211801
 31
0.0
  0
ENDBLK
  5
24F
100
AcDbEntity
  8
0
390
0
100
AcDbBlockEnd
  0
BLOCK
  5
252
100
AcDbEntity
  8
0
390
0
100
AcDbBlockBegin
  2
B02484700
 70
               0
 10
0.0
 20
0.0
 30
0.0
  3

  1

  0
LINE
  5
253
100
AcDbEntity
  8
0
390
0
100
AcDbLine
 10
992.0
 20
121.7826456095938
 30
0.0
 11
992.0
 21
174.7826456095938
 31
0.0
  0
LINE
  5
254
100
AcDbEntity
  8
0
390
0
100
AcDbLine
 10
1018.5
 20
121.7826456095938
 30
0.0
 11
1018.5
 21
174.7826456095938
 31
0.0
  0
LINE
  5
255
100
AcDbEntity
  8
0
390
0
100
AcDbLine
 10
992.0
 20
174.7826456095938
 30
0.0
 11
1018.5
 21
174.7826456095938
 31
0.0
  0
LINE
  5
256
100
AcDbEntity
  8
0
390
0
100
AcDbLine
 10
992.0
 20
121.7826456095938
 30
0.0
 11
1018.5
 21
121.7826456095938
 31
0.0
  0
ENDBLK
  5
257
100
AcDbEntity
  8
0
390
0
100
AcDbBlockEnd
  0
BLOCK
  5
25A
100
AcDbEntity
  8
0
390
0
100
AcDbBlockBegin
  2
B0248489C
 70
               0
 10
0.0
 20
0.0
 30
0.0
  3

  1

  0
LINE
  5
25B
100
AcDbEntity
  8
0
390
0
100
AcDbLine
 10
1023.0
 20
121.7826456095938
 30
0.0
 11
1023.0
 21
174.7826456095938
 31
0.0
  0
LINE
  5
25C
100
AcDbEntity
  8
0
390
0
100
AcDbLine
 10
1049.5
 20
121.7826456095938
 30
0.0
 11
1049.5
 21
174.7826456095938
 31
0.0
  0
LINE
  5
25D
100
AcDbEntity
  8
0
390
0
100
AcDbLine
 10
1023.0
 20
174.7826456095938
 30
0.0
 11
1049.5
 21
174.7826456095938
 31
0.0
  0
LINE
  5
25E
100
AcDbEntity
  8
0
390
0
100
AcDbLine
 10
1023.0
 20
121.7826456095938
 30
0.0
 11
1049.5
 21
121.7826456095938
 31
0.0
  0
ENDBLK
  5
25F
100
AcDbEntity
  8
0
390
0
100
AcDbBlockEnd
  0
BLOCK
  5
262
100
AcDbEntity
  8
0
390
0
100
AcDbBlockBegin
  2
B02484A38
 70
               0
 10
0.0
 20
0.0
 30
0.0
  3

  1

  0
LINE
  5
263
100
AcDbEntity
  8
0
390
0
100
AcDbLine
 10
1054.0
 20
121.7826456095938
 30
0.0
 11
1054.0
 21
174.7826456095938
 31
0.0
  0
LINE
  5
264
100
AcDbEntity
  8
0
390
0
100
AcDbLine
 10
1080.5
 20
121.7826456095938
 30
0.0
 11
1080.5
 21
174.7826456095938
 31
0.0
  0
LINE
  5
265
100
AcDbEntity
  8
0
390
0
100
AcDbLine
 10
1054.0
 20
174.7826456095938
 30
0.0
 11
1080.5
 21
174.7826456095938
 31
0.0
  0
LINE
  5
266
100
AcDbEntity
  8
0
390
0
100
AcDbLine
 10
1054.0
 20
121.7826456095938
 30
0.0
 11
1080.5
 21
121.7826456095938
 31
0.0
  0
ENDBLK
  5
267
100
AcDbEntity
  8
0
390
0
100
AcDbBlockEnd
  0
BLOCK
  5
26A
100
AcDbEntity
  8
0
390
0
100
AcDbBlockBegin
  2
B02484BD4
 70
               0
 10
0.0
 20
0.0
 30
0.0
  3

  1

  0
LINE
  5
26B
100
AcDbEntity
  8
0
390
0
100
AcDbLine
 10
1085.0
 20
121.7826456095938
 30
0.0
 11
1085.0
 21
174.7826456095938
 31
0.0
  0
LINE
  5
26C
100
AcDbEntity
  8
0
390
0
100
AcDbLine
 10
1111.5
 20
121.7826456095938
 30
0.0
 11
1111.5
 21
174.7826456095938
 31
0.0
  0
LINE
  5
26D
100
AcDbEntity
  8
0
390
0
100
AcDbLine
 10
1085.0
 20
174.7826456095938
 30
0.0
 11
1111.5
 21
174.7826456095938
 31
0.0
  0
LINE
  5
26E
100
AcDbEntity
  8
0
390
0
100
AcDbLine
 10
1085.0
 20
121.7826456095938
 30
0.0
 11
1111.5
 21
121.7826456095938
 31
0.0
  0
ENDBLK
  5
26F
100
AcDbEntity
  8
0
390
0
100
AcDbBlockEnd
  0
BLOCK
  5
272
100
AcDbEntity
  8
0
390
0
100
AcDbBlockBegin
  2
B02484D70
 70
               0
 10
0.0
 20
0.0
 30
0.0
  3

  1

  0
LINE
  5
273
100
AcDbEntity
  8
0
390
0
100
AcDbLine
 10
1116.0
 20
121.7826456095938
 30
0.0
 11
1116.0
 21
174.7826456095938
 31
0.0
  0
LINE
  5
274
100
AcDbEntity
  8
0
390
0
100
AcDbLine
 10
1142.5
 20
121.7826456095938
 30
0.0
 11
1142.5
 21
174.7826456095938
 31
0.0
  0
LINE
  5
275
100
AcDbEntity
  8
0
390
0
100
AcDbLine
 10
1116.0
 20
174.7826456095938
 30
0.0
 11
1142.5
 21
174.7826456095938
 31
0.0
  0
LINE
  5
276
100
AcDbEntity
  8
0
390
0
100
AcDbLine
 10
1116.0
 20
121.7826456095938
 30
0.0
 11
1142.5
 21
121.7826456095938
 31
0.0
  0
ENDBLK
  5
277
100
AcDbEntity
  8
0
390
0
100
AcDbBlockEnd
  0
BLOCK
  5
27A
100
AcDbEntity
  8
0
390
0
100
AcDbBlockBegin
  2
B02484F0C
 70
               0
 10
0.0
 20
0.0
 30
0.0
  3

  1

  0
LINE
  5
27B
100
AcDbEntity
  8
0
390
0
100
AcDbLine
 10
1147.0
 20
121.7826456095938
 30
0.0
 11
1147.0
 21
174.7826456095938
 31
0.0
  0
LINE
  5
27C
100
AcDbEntity
  8
0
390
0
100
AcDbLine
 10
1173.5
 20
121.7826456095938
 30
0.0
 11
1173.5
 21
174.7826456095938
 31
0.0
  0
LINE
  5
27D
100
AcDbEntity
  8
0
390
0
100
AcDbLine
 10
1147.0
 20
174.7826456095938
 30
0.0
 11
1173.5
 21
174.7826456095938
 31
0.0
  0
LINE
  5
27E
100
AcDbEntity
  8
0
390
0
100
AcDbLine
 10
1147.0
 20
121.7826456095938
 30
0.0
 11
1173.5
 21
121.7826456095938
 31
0.0
  0
ENDBLK
  5
27F
100
AcDbEntity
  8
0
390
0
100
AcDbBlockEnd
  0
BLOCK
  5
282
100
AcDbEntity
  8
0
390
0
100
AcDbBlockBegin
  2
B024850A8
 70
               0
 10
0.0
 20
0.0
 30
0.0
  3

  1

  0
LINE
  5
283
100
AcDbEntity
  8
0
390
0
100
AcDbLine
 10
1178.0
 20
121.7826456095938
 30
0.0
 11
1178.0
 21
174.7826456095938
 31
0.0
  0
LINE
  5
284
100
AcDbEntity
  8
0
390
0
100
AcDbLine
 10
1204.5
 20
121.7826456095938
 30
0.0
 11
1204.5
 21
174.7826456095938
 31
0.0
  0
LINE
  5
285
100
AcDbEntity
  8
0
390
0
100
AcDbLine
 10
1178.0
 20
174.7826456095938
 30
0.0
 11
1204.5
 21
174.7826456095938
 31
0.0
  0
LINE
  5
286
100
AcDbEntity
  8
0
390
0
100
AcDbLine
 10
1178.0
 20
121.7826456095938
 30
0.0
 11
1204.5
 21
121.7826456095938
 31
0.0
  0
ENDBLK
  5
287
100
AcDbEntity
  8
0
390
0
100
AcDbBlockEnd
  0
BLOCK
  5
28A
100
AcDbEntity
  8
0
390
0
100
AcDbBlockBegin
  2
B02485244
 70
               0
 10
0.0
 20
0.0
 30
0.0
  3

  1

  0
LINE
  5
28B
100
AcDbEntity
  8
0
390
0
100
AcDbLine
 10
1209.0
 20
121.7826456095938
 30
0.0
 11
1209.0
 21
174.7826456095938
 31
0.0
  0
LINE
  5
28C
100
AcDbEntity
  8
0
390
0
100
AcDbLine
 10
1235.5
 20
121.7826456095938
 30
0.0
 11
1235.5
 21
174.7826456095938
 31
0.0
  0
LINE
  5
28D
100
AcDbEntity
  8
0
390
0
100
AcDbLine
 10
1209.0
 20
174.7826456095938
 30
0.0
 11
1235.5
 21
174.7826456095938
 31
0.0
  0
LINE
  5
28E
100
AcDbEntity
  8
0
390
0
100
AcDbLine
 10
1209.0
 20
121.7826456095938
 30
0.0
 11
1235.5
 21
121.7826456095938
 31
0.0
  0
ENDBLK
  5
28F
100
AcDbEntity
  8
0
390
0
100
AcDbBlockEnd
  0
BLOCK
  5
292
100
AcDbEntity
  8
0
390
0
100
AcDbBlockBegin
  2
B024853E0
 70
               0
 10
0.0
 20
0.0
 30
0.0
  3

  1

  0
LINE
  5
293
100
AcDbEntity
  8
0
390
0
100
AcDbLine
 10
992.0
 20
111.86204023211801
 30
0.0
 11
992.0
 21
58.862040232118005
 31
0.0
  0
LINE
  5
294
100
AcDbEntity
  8
0
390
0
100
AcDbLine
 10
1018.5
 20
111.86204023211801
 30
0.0
 11
1018.5
 21
58.862040232118005
 31
0.0
  0
LINE
  5
295
100
AcDbEntity
  8
0
390
0
100
AcDbLine
 10
992.0
 20
58.862040232118005
 30
0.0
 11
1018.5
 21
58.862040232118005
 31
0.0
  0
LINE
  5
296
100
AcDbEntity
  8
0
390
0
100
AcDbLine
 10
992.0
 20
111.86204023211801
 30
0.0
 11
1018.5
 21
111.86204023211801
 31
0.0
  0
ENDBLK
  5
297
100
AcDbEntity
  8
0
390
0
100
AcDbBlockEnd
  0
BLOCK
  5
29A
100
AcDbEntity
  8
0
390
0
100
AcDbBlockBegin
  2
B02C46F38
 70
               0
 10
0.0
 20
0.0
 30
0.0
  3

  1

  0
LINE
  5
29B
100
AcDbEntity
  8
0
390
0
100
AcDbLine
 10
1023.0
 20
111.86204023211801
 30
0.0
 11
1023.0
 21
58.862040232118005
 31
0.0
  0
LINE
  5
29C
100
AcDbEntity
  8
0
390
0
100
AcDbLine
 10
1049.5
 20
111.86204023211801
 30
0.0
 11
1049.5
 21
58.862040232118005
 31
0.0
  0
LINE
  5
29D
100
AcDbEntity
  8
0
390
0
100
AcDbLine
 10
1023.0
 20
58.862040232118005
 30
0.0
 11
1049.5
 21
58.862040232118005
 31
0.0
  0
LINE
  5
29E
100
AcDbEntity
  8
0
390
0
100
AcDbLine
 10
1023.0
 20
111.86204023211801
 30
0.0
 11
1049.5
 21
111.86204023211801
 31
0.0
  0
ENDBLK
  5
29F
100
AcDbEntity
  8
0
390
0
100
AcDbBlockEnd
  0
BLOCK
  5
2A2
100
AcDbEntity
  8
0
390
0
100
AcDbBlockBegin
  2
B02467830
 70
               0
 10
0.0
 20
0.0
 30
0.0
  3

  1

  0
LINE
  5
2A3
100
AcDbEntity
  8
0
390
0
100
AcDbLine
 10
1054.0
 20
111.86204023211801
 30
0.0
 11
1054.0
 21
58.862040232118005
 31
0.0
  0
LINE
  5
2A4
100
AcDbEntity
  8
0
390
0
100
AcDbLine
 10
1080.5
 20
111.86204023211801
 30
0.0
 11
1080.5
 21
58.862040232118005
 31
0.0
  0
LINE
  5
2A5
100
AcDbEntity
  8
0
390
0
100
AcDbLine
 10
1054.0
 20
58.862040232118005
 30
0.0
 11
1080.5
 21
58.862040232118005
 31
0.0
  0
LINE
  5
2A6
100
AcDbEntity
  8
0
390
0
100
AcDbLine
 10
1054.0
 20
111.86204023211801
 30
0.0
 11
1080.5
 21
111.86204023211801
 31
0.0
  0
ENDBLK
  5
2A7
100
AcDbEntity
  8
0
390
0
100
AcDbBlockEnd
  0
BLOCK
  5
2AA
100
AcDbEntity
  8
0
390
0
100
AcDbBlockBegin
  2
B024679CC
 70
               0
 10
0.0
 20
0.0
 30
0.0
  3

  1

  0
LINE
  5
2AB
100
AcDbEntity
  8
0
390
0
100
AcDbLine
 10
1085.0
 20
111.86204023211801
 30
0.0
 11
1085.0
 21
58.862040232118005
 31
0.0
  0
LINE
  5
2AC
100
AcDbEntity
  8
0
390
0
100
AcDbLine
 10
1111.5
 20
111.86204023211801
 30
0.0
 11
1111.5
 21
58.862040232118005
 31
0.0
  0
LINE
  5
2AD
100
AcDbEntity
  8
0
390
0
100
AcDbLine
 10
1085.0
 20
58.862040232118005
 30
0.0
 11
1111.5
 21
58.862040232118005
 31
0.0
  0
LINE
  5
2AE
100
AcDbEntity
  8
0
390
0
100
AcDbLine
 10
1085.0
 20
111.86204023211801
 30
0.0
 11
1111.5
 21
111.86204023211801
 31
0.0
  0
ENDBLK
  5
2AF
100
AcDbEntity
  8
0
390
0
100
AcDbBlockEnd
  0
BLOCK
  5
2B2
100
AcDbEntity
  8
0
390
0
100
AcDbBlockBegin
  2
B02467B68
 70
               0
 10
0.0
 20
0.0
 30
0.0
  3

  1

  0
LINE
  5
2B3
100
AcDbEntity
  8
0
390
0
100
AcDbLine
 10
1116.0
 20
111.86204023211801
 30
0.0
 11
1116.0
 21
58.862040232118005
 31
0.0
  0
LINE
  5
2B4
100
AcDbEntity
  8
0
390
0
100
AcDbLine
 10
1142.5
 20
111.86204023211801
 30
0.0
 11
1142.5
 21
58.862040232118005
 31
0.0
  0
LINE
  5
2B5
100
AcDbEntity
  8
0
390
0
100
AcDbLine
 10
1116.0
 20
58.862040232118005
 30
0.0
 11
1142.5
 21
58.862040232118005
 31
0.0
  0
LINE
  5
2B6
100
AcDbEntity
  8
0
390
0
100
AcDbLine
 10
1116.0
 20
111.86204023211801
 30
0.0
 11
1142.5
 21
111.86204023211801
 31
0.0
  0
ENDBLK
  5
2B7
100
AcDbEntity
  8
0
390
0
100
AcDbBlockEnd
  0
BLOCK
  5
2BA
100
AcDbEntity
  8
0
390
0
100
AcDbBlockBegin
  2
B02467D04
 70
               0
 10
0.0
 20
0.0
 30
0.0
  3

  1

  0
LINE
  5
2BB
100
AcDbEntity
  8
0
390
0
100
AcDbLine
 10
1147.0
 20
111.86204023211801
 30
0.0
 11
1147.0
 21
58.862040232118005
 31
0.0
  0
LINE
  5
2BC
100
AcDbEntity
  8
0
390
0
100
AcDbLine
 10
1173.5
 20
111.86204023211801
 30
0.0
 11
1173.5
 21
58.862040232118005
 31
0.0
  0
LINE
  5
2BD
100
AcDbEntity
  8
0
390
0
100
AcDbLine
 10
1147.0
 20
58.862040232118005
 30
0.0
 11
1173.5
 21
58.862040232118005
 31
0.0
  0
LINE
  5
2BE
100
AcDbEntity
  8
0
390
0
100
AcDbLine
 10
1147.0
 20
111.86204023211801
 30
0.0
 11
1173.5
 21
111.86204023211801
 31
0.0
  0
ENDBLK
  5
2BF
100
AcDbEntity
  8
0
390
0
100
AcDbBlockEnd
  0
BLOCK
  5
2C2
100
AcDbEntity
  8
0
390
0
100
AcDbBlockBegin
  2
B02467EA0
 70
               0
 10
0.0
 20
0.0
 30
0.0
  3

  1

  0
LINE
  5
2C3
100
AcDbEntity
  8
0
390
0
100
AcDbLine
 10
1178.0
 20
111.86204023211801
 30
0.0
 11
1178.0
 21
58.862040232118005
 31
0.0
  0
LINE
  5
2C4
100
AcDbEntity
  8
0
390
0
100
AcDbLine
 10
1204.5
 20
111.86204023211801
 30
0.0
 11
1204.5
 21
58.862040232118005
 31
0.0
  0
LINE
  5
2C5
100
AcDbEntity
  8
0
390
0
100
AcDbLine
 10
1178.0
 20
58.862040232118005
 30
0.0
 11
1204.5
 21
58.862040232118005
 31
0.0
  0
LINE
  5
2C6
100
AcDbEntity
  8
0
390
0
100
AcDbLine
 10
1178.0
 20
111.86204023211801
 30
0.0
 11
1204.5
 21
111.86204023211801
 31
0.0
  0
ENDBLK
  5
2C7
100
AcDbEntity
  8
0
390
0
100
AcDbBlockEnd
  0
BLOCK
  5
2CA
100
AcDbEntity
  8
0
390
0
100
AcDbBlockBegin
  2
B0246803C
 70
               0
 10
0.0
 20
0.0
 30
0.0
  3

  1

  0
LINE
  5
2CB
100
AcDbEntity
  8
0
390
0
100
AcDbLine
 10
1209.0
 20
111.86204023211801
 30
0.0
 11
1209.0
 21
58.862040232118005
 31
0.0
  0
LINE
  5
2CC
100
AcDbEntity
  8
0
390
0
100
AcDbLine
 10
1235.5
 20
111.86204023211801
 30
0.0
 11
1235.5
 21
58.862040232118005
 31
0.0
  0
LINE
  5
2CD
100
AcDbEntity
  8
0
390
0
100
AcDbLine
 10
1209.0
 20
58.862040232118005
 30
0.0
 11
1235.5
 21
58.862040232118005
 31
0.0
  0
LINE
  5
2CE
100
AcDbEntity
  8
0
390
0
100
AcDbLine
 10
1209.0
 20
111.86204023211801
 30
0.0
 11
1235.5
 21
111.86204023211801
 31
0.0
  0
ENDBLK
  5
2CF
100
AcDbEntity
  8
0
390
0
100
AcDbBlockEnd
  0
BLOCK
  5
2D2
100
AcDbEntity
  8
0
390
0
100
AcDbBlockBegin
  2
B024681D8
 70
               0
 10
0.0
 20
0.0
 30
0.0
  3

  1

  0
LINE
  5
2D3
100
AcDbEntity
  8
0
390
0
100
AcDbLine
 10
0.0
 20
0.0
 30
0.0
 11
14.5
 21
0.0
 31
0.0
  0
LINE
  5
2D4
100
AcDbEntity
  8
0
390
0
100
AcDbLine
 10
0.0
 20
0.0
 30
0.0
 11
0.0
 21
53.0
 31
0.0
  0
LINE
  5
2D5
100
AcDbEntity
  8
0
390
0
100
AcDbLine
 10
0.0
 20
53.0
 30
0.0
 11
14.5
 21
53.0
 31
0.0
  0
LINE
  5
2D6
100
AcDbEntity
  8
0
390
0
100
AcDbLine
 10
14.5
 20
0.0
 30
0.0
 11
14.5
 21
53.0
 31
0.0
  0
ENDBLK
  5
2D7
100
AcDbEntity
  8
0
390
0
100
AcDbBlockEnd
  0
BLOCK
  5
2DA
100
AcDbEntity
  8
0
390
0
100
AcDbBlockBegin
  2
B02468374
 70
               0
 10
0.0
 20
0.0
 30
0.0
  3

  1

  0
LINE
  5
2DB
100
AcDbEntity
  8
0
390
0
100
AcDbLine
 10
19.0
 20
0.0
 30
0.0
 11
33.5
 21
0.0
 31
0.0
  0
LINE
  5
2DC
100
AcDbEntity
  8
0
390
0
100
AcDbLine
 10
19.0
 20
0.0
 30
0.0
 11
19.0
 21
53.0
 31
0.0
  0
LINE
  5
2DD
100
AcDbEntity
  8
0
390
0
100
AcDbLine
 10
19.0
 20
53.0
 30
0.0
 11
33.5
 21
53.0
 31
0.0
  0
LINE
  5
2DE
100
AcDbEntity
  8
0
390
0
100
AcDbLine
 10
33.5
 20
0.0
 30
0.0
 11
33.5
 21
53.0
 31
0.0
  0
ENDBLK
  5
2DF
100
AcDbEntity
  8
0
390
0
100
AcDbBlockEnd
  0
BLOCK
  5
2E2
100
AcDbEntity
  8
0
390
0
100
AcDbBlockBegin
  2
B02468510
 70
               0
 10
0.0
 20
0.0
 30
0.0
  3

  1

  0
LINE
  5
2E3
100
AcDbEntity
  8
0
390
0
100
AcDbLine
 10
38.0
 20
0.0
 30
0.0
 11
52.5
 21
0.0
 31
0.0
  0
LINE
  5
2E4
100
AcDbEntity
  8
0
390
0
100
AcDbLine
 10
38.0
 20
0.0
 30
0.0
 11
38.0
 21
53.0
 31
0.0
  0
LINE
  5
2E5
100
AcDbEntity
  8
0
390
0
100
AcDbLine
 10
38.0
 20
53.0
 30
0.0
 11
52.5
 21
53.0
 31
0.0
  0
LINE
  5
2E6
100
AcDbEntity
  8
0
390
0
100
AcDbLine
 10
52.5
 20
0.0
 30
0.0
 11
52.5
 21
53.0
 31
0.0
  0
ENDBLK
  5
2E7
100
AcDbEntity
  8
0
390
0
100
AcDbBlockEnd
  0
BLOCK
  5
2EA
100
AcDbEntity
  8
0
390
0
100
AcDbBlockBegin
  2
B024686AC
 70
               0
 10
0.0
 20
0.0
 30
0.0
  3

  1

  0
LINE
  5
2EB
100
AcDbEntity
  8
0
390
0
100
AcDbLine
 10
57.0
 20
0.0
 30
0.0
 11
71.5
 21
0.0
 31
0.0
  0
LINE
  5
2EC
100
AcDbEntity
  8
0
390
0
100
AcDbLine
 10
57.0
 20
0.0
 30
0.0
 11
57.0
 21
53.0
 31
0.0
  0
LINE
  5
2ED
100
AcDbEntity
  8
0
390
0
100
AcDbLine
 10
57.0
 20
53.0
 30
0.0
 11
71.5
 21
53.0
 31
0.0
  0
LINE
  5
2EE
100
AcDbEntity
  8
0
390
0
100
AcDbLine
 10
71.5
 20
0.0
 30
0.0
 11
71.5
 21
53.0
 31
0.0
  0
ENDBLK
  5
2EF
100
AcDbEntity
  8
0
390
0
100
AcDbBlockEnd
  0
BLOCK
  5
2F2
100
AcDbEntity
  8
0
390
0
100
AcDbBlockBegin
  2
B02468848
 70
               0
 10
0.0
 20
0.0
 30
0.0
  3

  1

  0
LINE
  5
2F3
100
AcDbEntity
  8
0
390
0
100
AcDbLine
 10
76.0
 20
0.0
 30
0.0
 11
90.5
 21
0.0
 31
0.0
  0
LINE
  5
2F4
100
AcDbEntity
  8
0
390
0
100
AcDbLine
 10
76.0
 20
0.0
 30
0.0
 11
76.0
 21
53.0
 31
0.0
  0
LINE
  5
2F5
100
AcDbEntity
  8
0
390
0
100
AcDbLine
 10
76.0
 20
53.0
 30
0.0
 11
90.5
 21
53.0
 31
0.0
  0
LINE
  5
2F6
100
AcDbEntity
  8
0
390
0
100
AcDbLine
 10
90.5
 20
0.0
 30
0.0
 11
90.5
 21
53.0
 31
0.0
  0
ENDBLK
  5
2F7
100
AcDbEntity
  8
0
390
0
100
AcDbBlockEnd
  0
BLOCK
  5
2FA
100
AcDbEntity
  8
0
390
0
100
AcDbBlockBegin
  2
B024689E4
 70
               0
 10
0.0
 20
0.0
 30
0.0
  3

  1

  0
LINE
  5
2FB
100
AcDbEntity
  8
0
390
0
100
AcDbLine
 10
95.0
 20
0.0
 30
0.0
 11
109.5
 21
0.0
 31
0.0
  0
LINE
  5
2FC
100
AcDbEntity
  8
0
390
0
100
AcDbLine
 10
95.0
 20
0.0
 30
0.0
 11
95.0
 21
53.0
 31
0.0
  0
LINE
  5
2FD
100
AcDbEntity
  8
0
390
0
100
AcDbLine
 10
95.0
 20
53.0
 30
0.0
 11
109.5
 21
53.0
 31
0.0
  0
LINE
  5
2FE
100
AcDbEntity
  8
0
390
0
100
AcDbLine
 10
109.5
 20
0.0
 30
0.0
 11
109.5
 21
53.0
 31
0.0
  0
ENDBLK
  5
2FF
100
AcDbEntity
  8
0
390
0
100
AcDbBlockEnd
  0
BLOCK
  5
302
100
AcDbEntity
  8
0
390
0
100
AcDbBlockBegin
  2
B02468B80
 70
               0
 10
0.0
 20
0.0
 30
0.0
  3

  1

  0
LINE
  5
303
100
AcDbEntity
  8
0
390
0
100
AcDbLine
 10
114.0
 20
0.0
 30
0.0
 11
128.5
 21
0.0
 31
0.0
  0
LINE
  5
304
100
AcDbEntity
  8
0
390
0
100
AcDbLine
 10
114.0
 20
0.0
 30
0.0
 11
114.0
 21
53.0
 31
0.0
  0
LINE
  5
305
100
AcDbEntity
  8
0
390
0
100
AcDbLine
 10
114.0
 20
53.0
 30
0.0
 11
128.5
 21
53.0
 31
0.0
  0
LINE
  5
306
100
AcDbEntity
  8
0
390
0
100
AcDbLine
 10
128.5
 20
0.0
 30
0.0
 11
128.5
 21
53.0
 31
0.0
  0
ENDBLK
  5
307
100
AcDbEntity
  8
0
390
0
100
AcDbBlockEnd
  0
BLOCK
  5
30A
100
AcDbEntity
  8
0
390
0
100
AcDbBlockBegin
  2
B02468D1C
 70
               0
 10
0.0
 20
0.0
 30
0.0
  3

  1

  0
LINE
  5
30B
100
AcDbEntity
  8
0
390
0
100
AcDbLine
 10
133.0
 20
0.0
 30
0.0
 11
147.5
 21
0.0
 31
0.0
  0
LINE
  5
30C
100
AcDbEntity
  8
0
390
0
100
AcDbLine
 10
133.0
 20
0.0
 30
0.0
 11
133.0
 21
53.0
 31
0.0
  0
LINE
  5
30D
100
AcDbEntity
  8
0
390
0
100
AcDbLine
 10
133.0
 20
53.0
 30
0.0
 11
147.5
 21
53.0
 31
0.0
  0
LINE
  5
30E
100
AcDbEntity
  8
0
390
0
100
AcDbLine
 10
147.5
 20
0.0
 30
0.0
 11
147.5
 21
53.0
 31
0.0
  0
ENDBLK
  5
30F
100
AcDbEntity
  8
0
390
0
100
AcDbBlockEnd
  0
BLOCK
  5
312
100
AcDbEntity
  8
0
390
0
100
AcDbBlockBegin
  2
B02468EB8
 70
               0
 10
0.0
 20
0.0
 30
0.0
  3

  1

  0
LINE
  5
313
100
AcDbEntity
  8
0
390
0
100
AcDbLine
 10
152.0
 20
0.0
 30
0.0
 11
166.5
 21
0.0
 31
0.0
  0
LINE
  5
314
100
AcDbEntity
  8
0
390
0
100
AcDbLine
 10
152.0
 20
0.0
 30
0.0
 11
152.0
 21
53.0
 31
0.0
  0
LINE
  5
315
100
AcDbEntity
  8
0
390
0
100
AcDbLine
 10
152.0
 20
53.0
 30
0.0
 11
166.5
 21
53.0
 31
0.0
  0
LINE
  5
316
100
AcDbEntity
  8
0
390
0
100
AcDbLine
 10
166.5
 20
0.0
 30
0.0
 11
166.5
 21
53.0
 31
0.0
  0
ENDBLK
  5
317
100
AcDbEntity
  8
0
390
0
100
AcDbBlockEnd
  0
BLOCK
  5
31A
100
AcDbEntity
  8
0
390
0
100
AcDbBlockBegin
  2
B02469054
 70
               0
 10
0.0
 20
0.0
 30
0.0
  3

  1

  0
LINE
  5
31B
100
AcDbEntity
  8
0
390
0
100
AcDbLine
 10
171.0
 20
0.0
 30
0.0
 11
185.5
 21
0.0
 31
0.0
  0
LINE
  5
31C
100
AcDbEntity
  8
0
390
0
100
AcDbLine
 10
171.0
 20
0.0
 30
0.0
 11
171.0
 21
53.0
 31
0.0
  0
LINE
  5
31D
100
AcDbEntity
  8
0
390
0
100
AcDbLine
 10
171.0
 20
53.0
 30
0.0
 11
185.5
 21
53.0
 31
0.0
  0
LINE
  5
31E
100
AcDbEntity
  8
0
390
0
100
AcDbLine
 10
185.5
 20
0.0
 30
0.0
 11
185.5
 21
53.0
 31
0.0
  0
ENDBLK
  5
31F
100
AcDbEntity
  8
0
390
0
100
AcDbBlockEnd
  0
BLOCK
  5
322
100
AcDbEntity
  8
0
390
0
100
AcDbBlockBegin
  2
B024691F0
 70
               0
 10
0.0
 20
0.0
 30
0.0
  3

  1

  0
LINE
  5
323
100
AcDbEntity
  8
0
390
0
100
AcDbLine
 10
190.0
 20
0.0
 30
0.0
 11
204.5
 21
0.0
 31
0.0
  0
LINE
  5
324
100
AcDbEntity
  8
0
390
0
100
AcDbLine
 10
190.0
 20
0.0
 30
0.0
 11
190.0
 21
53.0
 31
0.0
  0
LINE
  5
325
100
AcDbEntity
  8
0
390
0
100
AcDbLine
 10
190.0
 20
53.0
 30
0.0
 11
204.5
 21
53.0
 31
0.0
  0
LINE
  5
326
100
AcDbEntity
  8
0
390
0
100
AcDbLine
 10
204.5
 20
0.0
 30
0.0
 11
204.5
 21
53.0
 31
0.0
  0
ENDBLK
  5
327
100
AcDbEntity
  8
0
390
0
100
AcDbBlockEnd
  0
BLOCK
  5
32A
100
AcDbEntity
  8
0
390
0
100
AcDbBlockBegin
  2
B0246938C
 70
               0
 10
0.0
 20
0.0
 30
0.0
  3

  1

  0
LINE
  5
32B
100
AcDbEntity
  8
0
390
0
100
AcDbLine
 10
209.0
 20
0.0
 30
0.0
 11
223.5
 21
0.0
 31
0.0
  0
LINE
  5
32C
100
AcDbEntity
  8
0
390
0
100
AcDbLine
 10
209.0
 20
0.0
 30
0.0
 11
209.0
 21
53.0
 31
0.0
  0
LINE
  5
32D
100
AcDbEntity
  8
0
390
0
100
AcDbLine
 10
209.0
 20
53.0
 30
0.0
 11
223.5
 21
53.0
 31
0.0
  0
LINE
  5
32E
100
AcDbEntity
  8
0
390
0
100
AcDbLine
 10
223.5
 20
0.0
 30
0.0
 11
223.5
 21
53.0
 31
0.0
  0
ENDBLK
  5
32F
100
AcDbEntity
  8
0
390
0
100
AcDbBlockEnd
  0
BLOCK
  5
332
100
AcDbEntity
  8
0
390
0
100
AcDbBlockBegin
  2
B02469528
 70
               0
 10
0.0
 20
0.0
 30
0.0
  3

  1

  0
LINE
  5
333
100
AcDbEntity
  8
0
390
0
100
AcDbLine
 10
228.0
 20
0.0
 30
0.0
 11
242.5
 21
0.0
 31
0.0
  0
LINE
  5
334
100
AcDbEntity
  8
0
390
0
100
AcDbLine
 10
228.0
 20
0.0
 30
0.0
 11
228.0
 21
53.0
 31
0.0
  0
LINE
  5
335
100
AcDbEntity
  8
0
390
0
100
AcDbLine
 10
228.0
 20
53.0
 30
0.0
 11
242.5
 21
53.0
 31
0.0
  0
LINE
  5
336
100
AcDbEntity
  8
0
390
0
100
AcDbLine
 10
242.5
 20
0.0
 30
0.0
 11
242.5
 21
53.0
 31
0.0
  0
ENDBLK
  5
337
100
AcDbEntity
  8
0
390
0
100
AcDbBlockEnd
  0
BLOCK
  5
33A
100
AcDbEntity
  8
0
390
0
100
AcDbBlockBegin
  2
B024696C4
 70
               0
 10
0.0
 20
0.0
 30
0.0
  3

  1

  0
LINE
  5
33B
100
AcDbEntity
  8
0
390
0
100
AcDbLine
 10
247.0
 20
0.0
 30
0.0
 11
261.5
 21
0.0
 31
0.0
  0
LINE
  5
33C
100
AcDbEntity
  8
0
390
0
100
AcDbLine
 10
247.0
 20
0.0
 30
0.0
 11
247.0
 21
53.0
 31
0.0
  0
LINE
  5
33D
100
AcDbEntity
  8
0
390
0
100
AcDbLine
 10
247.0
 20
53.0
 30
0.0
 11
261.5
 21
53.0
 31
0.0
  0
LINE
  5
33E
100
AcDbEntity
  8
0
390
0
100
AcDbLine
 10
261.5
 20
0.0
 30
0.0
 11
261.5
 21
53.0
 31
0.0
  0
ENDBLK
  5
33F
100
AcDbEntity
  8
0
390
0
100
AcDbBlockEnd
  0
BLOCK
  5
342
100
AcDbEntity
  8
0
390
0
100
AcDbBlockBegin
  2
B02469860
 70
               0
 10
0.0
 20
0.0
 30
0.0
  3

  1

  0
LINE
  5
343
100
AcDbEntity
  8
0
390
0
100
AcDbLine
 10
266.0
 20
0.0
 30
0.0
 11
280.5
 21
0.0
 31
0.0
  0
LINE
  5
344
100
AcDbEntity
  8
0
390
0
100
AcDbLine
 10
266.0
 20
0.0
 30
0.0
 11
266.0
 21
53.0
 31
0.0
  0
LINE
  5
345
100
AcDbEntity
  8
0
390
0
100
AcDbLine
 10
266.0
 20
53.0
 30
0.0
 11
280.5
 21
53.0
 31
0.0
  0
LINE
  5
346
100
AcDbEntity
  8
0
390
0
100
AcDbLine
 10
280.5
 20
0.0
 30
0.0
 11
280.5
 21
53.0
 31
0.0
  0
ENDBLK
  5
347
100
AcDbEntity
  8
0
390
0
100
AcDbBlockEnd
  0
BLOCK
  5
34A
100
AcDbEntity
  8
0
390
0
100
AcDbBlockBegin
  2
B024699FC
 70
               0
 10
0.0
 20
0.0
 30
0.0
  3

  1

  0
LINE
  5
34B
100
AcDbEntity
  8
0
390
0
100
AcDbLine
 10
285.0
 20
0.0
 30
0.0
 11
299.5
 21
0.0
 31
0.0
  0
LINE
  5
34C
100
AcDbEntity
  8
0
390
0
100
AcDbLine
 10
285.0
 20
0.0
 30
0.0
 11
285.0
 21
53.0
 31
0.0
  0
LINE
  5
34D
100
AcDbEntity
  8
0
390
0
100
AcDbLine
 10
285.0
 20
53.0
 30
0.0
 11
299.5
 21
53.0
 31
0.0
  0
LINE
  5
34E
100
AcDbEntity
  8
0
390
0
100
AcDbLine
 10
299.5
 20
0.0
 30
0.0
 11
299.5
 21
53.0
 31
0.0
  0
ENDBLK
  5
34F
100
AcDbEntity
  8
0
390
0
100
AcDbBlockEnd
  0
BLOCK
  5
352
100
AcDbEntity
  8
0
390
0
100
AcDbBlockBegin
  2
B02469B98
 70
               0
 10
0.0
 20
0.0
 30
0.0
  3

  1

  0
LINE
  5
353
100
AcDbEntity
  8
0
390
0
100
AcDbLine
 10
304.0
 20
0.0
 30
0.0
 11
318.5
 21
0.0
 31
0.0
  0
LINE
  5
354
100
AcDbEntity
  8
0
390
0
100
AcDbLine
 10
304.0
 20
0.0
 30
0.0
 11
304.0
 21
53.0
 31
0.0
  0
LINE
  5
355
100
AcDbEntity
  8
0
390
0
100
AcDbLine
 10
304.0
 20
53.0
 30
0.0
 11
318.5
 21
53.0
 31
0.0
  0
LINE
  5
356
100
AcDbEntity
  8
0
390
0
100
AcDbLine
 10
318.5
 20
0.0
 30
0.0
 11
318.5
 21
53.0
 31
0.0
  0
ENDBLK
  5
357
100
AcDbEntity
  8
0
390
0
100
AcDbBlockEnd
  0
BLOCK
  5
35A
100
AcDbEntity
  8
0
390
0
100
AcDbBlockBegin
  2
B02469D34
 70
               0
 10
0.0
 20
0.0
 30
0.0
  3

  1

  0
LINE
  5
35B
100
AcDbEntity
  8
0
390
0
100
AcDbLine
 10
323.0
 20
0.0
 30
0.0
 11
337.5
 21
0.0
 31
0.0
  0
LINE
  5
35C
100
AcDbEntity
  8
0
390
0
100
AcDbLine
 10
323.0
 20
0.0
 30
0.0
 11
323.0
 21
53.0
 31
0.0
  0
LINE
  5
35D
100
AcDbEntity
  8
0
390
0
100
AcDbLine
 10
323.0
 20
53.0
 30
0.0
 11
337.5
 21
53.0
 31
0.0
  0
LINE
  5
35E
100
AcDbEntity
  8
0
390
0
100
AcDbLine
 10
337.5
 20
0.0
 30
0.0
 11
337.5
 21
53.0
 31
0.0
  0
ENDBLK
  5
35F
100
AcDbEntity
  8
0
390
0
100
AcDbBlockEnd
  0
BLOCK
  5
362
100
AcDbEntity
  8
0
390
0
100
AcDbBlockBegin
  2
B02469ED0
 70
               0
 10
0.0
 20
0.0
 30
0.0
  3

  1

  0
LINE
  5
363
100
AcDbEntity
  8
0
390
0
100
AcDbLine
 10
342.0
 20
0.0
 30
0.0
 11
356.5
 21
0.0
 31
0.0
  0
LINE
  5
364
100
AcDbEntity
  8
0
390
0
100
AcDbLine
 10
342.0
 20
0.0
 30
0.0
 11
342.0
 21
53.0
 31
0.0
  0
LINE
  5
365
100
AcDbEntity
  8
0
390
0
100
AcDbLine
 10
342.0
 20
53.0
 30
0.0
 11
356.5
 21
53.0
 31
0.0
  0
LINE
  5
366
100
AcDbEntity
  8
0
390
0
100
AcDbLine
 10
356.5
 20
0.0
 30
0.0
 11
356.5
 21
53.0
 31
0.0
  0
ENDBLK
  5
367
100
AcDbEntity
  8
0
390
0
100
AcDbBlockEnd
  0
BLOCK
  5
36A
100
AcDbEntity
  8
0
390
0
100
AcDbBlockBegin
  2
B0246A06C
 70
               0
 10
0.0
 20
0.0
 30
0.0
  3

  1

  0
LINE
  5
36B
100
AcDbEntity
  8
0
390
0
100
AcDbLine
 10
361.0
 20
0.0
 30
0.0
 11
375.5
 21
0.0
 31
0.0
  0
LINE
  5
36C
100
AcDbEntity
  8
0
390
0
100
AcDbLine
 10
361.0
 20
0.0
 30
0.0
 11
361.0
 21
53.0
 31
0.0
  0
LINE
  5
36D
100
AcDbEntity
  8
0
390
0
100
AcDbLine
 10
361.0
 20
53.0
 30
0.0
 11
375.5
 21
53.0
 31
0.0
  0
LINE
  5
36E
100
AcDbEntity
  8
0
390
0
100
AcDbLine
 10
375.5
 20
0.0
 30
0.0
 11
375.5
 21
53.0
 31
0.0
  0
ENDBLK
  5
36F
100
AcDbEntity
  8
0
390
0
100
AcDbBlockEnd
  0
BLOCK
  5
372
100
AcDbEntity
  8
0
390
0
100
AcDbBlockBegin
  2
B0246A208
 70
               0
 10
0.0
 20
0.0
 30
0.0
  3

  1

  0
LINE
  5
373
100
AcDbEntity
  8
0
390
0
100
AcDbLine
 10
380.0
 20
0.0
 30
0.0
 11
394.5
 21
0.0
 31
0.0
  0
LINE
  5
374
100
AcDbEntity
  8
0
390
0
100
AcDbLine
 10
380.0
 20
0.0
 30
0.0
 11
380.0
 21
53.0
 31
0.0
  0
LINE
  5
375
100
AcDbEntity
  8
0
390
0
100
AcDbLine
 10
380.0
 20
53.0
 30
0.0
 11
394.5
 21
53.0
 31
0.0
  0
LINE
  5
376
100
AcDbEntity
  8
0
390
0
100
AcDbLine
 10
394.5
 20
0.0
 30
0.0
 11
394.5
 21
53.0
 31
0.0
  0
ENDBLK
  5
377
100
AcDbEntity
  8
0
390
0
100
AcDbBlockEnd
  0
BLOCK
  5
37A
100
AcDbEntity
  8
0
390
0
100
AcDbBlockBegin
  2
B0246A3A4
 70
               0
 10
0.0
 20
0.0
 30
0.0
  3

  1

  0
LINE
  5
37B
100
AcDbEntity
  8
0
390
0
100
AcDbLine
 10
399.0
 20
0.0
 30
0.0
 11
413.5
 21
0.0
 31
0.0
  0
LINE
  5
37C
100
AcDbEntity
  8
0
390
0
100
AcDbLine
 10
399.0
 20
0.0
 30
0.0
 11
399.0
 21
53.0
 31
0.0
  0
LINE
  5
37D
100
AcDbEntity
  8
0
390
0
100
AcDbLine
 10
399.0
 20
53.0
 30
0.0
 11
413.5
 21
53.0
 31
0.0
  0
LINE
  5
37E
100
AcDbEntity
  8
0
390
0
100
AcDbLine
 10
413.5
 20
0.0
 30
0.0
 11
413.5
 21
53.0
 31
0.0
  0
ENDBLK
  5
37F
100
AcDbEntity
  8
0
390
0
100
AcDbBlockEnd
  0
BLOCK
  5
382
100
AcDbEntity
  8
0
390
0
100
AcDbBlockBegin
  2
B02BC8154
 70
               0
 10
0.0
 20
0.0
 30
0.0
  3

  1

  0
LINE
  5
383
100
AcDbEntity
  8
0
390
0
100
AcDbLine
 10
418.0
 20
0.0
 30
0.0
 11
432.5
 21
0.0
 31
0.0
  0
LINE
  5
384
100
AcDbEntity
  8
0
390
0
100
AcDbLine
 10
418.0
 20
0.0
 30
0.0
 11
418.0
 21
53.0
 31
0.0
  0
LINE
  5
385
100
AcDbEntity
  8
0
390
0
100
AcDbLine
 10
418.0
 20
53.0
 30
0.0
 11
432.5
 21
53.0
 31
0.0
  0
LINE
  5
386
100
AcDbEntity
  8
0
390
0
100
AcDbLine
 10
432.5
 20
0.0
 30
0.0
 11
432.5
 21
53.0
 31
0.0
  0
ENDBLK
  5
387
100
AcDbEntity
  8
0
390
0
100
AcDbBlockEnd
  0
BLOCK
  5
38A
100
AcDbEntity
  8
0
390
0
100
AcDbBlockBegin
  2
B02BC82F0
 70
               0
 10
0.0
 20
0.0
 30
0.0
  3

  1

  0
LINE
  5
38B
100
AcDbEntity
  8
0
390
0
100
AcDbLine
 10
465.0
 20
111.86204023211801
 30
0.0
 11
465.0
 21
58.862040232118005
 31
0.0
  0
LINE
  5
38C
100
AcDbEntity
  8
0
390
0
100
AcDbLine
 10
491.5
 20
111.86204023211801
 30
0.0
 11
491.5
 21
58.862040232118005
 31
0.0
  0
LINE
  5
38D
100
AcDbEntity
  8
0
390
0
100
AcDbLine
 10
465.0
 20
58.862040232118005
 30
0.0
 11
491.5
 21
58.862040232118005
 31
0.0
  0
LINE
  5
38E
100
AcDbEntity
  8
0
390
0
100
AcDbLine
 10
465.0
 20
111.86204023211801
 30
0.0
 11
491.5
 21
111.86204023211801
 31
0.0
  0
ENDBLK
  5
38F
100
AcDbEntity
  8
0
390
0
100
AcDbBlockEnd
  0
BLOCK
  5
392
100
AcDbEntity
  8
0
390
0
100
AcDbBlockBegin
  2
B02BC848C
 70
               0
 10
0.0
 20
0.0
 30
0.0
  3

  1

  0
LINE
  5
393
100
AcDbEntity
  8
0
390
0
100
AcDbLine
 10
465.0
 20
53.0
 30
0.0
 11
465.0
 21
29.007838308380475
 31
0.0
  0
LINE
  5
394
100
AcDbEntity
  8
0
390
0
100
AcDbLine
 10
491.5
 20
53.0
 30
0.0
 11
491.5
 21
29.007838308380475
 31
0.0
  0
LINE
  5
395
100
AcDbEntity
  8
0
390
0
100
AcDbLine
 10
465.0
 20
29.007838308380475
 30
0.0
 11
491.5
 21
29.007838308380475
 31
0.0
  0
LINE
  5
396
100
AcDbEntity
  8
0
390
0
100
AcDbLine
 10
465.0
 20
53.0
 30
0.0
 11
491.5
 21
53.0
 31
0.0
  0
ENDBLK
  5
397
100
AcDbEntity
  8
0
390
0
100
AcDbBlockEnd
  0
BLOCK
  5
39A
100
AcDbEntity
  8
0
390
0
100
AcDbBlockBegin
  2
B02BC8628
 70
               0
 10
0.0
 20
0.0
 30
0.0
  3

  1

  0
LINE
  5
39B
100
AcDbEntity
  8
0
390
0
100
AcDbLine
 10
465.0
 20
-0.0702273791085233
 30
0.0
 11
465.0
 21
23.921934312511002
 31
0.0
  0
LINE
  5
39C
100
AcDbEntity
  8
0
390
0
100
AcDbLine
 10
491.5
 20
-0.0702273791085233
 30
0.0
 11
491.5
 21
23.921934312511002
 31
0.0
  0
LINE
  5
39D
100
AcDbEntity
  8
0
390
0
100
AcDbLine
 10
465.0
 20
23.921934312511002
 30
0.0
 11
491.5
 21
23.921934312511002
 31
0.0
  0
LINE
  5
39E
100
AcDbEntity
  8
0
390
0
100
AcDbLine
 10
465.0
 20
-0.0702273791085233
 30
0.0
 11
491.5
 21
-0.0702273791085233
 31
0.0
  0
ENDBLK
  5
39F
100
AcDbEntity
  8
0
390
0
100
AcDbBlockEnd
  0
BLOCK
  5
3A2
100
AcDbEntity
  8
0
390
0
100
AcDbBlockBegin
  2
B02BC87C4
 70
               0
 10
0.0
 20
0.0
 30
0.0
  3

  1

  0
LINE
  5
3A3
100
AcDbEntity
  8
0
390
0
100
AcDbLine
 10
496.0
 20
53.0
 30
0.0
 11
496.0
 21
29.007838308380475
 31
0.0
  0
LINE
  5
3A4
100
AcDbEntity
  8
0
390
0
100
AcDbLine
 10
522.5
 20
53.0
 30
0.0
 11
522.5
 21
29.007838308380475
 31
0.0
  0
LINE
  5
3A5
100
AcDbEntity
  8
0
390
0
100
AcDbLine
 10
496.0
 20
29.007838308380475
 30
0.0
 11
522.5
 21
29.007838308380475
 31
0.0
  0
LINE
  5
3A6
100
AcDbEntity
  8
0
390
0
100
AcDbLine
 10
496.0
 20
53.0
 30
0.0
 11
522.5
 21
53.0
 31
0.0
  0
ENDBLK
  5
3A7
100
AcDbEntity
  8
0
390
0
100
AcDbBlockEnd
  0
BLOCK
  5
3AA
100
AcDbEntity
  8
0
390
0
100
AcDbBlockBegin
  2
B02BC8960
 70
               0
 10
0.0
 20
0.0
 30
0.0
  3

  1

  0
LINE
  5
3AB
100
AcDbEntity
  8
0
390
0
100
AcDbLine
 10
496.0
 20
-0.0702273791085233
 30
0.0
 11
496.0
 21
23.921934312511002
 31
0.0
  0
LINE
  5
3AC
100
AcDbEntity
  8
0
390
0
100
AcDbLine
 10
522.5
 20
-0.0702273791085233
 30
0.0
 11
522.5
 21
23.921934312511002
 31
0.0
  0
LINE
  5
3AD
100
AcDbEntity
  8
0
390
0
100
AcDbLine
 10
496.0
 20
23.921934312511002
 30
0.0
 11
522.5
 21
23.921934312511002
 31
0.0
  0
LINE
  5
3AE
100
AcDbEntity
  8
0
390
0
100
AcDbLine
 10
496.0
 20
-0.0702273791085233
 30
0.0
 11
522.5
 21
-0.0702273791085233
 31
0.0
  0
ENDBLK
  5
3AF
100
AcDbEntity
  8
0
390
0
100
AcDbBlockEnd
  0
BLOCK
  5
3B2
100
AcDbEntity
  8
0
390
0
100
AcDbBlockBegin
  2
B02BC8AFC
 70
               0
 10
0.0
 20
0.0
 30
0.0
  3

  1

  0
LINE
  5
3B3
100
AcDbEntity
  8
0
390
0
100
AcDbLine
 10
527.0
 20
53.0
 30
0.0
 11
527.0
 21
32.99835127146801
 31
0.0
  0
LINE
  5
3B4
100
AcDbEntity
  8
0
390
0
100
AcDbLine
 10
553.5
 20
53.0
 30
0.0
 11
553.5
 21
32.99835127146801
 31
0.0
  0
LINE
  5
3B5
100
AcDbEntity
  8
0
390
0
100
AcDbLine
 10
527.0
 20
32.99835127146801
 30
0.0
 11
553.5
 21
32.99835127146801
 31
0.0
  0
LINE
  5
3B6
100
AcDbEntity
  8
0
390
0
100
AcDbLine
 10
527.0
 20
53.0
 30
0.0
 11
553.5
 21
53.0
 31
0.0
  0
ENDBLK
  5
3B7
100
AcDbEntity
  8
0
390
0
100
AcDbBlockEnd
  0
BLOCK
  5
3BA
100
AcDbEntity
  8
0
390
0
100
AcDbBlockBegin
  2
B02BC8C98
 70
               0
 10
0.0
 20
0.0
 30
0.0
  3

  1

  0
LINE
  5
3BB
100
AcDbEntity
  8
0
390
0
100
AcDbLine
 10
527.0
 20
23.921934312511002
 30
0.0
 11
527.0
 21
3.9202855839790125
 31
0.0
  0
LINE
  5
3BC
100
AcDbEntity
  8
0
390
0
100
AcDbLine
 10
553.5
 20
23.921934312511002
 30
0.0
 11
553.5
 21
3.9202855839790125
 31
0.0
  0
LINE
  5
3BD
100
AcDbEntity
  8
0
390
0
100
AcDbLine
 10
527.0
 20
3.9202855839790125
 30
0.0
 11
553.5
 21
3.9202855839790125
 31
0.0
  0
LINE
  5
3BE
100
AcDbEntity
  8
0
390
0
100
AcDbLine
 10
527.0
 20
23.921934312511002
 30
0.0
 11
553.5
 21
23.921934312511002
 31
0.0
  0
ENDBLK
  5
3BF
100
AcDbEntity
  8
0
390
0
100
AcDbBlockEnd
  0
BLOCK
  5
3C2
100
AcDbEntity
  8
0
390
0
100
AcDbBlockBegin
  2
B02BC8E34
 70
               0
 10
0.0
 20
0.0
 30
0.0
  3

  1

  0
LINE
  5
3C3
100
AcDbEntity
  8
0
390
0
100
AcDbLine
 10
558.0
 20
53.0
 30
0.0
 11
558.0
 21
32.99835127146801
 31
0.0
  0
LINE
  5
3C4
100
AcDbEntity
  8
0
390
0
100
AcDbLine
 10
584.5
 20
53.0
 30
0.0
 11
584.5
 21
32.99835127146801
 31
0.0
  0
LINE
  5
3C5
100
AcDbEntity
  8
0
390
0
100
AcDbLine
 10
558.0
 20
32.99835127146801
 30
0.0
 11
584.5
 21
32.99835127146801
 31
0.0
  0
LINE
  5
3C6
100
AcDbEntity
  8
0
390
0
100
AcDbLine
 10
558.0
 20
53.0
 30
0.0
 11
584.5
 21
53.0
 31
0.0
  0
ENDBLK
  5
3C7
100
AcDbEntity
  8
0
390
0
100
AcDbBlockEnd
  0
BLOCK
  5
3CA
100
AcDbEntity
  8
0
390
0
100
AcDbBlockBegin
  2
B02BC8FD0
 70
               0
 10
0.0
 20
0.0
 30
0.0
  3

  1

  0
LINE
  5
3CB
100
AcDbEntity
  8
0
390
0
100
AcDbLine
 10
558.0
 20
23.921934312511002
 30
0.0
 11
558.0
 21
3.9202855839790125
 31
0.0
  0
LINE
  5
3CC
100
AcDbEntity
  8
0
390
0
100
AcDbLine
 10
584.5
 20
23.921934312511002
 30
0.0
 11
584.5
 21
3.9202855839790125
 31
0.0
  0
LINE
  5
3CD
100
AcDbEntity
  8
0
390
0
100
AcDbLine
 10
558.0
 20
3.9202855839790125
 30
0.0
 11
584.5
 21
3.9202855839790125
 31
0.0
  0
LINE
  5
3CE
100
AcDbEntity
  8
0
390
0
100
AcDbLine
 10
558.0
 20
23.921934312511002
 30
0.0
 11
584.5
 21
23.921934312511002
 31
0.0
  0
ENDBLK
  5
3CF
100
AcDbEntity
  8
0
390
0
100
AcDbBlockEnd
  0
ENDSEC
  0
SECTION
  2
ENTITIES
  0
INSERT
  5
60
100
AcDbEntity
  8
0
390
0
100
AcDbBlockReference
  2
B024984B4
 10
0.0
 20
0.0
 30
0.0
  0
INSERT
  5
68
100
AcDbEntity
  8
0
390
0
100
AcDbBlockReference
  2
B02498650
 10
0.0
 20
0.0
 30
0.0
  0
INSERT
  5
70
100
AcDbEntity
  8
0
390
0
100
AcDbBlockReference
  2
B024987EC
 10
0.0
 20
0.0
 30
0.0
  0
INSERT
  5
78
100
AcDbEntity
  8
0
390
0
100
AcDbBlockReference
  2
B02498988
 10
0.0
 20
0.0
 30
0.0
  0
INSERT
  5
80
100
AcDbEntity
  8
0
390
0
100
AcDbBlockReference
  2
B02498B24
 10
0.0
 20
0.0
 30
0.0
  0
INSERT
  5
88
100
AcDbEntity
  8
0
390
0
100
AcDbBlockReference
  2
B02498CC0
 10
0.0
 20
0.0
 30
0.0
  0
INSERT
  5
90
100
AcDbEntity
  8
0
390
0
100
AcDbBlockReference
  2
B02498E5C
 10
0.0
 20
0.0
 30
0.0
  0
INSERT
  5
98
100
AcDbEntity
  8
0
390
0
100
AcDbBlockReference
  2
B02498FF8
 10
0.0
 20
0.0
 30
0.0
  0
INSERT
  5
A0
100
AcDbEntity
  8
0
390
0
100
AcDbBlockReference
  2
B02499194
 10
0.0
 20
0.0
 30
0.0
  0
INSERT
  5
A8
100
AcDbEntity
  8
0
390
0
100
AcDbBlockReference
  2
B02499330
 10
0.0
 20
0.0
 30
0.0
  0
INSERT
  5
B0
100
AcDbEntity
  8
0
390
0
100
AcDbBlockReference
  2
B024994CC
 10
0.0
 20
0.0
 30
0.0
  0
INSERT
  5
B8
100
AcDbEntity
  8
0
390
0
100
AcDbBlockReference
  2
B02499668
 10
0.0
 20
0.0
 30
0.0
  0
INSERT
  5
C0
100
AcDbEntity
  8
0
390
0
100
AcDbBlockReference
  2
B02499804
 10
0.0
 20
0.0
 30
0.0
  0
INSERT
  5
C8
100
AcDbEntity
  8
0
390
0
100
AcDbBlockReference
  2
B02BC0138
 10
0.0
 20
0.0
 30
0.0
  0
INSERT
  5
D0
100
AcDbEntity
  8
0
390
0
100
AcDbBlockReference
  2
B02BC02D4
 10
0.0
 20
0.0
 30
0.0
  0
INSERT
  5
D8
100
AcDbEntity
  8
0
390
0
100
AcDbBlockReference
  2
B02BC0470
 10
0.0
 20
0.0
 30
0.0
  0
INSERT
  5
E0
100
AcDbEntity
  8
0
390
0
100
AcDbBlockReference
  2
B02BC060C
 10
0.0
 20
0.0
 30
0.0
  0
INSERT
  5
E8
100
AcDbEntity
  8
0
390
0
100
AcDbBlockReference
  2
B02BC07A8
 10
0.0
 20
0.0
 30
0.0
  0
INSERT
  5
F0
100
AcDbEntity
  8
0
390
0
100
AcDbBlockReference
  2
B02BC0944
 10
0.0
 20
0.0
 30
0.0
  0
INSERT
  5
F8
100
AcDbEntity
  8
0
390
0
100
AcDbBlockReference
  2
B02BC0AE0
 10
0.0
 20
0.0
 30
0.0
  0
INSERT
  5
100
100
AcDbEntity
  8
0
390
0
100
AcDbBlockReference
  2
B02BC0C7C
 10
0.0
 20
0.0
 30
0.0
  0
INSERT
  5
108
100
AcDbEntity
  8
0
390
0
100
AcDbBlockReference
  2
B0249ABEC
 10
0.0
 20
0.0
 30
0.0
  0
INSERT
  5
110
100
AcDbEntity
  8
0
390
0
100
AcDbBlockReference
  2
B0249AD88
 10
0.0
 20
0.0
 30
0.0
  0
INSERT
  5
118
100
AcDbEntity
  8
0
390
0
100
AcDbBlockReference
  2
B0249AF24
 10
0.0
 20
0.0
 30
0.0
  0
INSERT
  5
120
100
AcDbEntity
  8
0
390
0
100
AcDbBlockReference
  2
B0247A3E8
 10
0.0
 20
0.0
 30
0.0
  0
INSERT
  5
128
100
AcDbEntity
  8
0
390
0
100
AcDbBlockReference
  2
B0247A584
 10
0.0
 20
0.0
 30
0.0
  0
INSERT
  5
130
100
AcDbEntity
  8
0
390
0
100
AcDbBlockReference
  2
B0247A720
 10
0.0
 20
0.0
 30
0.0
  0
INSERT
  5
138
100
AcDbEntity
  8
0
390
0
100
AcDbBlockReference
  2
B0247A8BC
 10
0.0
 20
0.0
 30
0.0
  0
INSERT
  5
140
100
AcDbEntity
  8
0
390
0
100
AcDbBlockReference
  2
B0247AA58
 10
0.0
 20
0.0
 30
0.0
  0
INSERT
  5
148
100
AcDbEntity
  8
0
390
0
100
AcDbBlockReference
  2
B0247ABF4
 10
0.0
 20
0.0
 30
0.0
  0
INSERT
  5
150
100
AcDbEntity
  8
0
390
0
100
AcDbBlockReference
  2
B0247AD90
 10
0.0
 20
0.0
 30
0.0
  0
INSERT
  5
158
100
AcDbEntity
  8
0
390
0
100
AcDbBlockReference
  2
B0247AF2C
 10
0.0
 20
0.0
 30
0.0
  0
INSERT
  5
160
100
AcDbEntity
  8
0
390
0
100
AcDbBlockReference
  2
B0247B0C8
 10
0.0
 20
0.0
 30
0.0
  0
INSERT
  5
168
100
AcDbEntity
  8
0
390
0
100
AcDbBlockReference
  2
B02C1EB4C
 10
0.0
 20
0.0
 30
0.0
  0
INSERT
  5
170
100
AcDbEntity
  8
0
390
0
100
AcDbBlockReference
  2
B02C1ECE8
 10
0.0
 20
0.0
 30
0.0
  0
INSERT
  5
178
100
AcDbEntity
  8
0
390
0
100
AcDbBlockReference
  2
B02C1EE84
 10
0.0
 20
0.0
 30
0.0
  0
INSERT
  5
180
100
AcDbEntity
  8
0
390
0
100
AcDbBlockReference
  2
B02C3C018
 10
0.0
 20
0.0
 30
0.0
  0
INSERT
  5
188
100
AcDbEntity
  8
0
390
0
100
AcDbBlockReference
  2
B02486608
 10
0.0
 20
0.0
 30
0.0
  0
INSERT
  5
190
100
AcDbEntity
  8
0
390
0
100
AcDbBlockReference
  2
B024867A4
 10
0.0
 20
0.0
 30
0.0
  0
INSERT
  5
198
100
AcDbEntity
  8
0
390
0
100
AcDbBlockReference
  2
B02486940
 10
0.0
 20
0.0
 30
0.0
  0
INSERT
  5
1A0
100
AcDbEntity
  8
0
390
0
100
AcDbBlockReference
  2
B02486ADC
 10
0.0
 20
0.0
 30
0.0
  0
INSERT
  5
1A8
100
AcDbEntity
  8
0
390
0
100
AcDbBlockReference
  2
B02486C78
 10
0.0
 20
0.0
 30
0.0
  0
INSERT
  5
1B0
100
AcDbEntity
  8
0
390
0
100
AcDbBlockReference
  2
B02486E14
 10
0.0
 20
0.0
 30
0.0
  0
INSERT
  5
1B8
100
AcDbEntity
  8
0
390
0
100
AcDbBlockReference
  2
B02486FB0
 10
0.0
 20
0.0
 30
0.0
  0
INSERT
  5
1C0
100
AcDbEntity
  8
0
390
0
100
AcDbBlockReference
  2
B02492E38
 10
0.0
 20
0.0
 30
0.0
  0
INSERT
  5
1C8
100
AcDbEntity
  8
0
390
0
100
AcDbBlockReference
  2
B02492FD4
 10
0.0
 20
0.0
 30
0.0
  0
INSERT
  5
1D0
100
AcDbEntity
  8
0
390
0
100
AcDbBlockReference
  2
B02482BA4
 10
0.0
 20
0.0
 30
0.0
  0
INSERT
  5
1D8
100
AcDbEntity
  8
0
390
0
100
AcDbBlockReference
  2
B02482D40
 10
0.0
 20
0.0
 30
0.0
  0
INSERT
  5
1E0
100
AcDbEntity
  8
0
390
0
100
AcDbBlockReference
  2
B02482EDC
 10
0.0
 20
0.0
 30
0.0
  0
INSERT
  5
1E8
100
AcDbEntity
  8
0
390
0
100
AcDbBlockReference
  2
B02483078
 10
0.0
 20
0.0
 30
0.0
  0
INSERT
  5
1F0
100
AcDbEntity
  8
0
390
0
100
AcDbBlockReference
  2
B02483214
 10
0.0
 20
0.0
 30
0.0
  0
INSERT
  5
1F8
100
AcDbEntity
  8
0
390
0
100
AcDbBlockReference
  2
B024833B0
 10
0.0
 20
0.0
 30
0.0
  0
INSERT
  5
200
100
AcDbEntity
  8
0
390
0
100
AcDbBlockReference
  2
B0248354C
 10
0.0
 20
0.0
 30
0.0
  0
INSERT
  5
208
100
AcDbEntity
  8
0
390
0
100
AcDbBlockReference
  2
B024836E8
 10
0.0
 20
0.0
 30
0.0
  0
INSERT
  5
210
100
AcDbEntity
  8
0
390
0
100
AcDbBlockReference
  2
B02483884
 10
0.0
 20
0.0
 30
0.0
  0
INSERT
  5
218
100
AcDbEntity
  8
0
390
0
100
AcDbBlockReference
  2
B02483A20
 10
0.0
 20
0.0
 30
0.0
  0
INSERT
  5
220
100
AcDbEntity
  8
0
390
0
100
AcDbBlockReference
  2
B02483BBC
 10
0.0
 20
0.0
 30
0.0
  0
INSERT
  5
228
100
AcDbEntity
  8
0
390
0
100
AcDbBlockReference
  2
B02483D58
 10
0.0
 20
0.0
 30
0.0
  0
INSERT
  5
230
100
AcDbEntity
  8
0
390
0
100
AcDbBlockReference
  2
B02483EF4
 10
0.0
 20
0.0
 30
0.0
  0
INSERT
  5
238
100
AcDbEntity
  8
0
390
0
100
AcDbBlockReference
  2
B02484090
 10
0.0
 20
0.0
 30
0.0
  0
INSERT
  5
240
100
AcDbEntity
  8
0
390
0
100
AcDbBlockReference
  2
B0248422C
 10
0.0
 20
0.0
 30
0.0
  0
INSERT
  5
248
100
AcDbEntity
  8
0
390
0
100
AcDbBlockReference
  2
B024843C8
 10
0.0
 20
0.0
 30
0.0
  0
INSERT
  5
250
100
AcDbEntity
  8
0
390
0
100
AcDbBlockReference
  2
B02484564
 10
0.0
 20
0.0
 30
0.0
  0
INSERT
  5
258
100
AcDbEntity
  8
0
390
0
100
AcDbBlockReference
  2
B02484700
 10
0.0
 20
0.0
 30
0.0
  0
INSERT
  5
260
100
AcDbEntity
  8
0
390
0
100
AcDbBlockReference
  2
B0248489C
 10
0.0
 20
0.0
 30
0.0
  0
INSERT
  5
268
100
AcDbEntity
  8
0
390
0
100
AcDbBlockReference
  2
B02484A38
 10
0.0
 20
0.0
 30
0.0
  0
INSERT
  5
270
100
AcDbEntity
  8
0
390
0
100
AcDbBlockReference
  2
B02484BD4
 10
0.0
 20
0.0
 30
0.0
  0
INSERT
  5
278
100
AcDbEntity
  8
0
390
0
100
AcDbBlockReference
  2
B02484D70
 10
0.0
 20
0.0
 30
0.0
  0
INSERT
  5
280
100
AcDbEntity
  8
0
390
0
100
AcDbBlockReference
  2
B02484F0C
 10
0.0
 20
0.0
 30
0.0
  0
INSERT
  5
288
100
AcDbEntity
  8
0
390
0
100
AcDbBlockReference
  2
B024850A8
 10
0.0
 20
0.0
 30
0.0
  0
INSERT
  5
290
100
AcDbEntity
  8
0
390
0
100
AcDbBlockReference
  2
B02485244
 10
0.0
 20
0.0
 30
0.0
  0
INSERT
  5
298
100
AcDbEntity
  8
0
390
0
100
AcDbBlockReference
  2
B024853E0
 10
0.0
 20
0.0
 30
0.0
  0
INSERT
  5
2A0
100
AcDbEntity
  8
0
390
0
100
AcDbBlockReference
  2
B02C46F38
 10
0.0
 20
0.0
 30
0.0
  0
INSERT
  5
2A8
100
AcDbEntity
  8
0
390
0
100
AcDbBlockReference
  2
B02467830
 10
0.0
 20
0.0
 30
0.0
  0
INSERT
  5
2B0
100
AcDbEntity
  8
0
390
0
100
AcDbBlockReference
  2
B024679CC
 10
0.0
 20
0.0
 30
0.0
  0
INSERT
  5
2B8
100
AcDbEntity
  8
0
390
0
100
AcDbBlockReference
  2
B02467B68
 10
0.0
 20
0.0
 30
0.0
  0
INSERT
  5
2C0
100
AcDbEntity
  8
0
390
0
100
AcDbBlockReference
  2
B02467D04
 10
0.0
 20
0.0
 30
0.0
  0
INSERT
  5
2C8
100
AcDbEntity
  8
0
390
0
100
AcDbBlockReference
  2
B02467EA0
 10
0.0
 20
0.0
 30
0.0
  0
INSERT
  5
2D0
100
AcDbEntity
  8
0
390
0
100
AcDbBlockReference
  2
B0246803C
 10
0.0
 20
0.0
 30
0.0
  0
INSERT
  5
2D8
100
AcDbEntity
  8
0
390
0
100
AcDbBlockReference
  2
B024681D8
 10
0.0
 20
0.0
 30
0.0
  0
INSERT
  5
2E0
100
AcDbEntity
  8
0
390
0
100
AcDbBlockReference
  2
B02468374
 10
0.0
 20
0.0
 30
0.0
  0
INSERT
  5
2E8
100
AcDbEntity
  8
0
390
0
100
AcDbBlockReference
  2
B02468510
 10
0.0
 20
0.0
 30
0.0
  0
INSERT
  5
2F0
100
AcDbEntity
  8
0
390
0
100
AcDbBlockReference
  2
B024686AC
 10
0.0
 20
0.0
 30
0.0
  0
INSERT
  5
2F8
100
AcDbEntity
  8
0
390
0
100
AcDbBlockReference
  2
B02468848
 10
0.0
 20
0.0
 30
0.0
  0
INSERT
  5
300
100
AcDbEntity
  8
0
390
0
100
AcDbBlockReference
  2
B024689E4
 10
0.0
 20
0.0
 30
0.0
  0
INSERT
  5
308
100
AcDbEntity
  8
0
390
0
100
AcDbBlockReference
  2
B02468B80
 10
0.0
 20
0.0
 30
0.0
  0
INSERT
  5
310
100
AcDbEntity
  8
0
390
0
100
AcDbBlockReference
  2
B02468D1C
 10
0.0
 20
0.0
 30
0.0
  0
INSERT
  5
318
100
AcDbEntity
  8
0
390
0
100
AcDbBlockReference
  2
B02468EB8
 10
0.0
 20
0.0
 30
0.0
  0
INSERT
  5
320
100
AcDbEntity
  8
0
390
0
100
AcDbBlockReference
  2
B02469054
 10
0.0
 20
0.0
 30
0.0
  0
INSERT
  5
328
100
AcDbEntity
  8
0
390
0
100
AcDbBlockReference
  2
B024691F0
 10
0.0
 20
0.0
 30
0.0
  0
INSERT
  5
330
100
AcDbEntity
  8
0
390
0
100
AcDbBlockReference
  2
B0246938C
 10
0.0
 20
0.0
 30
0.0
  0
INSERT
  5
338
100
AcDbEntity
  8
0
390
0
100
AcDbBlockReference
  2
B02469528
 10
0.0
 20
0.0
 30
0.0
  0
INSERT
  5
340
100
AcDbEntity
  8
0
390
0
100
AcDbBlockReference
  2
B024696C4
 10
0.0
 20
0.0
 30
0.0
  0
INSERT
  5
348
100
AcDbEntity
  8
0
390
0
100
AcDbBlockReference
  2
B02469860
 10
0.0
 20
0.0
 30
0.0
  0
INSERT
  5
350
100
AcDbEntity
  8
0
390
0
100
AcDbBlockReference
  2
B024699FC
 10
0.0
 20
0.0
 30
0.0
  0
INSERT
  5
358
100
AcDbEntity
  8
0
390
0
100
AcDbBlockReference
  2
B02469B98
 10
0.0
 20
0.0
 30
0.0
  0
INSERT
  5
360
100
AcDbEntity
  8
0
390
0
100
AcDbBlockReference
  2
B02469D34
 10
0.0
 20
0.0
 30
0.0
  0
INSERT
  5
368
100
AcDbEntity
  8
0
390
0
100
AcDbBlockReference
  2
B02469ED0
 10
0.0
 20
0.0
 30
0.0
  0
INSERT
  5
370
100
AcDbEntity
  8
0
390
0
100
AcDbBlockReference
  2
B0246A06C
 10
0.0
 20
0.0
 30
0.0
  0
INSERT
  5
378
100
AcDbEntity
  8
0
390
0
100
AcDbBlockReference
  2
B0246A208
 10
0.0
 20
0.0
 30
0.0
  0
INSERT
  5
380
100
AcDbEntity
  8
0
390
0
100
AcDbBlockReference
  2
B0246A3A4
 10
0.0
 20
0.0
 30
0.0
  0
INSERT
  5
388
100
AcDbEntity
  8
0
390
0
100
AcDbBlockReference
  2
B02BC8154
 10
0.0
 20
0.0
 30
0.0
  0
INSERT
  5
390
100
AcDbEntity
  8
0
390
0
100
AcDbBlockReference
  2
B02BC82F0
 10
0.0
 20
0.0
 30
0.0
  0
INSERT
  5
398
100
AcDbEntity
  8
0
390
0
100
AcDbBlockReference
  2
B02BC848C
 10
0.0
 20
0.0
 30
0.0
  0
INSERT
  5
3A0
100
AcDbEntity
  8
0
390
0
100
AcDbBlockReference
  2
B02BC8628
 10
0.0
 20
0.0
 30
0.0
  0
INSERT
  5
3A8
100
AcDbEntity
  8
0
390
0
100
AcDbBlockReference
  2
B02BC87C4
 10
0.0
 20
0.0
 30
0.0
  0
INSERT
  5
3B0
100
AcDbEntity
  8
0
390
0
100
AcDbBlockReference
  2
B02BC8960
 10
0.0
 20
0.0
 30
0.0
  0
INSERT
  5
3B8
100
AcDbEntity
  8
0
390
0
100
AcDbBlockReference
  2
B02BC8AFC
 10
0.0
 20
0.0
 30
0.0
  0
INSERT
  5
3C0
100
AcDbEntity
  8
0
390
0
100
AcDbBlockReference
  2
B02BC8C98
 10
0.0
 20
0.0
 30
0.0
  0
INSERT
  5
3C8
100
AcDbEntity
  8
0
390
0
100
AcDbBlockReference
  2
B02BC8E34
 10
0.0
 20
0.0
 30
0.0
  0
INSERT
  5
3D0
100
AcDbEntity
  8
0
390
0
100
AcDbBlockReference
  2
B02BC8FD0
 10
0.0
 20
0.0
 30
0.0
  0
LINE
  5
3D1
100
AcDbEntity
  8
0
390
0
100
AcDbLine
 10
589.0
 20
53.0
 30
0.0
 11
589.0
 21
29.007838308380475
 31
0.0
  0
LINE
  5
3D2
100
AcDbEntity
  8
0
390
0
100
AcDbLine
 10
437.0
 20
0.0
 30
0.0
 11
451.5
 21
0.0
 31
0.0
  0
LINE
  5
3D3
100
AcDbEntity
  8
0
390
0
100
AcDbLine
 10
437.0
 20
0.0
 30
0.0
 11
437.0
 21
53.0
 31
0.0
  0
LINE
  5
3D4
100
AcDbEntity
  8
0
390
0
100
AcDbLine
 10
437.0
 20
53.0
 30
0.0
 11
451.5
 21
53.0
 31
0.0
  0
LINE
  5
3D5
100
AcDbEntity
  8
0
390
0
100
AcDbLine
 10
451.5
 20
0.0
 30
0.0
 11
451.5
 21
53.0
 31
0.0
  0
LINE
  5
3D6
100
AcDbEntity
  8
0
390
0
100
AcDbLine
 10
589.0
 20
53.0
 30
0.0
 11
603.5
 21
53.0
 31
0.0
  0
LINE
  5
3D7
100
AcDbEntity
  8
0
390
0
100
AcDbLine
 10
620.0
 20
53.0
 30
0.0
 11
620.0
 21
32.99835127146801
 31
0.0
  0
LINE
  5
3D8
100
AcDbEntity
  8
0
390
0
100
AcDbLine
 10
620.0
 20
53.0
 30
0.0
 11
634.5
 21
53.0
 31
0.0
  0
LINE
  5
3D9
100
AcDbEntity
  8
0
390
0
100
AcDbLine
 10
589.0
 20
29.007838308380475
 30
0.0
 11
603.5
 21
29.007838308380475
 31
0.0
  0
LINE
  5
3DA
100
AcDbEntity
  8
0
390
0
100
AcDbLine
 10
603.5
 20
53.0
 30
0.0
 11
603.5
 21
29.007838308380475
 31
0.0
  0
LINE
  5
3DB
100
AcDbEntity
  8
0
390
0
100
AcDbLine
 10
620.0
 20
32.99835127146801
 30
0.0
 11
634.5
 21
32.99835127146801
 31
0.0
  0
LINE
  5
3DC
100
AcDbEntity
  8
0
390
0
100
AcDbLine
 10
634.5
 20
53.0
 30
0.0
 11
634.5
 21
32.99835127146801
 31
0.0
  0
LINE
  5
3DD
100
AcDbEntity
  8
0
390
0
100
AcDbLine
 10
634.5
 20
-2.4245219354377809
 30
0.0
 11
634.5
 21
17.577126793094209
 31
0.0
  0
LINE
  5
3DE
100
AcDbEntity
  8
0
390
0
100
AcDbLine
 10
620.0
 20
17.577126793094209
 30
0.0
 11
634.5
 21
17.577126793094209
 31
0.0
  0
LINE
  5
3DF
100
AcDbEntity
  8
0
390
0
100
AcDbLine
 10
603.5
 20
-2.4245219354377809
 30
0.0
 11
603.5
 21
21.567639756181745
 31
0.0
  0
LINE
  5
3E0
100
AcDbEntity
  8
0
390
0
100
AcDbLine
 10
589.0
 20
21.567639756181745
 30
0.0
 11
603.5
 21
21.567639756181745
 31
0.0
  0
LINE
  5
3E1
100
AcDbEntity
  8
0
390
0
100
AcDbLine
 10
620.0
 20
-2.4245219354377809
 30
0.0
 11
634.5
 21
-2.4245219354377809
 31
0.0
  0
LINE
  5
3E2
100
AcDbEntity
  8
0
390
0
100
AcDbLine
 10
620.0
 20
-2.4245219354377809
 30
0.0
 11
620.0
 21
17.577126793094209
 31
0.0
  0
LINE
  5
3E3
100
AcDbEntity
  8
0
390
0
100
AcDbLine
 10
589.0
 20
-2.4245219354377809
 30
0.0
 11
603.5
 21
-2.4245219354377809
 31
0.0
  0
LINE
  5
3E4
100
AcDbEntity
  8
0
390
0
100
AcDbLine
 10
589.0
 20
-2.4245219354377809
 30
0.0
 11
589.0
 21
21.567639756181745
 31
0.0
  0
ENDSEC
  0
SECTION
  2
OBJECTS
  0
DICTIONARY
  5
19
100
AcDbDictionary
280
               0
281
               1
  3
ACAD_GROUP
350
1A
  3
ACAD_MLINESTYLE
350
1B
  3
ACAD_LAYOUT
350
1E
  3
ACAD_PLOTSETTINGS
350
22
  3
ACAD_PLOTSTYLENAME
350
1F
  0
DICTIONARY
  5
1A
102
{ACAD_REACTORS
330
19
102
}
100
AcDbDictionary
280
               0
281
               1
  0
DICTIONARY
  5
1B
102
{ACAD_REACTORS
330
19
102
}
100
AcDbDictionary
280
               0
281
               1
  3
Standard
350
1C
  0
MLINESTYLE
  5
1C
102
{ACAD_REACTORS
330
1B
102
}
100
AcDbMlineStyle
  2
Standard
 70
               0
  3

 62
               0
 51
90.0
 52
90.0
 71
               2
 49
0.5
 62
             256
  6
ByLayer
 49
-0.5
 62
             256
  6
ByLayer
  0
ACDBDICTIONARYWDFLT
  5
1F
102
{ACAD_REACTORS
330
19
102
}
100
AcDbDictionary
281
               1
  3
Normal
350
1D
100
AcDbDictionaryWithDefault
340
1D
  0
ACDBPLACEHOLDER
  5
1D
102
{ACAD_REACTORS
330
1F
102
}
  0
LAYOUT
  5
20
102
{ACAD_REACTORS
330
1E
102
}
100
AcDbPlotSettings
  1

  2

  4

  6

 40
0.0
 41
0.0
 42
0.0
 43
0.0
 44
0.0
 45
0.0
 46
0.0
 47
0.0
 48
0.0
 49
0.0
140
0.0
141
0.0
142
1.0
143
1.0
 70
            1024
 72
               0
 73
               0
 74
               0
  7

 75
               0
147
1.0
148
0.0
149
0.0
100
AcDbLayout
  1
Model
 70
               0
 71
               0
 10
0.0
 20
0.0
 11
0.0
 21
0.0
 12
0.0
 22
0.0
 32
0.0
 14
0.0
 24
0.0
 34
0.0
 15
0.0
 25
0.0
 35
0.0
146
0.0
 13
0.0
 23
0.0
 33
0.0
 16
0.0
 26
0.0
 36
0.0
 17
0.0
 27
0.0
 37
0.0
 76
               0
330
A
331
0
345
0
346
0
  0
LAYOUT
  5
21
102
{ACAD_REACTORS
330
1E
102
}
100
AcDbPlotSettings
  1

  2

  4

  6

 40
0.0
 41
0.0
 42
0.0
 43
0.0
 44
0.0
 45
0.0
 46
0.0
 47
0.0
 48
0.0
 49
0.0
140
0.0
141
0.0
142
1.0
143
1.0
 70
               0
 72
               0
 73
               0
 74
               0
  7

 75
               0
147
1.0
148
0.0
149
0.0
100
AcDbLayout
  1
Layout1
 70
               0
 71
               0
 10
0.0
 20
0.0
 11
0.0
 21
0.0
 12
0.0
 22
0.0
 32
0.0
 14
0.0
 24
0.0
 34
0.0
 15
0.0
 25
0.0
 35
0.0
146
0.0
 13
0.0
 23
0.0
 33
0.0
 16
0.0
 26
0.0
 36
0.0
 17
0.0
 27
0.0
 37
0.0
 76
               0
330
B
331
0
345
0
346
0
  0
DICTIONARY
  5
1E
102
{ACAD_REACTORS
330
19
102
}
100
AcDbDictionary
280
               0
281
               1
  3
Layout1
350
21
  3
Model
350
20
  0
DICTIONARY
  5
22
102
{ACAD_REACTORS
330
19
102
}
100
AcDbDictionary
280
               0
281
               1
  0
ENDSEC
  0
EOF
