  0
SECTION
  2
HEADER
  9
$ACADVER
  1
AC1015
  9
$ACADMAINTVER
 70
               6
  9
$DWGCODEPAGE
  3
DOS437
  9
$INSBASE
 10
0.0
 20
0.0
 30
0.0
  9
$EXTMIN
 10
51.130116666666666
 20
68.2898
 30
1.0000000000000000E+20
  9
$EXTMAX
 10
357.26001603360027
 20
272.30511750876298
 30
-1.0000000000000000E+20
  9
$LIMMIN
 10
0.0
 20
0.0
  9
$LIMMAX
 10
0.0
 20
0.0
  9
$ORTHOMODE
 70
               0
  9
$REGENMODE
 70
               1
  9
$FILLMODE
 70
               1
  9
$QTEXTMODE
 70
               0
  9
$MIRRTEXT
 70
               1
  9
$LTSCALE
 40
0.1
  9
$ATTMODE
 70
               1
  9
$TEXTSIZE
 40
0.2
  9
$TRACEWID
 40
0.05
  9
$TEXTSTYLE
  7
Standard
  9
$CLAYER
  8
0
  9
$CELTYPE
  6
ByLayer
  9
$CECOLOR
 62
               3
  9
$CELTSCALE
 40
1.0
  9
$DISPSILH
 70
               0
  9
$DIMSCALE
 40
1.0
  9
$DIMASZ
 40
0.18
  9
$DIMEXO
 40
0.0625
  9
$DIMDLI
 40
0.38
  9
$DIMRND
 40
0.0
  9
$DIMDLE
 40
0.0
  9
$DIMEXE
 40
0.18
  9
$DIMTP
 40
0.0
  9
$DIMTM
 40
0.0
  9
$DIMTXT
 40
0.18
  9
$DIMCEN
 40
0.09
  9
$DIMTSZ
 40
0.0
  9
$DIMTOL
 70
               0
  9
$DIMLIM
 70
               0
  9
$DIMTIH
 70
               1
  9
$DIMTOH
 70
               1
  9
$DIMSE1
 70
               0
  9
$DIMSE2
 70
               0
  9
$DIMTAD
 70
               0
  9
$DIMZIN
 70
               0
  9
$DIMBLK
  1

  9
$DIMASO
 70
               1
  9
$DIMSHO
 70
               1
  9
$DIMPOST
  1

  9
$DIMAPOST
  1

  9
$DIMALT
 70
               0
  9
$DIMALTD
 70
               2
  9
$DIMALTF
 40
25.399999999999999
  9
$DIMLFAC
 40
1.0
  9
$DIMTOFL
 70
               0
  9
$DIMTVP
 40
0.0
  9
$DIMTIX
 70
               0
  9
$DIMSOXD
 70
               0
  9
$DIMSAH
 70
               0
  9
$DIMBLK1
  1

  9
$DIMBLK2
  1

  9
$DIMSTYLE
  2
Standard
  9
$DIMCLRD
 70
               0
  9
$DIMCLRE
 70
               0
  9
$DIMCLRT
 70
               0
  9
$DIMTFAC
 40
1.0
  9
$DIMGAP
 40
0.09
  9
$DIMJUST
 70
               0
  9
$DIMSD1
 70
               0
  9
$DIMSD2
 70
               0
  9
$DIMTOLJ
 70
               1
  9
$DIMTZIN
 70
               0
  9
$DIMALTZ
 70
               0
  9
$DIMALTTZ
 70
               0
  9
$DIMUPT
 70
               0
  9
$DIMDEC
 70
               4
  9
$DIMTDEC
 70
               4
  9
$DIMALTU
 70
               2
  9
$DIMALTTD
 70
               2
  9
$DIMTXSTY
  7
Standard
  9
$DIMAUNIT
 70
               0
  9
$DIMADEC
 70
               0
  9
$DIMALTRND
 40
0.0
  9
$DIMAZIN
 70
               0
  9
$DIMDSEP
 70
               0
  9
$DIMATFIT
 70
               3
  9
$DIMFRAC
 70
               0
  9
$DIMLDRBLK
  1

  9
$DIMLUNIT
 70
               2
  9
$DIMLWD
 70
               0
  9
$DIMLWE
 70
               0
  9
$DIMTMOVE
 70
               0
  9
$LUNITS
 70
               2
  9
$LUPREC
 70
               4
  9
$SKETCHINC
 40
0.1
  9
$FILLETRAD
 40
0.0
  9
$AUNITS
 70
               0
  9
$AUPREC
 70
               0
  9
$MENU
  1
acad
  9
$ELEVATION
 40
0.0
  9
$PELEVATION
 40
0.0
  9
$THICKNESS
 40
0.0
  9
$LIMCHECK
 70
               0
  9
$CHAMFERA
 40
0.0
  9
$CHAMFERB
 40
0.0
  9
$CHAMFERC
 40
0.0
  9
$CHAMFERD
 40
0.0
  9
$SKPOLY
 70
               0
  9
$TDCREATE
 40
0.000000000
  9
$TDUCREATE
 40
0.000000000
  9
$TDUPDATE
 40
0.000000000
  9
$TDUUPDATE
 40
0.000000000
  9
$TDINDWG
 40
0.0000000000
  9
$TDUSRTIMER
 40
0.0000000000
  9
$USRTIMER
 70
               1
  9
$ANGBASE
 50
0.0
  9
$ANGDIR
 70
               0
  9
$PDMODE
 70
               2
  9
$PDSIZE
 40
1.5
  9
$PLINEWID
 40
0.0
  9
$SPLFRAME
 70
               0
  9
$SPLINETYPE
 70
               6
  9
$SPLINESEGS
 70
               8
  9
$HANDSEED
  5
38C
  9
$SURFTAB1
 70
               6
  9
$SURFTAB2
 70
               6
  9
$SURFTYPE
 70
               6
  9
$SURFU
 70
               6
  9
$SURFV
 70
               6
  9
$UCSBASE
  2

  9
$UCSNAME
  2

  9
$UCSORG
 10
0.0
 20
0.0
 30
0.0
  9
$UCSXDIR
 10
1.0
 20
0.0
 30
0.0
  9
$UCSYDIR
 10
0.0
 20
1.0
 30
0.0
  9
$UCSORTHOREF
  2

  9
$UCSORTHOVIEW
 70
               0
  9
$UCSORGTOP
 10
0.0
 20
0.0
 30
0.0
  9
$UCSORGBOTTOM
 10
0.0
 20
0.0
 30
0.0
  9
$UCSORGLEFT
 10
0.0
 20
0.0
 30
0.0
  9
$UCSORGRIGHT
 10
0.0
 20
0.0
 30
0.0
  9
$UCSORGFRONT
 10
0.0
 20
0.0
 30
0.0
  9
$UCSORGBACK
 10
0.0
 20
0.0
 30
0.0
  9
$PUCSBASE
  2

  9
$PUCSNAME
  2

  9
$PUCSORG
 10
0.0
 20
0.0
 30
0.0
  9
$PUCSXDIR
 10
1.0
 20
0.0
 30
0.0
  9
$PUCSYDIR
 10
0.0
 20
1.0
 30
0.0
  9
$PUCSORTHOREF
  2

  9
$PUCSORTHOVIEW
 70
               0
  9
$PUCSORGTOP
 10
0.0
 20
0.0
 30
0.0
  9
$PUCSORGBOTTOM
 10
0.0
 20
0.0
 30
0.0
  9
$PUCSORGLEFT
 10
0.0
 20
0.0
 30
0.0
  9
$PUCSORGRIGHT
 10
0.0
 20
0.0
 30
0.0
  9
$PUCSORGFRONT
 10
0.0
 20
0.0
 30
0.0
  9
$PUCSORGBACK
 10
0.0
 20
0.0
 30
0.0
  9
$USERI1
 70
               0
  9
$USERI2
 70
               0
  9
$USERI3
 70
               0
  9
$USERI4
 70
               0
  9
$USERI5
 70
               0
  9
$USERR1
 40
0.0
  9
$USERR2
 40
0.0
  9
$USERR3
 40
0.0
  9
$USERR4
 40
0.0
  9
$USERR5
 40
0.0
  9
$WORLDVIEW
 70
               1
  9
$SHADEDGE
 70
               3
  9
$SHADEDIF
 70
              70
  9
$TILEMODE
 70
               1
  9
$MAXACTVP
 70
              16
  9
$PINSBASE
 10
0.0
 20
0.0
 30
0.0
  9
$PLIMCHECK
 70
               0
  9
$PEXTMIN
 10
1.0000000000000000E+20
 20
1.0000000000000000E+20
 30
1.0000000000000000E+20
  9
$PEXTMAX
 10
-1.0000000000000000E+20
 20
-1.0000000000000000E+20
 30
-1.0000000000000000E+20
  9
$PLIMMIN
 10
0.0
 20
0.0
  9
$PLIMMAX
 10
12.0
 20
9.0
  9
$UNITMODE
 70
               0
  9
$VISRETAIN
 70
               0
  9
$PLINEGEN
 70
               1
  9
$PSLTSCALE
 70
               0
  9
$TREEDEPTH
 70
            3020
  9
$CMLSTYLE
  2
Standard
  9
$CMLJUST
 70
               0
  9
$CMLSCALE
 40
1.0
  9
$PROXYGRAPHICS
 70
               0
  9
$MEASUREMENT
 70
               0
  9
$CELWEIGHT
370
              -1
  9
$ENDCAPS
280
               0
  9
$JOINSTYLE
280
               0
  9
$LWDISPLAY
290
               0
  9
$INSUNITS
 70
               0
  9
$HYPERLINKBASE
  1

  9
$STYLESHEET
  1

  9
$XEDIT
290
               1
  9
$CEPSNTYPE
380
               0
  9
$PSTYLEMODE
290
               1
  9
$FINGERPRINTGUID
  2

  9
$VERSIONGUID
  2

  9
$EXTNAMES
290
               1
  9
$PSVPSCALE
 40
0.0
  0
ENDSEC
  0
SECTION
  2
CLASSES
  0
CLASS
  1
LWPOLYLINE
  2
AcDbPolyline
  3
AutoCAD 2000
 90
        0
280
               0
281
               1
  0
CLASS
  1
IMAGE
  2
AcDbRasterImage
  3
ISM
 90
      127
280
               0
281
               1
  0
CLASS
  1
OLE2FRAME
  2
AcDbOle2Frame
  3
AutoCAD 2000
 90
        0
280
               0
281
               1
  0
CLASS
  1
HATCH
  2
AcDbHatch
  3
AutoCAD 2000
 90
        0
280
               0
281
               1
  0
CLASS
  1
DICTIONARYVAR
  2
AcDbDictionaryVar
  3
AutoCAD 2000
 90
        0
280
               0
281
               0
  0
CLASS
  1
RASTERVARIABLES
  2
AcDbRasterVariables
  3
ISM
 90
        0
280
               0
281
               0
  0
CLASS
  1
IMAGEDEF
  2
AcDbRasterImageDef
  3
ISM
 90
        0
280
               0
281
               0
  0
CLASS
  1
IMAGEDEF_REACTOR
  2
AcDbRasterImageDefReactor
  3
ISM
 90
        1
280
               0
281
               0
  0
CLASS
  1
IDBUFFER
  2
AcDbIdBuffer
  3
AutoCAD 2000
 90
        0
280
               0
281
               0
  0
CLASS
  1
SPATIAL_FILTER
  2
AcDbSpatialFilter
  3
AutoCAD 2000
 90
        0
280
               0
281
               0
  0
CLASS
  1
XRECORD
  2
AcDbXrecord
  3
AutoCAD 2000
 90
        0
280
               0
281
               0
  0
CLASS
  1
SORTENTSTABLE
  2
AcDbSortentsTable
  3
AutoCAD 2000
 90
        0
280
               0
281
               0
  0
CLASS
  1
LAYER_INDEX
  2
AcDbLayerIndex
  3
AutoCAD 2000
 90
        0
280
               0
281
               0
  0
CLASS
  1
SPATIAL_INDEX
  2
AcDbSpatialIndex
  3
AutoCAD 2000
 90
        0
280
               0
281
               0
  0
CLASS
  1
OBJECT_PTR
  2
CAseDLPNTableRecord
  3
"ASE-LPNTableRecord"
 90
        1
280
               0
281
               0
  0
CLASS
  1
LAYOUT
  2
AcDbLayout
  3
AutoCAD 2000
 90
        0
280
               0
281
               0
  0
CLASS
  1
PLOTSETTINGS
  2
AcDbPlotSettings
  3
AutoCAD 2000
 90
        0
280
               0
281
               0
  0
CLASS
  1
ACDBDICTIONARYWDFLT
  2
AcDbDictionaryWithDefault
  3
AutoCAD 2000
 90
        0
280
               0
281
               0
  0
CLASS
  1
ACDBPLACEHOLDER
  2
AcDbPlaceHolder
  3
AutoCAD 2000
 90
        0
280
               0
281
               0
  0
ENDSEC
  0
SECTION
  2
TABLES
  0
TABLE
  2
VPORT
  5
7
100
AcDbSymbolTable
 70
               1
  0
VPORT
  5
15
100
AcDbSymbolTableRecord
100
AcDbViewportTableRecord
  2
*ACTIVE
 70
               0
 10
0.0
 20
0.0
 11
1.0
 21
1.0
 12
6.5912879999999996
 22
4.5791839999999997
 13
0.0
 23
0.0
 14
1.0
 24
1.0
 15
0.0
 25
0.0
 16
0.0
 26
0.0
 36
1.0
 17
0.0
 27
0.0
 37
0.0
 40
9.1583690000000004
 41
0.688564
 42
50.0
 43
0.0
 44
0.0
 50
0.0
 51
0.0
 71
               0
 72
             100
 73
               1
 74
               1
 75
               0
 76
               0
 77
               0
 78
               0
281
               0
 65
               0
110
0.0
120
0.0
130
0.0
111
1.0
121
0.0
131
0.0
112
0.0
122
1.0
132
0.0
345
0
346
0
 79
               0
146
0.0
  0
ENDTAB
  0
TABLE
  2
LTYPE
  5
4
100
AcDbSymbolTable
 70
              48
  0
LTYPE
  5
11
100
AcDbSymbolTableRecord
100
AcDbLinetypeTableRecord
  2
ByBlock
 70
              64
  3

 72
              65
 73
               0
 40
0.0
  0
LTYPE
  5
12
100
AcDbSymbolTableRecord
100
AcDbLinetypeTableRecord
  2
ByLayer
 70
              64
  3

 72
              65
 73
               0
 40
0.0
  0
LTYPE
  5
13
100
AcDbSymbolTableRecord
100
AcDbLinetypeTableRecord
  2
Continuous
 70
              64
  3
Solid line
 72
              65
 73
               0
 40
0.0
  0
LTYPE
  5
23
100
AcDbSymbolTableRecord
100
AcDbLinetypeTableRecord
  2
DOTTED
 70
              64
  3
Punteggiato
 72
              65
 73
               2
 40
12.0
 49
2.0
 74
               0
 49
-10.0
 74
               0
  0
LTYPE
  5
24
100
AcDbSymbolTableRecord
100
AcDbLinetypeTableRecord
  2
DASHEDS
 70
              64
  3
Tratteggiato piccolo
 72
              65
 73
               2
 40
20.0
 49
10.0
 74
               0
 49
-10.0
 74
               0
  0
LTYPE
  5
25
100
AcDbSymbolTableRecord
100
AcDbLinetypeTableRecord
  2
DASHEDM
 70
              64
  3
Tratteggiato medio
 72
              65
 73
               2
 40
40.0
 49
20.0
 74
               0
 49
-20.0
 74
               0
  0
LTYPE
  5
26
100
AcDbSymbolTableRecord
100
AcDbLinetypeTableRecord
  2
DASHEDL
 70
              64
  3
Tratteggiato grande
 72
              65
 73
               2
 40
60.0
 49
40.0
 74
               0
 49
-20.0
 74
               0
  0
LTYPE
  5
27
100
AcDbSymbolTableRecord
100
AcDbLinetypeTableRecord
  2
CENTERED
 70
              64
  3
Tratteggiato misto
 72
              65
 73
               4
 40
70.0
 49
10.0
 74
               0
 49
-20.0
 74
               0
 49
20.0
 74
               0
 49
-20.0
 74
               0
  0
LTYPE
  5
28
100
AcDbSymbolTableRecord
100
AcDbLinetypeTableRecord
  2
POINTLINE
 70
              64
  3
Punto e linea
 72
              65
 73
               4
 40
62.0
 49
20.0
 74
               0
 49
-20.0
 74
               0
 49
2.0
 74
               0
 49
-20.0
 74
               0
  0
LTYPE
  5
29
100
AcDbSymbolTableRecord
100
AcDbLinetypeTableRecord
  2
2POINTLINE
 70
              64
  3
Due punti e linea
 72
              65
 73
               6
 40
84.0
 49
20.0
 74
               0
 49
-20.0
 74
               0
 49
2.0
 74
               0
 49
-20.0
 74
               0
 49
2.0
 74
               0
 49
-20.0
 74
               0
  0
LTYPE
  5
2A
100
AcDbSymbolTableRecord
100
AcDbLinetypeTableRecord
  2
ACAD_ISO02W100
 70
              64
  3
ISO Tratteggiata
 72
              65
 73
               2
 40
150.0
 49
120.0
 74
               0
 49
-30.0
 74
               0
  0
LTYPE
  5
2B
100
AcDbSymbolTableRecord
100
AcDbLinetypeTableRecord
  2
ACAD_ISO03W100
 70
              64
  3
ISO Tratto spazio
 72
              65
 73
               2
 40
300.0
 49
120.0
 74
               0
 49
-180.0
 74
               0
  0
LTYPE
  5
2C
100
AcDbSymbolTableRecord
100
AcDbLinetypeTableRecord
  2
ACAD_ISO04W100
 70
              64
  3
ISO Tratto lungo punto
 72
              65
 73
               4
 40
305.0
 49
240.0
 74
               0
 49
-30.0
 74
               0
 49
5.0
 74
               0
 49
-30.0
 74
               0
  0
LTYPE
  5
2D
100
AcDbSymbolTableRecord
100
AcDbLinetypeTableRecord
  2
ACAD_ISO05W100
 70
              64
  3
ISO Tratto lungo doppio punto
 72
              65
 73
               6
 40
340.0
 49
240.0
 74
               0
 49
-30.0
 74
               0
 49
5.0
 74
               0
 49
-30.0
 74
               0
 49
5.0
 74
               0
 49
-30.0
 74
               0
  0
LTYPE
  5
2E
100
AcDbSymbolTableRecord
100
AcDbLinetypeTableRecord
  2
ACAD_ISO06W100
 70
              64
  3
ISO Tratto lungo triplo punto
 72
              65
 73
               8
 40
375.0
 49
240.0
 74
               0
 49
-30.0
 74
               0
 49
5.0
 74
               0
 49
-30.0
 74
               0
 49
5.0
 74
               0
 49
-30.0
 74
               0
 49
5.0
 74
               0
 49
-30.0
 74
               0
  0
LTYPE
  5
2F
100
AcDbSymbolTableRecord
100
AcDbLinetypeTableRecord
  2
ACAD_ISO07W100
 70
              64
  3
ISO Punteggiata
 72
              65
 73
               2
 40
35.0
 49
5.0
 74
               0
 49
-30.0
 74
               0
  0
LTYPE
  5
30
100
AcDbSymbolTableRecord
100
AcDbLinetypeTableRecord
  2
ACAD_ISO08W100
 70
              64
  3
ISO Tratto lungo tratto corto
 72
              65
 73
               4
 40
360.0
 49
240.0
 74
               0
 49
-30.0
 74
               0
 49
60.0
 74
               0
 49
-30.0
 74
               0
  0
LTYPE
  5
31
100
AcDbSymbolTableRecord
100
AcDbLinetypeTableRecord
  2
ACAD_ISO09W100
 70
              64
  3
ISO Tratto lungo doppio tratto corto
 72
              65
 73
               6
 40
450.0
 49
240.0
 74
               0
 49
-30.0
 74
               0
 49
60.0
 74
               0
 49
-30.0
 74
               0
 49
60.0
 74
               0
 49
-30.0
 74
               0
  0
LTYPE
  5
32
100
AcDbSymbolTableRecord
100
AcDbLinetypeTableRecord
  2
ACAD_ISO10W100
 70
              64
  3
ISO Tratto punto
 72
              65
 73
               4
 40
185.0
 49
120.0
 74
               0
 49
-30.0
 74
               0
 49
5.0
 74
               0
 49
-30.0
 74
               0
  0
LTYPE
  5
33
100
AcDbSymbolTableRecord
100
AcDbLinetypeTableRecord
  2
ACAD_ISO11W100
 70
              64
  3
ISO Doppio tratto punto
 72
              65
 73
               6
 40
335.0
 49
120.0
 74
               0
 49
-30.0
 74
               0
 49
120.0
 74
               0
 49
-30.0
 74
               0
 49
5.0
 74
               0
 49
-30.0
 74
               0
  0
LTYPE
  5
34
100
AcDbSymbolTableRecord
100
AcDbLinetypeTableRecord
  2
ACAD_ISO12W100
 70
              64
  3
ISO Tratto doppio punto
 72
              65
 73
               6
 40
220.0
 49
120.0
 74
               0
 49
-30.0
 74
               0
 49
5.0
 74
               0
 49
-30.0
 74
               0
 49
5.0
 74
               0
 49
-30.0
 74
               0
  0
LTYPE
  5
35
100
AcDbSymbolTableRecord
100
AcDbLinetypeTableRecord
  2
ACAD_ISO13W100
 70
              64
  3
ISO Doppio tratto doppio punto
 72
              65
 73
               8
 40
370.0
 49
120.0
 74
               0
 49
-30.0
 74
               0
 49
120.0
 74
               0
 49
-30.0
 74
               0
 49
5.0
 74
               0
 49
-30.0
 74
               0
 49
5.0
 74
               0
 49
-30.0
 74
               0
  0
LTYPE
  5
36
100
AcDbSymbolTableRecord
100
AcDbLinetypeTableRecord
  2
ACAD_ISO14W100
 70
              64
  3
ISO Tratto triplo punto
 72
              65
 73
               8
 40
255.0
 49
120.0
 74
               0
 49
-30.0
 74
               0
 49
5.0
 74
               0
 49
-30.0
 74
               0
 49
5.0
 74
               0
 49
-30.0
 74
               0
 49
5.0
 74
               0
 49
-30.0
 74
               0
  0
LTYPE
  5
37
100
AcDbSymbolTableRecord
100
AcDbLinetypeTableRecord
  2
ACAD_ISO15W100
 70
              64
  3
ISO Doppio tratto triplo punto
 72
              65
 73
              10
 40
405.0
 49
120.0
 74
               0
 49
-30.0
 74
               0
 49
120.0
 74
               0
 49
-30.0
 74
               0
 49
5.0
 74
               0
 49
-30.0
 74
               0
 49
5.0
 74
               0
 49
-30.0
 74
               0
 49
5.0
 74
               0
 49
-30.0
 74
               0
  0
LTYPE
  5
38
100
AcDbSymbolTableRecord
100
AcDbLinetypeTableRecord
  2
BORDER
 70
              64
  3
AutoCAD BORDER
 72
              65
 73
               6
 40
450.0
 49
128.0
 74
               0
 49
-64.0
 74
               0
 49
128.0
 74
               0
 49
-64.0
 74
               0
 49
2.0
 74
               0
 49
-64.0
 74
               0
  0
LTYPE
  5
39
100
AcDbSymbolTableRecord
100
AcDbLinetypeTableRecord
  2
BORDER2
 70
              64
  3
AutoCAD BORDER2
 72
              65
 73
               6
 40
226.0
 49
64.0
 74
               0
 49
-32.0
 74
               0
 49
64.0
 74
               0
 49
-32.0
 74
               0
 49
2.0
 74
               0
 49
-32.0
 74
               0
  0
LTYPE
  5
3A
100
AcDbSymbolTableRecord
100
AcDbLinetypeTableRecord
  2
BORDERX2
 70
              64
  3
AutoCAD BORDERX2
 72
              65
 73
               6
 40
898.0
 49
256.0
 74
               0
 49
-128.0
 74
               0
 49
256.0
 74
               0
 49
-128.0
 74
               0
 49
2.0
 74
               0
 49
-128.0
 74
               0
  0
LTYPE
  5
3B
100
AcDbSymbolTableRecord
100
AcDbLinetypeTableRecord
  2
CENTER
 70
              64
  3
AutoCAD CENTER
 72
              65
 73
               4
 40
512.0
 49
320.0
 74
               0
 49
-64.0
 74
               0
 49
64.0
 74
               0
 49
-64.0
 74
               0
  0
LTYPE
  5
3C
100
AcDbSymbolTableRecord
100
AcDbLinetypeTableRecord
  2
CENTER2
 70
              64
  3
AutoCAD CENTER2
 72
              65
 73
               4
 40
256.0
 49
160.0
 74
               0
 49
-32.0
 74
               0
 49
32.0
 74
               0
 49
-32.0
 74
               0
  0
LTYPE
  5
3D
100
AcDbSymbolTableRecord
100
AcDbLinetypeTableRecord
  2
CENTERX2
 70
              64
  3
AutoCAD CENTERX2
 72
              65
 73
               4
 40
1024.0
 49
640.0
 74
               0
 49
-128.0
 74
               0
 49
128.0
 74
               0
 49
-128.0
 74
               0
  0
LTYPE
  5
3E
100
AcDbSymbolTableRecord
100
AcDbLinetypeTableRecord
  2
DASHDOT
 70
              64
  3
AutoCAD DASHDOT
 72
              65
 73
               4
 40
258.0
 49
128.0
 74
               0
 49
-64.0
 74
               0
 49
2.0
 74
               0
 49
-64.0
 74
               0
  0
LTYPE
  5
3F
100
AcDbSymbolTableRecord
100
AcDbLinetypeTableRecord
  2
DASHDOT2
 70
              64
  3
AutoCAD DASHDOT2
 72
              65
 73
               4
 40
130.0
 49
64.0
 74
               0
 49
-32.0
 74
               0
 49
2.0
 74
               0
 49
-32.0
 74
               0
  0
LTYPE
  5
40
100
AcDbSymbolTableRecord
100
AcDbLinetypeTableRecord
  2
DASHDOTX2
 70
              64
  3
AutoCAD DASHDOTX2
 72
              65
 73
               4
 40
514.0
 49
256.0
 74
               0
 49
-128.0
 74
               0
 49
2.0
 74
               0
 49
-128.0
 74
               0
  0
LTYPE
  5
41
100
AcDbSymbolTableRecord
100
AcDbLinetypeTableRecord
  2
DASHED
 70
              64
  3
AutoCAD DASHED
 72
              65
 73
               2
 40
192.0
 49
128.0
 74
               0
 49
-64.0
 74
               0
  0
LTYPE
  5
42
100
AcDbSymbolTableRecord
100
AcDbLinetypeTableRecord
  2
DASHED2
 70
              64
  3
AutoCAD DASHED2
 72
              65
 73
               2
 40
96.0
 49
64.0
 74
               0
 49
-32.0
 74
               0
  0
LTYPE
  5
43
100
AcDbSymbolTableRecord
100
AcDbLinetypeTableRecord
  2
DASHEDX2
 70
              64
  3
AutoCAD DASHEDX2
 72
              65
 73
               2
 40
384.0
 49
256.0
 74
               0
 49
-128.0
 74
               0
  0
LTYPE
  5
44
100
AcDbSymbolTableRecord
100
AcDbLinetypeTableRecord
  2
DIVIDE
 70
              64
  3
AutoCAD DIVIDE
 72
              65
 73
               6
 40
324.0
 49
128.0
 74
               0
 49
-64.0
 74
               0
 49
2.0
 74
               0
 49
-64.0
 74
               0
 49
2.0
 74
               0
 49
-64.0
 74
               0
  0
LTYPE
  5
45
100
AcDbSymbolTableRecord
100
AcDbLinetypeTableRecord
  2
DIVIDE2
 70
              64
  3
AutoCAD DIVIDE2
 72
              65
 73
               6
 40
164.0
 49
64.0
 74
               0
 49
-32.0
 74
               0
 49
2.0
 74
               0
 49
-32.0
 74
               0
 49
2.0
 74
               0
 49
-32.0
 74
               0
  0
LTYPE
  5
46
100
AcDbSymbolTableRecord
100
AcDbLinetypeTableRecord
  2
DIVIDEX2
 70
              64
  3
AutoCAD DIVIDEX2
 72
              65
 73
               6
 40
644.0
 49
256.0
 74
               0
 49
-128.0
 74
               0
 49
2.0
 74
               0
 49
-128.0
 74
               0
 49
2.0
 74
               0
 49
-128.0
 74
               0
  0
LTYPE
  5
47
100
AcDbSymbolTableRecord
100
AcDbLinetypeTableRecord
  2
DOT
 70
              64
  3
AutoCAD DOT
 72
              65
 73
               2
 40
66.0
 49
2.0
 74
               0
 49
-64.0
 74
               0
  0
LTYPE
  5
48
100
AcDbSymbolTableRecord
100
AcDbLinetypeTableRecord
  2
DOT2
 70
              64
  3
AutoCAD DOT2
 72
              65
 73
               2
 40
34.0
 49
2.0
 74
               0
 49
-32.0
 74
               0
  0
LTYPE
  5
49
100
AcDbSymbolTableRecord
100
AcDbLinetypeTableRecord
  2
DOTX2
 70
              64
  3
AutoCAD DOTX2
 72
              65
 73
               2
 40
130.0
 49
2.0
 74
               0
 49
-128.0
 74
               0
  0
LTYPE
  5
4A
100
AcDbSymbolTableRecord
100
AcDbLinetypeTableRecord
  2
HIDDEN
 70
              64
  3
AutoCAD HIDDEN
 72
              65
 73
               2
 40
96.0
 49
64.0
 74
               0
 49
-32.0
 74
               0
  0
LTYPE
  5
4B
100
AcDbSymbolTableRecord
100
AcDbLinetypeTableRecord
  2
HIDDEN2
 70
              64
  3
AutoCAD HIDDEN2
 72
              65
 73
               2
 40
48.0
 49
32.0
 74
               0
 49
-16.0
 74
               0
  0
LTYPE
  5
4C
100
AcDbSymbolTableRecord
100
AcDbLinetypeTableRecord
  2
HIDDENX2
 70
              64
  3
AutoCAD HIDDENX2
 72
              65
 73
               2
 40
192.0
 49
128.0
 74
               0
 49
-64.0
 74
               0
  0
LTYPE
  5
4D
100
AcDbSymbolTableRecord
100
AcDbLinetypeTableRecord
  2
PHANTOM
 70
              64
  3
AutoCAD PHANTOM
 72
              65
 73
               6
 40
640.0
 49
320.0
 74
               0
 49
-64.0
 74
               0
 49
64.0
 74
               0
 49
-64.0
 74
               0
 49
64.0
 74
               0
 49
-64.0
 74
               0
  0
LTYPE
  5
4E
100
AcDbSymbolTableRecord
100
AcDbLinetypeTableRecord
  2
PHANTOM2
 70
              64
  3
AutoCAD PHANTOM2
 72
              65
 73
               6
 40
320.0
 49
160.0
 74
               0
 49
-32.0
 74
               0
 49
32.0
 74
               0
 49
-32.0
 74
               0
 49
32.0
 74
               0
 49
-32.0
 74
               0
  0
LTYPE
  5
4F
100
AcDbSymbolTableRecord
100
AcDbLinetypeTableRecord
  2
PHANTOMX2
 70
              64
  3
AutoCAD PHANTOMX2
 72
              65
 73
               6
 40
1280.0
 49
640.0
 74
               0
 49
-128.0
 74
               0
 49
128.0
 74
               0
 49
-128.0
 74
               0
 49
128.0
 74
               0
 49
-128.0
 74
               0
  0
ENDTAB
  0
TABLE
  2
LAYER
  5
2
100
AcDbSymbolTable
 70
               5
  0
LAYER
  5
14
100
AcDbSymbolTableRecord
100
AcDbLayerTableRecord
  2
0
 70
               0
 62
               7
  6
Continuous
290
               1
370
              -3
390
1D
  0
LAYER
  5
50
100
AcDbSymbolTableRecord
100
AcDbLayerTableRecord
  2
SENZA_NOME
 70
               0
 62
               7
  6
Continuous
290
               1
370
              -3
390
1D
  0
LAYER
  5
51
100
AcDbSymbolTableRecord
100
AcDbLayerTableRecord
  2
SENZA_NOME_2
 70
               0
 62
               7
  6
Continuous
290
               1
370
              -3
390
1D
  0
LAYER
  5
52
100
AcDbSymbolTableRecord
100
AcDbLayerTableRecord
  2
SENZA_NOME_3
 70
               0
 62
               7
  6
Continuous
290
               1
370
              -3
390
1D
  0
LAYER
  5
53
100
AcDbSymbolTableRecord
100
AcDbLayerTableRecord
  2
SENZA_NOME_4
 70
               0
 62
               7
  6
Continuous
290
               1
370
              -3
390
1D
  0
ENDTAB
  0
TABLE
  2
STYLE
  5
3
100
AcDbSymbolTable
 70
              10
  0
STYLE
  5
17
100
AcDbSymbolTableRecord
100
AcDbTextStyleTableRecord
  2
Standard
 70
               0
 40
0.0
 41
1.0
 50
0.0
 71
               0
 42
0.0
  3
txt
  4

  0
STYLE
  5
54
100
AcDbSymbolTableRecord
100
AcDbTextStyleTableRecord
  2
SIMPLEX
 70
               0
 40
10.0
 41
0.8
 50
0.0
 71
               0
 42
10.0
  3
simplex
  4

  0
STYLE
  5
55
100
AcDbSymbolTableRecord
100
AcDbTextStyleTableRecord
  2
EUROSTYLE
 70
               0
 40
10.0
 41
0.88
 50
0.0
 71
               0
 42
10.0
  3
isocp
  4

  0
STYLE
  5
56
100
AcDbSymbolTableRecord
100
AcDbTextStyleTableRecord
  2
SANSERIF
 70
               0
 40
10.0
 41
0.9
 50
0.0
 71
               0
 42
10.0
  3
romand
  4

  0
STYLE
  5
57
100
AcDbSymbolTableRecord
100
AcDbTextStyleTableRecord
  2
TRIPLEX
 70
               0
 40
10.0
 41
0.86
 50
0.0
 71
               0
 42
10.0
  3
romant
  4

  0
STYLE
  5
58
100
AcDbSymbolTableRecord
100
AcDbTextStyleTableRecord
  2
COMPLEX
 70
               0
 40
10.0
 41
1.0
 50
0.0
 71
               0
 42
10.0
  3
complex
  4

  0
STYLE
  5
59
100
AcDbSymbolTableRecord
100
AcDbTextStyleTableRecord
  2
SCRIPT
 70
               0
 40
10.0
 41
0.98
 50
0.0
 71
               0
 42
10.0
  3
scripts
  4

  0
STYLE
  5
5A
100
AcDbSymbolTableRecord
100
AcDbTextStyleTableRecord
  2
TRISCRIPT
 70
               0
 40
10.0
 41
0.89
 50
0.0
 71
               0
 42
10.0
  3
italict
  4

  0
STYLE
  5
5B
100
AcDbSymbolTableRecord
100
AcDbTextStyleTableRecord
  2
BOLD
 70
               0
 40
10.0
 41
0.77
 50
0.0
 71
               0
 42
10.0
  3
romand
  4

  0
STYLE
  5
5C
100
AcDbSymbolTableRecord
100
AcDbTextStyleTableRecord
  2
GOTHIC
 70
               0
 40
10.0
 41
0.86
 50
0.0
 71
               0
 42
10.0
  3
gothice
  4

  0
ENDTAB
  0
TABLE
  2
VIEW
  5
5
100
AcDbSymbolTable
 70
               0
  0
ENDTAB
  0
TABLE
  2
UCS
  5
6
100
AcDbSymbolTable
 70
               0
  0
ENDTAB
  0
TABLE
  2
APPID
  5
8
100
AcDbSymbolTable
 70
               1
  0
APPID
  5
16
100
AcDbSymbolTableRecord
100
AcDbRegAppTableRecord
  2
ACAD
 70
               0
  0
ENDTAB
  0
TABLE
  2
DIMSTYLE
  5
9
100
AcDbSymbolTable
 70
               1
100
AcDbDimStyleTable
 71
               0
  0
DIMSTYLE
105
18
100
AcDbSymbolTableRecord
100
AcDbDimStyleTableRecord
  2
Standard
 70
               0
  3

  4

 40
1.0
 41
0.18
 42
0.0625
 43
0.38
 44
0.18
 45
0.0
 46
0.0
 47
0.0
 48
0.0
 71
               0
 72
               0
 73
               1
 74
               1
 75
               0
 76
               0
 77
               0
 78
               0
 79
               0
140
0.18
141
0.09
142
0.0
143
25.399999999999999
144
1.0
145
0.0
146
1.0
147
0.09
148
0.0
170
               0
171
               2
172
               0
173
               0
174
               0
175
               0
176
               0
177
               0
178
               0
179
               0
271
               4
272
               4
273
               2
274
               2
275
               0
276
               0
277
               2
278
              46
279
               0
280
               0
281
               0
282
               0
283
               1
284
               0
285
               0
286
               0
288
               0
289
               3
340
17
341
0
342
0
343
0
344
0
371
              -2
372
              -2
  0
ENDTAB
  0
TABLE
  2
BLOCK_RECORD
  5
1
100
AcDbSymbolTable
 70
              48
  0
BLOCK_RECORD
  5
A
100
AcDbSymbolTableRecord
100
AcDbBlockTableRecord
  2
*MODEL_SPACE
340
20
  0
BLOCK_RECORD
  5
B
100
AcDbSymbolTableRecord
100
AcDbBlockTableRecord
  2
*PAPER_SPACE
340
21
  0
BLOCK_RECORD
  5
10F
100
AcDbSymbolTableRecord
100
AcDbBlockTableRecord
  2
B024990C4
340
0
102
{BLKREFS
331
116
102
}
  0
BLOCK_RECORD
  5
117
100
AcDbSymbolTableRecord
100
AcDbBlockTableRecord
  2
B02499260
340
0
102
{BLKREFS
331
11E
102
}
  0
BLOCK_RECORD
  5
187
100
AcDbSymbolTableRecord
100
AcDbBlockTableRecord
  2
B02486BC4
340
0
102
{BLKREFS
331
194
102
}
  0
BLOCK_RECORD
  5
18B
100
AcDbSymbolTableRecord
100
AcDbBlockTableRecord
  2
B02486CA8
340
0
102
{BLKREFS
331
192
102
}
  0
BLOCK_RECORD
  5
195
100
AcDbSymbolTableRecord
100
AcDbBlockTableRecord
  2
B02486E44
340
0
102
{BLKREFS
331
1C7
102
}
  0
BLOCK_RECORD
  5
197
100
AcDbSymbolTableRecord
100
AcDbBlockTableRecord
  2
B02486E90
340
0
102
{BLKREFS
331
19E
102
}
  0
BLOCK_RECORD
  5
19F
100
AcDbSymbolTableRecord
100
AcDbBlockTableRecord
  2
B02BF2D90
340
0
102
{BLKREFS
331
1A6
102
}
  0
BLOCK_RECORD
  5
1A7
100
AcDbSymbolTableRecord
100
AcDbBlockTableRecord
  2
B02BF2F2C
340
0
102
{BLKREFS
331
1BB
102
}
  0
BLOCK_RECORD
  5
1A9
100
AcDbSymbolTableRecord
100
AcDbBlockTableRecord
  2
B02BF2F78
340
0
102
{BLKREFS
331
1B0
102
}
  0
BLOCK_RECORD
  5
1B1
100
AcDbSymbolTableRecord
100
AcDbBlockTableRecord
  2
B0249AA28
340
0
102
{BLKREFS
331
1B8
102
}
  0
BLOCK_RECORD
  5
1BC
100
AcDbSymbolTableRecord
100
AcDbBlockTableRecord
  2
B0249AC18
340
0
102
{BLKREFS
331
1C3
102
}
  0
BLOCK_RECORD
  5
1C8
100
AcDbSymbolTableRecord
100
AcDbBlockTableRecord
  2
B0249AE5C
340
0
102
{BLKREFS
331
1D2
102
}
  0
BLOCK_RECORD
  5
1D4
100
AcDbSymbolTableRecord
100
AcDbBlockTableRecord
  2
B02BC23C4
340
0
102
{BLKREFS
331
1E8
102
}
  0
BLOCK_RECORD
  5
1E9
100
AcDbSymbolTableRecord
100
AcDbBlockTableRecord
  2
B02BC29D0
340
0
102
{BLKREFS
331
1FF
102
}
  0
BLOCK_RECORD
  5
1F6
100
AcDbSymbolTableRecord
100
AcDbBlockTableRecord
  2
B02BC2DD0
340
0
102
{BLKREFS
331
1FD
102
}
  0
BLOCK_RECORD
  5
200
100
AcDbSymbolTableRecord
100
AcDbBlockTableRecord
  2
B02C1EB00
340
0
102
{BLKREFS
331
225
102
}
  0
BLOCK_RECORD
  5
202
100
AcDbSymbolTableRecord
100
AcDbBlockTableRecord
  2
B02C1EB4C
340
0
102
{BLKREFS
331
216
102
}
  0
BLOCK_RECORD
  5
217
100
AcDbSymbolTableRecord
100
AcDbBlockTableRecord
  2
B02C41178
340
0
102
{BLKREFS
331
223
102
}
  0
BLOCK_RECORD
  5
22D
100
AcDbSymbolTableRecord
100
AcDbBlockTableRecord
  2
B02BC0504
340
0
102
{BLKREFS
331
234
102
}
  0
BLOCK_RECORD
  5
235
100
AcDbSymbolTableRecord
100
AcDbBlockTableRecord
  2
B02BC06A0
340
0
102
{BLKREFS
331
267
102
}
  0
BLOCK_RECORD
  5
237
100
AcDbSymbolTableRecord
100
AcDbBlockTableRecord
  2
B02BC06EC
340
0
102
{BLKREFS
331
23E
102
}
  0
BLOCK_RECORD
  5
23F
100
AcDbSymbolTableRecord
100
AcDbBlockTableRecord
  2
B02BC0888
340
0
102
{BLKREFS
331
246
102
}
  0
BLOCK_RECORD
  5
247
100
AcDbSymbolTableRecord
100
AcDbBlockTableRecord
  2
B02BC0A24
340
0
102
{BLKREFS
331
25B
102
}
  0
BLOCK_RECORD
  5
249
100
AcDbSymbolTableRecord
100
AcDbBlockTableRecord
  2
B02BC0A70
340
0
102
{BLKREFS
331
250
102
}
  0
BLOCK_RECORD
  5
251
100
AcDbSymbolTableRecord
100
AcDbBlockTableRecord
  2
B02BC0C0C
340
0
102
{BLKREFS
331
258
102
}
  0
BLOCK_RECORD
  5
25C
100
AcDbSymbolTableRecord
100
AcDbBlockTableRecord
  2
B02479E6C
340
0
102
{BLKREFS
331
263
102
}
  0
BLOCK_RECORD
  5
268
100
AcDbSymbolTableRecord
100
AcDbBlockTableRecord
  2
B0247A0B0
340
0
102
{BLKREFS
331
27C
102
}
  0
BLOCK_RECORD
  5
27D
100
AcDbSymbolTableRecord
100
AcDbBlockTableRecord
  2
B0247A6BC
340
0
102
{BLKREFS
331
293
102
}
  0
BLOCK_RECORD
  5
28A
100
AcDbSymbolTableRecord
100
AcDbBlockTableRecord
  2
B0247AABC
340
0
102
{BLKREFS
331
291
102
}
  0
BLOCK_RECORD
  5
294
100
AcDbSymbolTableRecord
100
AcDbBlockTableRecord
  2
B0247AC58
340
0
102
{BLKREFS
331
2AA
102
}
  0
BLOCK_RECORD
  5
2A1
100
AcDbSymbolTableRecord
100
AcDbBlockTableRecord
  2
B02BF13D0
340
0
102
{BLKREFS
331
2A8
102
}
  0
BLOCK_RECORD
  5
2AB
100
AcDbSymbolTableRecord
100
AcDbBlockTableRecord
  2
B02BF156C
340
0
102
{BLKREFS
331
2BF
102
}
  0
BLOCK_RECORD
  5
2C0
100
AcDbSymbolTableRecord
100
AcDbBlockTableRecord
  2
B023DFA6C
340
0
102
{BLKREFS
331
2D6
102
}
  0
BLOCK_RECORD
  5
2CD
100
AcDbSymbolTableRecord
100
AcDbBlockTableRecord
  2
B02469D1C
340
0
102
{BLKREFS
331
2D4
102
}
  0
BLOCK_RECORD
  5
2DA
100
AcDbSymbolTableRecord
100
AcDbBlockTableRecord
  2
B032F4378
340
0
102
{BLKREFS
331
2E9
102
}
  0
BLOCK_RECORD
  5
2EA
100
AcDbSymbolTableRecord
100
AcDbBlockTableRecord
  2
B023CBE4C
340
0
102
{BLKREFS
331
2FA
102
}
  0
BLOCK_RECORD
  5
2FE
100
AcDbSymbolTableRecord
100
AcDbBlockTableRecord
  2
B023DFCD4
340
0
102
{BLKREFS
331
30D
102
}
  0
BLOCK_RECORD
  5
30F
100
AcDbSymbolTableRecord
100
AcDbBlockTableRecord
  2
B00FA87F4
340
0
102
{BLKREFS
331
316
102
}
  0
BLOCK_RECORD
  5
31D
100
AcDbSymbolTableRecord
100
AcDbBlockTableRecord
  2
B02483A1C
340
0
102
{BLKREFS
331
324
102
}
  0
BLOCK_RECORD
  5
327
100
AcDbSymbolTableRecord
100
AcDbBlockTableRecord
  2
B024806B4
340
0
102
{BLKREFS
331
333
102
}
  0
BLOCK_RECORD
  5
334
100
AcDbSymbolTableRecord
100
AcDbBlockTableRecord
  2
B02C46748
340
0
102
{BLKREFS
331
33B
102
}
  0
BLOCK_RECORD
  5
33C
100
AcDbSymbolTableRecord
100
AcDbBlockTableRecord
  2
B02C3DE4C
340
0
102
{BLKREFS
331
343
102
}
  0
BLOCK_RECORD
  5
344
100
AcDbSymbolTableRecord
100
AcDbBlockTableRecord
  2
B02C3DFE8
340
0
102
{BLKREFS
331
34B
102
}
  0
BLOCK_RECORD
  5
34C
100
AcDbSymbolTableRecord
100
AcDbBlockTableRecord
  2
B032F4154
340
0
102
{BLKREFS
331
353
102
}
  0
BLOCK_RECORD
  5
354
100
AcDbSymbolTableRecord
100
AcDbBlockTableRecord
  2
B02C3E140
340
0
102
{BLKREFS
331
364
102
}
  0
BLOCK_RECORD
  5
367
100
AcDbSymbolTableRecord
100
AcDbBlockTableRecord
  2
B02BEC150
340
0
102
{BLKREFS
331
374
102
}
  0
BLOCK_RECORD
  5
36B
100
AcDbSymbolTableRecord
100
AcDbBlockTableRecord
  2
B02BEC234
340
0
102
{BLKREFS
331
372
102
}
  0
BLOCK_RECORD
  5
375
100
AcDbSymbolTableRecord
100
AcDbBlockTableRecord
  2
B02BF2C0C
340
0
102
{BLKREFS
331
38B
102
}
  0
ENDTAB
  0
ENDSEC
  0
SECTION
  2
BLOCKS
  0
BLOCK
  5
D
100
AcDbEntity
  8
0
390
0
100
AcDbBlockBegin
  2
*MODEL_SPACE
 70
               0
 10
0.0
 20
0.0
 30
0.0
  3
*MODEL_SPACE
  1

  0
ENDBLK
  5
E
100
AcDbEntity
  8
0
390
0
100
AcDbBlockEnd
  0
BLOCK
  5
F
100
AcDbEntity
 67
               1
  8
0
390
0
100
AcDbBlockBegin
  2
*PAPER_SPACE
 70
               0
 10
0.0
 20
0.0
 30
0.0
  3
*PAPER_SPACE
  1

  0
ENDBLK
  5
10
100
AcDbEntity
 67
               1
  8
0
390
0
100
AcDbBlockEnd
  0
BLOCK
  5
110
100
AcDbEntity
  8
0
390
0
100
AcDbBlockBegin
  2
B024990C4
 70
               0
 10
0.0
 20
0.0
 30
0.0
  3

  1

  0
LINE
  5
111
100
AcDbEntity
  8
0
390
0
 62
               3
100
AcDbLine
 10
279.56946363702343
 20
152.38198710327868
 30
0.0
 11
289.56946363702343
 21
152.38198710327868
 31
0.0
  0
LINE
  5
112
100
AcDbEntity
  8
0
390
0
 62
               3
100
AcDbLine
 10
289.56946363702343
 20
149.38198710327868
 30
0.0
 11
289.56946363702343
 21
152.38198710327868
 31
0.0
  0
LINE
  5
113
100
AcDbEntity
  8
0
390
0
 62
               3
100
AcDbLine
 10
279.56946363702343
 20
149.38198710327868
 30
0.0
 11
279.56946363702343
 21
152.38198710327868
 31
0.0
  0
LINE
  5
114
100
AcDbEntity
  8
0
390
0
 62
               3
100
AcDbLine
 10
279.56946363702343
 20
149.38198710327868
 30
0.0
 11
289.56946363702343
 21
149.38198710327868
 31
0.0
  0
ENDBLK
  5
115
100
AcDbEntity
  8
0
390
0
100
AcDbBlockEnd
  0
BLOCK
  5
118
100
AcDbEntity
  8
0
390
0
100
AcDbBlockBegin
  2
B02499260
 70
               0
 10
0.0
 20
0.0
 30
0.0
  3

  1

  0
LINE
  5
119
100
AcDbEntity
  8
0
390
0
 62
               3
100
AcDbLine
 10
279.56946363702343
 20
149.44459064089105
 30
0.0
 11
289.56946363702343
 21
149.44459064089105
 31
0.0
  0
LINE
  5
11A
100
AcDbEntity
  8
0
390
0
 62
               3
100
AcDbLine
 10
289.56946363702343
 20
136.44459064089105
 30
0.0
 11
289.56946363702343
 21
149.44459064089105
 31
0.0
  0
LINE
  5
11B
100
AcDbEntity
  8
0
390
0
 62
               3
100
AcDbLine
 10
279.56946363702343
 20
136.44459064089105
 30
0.0
 11
279.56946363702343
 21
149.44459064089105
 31
0.0
  0
LINE
  5
11C
100
AcDbEntity
  8
0
390
0
 62
               3
100
AcDbLine
 10
279.56946363702343
 20
136.44459064089105
 30
0.0
 11
289.56946363702343
 21
136.44459064089105
 31
0.0
  0
ENDBLK
  5
11D
100
AcDbEntity
  8
0
390
0
100
AcDbBlockEnd
  0
BLOCK
  5
188
100
AcDbEntity
  8
0
390
0
100
AcDbBlockBegin
  2
B02486BC4
 70
               0
 10
0.0
 20
0.0
 30
0.0
  3

  1

  0
CIRCLE
  5
189
100
AcDbEntity
  8
0
390
0
 62
               3
100
AcDbCircle
 10
270.07850625954387
 20
145.28913638665117
 30
0.0
 40
0.9
  0
CIRCLE
  5
18A
100
AcDbEntity
  8
0
390
0
 62
               3
100
AcDbCircle
 10
270.07850625954387
 20
139.11754445279371
 30
0.0
 40
0.9
  0
INSERT
  5
192
100
AcDbEntity
  8
0
390
0
100
AcDbBlockReference
  2
B02486CA8
 10
0.0
 20
0.0
 30
0.0
  0
ENDBLK
  5
193
100
AcDbEntity
  8
0
390
0
100
AcDbBlockEnd
  0
BLOCK
  5
18C
100
AcDbEntity
  8
0
390
0
100
AcDbBlockBegin
  2
B02486CA8
 70
               0
 10
0.0
 20
0.0
 30
0.0
  3

  1

  0
LINE
  5
18D
100
AcDbEntity
  8
0
390
0
 62
               3
100
AcDbLine
 10
265.21662988143925
 20
184.88585240178026
 30
0.0
 11
275.21662988143925
 21
184.88585240178026
 31
0.0
  0
LINE
  5
18E
100
AcDbEntity
  8
0
390
0
 62
               3
100
AcDbLine
 10
275.21662988143925
 20
129.88585240178026
 30
0.0
 11
275.21662988143925
 21
184.88585240178026
 31
0.0
  0
LINE
  5
18F
100
AcDbEntity
  8
0
390
0
 62
               3
100
AcDbLine
 10
265.21662988143925
 20
129.88585240178026
 30
0.0
 11
265.21662988143925
 21
184.88585240178026
 31
0.0
  0
LINE
  5
190
100
AcDbEntity
  8
0
390
0
 62
               3
100
AcDbLine
 10
265.21662988143925
 20
129.88585240178026
 30
0.0
 11
275.21662988143925
 21
129.88585240178026
 31
0.0
  0
ENDBLK
  5
191
100
AcDbEntity
  8
0
390
0
100
AcDbBlockEnd
  0
BLOCK
  5
196
100
AcDbEntity
  8
0
390
0
100
AcDbBlockBegin
  2
B02486E44
 70
               0
 10
0.0
 20
0.0
 30
0.0
  3

  1

  0
INSERT
  5
19E
100
AcDbEntity
  8
0
390
0
100
AcDbBlockReference
  2
B02486E90
 10
0.0
 20
0.0
 30
0.0
  0
INSERT
  5
1A6
100
AcDbEntity
  8
0
390
0
100
AcDbBlockReference
  2
B02BF2D90
 10
0.0
 20
0.0
 30
0.0
  0
INSERT
  5
1BB
100
AcDbEntity
  8
0
390
0
100
AcDbBlockReference
  2
B02BF2F2C
 10
0.0
 20
0.0
 30
0.0
  0
INSERT
  5
1C3
100
AcDbEntity
  8
0
390
0
100
AcDbBlockReference
  2
B0249AC18
 10
0.0
 20
0.0
 30
0.0
  0
LINE
  5
1C4
100
AcDbEntity
  8
0
370
              -3
390
0
  6
Continuous
 62
               1
100
AcDbLine
 10
320.77766813776367
 20
151.45445165995042
 30
0.0
 11
320.77766813776367
 21
157.48252469328384
 31
0.0
  0
LINE
  5
1C5
100
AcDbEntity
  8
0
370
              -3
390
0
  6
Continuous
 62
               1
100
AcDbLine
 10
286.01110738737555
 20
151.7348271498729
 30
0.0
 11
286.01110738737555
 21
156.78158596847763
 31
0.0
  0
ENDBLK
  5
1C6
100
AcDbEntity
  8
0
390
0
100
AcDbBlockEnd
  0
BLOCK
  5
198
100
AcDbEntity
  8
0
390
0
100
AcDbBlockBegin
  2
B02486E90
 70
               0
 10
0.0
 20
0.0
 30
0.0
  3

  1

  0
LINE
  5
199
100
AcDbEntity
  8
0
370
              -3
390
0
  6
Continuous
 62
               1
100
AcDbLine
 10
317.02840159162332
 20
160.82733129720833
 30
0.0
 11
289.02840159162332
 21
160.82733129720833
 31
0.0
  0
LINE
  5
19A
100
AcDbEntity
  8
0
370
              -3
390
0
  6
Continuous
 62
               1
100
AcDbLine
 10
289.02840159162332
 20
133.82733129720833
 30
0.0
 11
289.02840159162332
 21
160.82733129720833
 31
0.0
  0
LINE
  5
19B
100
AcDbEntity
  8
0
370
              -3
390
0
  6
Continuous
 62
               1
100
AcDbLine
 10
317.02840159162332
 20
133.82733129720833
 30
0.0
 11
317.02840159162332
 21
160.82733129720833
 31
0.0
  0
LINE
  5
19C
100
AcDbEntity
  8
0
370
              -3
390
0
  6
Continuous
 62
               1
100
AcDbLine
 10
317.02840159162332
 20
133.82733129720833
 30
0.0
 11
289.02840159162332
 21
133.82733129720833
 31
0.0
  0
ENDBLK
  5
19D
100
AcDbEntity
  8
0
390
0
100
AcDbBlockEnd
  0
BLOCK
  5
1A0
100
AcDbEntity
  8
0
390
0
100
AcDbBlockBegin
  2
B02BF2D90
 70
               0
 10
0.0
 20
0.0
 30
0.0
  3

  1

  0
LINE
  5
1A1
100
AcDbEntity
  8
0
370
              -3
390
0
  6
Continuous
 62
               1
100
AcDbLine
 10
323.22339748211641
 20
155.29714225989048
 30
0.0
 11
283.22339748211641
 21
155.29714225989048
 31
0.0
  0
LINE
  5
1A2
100
AcDbEntity
  8
0
370
              -3
390
0
  6
Continuous
 62
               1
100
AcDbLine
 10
283.22339748211641
 20
153.29714225989048
 30
0.0
 11
283.22339748211641
 21
155.29714225989048
 31
0.0
  0
LINE
  5
1A3
100
AcDbEntity
  8
0
370
              -3
390
0
  6
Continuous
 62
               1
100
AcDbLine
 10
323.22339748211641
 20
153.29714225989048
 30
0.0
 11
323.22339748211641
 21
155.29714225989048
 31
0.0
  0
LINE
  5
1A4
100
AcDbEntity
  8
0
370
              -3
390
0
  6
Continuous
 62
               1
100
AcDbLine
 10
323.22339748211641
 20
153.29714225989048
 30
0.0
 11
283.22339748211641
 21
153.29714225989048
 31
0.0
  0
ENDBLK
  5
1A5
100
AcDbEntity
  8
0
390
0
100
AcDbBlockEnd
  0
BLOCK
  5
1A8
100
AcDbEntity
  8
0
390
0
100
AcDbBlockBegin
  2
B02BF2F2C
 70
               0
 10
0.0
 20
0.0
 30
0.0
  3

  1

  0
INSERT
  5
1B0
100
AcDbEntity
  8
0
390
0
100
AcDbBlockReference
  2
B02BF2F78
 10
0.0
 20
0.0
 30
0.0
  0
INSERT
  5
1B8
100
AcDbEntity
  8
0
390
0
100
AcDbBlockReference
  2
B0249AA28
 10
0.0
 20
0.0
 30
0.0
  0
LINE
  5
1B9
100
AcDbEntity
  8
0
370
              -3
390
0
  6
Continuous
 62
               1
100
AcDbLine
 10
309.46376342183783
 20
162.39615831172196
 30
0.0
 11
309.46376342183783
 21
171.86354844585543
 31
0.0
  0
ENDBLK
  5
1BA
100
AcDbEntity
  8
0
390
0
100
AcDbBlockEnd
  0
BLOCK
  5
1AA
100
AcDbEntity
  8
0
390
0
100
AcDbBlockBegin
  2
B02BF2F78
 70
               0
 10
0.0
 20
0.0
 30
0.0
  3

  1

  0
LINE
  5
1AB
100
AcDbEntity
  8
0
370
              -3
390
0
  6
Continuous
 62
               1
100
AcDbLine
 10
313.96376342183783
 20
170.3447724506195
 30
0.0
 11
304.96376342183783
 21
170.3447724506195
 31
0.0
  0
LINE
  5
1AC
100
AcDbEntity
  8
0
370
              -3
390
0
  6
Continuous
 62
               1
100
AcDbLine
 10
304.96376342183783
 20
163.3447724506195
 30
0.0
 11
304.96376342183783
 21
170.3447724506195
 31
0.0
  0
LINE
  5
1AD
100
AcDbEntity
  8
0
370
              -3
390
0
  6
Continuous
 62
               1
100
AcDbLine
 10
313.96376342183783
 20
163.3447724506195
 30
0.0
 11
313.96376342183783
 21
170.3447724506195
 31
0.0
  0
LINE
  5
1AE
100
AcDbEntity
  8
0
370
              -3
390
0
  6
Continuous
 62
               1
100
AcDbLine
 10
313.96376342183783
 20
163.3447724506195
 30
0.0
 11
304.96376342183783
 21
163.3447724506195
 31
0.0
  0
ENDBLK
  5
1AF
100
AcDbEntity
  8
0
390
0
100
AcDbBlockEnd
  0
BLOCK
  5
1B2
100
AcDbEntity
  8
0
390
0
100
AcDbBlockBegin
  2
B0249AA28
 70
               0
 10
0.0
 20
0.0
 30
0.0
  3

  1

  0
LINE
  5
1B3
100
AcDbEntity
  8
0
370
              -3
390
0
  6
Continuous
 62
               1
100
AcDbLine
 10
314.26376342183784
 20
169.67284158795988
 30
0.0
 11
304.66376342183787
 21
169.67284158795988
 31
0.0
  0
LINE
  5
1B4
100
AcDbEntity
  8
0
370
              -3
390
0
  6
Continuous
 62
               1
100
AcDbLine
 10
304.66376342183787
 20
167.67284158795988
 30
0.0
 11
304.66376342183787
 21
169.67284158795988
 31
0.0
  0
LINE
  5
1B5
100
AcDbEntity
  8
0
370
              -3
390
0
  6
Continuous
 62
               1
100
AcDbLine
 10
314.26376342183784
 20
167.67284158795988
 30
0.0
 11
314.26376342183784
 21
169.67284158795988
 31
0.0
  0
LINE
  5
1B6
100
AcDbEntity
  8
0
370
              -3
390
0
  6
Continuous
 62
               1
100
AcDbLine
 10
314.26376342183784
 20
167.67284158795988
 30
0.0
 11
304.66376342183787
 21
167.67284158795988
 31
0.0
  0
ENDBLK
  5
1B7
100
AcDbEntity
  8
0
390
0
100
AcDbBlockEnd
  0
BLOCK
  5
1BD
100
AcDbEntity
  8
0
390
0
100
AcDbBlockBegin
  2
B0249AC18
 70
               0
 10
0.0
 20
0.0
 30
0.0
  3

  1

  0
LINE
  5
1BE
100
AcDbEntity
  8
0
370
              -3
390
0
  6
Continuous
 62
               1
100
AcDbLine
 10
316.99254579729836
 20
163.35344439412995
 30
0.0
 11
298.99254579729836
 21
163.35344439412995
 31
0.0
  0
LINE
  5
1BF
100
AcDbEntity
  8
0
370
              -3
390
0
  6
Continuous
 62
               1
100
AcDbLine
 10
298.99254579729836
 20
160.85344439412995
 30
0.0
 11
298.99254579729836
 21
163.35344439412995
 31
0.0
  0
LINE
  5
1C0
100
AcDbEntity
  8
0
370
              -3
390
0
  6
Continuous
 62
               1
100
AcDbLine
 10
316.99254579729836
 20
160.85344439412995
 30
0.0
 11
316.99254579729836
 21
163.35344439412995
 31
0.0
  0
LINE
  5
1C1
100
AcDbEntity
  8
0
370
              -3
390
0
  6
Continuous
 62
               1
100
AcDbLine
 10
316.99254579729836
 20
160.85344439412995
 30
0.0
 11
298.99254579729836
 21
160.85344439412995
 31
0.0
  0
ENDBLK
  5
1C2
100
AcDbEntity
  8
0
390
0
100
AcDbBlockEnd
  0
BLOCK
  5
1C9
100
AcDbEntity
  8
0
390
0
100
AcDbBlockBegin
  2
B0249AE5C
 70
               0
 10
0.0
 20
0.0
 30
0.0
  3

  1

  0
LINE
  5
1CA
100
AcDbEntity
  8
0
390
0
 62
               3
100
AcDbLine
 10
263.52627086984398
 20
123.63771431690405
 30
0.0
 11
268.52862614441466
 21
122.62913998581166
 31
0.0
  0
LINE
  5
1CB
100
AcDbEntity
  8
0
390
0
 62
               3
100
AcDbLine
 10
268.52852563734547
 20
122.62882908762579
 30
0.0
 11
264.12937266143979
 21
109.02094369133458
 31
0.0
  0
LINE
  5
1CC
100
AcDbEntity
  8
0
390
0
100
AcDbLine
 10
263.00634086984388
 20
121.19237431690406
 30
0.0
 11
263.52627086984393
 21
123.63771431690405
 31
0.0
  0
ARC
  5
1CD
100
AcDbEntity
  8
0
390
0
 62
               3
100
AcDbCircle
 10
261.73155716711733
 20
109.79610874162199
 30
0.0
 40
2.52
100
AcDbArc
 50
197.969139740157
 51
342.97815007421758
  0
CIRCLE
  5
1CE
100
AcDbEntity
  8
0
390
0
 62
               3
100
AcDbCircle
 10
261.73155716711733
 20
109.79610874162199
 30
0.0
 40
1.5049999999999999
  0
LINE
  5
1CF
100
AcDbEntity
  8
0
390
0
 62
               3
100
AcDbLine
 10
253.225010869844
 20
123.27208431690404
 30
0.0
 11
259.41470042710893
 21
108.80485960730827
 31
0.0
  0
LINE
  5
1D0
100
AcDbEntity
  8
0
390
0
100
AcDbLine
 10
253.225010869844
 20
123.27208431690404
 30
0.0
 11
263.006340869844
 21
121.19237431690404
 31
0.0
  0
ENDBLK
  5
1D1
100
AcDbEntity
  8
0
390
0
100
AcDbBlockEnd
  0
BLOCK
  5
1D5
100
AcDbEntity
  8
0
390
0
100
AcDbBlockBegin
  2
B02BC23C4
 70
               0
 10
0.0
 20
0.0
 30
0.0
  3

  1

  0
ARC
  5
1D6
100
AcDbEntity
  8
0
370
              -3
390
0
  6
Continuous
 62
               3
100
AcDbCircle
 10
346.69829223990428
 20
135.8260476157044
 30
0.0
 40
1.25
100
AcDbArc
 50
66.926081934369023
 51
113.07391806563098
  0
LINE
  5
1D7
100
AcDbEntity
  8
0
370
              -3
390
0
  6
Continuous
 62
               3
100
AcDbLine
 10
347.18819018846091
 20
136.97604761570449
 30
0.0
 11
347.18819018846091
 21
136.31594556426114
 31
0.0
  0
LINE
  5
1D8
100
AcDbEntity
  8
0
370
              -3
390
0
  6
Continuous
 62
               3
100
AcDbLine
 10
347.18819018846091
 20
135.33614966714788
 30
0.0
 11
347.18819018846091
 21
134.67604761570431
 31
0.0
  0
LINE
  5
1D9
100
AcDbEntity
  8
0
370
              -3
390
0
  6
Continuous
 62
               3
100
AcDbLine
 10
346.20839429134764
 20
134.67604761570431
 30
0.0
 11
346.20839429134764
 21
135.33614966714788
 31
0.0
  0
LINE
  5
1DA
100
AcDbEntity
  8
0
370
              -3
390
0
  6
Continuous
 62
               3
100
AcDbLine
 10
345.5482922399043
 20
135.33614966714788
 30
0.0
 11
346.20839429134764
 21
135.33614966714788
 31
0.0
  0
LINE
  5
1DB
100
AcDbEntity
  8
0
370
              -3
390
0
  6
Continuous
 62
               3
100
AcDbLine
 10
347.84829223990431
 20
136.31594556426114
 30
0.0
 11
347.18819018846091
 21
136.31594556426114
 31
0.0
  0
LINE
  5
1DC
100
AcDbEntity
  8
0
370
              -3
390
0
  6
Continuous
 62
               3
100
AcDbLine
 10
347.18819018846091
 20
135.33614966714788
 30
0.0
 11
347.84829223990431
 21
135.33614966714788
 31
0.0
  0
LINE
  5
1DD
100
AcDbEntity
  8
0
370
              -3
390
0
  6
Continuous
 62
               3
100
AcDbLine
 10
346.20839429134764
 20
136.97604761570449
 30
0.0
 11
346.20839429134764
 21
136.31594556426114
 31
0.0
  0
LINE
  5
1DE
100
AcDbEntity
  8
0
370
              -3
390
0
  6
Continuous
 62
               3
100
AcDbLine
 10
345.5482922399043
 20
136.31594556426114
 30
0.0
 11
346.20839429134764
 21
136.31594556426114
 31
0.0
  0
ARC
  5
1DF
100
AcDbEntity
  8
0
370
              -3
390
0
  6
Continuous
 62
               3
100
AcDbCircle
 10
346.69829223990428
 20
135.8260476157044
 30
0.0
 40
1.25
100
AcDbArc
 50
156.92608193436905
 51
203.07391806563098
  0
ARC
  5
1E0
100
AcDbEntity
  8
0
370
              -3
390
0
  6
Continuous
 62
               3
100
AcDbCircle
 10
346.69829223990428
 20
135.8260476157044
 30
0.0
 40
1.25
100
AcDbArc
 50
246.92608193436902
 51
293.07391806563095
  0
ARC
  5
1E1
100
AcDbEntity
  8
0
370
              -3
390
0
  6
Continuous
 62
               3
100
AcDbCircle
 10
346.69829223990428
 20
135.8260476157044
 30
0.0
 40
1.25
100
AcDbArc
 50
336.92608193436899
 51
0.0
  0
ARC
  5
1E2
100
AcDbEntity
  8
0
370
              -3
390
0
  6
Continuous
 62
               3
100
AcDbCircle
 10
346.69829223990428
 20
135.8260476157044
 30
0.0
 40
1.25
100
AcDbArc
 50
0.0
 51
23.073918065630977
  0
LINE
  5
1E3
100
AcDbEntity
  8
0
370
              -3
390
0
  6
Continuous
 62
               3
100
AcDbLine
 10
346.69829223990428
 20
139.45242616431426
 30
0.0
 11
346.69829223990428
 21
133.0760476157044
 31
0.0
  0
LINE
  5
1E4
100
AcDbEntity
  8
0
370
              -3
390
0
  6
Continuous
 62
               3
100
AcDbLine
 10
342.69547347515481
 20
135.8260476157044
 30
0.0
 11
350.97448276567917
 21
135.8260476157044
 31
0.0
  0
CIRCLE
  5
1E5
100
AcDbEntity
  8
0
370
              -3
390
0
  6
Continuous
 62
               3
100
AcDbCircle
 10
346.69829223990428
 20
135.8260476157044
 30
0.0
 40
2.5
  0
CIRCLE
  5
1E6
100
AcDbEntity
  8
0
370
              -3
390
0
  6
Continuous
 62
               3
100
AcDbCircle
 10
346.69829223990428
 20
135.8260476157044
 30
0.0
 40
2.75
  0
ENDBLK
  5
1E7
100
AcDbEntity
  8
0
390
0
100
AcDbBlockEnd
  0
BLOCK
  5
1EA
100
AcDbEntity
  8
0
390
0
100
AcDbBlockBegin
  2
B02BC29D0
 70
               0
 10
0.0
 20
0.0
 30
0.0
  3

  1

  0
LINE
  5
1EB
100
AcDbEntity
  8
0
370
              -3
390
0
  6
Continuous
 62
               3
100
AcDbLine
 10
346.69829223990428
 20
143.33076788593223
 30
0.0
 11
346.70561860025254
 21
156.58794077487539
 31
0.0
  0
LINE
  5
1EC
100
AcDbEntity
  8
0
370
              -3
390
0
  6
Continuous
 62
               3
100
AcDbLine
 10
346.20585970484717
 20
155.09524093353514
 30
0.0
 11
346.20535080770941
 21
155.55752097830998
 31
0.0
  0
ARC
  5
1ED
100
AcDbEntity
  8
0
370
              -3
390
0
  6
Continuous
 62
               3
100
AcDbCircle
 10
346.70561860025254
 20
152.31147693898527
 30
0.0
 40
3.284367483929322
100
AcDbArc
 50
40.4315264411984
 51
81.337851417618865
  0
ARC
  5
1EE
100
AcDbEntity
  8
0
370
              -3
390
0
  6
Continuous
 62
               3
100
AcDbCircle
 10
346.70561860025254
 20
152.31147693898527
 30
0.0
 40
3.284367483929322
100
AcDbArc
 50
98.761273307376641
 51
139.5684735588016
  0
LINE
  5
1EF
100
AcDbEntity
  8
0
370
              -3
390
0
  6
Continuous
 62
               3
100
AcDbLine
 10
347.20156542015184
 20
155.09524093353514
 30
0.0
 11
347.20024675652922
 21
155.56662589011864
 31
0.0
  0
LINE
  5
1F0
100
AcDbEntity
  8
0
370
              -3
390
0
  6
Continuous
 62
               3
100
AcDbLine
 10
346.20486221674838
 20
155.09524093353514
 30
0.0
 11
347.20571050794581
 21
155.09524093353514
 31
0.0
  0
LINE
  5
1F1
100
AcDbEntity
  8
0
370
              -3
390
0
  6
Continuous
 62
               3
100
AcDbLine
 10
347.80561860025256
 20
145.06274824805666
 30
0.0
 11
346.70014554002336
 21
143.95454161639043
 31
0.0
  0
LINE
  5
1F2
100
AcDbEntity
  8
0
370
              -3
390
0
  6
Continuous
 62
               3
100
AcDbLine
 10
346.70014554002336
 20
143.95454161639043
 30
0.0
 11
345.60561860025257
 21
145.06274824805666
 31
0.0
  0
LINE
  5
1F3
100
AcDbEntity
  8
0
370
              -3
390
0
  6
Continuous
 62
               3
100
AcDbLine
 10
345.60561860025257
 20
153.84151679060585
 30
0.0
 11
345.60561860025257
 21
145.06274824805666
 31
0.0
  0
LINE
  5
1F4
100
AcDbEntity
  8
0
370
              -3
390
0
  6
Continuous
 62
               3
100
AcDbLine
 10
347.80561860025256
 20
153.84151679060585
 30
0.0
 11
347.80561860025256
 21
145.06274824805666
 31
0.0
  0
LINE
  5
1F5
100
AcDbEntity
  8
0
370
              -3
390
0
  6
Continuous
 62
               3
100
AcDbLine
 10
345.60561860025257
 20
145.06274824805666
 30
0.0
 11
347.80561860025256
 21
145.06274824805666
 31
0.0
  0
INSERT
  5
1FD
100
AcDbEntity
  8
0
390
0
100
AcDbBlockReference
  2
B02BC2DD0
 10
0.0
 20
0.0
 30
0.0
  0
ENDBLK
  5
1FE
100
AcDbEntity
  8
0
390
0
100
AcDbBlockEnd
  0
BLOCK
  5
1F7
100
AcDbEntity
  8
0
390
0
100
AcDbBlockBegin
  2
B02BC2DD0
 70
               0
 10
0.0
 20
0.0
 30
0.0
  3

  1

  0
LINE
  5
1F8
100
AcDbEntity
  8
0
370
              -3
390
0
  6
Continuous
 62
               3
100
AcDbLine
 10
343.95561860025254
 20
154.44151679060599
 30
0.0
 11
349.45561860025254
 21
154.44151679060599
 31
0.0
  0
LINE
  5
1F9
100
AcDbEntity
  8
0
370
              -3
390
0
  6
Continuous
 62
               3
100
AcDbLine
 10
349.45561860025254
 20
153.84151679060585
 30
0.0
 11
349.45561860025254
 21
154.44151679060599
 31
0.0
  0
LINE
  5
1FA
100
AcDbEntity
  8
0
370
              -3
390
0
  6
Continuous
 62
               3
100
AcDbLine
 10
343.95561860025254
 20
153.84151679060585
 30
0.0
 11
343.95561860025254
 21
154.44151679060599
 31
0.0
  0
LINE
  5
1FB
100
AcDbEntity
  8
0
370
              -3
390
0
  6
Continuous
 62
               3
100
AcDbLine
 10
343.95561860025254
 20
153.84151679060585
 30
0.0
 11
349.45561860025254
 21
153.84151679060585
 31
0.0
  0
ENDBLK
  5
1FC
100
AcDbEntity
  8
0
390
0
100
AcDbBlockEnd
  0
BLOCK
  5
201
100
AcDbEntity
  8
0
390
0
100
AcDbBlockBegin
  2
B02C1EB00
 70
               0
 10
0.0
 20
0.0
 30
0.0
  3

  1

  0
INSERT
  5
216
100
AcDbEntity
  8
0
390
0
100
AcDbBlockReference
  2
B02C1EB4C
 10
0.0
 20
0.0
 30
0.0
  0
INSERT
  5
223
100
AcDbEntity
  8
0
390
0
100
AcDbBlockReference
  2
B02C41178
 10
0.0
 20
0.0
 30
0.0
  0
ENDBLK
  5
224
100
AcDbEntity
  8
0
390
0
100
AcDbBlockEnd
  0
BLOCK
  5
203
100
AcDbEntity
  8
0
390
0
100
AcDbBlockBegin
  2
B02C1EB4C
 70
               0
 10
0.0
 20
0.0
 30
0.0
  3

  1

  0
ARC
  5
204
100
AcDbEntity
  8
0
370
              -3
390
0
  6
Continuous
 62
               3
100
AcDbCircle
 10
333.82285241619314
 20
124.56593114208128
 30
0.0
 40
1.25
100
AcDbArc
 50
66.926081934369023
 51
113.07391806563098
  0
LINE
  5
205
100
AcDbEntity
  8
0
370
              -3
390
0
  6
Continuous
 62
               3
100
AcDbLine
 10
334.31275036474977
 20
125.71593114208137
 30
0.0
 11
334.31275036474977
 21
125.05582909063803
 31
0.0
  0
LINE
  5
206
100
AcDbEntity
  8
0
370
              -3
390
0
  6
Continuous
 62
               3
100
AcDbLine
 10
334.31275036474977
 20
124.07603319352476
 30
0.0
 11
334.31275036474977
 21
123.41593114208119
 31
0.0
  0
LINE
  5
207
100
AcDbEntity
  8
0
370
              -3
390
0
  6
Continuous
 62
               3
100
AcDbLine
 10
333.33295446763651
 20
123.41593114208119
 30
0.0
 11
333.33295446763651
 21
124.07603319352476
 31
0.0
  0
LINE
  5
208
100
AcDbEntity
  8
0
370
              -3
390
0
  6
Continuous
 62
               3
100
AcDbLine
 10
332.67285241619317
 20
124.07603319352476
 30
0.0
 11
333.33295446763651
 21
124.07603319352476
 31
0.0
  0
LINE
  5
209
100
AcDbEntity
  8
0
370
              -3
390
0
  6
Continuous
 62
               3
100
AcDbLine
 10
334.97285241619318
 20
125.05582909063803
 30
0.0
 11
334.31275036474977
 21
125.05582909063803
 31
0.0
  0
LINE
  5
20A
100
AcDbEntity
  8
0
370
              -3
390
0
  6
Continuous
 62
               3
100
AcDbLine
 10
334.31275036474977
 20
124.07603319352476
 30
0.0
 11
334.97285241619318
 21
124.07603319352476
 31
0.0
  0
LINE
  5
20B
100
AcDbEntity
  8
0
370
              -3
390
0
  6
Continuous
 62
               3
100
AcDbLine
 10
333.33295446763651
 20
125.71593114208137
 30
0.0
 11
333.33295446763651
 21
125.05582909063803
 31
0.0
  0
LINE
  5
20C
100
AcDbEntity
  8
0
370
              -3
390
0
  6
Continuous
 62
               3
100
AcDbLine
 10
332.67285241619317
 20
125.05582909063803
 30
0.0
 11
333.33295446763651
 21
125.05582909063803
 31
0.0
  0
ARC
  5
20D
100
AcDbEntity
  8
0
370
              -3
390
0
  6
Continuous
 62
               3
100
AcDbCircle
 10
333.82285241619314
 20
124.56593114208128
 30
0.0
 40
1.25
100
AcDbArc
 50
156.92608193436905
 51
203.07391806563098
  0
ARC
  5
20E
100
AcDbEntity
  8
0
370
              -3
390
0
  6
Continuous
 62
               3
100
AcDbCircle
 10
333.82285241619314
 20
124.56593114208128
 30
0.0
 40
1.25
100
AcDbArc
 50
246.92608193436902
 51
293.07391806563095
  0
ARC
  5
20F
100
AcDbEntity
  8
0
370
              -3
390
0
  6
Continuous
 62
               3
100
AcDbCircle
 10
333.82285241619314
 20
124.56593114208128
 30
0.0
 40
1.25
100
AcDbArc
 50
336.92608193436899
 51
0.0
  0
ARC
  5
210
100
AcDbEntity
  8
0
370
              -3
390
0
  6
Continuous
 62
               3
100
AcDbCircle
 10
333.82285241619314
 20
124.56593114208128
 30
0.0
 40
1.25
100
AcDbArc
 50
0.0
 51
23.073918065630977
  0
LINE
  5
211
100
AcDbEntity
  8
0
370
              -3
390
0
  6
Continuous
 62
               3
100
AcDbLine
 10
333.82285241619314
 20
128.19230969069116
 30
0.0
 11
333.82285241619314
 21
121.81593114208128
 31
0.0
  0
LINE
  5
212
100
AcDbEntity
  8
0
370
              -3
390
0
  6
Continuous
 62
               3
100
AcDbLine
 10
329.82003365144368
 20
124.56593114208128
 30
0.0
 11
338.09904294196804
 21
124.56593114208128
 31
0.0
  0
CIRCLE
  5
213
100
AcDbEntity
  8
0
370
              -3
390
0
  6
Continuous
 62
               3
100
AcDbCircle
 10
333.82285241619314
 20
124.56593114208128
 30
0.0
 40
2.5
  0
CIRCLE
  5
214
100
AcDbEntity
  8
0
370
              -3
390
0
  6
Continuous
 62
               3
100
AcDbCircle
 10
333.82285241619314
 20
124.56593114208128
 30
0.0
 40
2.75
  0
ENDBLK
  5
215
100
AcDbEntity
  8
0
390
0
100
AcDbBlockEnd
  0
BLOCK
  5
218
100
AcDbEntity
  8
0
390
0
100
AcDbBlockBegin
  2
B02C41178
 70
               0
 10
0.0
 20
0.0
 30
0.0
  3

  1

  0
LINE
  5
219
100
AcDbEntity
  8
0
390
0
 62
               3
100
AcDbLine
 10
334.81824110993006
 20
131.67902669904413
 30
0.0
 11
334.81824110993006
 21
129.17812071702548
 31
0.0
  0
CIRCLE
  5
21A
100
AcDbEntity
  8
0
390
0
 62
               3
100
AcDbCircle
 10
333.82285241619314
 20
118.39433920822383
 30
0.0
 40
0.9
  0
CIRCLE
  5
21B
100
AcDbEntity
  8
0
390
0
 62
               3
100
AcDbCircle
 10
333.82285241619314
 20
124.56593114208128
 30
0.0
 40
0.9
  0
ARC
  5
21C
100
AcDbEntity
  8
0
390
0
 62
               3
100
AcDbCircle
 10
334.78815521264806
 20
128.67902669904413
 30
0.0
 40
0.5
100
AcDbArc
 50
180.00000000000003
 51
86.550326312409879
  0
LINE
  5
21D
100
AcDbEntity
  8
0
390
0
 62
               3
100
AcDbLine
 10
328.82285241619314
 20
128.67902669904413
 30
0.0
 11
334.28815521264806
 21
128.67902669904413
 31
0.0
  0
LINE
  5
21E
100
AcDbEntity
  8
0
390
0
 62
               3
100
AcDbLine
 10
338.82285241619314
 20
115.67902669904414
 30
0.0
 11
338.82285241619314
 21
131.67902669904413
 31
0.0
  0
LINE
  5
21F
100
AcDbEntity
  8
0
390
0
 62
               3
100
AcDbLine
 10
334.81824110993006
 20
131.67902669904413
 30
0.0
 11
338.82285241619314
 21
131.67902669904413
 31
0.0
  0
LINE
  5
220
100
AcDbEntity
  8
0
390
0
 62
               3
100
AcDbLine
 10
328.82285241619314
 20
115.67902669904414
 30
0.0
 11
338.82285241619314
 21
115.67902669904414
 31
0.0
  0
LINE
  5
221
100
AcDbEntity
  8
0
390
0
 62
               3
100
AcDbLine
 10
328.82285241619314
 20
115.67902669904414
 30
0.0
 11
328.82285241619314
 21
128.67902669904413
 31
0.0
  0
ENDBLK
  5
222
100
AcDbEntity
  8
0
390
0
100
AcDbBlockEnd
  0
BLOCK
  5
22E
100
AcDbEntity
  8
0
390
0
100
AcDbBlockBegin
  2
B02BC0504
 70
               0
 10
0.0
 20
0.0
 30
0.0
  3

  1

  0
LINE
  5
22F
100
AcDbEntity
  8
0
390
0
 62
               3
100
AcDbLine
 10
128.98586482345456
 20
272.30374245063706
 30
0.0
 11
138.98586482345456
 21
272.30374245063706
 31
0.0
  0
LINE
  5
230
100
AcDbEntity
  8
0
390
0
 62
               3
100
AcDbLine
 10
138.98586482345456
 20
215.30374245063706
 30
0.0
 11
138.98586482345456
 21
272.30374245063706
 31
0.0
  0
LINE
  5
231
100
AcDbEntity
  8
0
390
0
 62
               3
100
AcDbLine
 10
128.98586482345456
 20
215.30374245063706
 30
0.0
 11
128.98586482345456
 21
272.30374245063706
 31
0.0
  0
LINE
  5
232
100
AcDbEntity
  8
0
390
0
 62
               3
100
AcDbLine
 10
128.98586482345456
 20
215.30374245063706
 30
0.0
 11
138.98586482345456
 21
215.30374245063706
 31
0.0
  0
ENDBLK
  5
233
100
AcDbEntity
  8
0
390
0
100
AcDbBlockEnd
  0
BLOCK
  5
236
100
AcDbEntity
  8
0
390
0
100
AcDbBlockBegin
  2
B02BC06A0
 70
               0
 10
0.0
 20
0.0
 30
0.0
  3

  1

  0
INSERT
  5
23E
100
AcDbEntity
  8
0
390
0
100
AcDbBlockReference
  2
B02BC06EC
 10
0.0
 20
0.0
 30
0.0
  0
INSERT
  5
246
100
AcDbEntity
  8
0
390
0
100
AcDbBlockReference
  2
B02BC0888
 10
0.0
 20
0.0
 30
0.0
  0
INSERT
  5
25B
100
AcDbEntity
  8
0
390
0
100
AcDbBlockReference
  2
B02BC0A24
 10
0.0
 20
0.0
 30
0.0
  0
INSERT
  5
263
100
AcDbEntity
  8
0
390
0
100
AcDbBlockReference
  2
B02479E6C
 10
0.0
 20
0.0
 30
0.0
  0
LINE
  5
264
100
AcDbEntity
  8
0
370
              -3
390
0
  6
Continuous
 62
               1
100
AcDbLine
 10
170.93611804760064
 20
236.93329688936302
 30
0.0
 11
170.93611804760064
 21
242.96136992269643
 31
0.0
  0
LINE
  5
265
100
AcDbEntity
  8
0
370
              -3
390
0
  6
Continuous
 62
               1
100
AcDbLine
 10
136.16955729721252
 20
237.2136723792855
 30
0.0
 11
136.16955729721252
 21
242.26043119789023
 31
0.0
  0
ENDBLK
  5
266
100
AcDbEntity
  8
0
390
0
100
AcDbBlockEnd
  0
BLOCK
  5
238
100
AcDbEntity
  8
0
390
0
100
AcDbBlockBegin
  2
B02BC06EC
 70
               0
 10
0.0
 20
0.0
 30
0.0
  3

  1

  0
LINE
  5
239
100
AcDbEntity
  8
0
370
              -3
390
0
  6
Continuous
 62
               1
100
AcDbLine
 10
167.1868515014603
 20
246.30617652662093
 30
0.0
 11
139.1868515014603
 21
246.30617652662093
 31
0.0
  0
LINE
  5
23A
100
AcDbEntity
  8
0
370
              -3
390
0
  6
Continuous
 62
               1
100
AcDbLine
 10
139.1868515014603
 20
219.30617652662093
 30
0.0
 11
139.1868515014603
 21
246.30617652662093
 31
0.0
  0
LINE
  5
23B
100
AcDbEntity
  8
0
370
              -3
390
0
  6
Continuous
 62
               1
100
AcDbLine
 10
167.1868515014603
 20
219.30617652662093
 30
0.0
 11
167.1868515014603
 21
246.30617652662093
 31
0.0
  0
LINE
  5
23C
100
AcDbEntity
  8
0
370
              -3
390
0
  6
Continuous
 62
               1
100
AcDbLine
 10
167.1868515014603
 20
219.30617652662093
 30
0.0
 11
139.1868515014603
 21
219.30617652662093
 31
0.0
  0
ENDBLK
  5
23D
100
AcDbEntity
  8
0
390
0
100
AcDbBlockEnd
  0
BLOCK
  5
240
100
AcDbEntity
  8
0
390
0
100
AcDbBlockBegin
  2
B02BC0888
 70
               0
 10
0.0
 20
0.0
 30
0.0
  3

  1

  0
LINE
  5
241
100
AcDbEntity
  8
0
370
              -3
390
0
  6
Continuous
 62
               1
100
AcDbLine
 10
173.38184739195339
 20
240.77598748930308
 30
0.0
 11
133.38184739195339
 21
240.77598748930308
 31
0.0
  0
LINE
  5
242
100
AcDbEntity
  8
0
370
              -3
390
0
  6
Continuous
 62
               1
100
AcDbLine
 10
133.38184739195339
 20
238.77598748930308
 30
0.0
 11
133.38184739195339
 21
240.77598748930308
 31
0.0
  0
LINE
  5
243
100
AcDbEntity
  8
0
370
              -3
390
0
  6
Continuous
 62
               1
100
AcDbLine
 10
173.38184739195339
 20
238.77598748930308
 30
0.0
 11
173.38184739195339
 21
240.77598748930308
 31
0.0
  0
LINE
  5
244
100
AcDbEntity
  8
0
370
              -3
390
0
  6
Continuous
 62
               1
100
AcDbLine
 10
173.38184739195339
 20
238.77598748930308
 30
0.0
 11
133.38184739195339
 21
238.77598748930308
 31
0.0
  0
ENDBLK
  5
245
100
AcDbEntity
  8
0
390
0
100
AcDbBlockEnd
  0
BLOCK
  5
248
100
AcDbEntity
  8
0
390
0
100
AcDbBlockBegin
  2
B02BC0A24
 70
               0
 10
0.0
 20
0.0
 30
0.0
  3

  1

  0
INSERT
  5
250
100
AcDbEntity
  8
0
390
0
100
AcDbBlockReference
  2
B02BC0A70
 10
0.0
 20
0.0
 30
0.0
  0
INSERT
  5
258
100
AcDbEntity
  8
0
390
0
100
AcDbBlockReference
  2
B02BC0C0C
 10
0.0
 20
0.0
 30
0.0
  0
LINE
  5
259
100
AcDbEntity
  8
0
370
              -3
390
0
  6
Continuous
 62
               1
100
AcDbLine
 10
159.6222133316748
 20
247.87500354113456
 30
0.0
 11
159.6222133316748
 21
257.342393675268
 31
0.0
  0
ENDBLK
  5
25A
100
AcDbEntity
  8
0
390
0
100
AcDbBlockEnd
  0
BLOCK
  5
24A
100
AcDbEntity
  8
0
390
0
100
AcDbBlockBegin
  2
B02BC0A70
 70
               0
 10
0.0
 20
0.0
 30
0.0
  3

  1

  0
LINE
  5
24B
100
AcDbEntity
  8
0
370
              -3
390
0
  6
Continuous
 62
               1
100
AcDbLine
 10
164.1222133316748
 20
255.8236176800321
 30
0.0
 11
155.1222133316748
 21
255.8236176800321
 31
0.0
  0
LINE
  5
24C
100
AcDbEntity
  8
0
370
              -3
390
0
  6
Continuous
 62
               1
100
AcDbLine
 10
155.1222133316748
 20
248.8236176800321
 30
0.0
 11
155.1222133316748
 21
255.8236176800321
 31
0.0
  0
LINE
  5
24D
100
AcDbEntity
  8
0
370
              -3
390
0
  6
Continuous
 62
               1
100
AcDbLine
 10
164.1222133316748
 20
248.8236176800321
 30
0.0
 11
164.1222133316748
 21
255.8236176800321
 31
0.0
  0
LINE
  5
24E
100
AcDbEntity
  8
0
370
              -3
390
0
  6
Continuous
 62
               1
100
AcDbLine
 10
164.1222133316748
 20
248.8236176800321
 30
0.0
 11
155.1222133316748
 21
248.8236176800321
 31
0.0
  0
ENDBLK
  5
24F
100
AcDbEntity
  8
0
390
0
100
AcDbBlockEnd
  0
BLOCK
  5
252
100
AcDbEntity
  8
0
390
0
100
AcDbBlockBegin
  2
B02BC0C0C
 70
               0
 10
0.0
 20
0.0
 30
0.0
  3

  1

  0
LINE
  5
253
100
AcDbEntity
  8
0
370
              -3
390
0
  6
Continuous
 62
               1
100
AcDbLine
 10
164.42221333167481
 20
255.15168681737248
 30
0.0
 11
154.82221333167485
 21
255.15168681737248
 31
0.0
  0
LINE
  5
254
100
AcDbEntity
  8
0
370
              -3
390
0
  6
Continuous
 62
               1
100
AcDbLine
 10
154.82221333167485
 20
253.15168681737248
 30
0.0
 11
154.82221333167485
 21
255.15168681737248
 31
0.0
  0
LINE
  5
255
100
AcDbEntity
  8
0
370
              -3
390
0
  6
Continuous
 62
               1
100
AcDbLine
 10
164.42221333167481
 20
253.15168681737248
 30
0.0
 11
164.42221333167481
 21
255.15168681737248
 31
0.0
  0
LINE
  5
256
100
AcDbEntity
  8
0
370
              -3
390
0
  6
Continuous
 62
               1
100
AcDbLine
 10
164.42221333167481
 20
253.15168681737248
 30
0.0
 11
154.82221333167485
 21
253.15168681737248
 31
0.0
  0
ENDBLK
  5
257
100
AcDbEntity
  8
0
390
0
100
AcDbBlockEnd
  0
BLOCK
  5
25D
100
AcDbEntity
  8
0
390
0
100
AcDbBlockBegin
  2
B02479E6C
 70
               0
 10
0.0
 20
0.0
 30
0.0
  3

  1

  0
LINE
  5
25E
100
AcDbEntity
  8
0
370
              -3
390
0
  6
Continuous
 62
               1
100
AcDbLine
 10
167.15099570713534
 20
248.83228962354255
 30
0.0
 11
149.15099570713534
 21
248.83228962354255
 31
0.0
  0
LINE
  5
25F
100
AcDbEntity
  8
0
370
              -3
390
0
  6
Continuous
 62
               1
100
AcDbLine
 10
149.15099570713534
 20
246.33228962354255
 30
0.0
 11
149.15099570713534
 21
248.83228962354255
 31
0.0
  0
LINE
  5
260
100
AcDbEntity
  8
0
370
              -3
390
0
  6
Continuous
 62
               1
100
AcDbLine
 10
167.15099570713534
 20
246.33228962354255
 30
0.0
 11
167.15099570713534
 21
248.83228962354255
 31
0.0
  0
LINE
  5
261
100
AcDbEntity
  8
0
370
              -3
390
0
  6
Continuous
 62
               1
100
AcDbLine
 10
167.15099570713534
 20
246.33228962354255
 30
0.0
 11
149.15099570713534
 21
246.33228962354255
 31
0.0
  0
ENDBLK
  5
262
100
AcDbEntity
  8
0
390
0
100
AcDbBlockEnd
  0
BLOCK
  5
269
100
AcDbEntity
  8
0
390
0
100
AcDbBlockBegin
  2
B0247A0B0
 70
               0
 10
0.0
 20
0.0
 30
0.0
  3

  1

  0
ARC
  5
26A
100
AcDbEntity
  8
0
370
              -3
390
0
  6
Continuous
 62
               3
100
AcDbCircle
 10
335.96257222567277
 20
87.467401571986102
 30
0.0
 40
1.25
100
AcDbArc
 50
66.926081934369023
 51
113.07391806563098
  0
LINE
  5
26B
100
AcDbEntity
  8
0
370
              -3
390
0
  6
Continuous
 62
               3
100
AcDbLine
 10
336.4524701742294
 20
88.617401571986193
 30
0.0
 11
336.4524701742294
 21
87.95729952054262
 31
0.0
  0
LINE
  5
26C
100
AcDbEntity
  8
0
370
              -3
390
0
  6
Continuous
 62
               3
100
AcDbLine
 10
336.4524701742294
 20
86.977503623429357
 30
0.0
 11
336.4524701742294
 21
86.317401571986011
 31
0.0
  0
LINE
  5
26D
100
AcDbEntity
  8
0
370
              -3
390
0
  6
Continuous
 62
               3
100
AcDbLine
 10
335.47267427711614
 20
86.317401571986011
 30
0.0
 11
335.47267427711614
 21
86.977503623429357
 31
0.0
  0
LINE
  5
26E
100
AcDbEntity
  8
0
370
              -3
390
0
  6
Continuous
 62
               3
100
AcDbLine
 10
334.8125722256728
 20
86.977503623429357
 30
0.0
 11
335.47267427711614
 21
86.977503623429357
 31
0.0
  0
LINE
  5
26F
100
AcDbEntity
  8
0
370
              -3
390
0
  6
Continuous
 62
               3
100
AcDbLine
 10
337.11257222567281
 20
87.95729952054262
 30
0.0
 11
336.4524701742294
 21
87.95729952054262
 31
0.0
  0
LINE
  5
270
100
AcDbEntity
  8
0
370
              -3
390
0
  6
Continuous
 62
               3
100
AcDbLine
 10
336.4524701742294
 20
86.977503623429357
 30
0.0
 11
337.11257222567281
 21
86.977503623429357
 31
0.0
  0
LINE
  5
271
100
AcDbEntity
  8
0
370
              -3
390
0
  6
Continuous
 62
               3
100
AcDbLine
 10
335.47267427711614
 20
88.617401571986193
 30
0.0
 11
335.47267427711614
 21
87.95729952054262
 31
0.0
  0
LINE
  5
272
100
AcDbEntity
  8
0
370
              -3
390
0
  6
Continuous
 62
               3
100
AcDbLine
 10
334.8125722256728
 20
87.95729952054262
 30
0.0
 11
335.47267427711614
 21
87.95729952054262
 31
0.0
  0
ARC
  5
273
100
AcDbEntity
  8
0
370
              -3
390
0
  6
Continuous
 62
               3
100
AcDbCircle
 10
335.96257222567277
 20
87.467401571986102
 30
0.0
 40
1.25
100
AcDbArc
 50
156.92608193436905
 51
203.07391806563098
  0
ARC
  5
274
100
AcDbEntity
  8
0
370
              -3
390
0
  6
Continuous
 62
               3
100
AcDbCircle
 10
335.96257222567277
 20
87.467401571986102
 30
0.0
 40
1.25
100
AcDbArc
 50
246.92608193436902
 51
293.07391806563095
  0
ARC
  5
275
100
AcDbEntity
  8
0
370
              -3
390
0
  6
Continuous
 62
               3
100
AcDbCircle
 10
335.96257222567277
 20
87.467401571986102
 30
0.0
 40
1.25
100
AcDbArc
 50
336.92608193436899
 51
0.0
  0
ARC
  5
276
100
AcDbEntity
  8
0
370
              -3
390
0
  6
Continuous
 62
               3
100
AcDbCircle
 10
335.96257222567277
 20
87.467401571986102
 30
0.0
 40
1.25
100
AcDbArc
 50
0.0
 51
23.073918065630977
  0
LINE
  5
277
100
AcDbEntity
  8
0
370
              -3
390
0
  6
Continuous
 62
               3
100
AcDbLine
 10
335.96257222567277
 20
91.093780120595966
 30
0.0
 11
335.96257222567277
 21
84.717401571986102
 31
0.0
  0
LINE
  5
278
100
AcDbEntity
  8
0
370
              -3
390
0
  6
Continuous
 62
               3
100
AcDbLine
 10
331.95975346092331
 20
87.467401571986102
 30
0.0
 11
340.23876275144767
 21
87.467401571986102
 31
0.0
  0
CIRCLE
  5
279
100
AcDbEntity
  8
0
370
              -3
390
0
  6
Continuous
 62
               3
100
AcDbCircle
 10
335.96257222567277
 20
87.467401571986102
 30
0.0
 40
2.5
  0
CIRCLE
  5
27A
100
AcDbEntity
  8
0
370
              -3
390
0
  6
Continuous
 62
               3
100
AcDbCircle
 10
335.96257222567277
 20
87.467401571986102
 30
0.0
 40
2.75
  0
ENDBLK
  5
27B
100
AcDbEntity
  8
0
390
0
100
AcDbBlockEnd
  0
BLOCK
  5
27E
100
AcDbEntity
  8
0
390
0
100
AcDbBlockBegin
  2
B0247A6BC
 70
               0
 10
0.0
 20
0.0
 30
0.0
  3

  1

  0
LINE
  5
27F
100
AcDbEntity
  8
0
370
              -3
390
0
  6
Continuous
 62
               3
100
AcDbLine
 10
335.96257222567277
 20
94.972121842213937
 30
0.0
 11
335.96989858602103
 21
108.2292947311571
 31
0.0
  0
LINE
  5
280
100
AcDbEntity
  8
0
370
              -3
390
0
  6
Continuous
 62
               3
100
AcDbLine
 10
335.47013969061567
 20
106.73659488981684
 30
0.0
 11
335.4696307934779
 21
107.19887493459169
 31
0.0
  0
ARC
  5
281
100
AcDbEntity
  8
0
370
              -3
390
0
  6
Continuous
 62
               3
100
AcDbCircle
 10
335.96989858602103
 20
103.95283089526697
 30
0.0
 40
3.284367483929322
100
AcDbArc
 50
40.4315264411984
 51
81.337851417618865
  0
ARC
  5
282
100
AcDbEntity
  8
0
370
              -3
390
0
  6
Continuous
 62
               3
100
AcDbCircle
 10
335.96989858602103
 20
103.95283089526697
 30
0.0
 40
3.284367483929322
100
AcDbArc
 50
98.761273307376641
 51
139.5684735588016
  0
LINE
  5
283
100
AcDbEntity
  8
0
370
              -3
390
0
  6
Continuous
 62
               3
100
AcDbLine
 10
336.46584540592033
 20
106.73659488981684
 30
0.0
 11
336.46452674229772
 21
107.20797984640035
 31
0.0
  0
LINE
  5
284
100
AcDbEntity
  8
0
370
              -3
390
0
  6
Continuous
 62
               3
100
AcDbLine
 10
335.46914220251688
 20
106.73659488981684
 30
0.0
 11
336.46999049371431
 21
106.73659488981684
 31
0.0
  0
LINE
  5
285
100
AcDbEntity
  8
0
370
              -3
390
0
  6
Continuous
 62
               3
100
AcDbLine
 10
337.06989858602105
 20
96.704102204338369
 30
0.0
 11
335.96442552579185
 21
95.595895572672134
 31
0.0
  0
LINE
  5
286
100
AcDbEntity
  8
0
370
              -3
390
0
  6
Continuous
 62
               3
100
AcDbLine
 10
335.96442552579185
 20
95.595895572672134
 30
0.0
 11
334.86989858602107
 21
96.704102204338369
 31
0.0
  0
LINE
  5
287
100
AcDbEntity
  8
0
370
              -3
390
0
  6
Continuous
 62
               3
100
AcDbLine
 10
334.86989858602107
 20
105.48287074688756
 30
0.0
 11
334.86989858602107
 21
96.704102204338369
 31
0.0
  0
LINE
  5
288
100
AcDbEntity
  8
0
370
              -3
390
0
  6
Continuous
 62
               3
100
AcDbLine
 10
337.06989858602105
 20
105.48287074688756
 30
0.0
 11
337.06989858602105
 21
96.704102204338369
 31
0.0
  0
LINE
  5
289
100
AcDbEntity
  8
0
370
              -3
390
0
  6
Continuous
 62
               3
100
AcDbLine
 10
334.86989858602107
 20
96.704102204338369
 30
0.0
 11
337.06989858602105
 21
96.704102204338369
 31
0.0
  0
INSERT
  5
291
100
AcDbEntity
  8
0
390
0
100
AcDbBlockReference
  2
B0247AABC
 10
0.0
 20
0.0
 30
0.0
  0
ENDBLK
  5
292
100
AcDbEntity
  8
0
390
0
100
AcDbBlockEnd
  0
BLOCK
  5
28B
100
AcDbEntity
  8
0
390
0
100
AcDbBlockBegin
  2
B0247AABC
 70
               0
 10
0.0
 20
0.0
 30
0.0
  3

  1

  0
LINE
  5
28C
100
AcDbEntity
  8
0
370
              -3
390
0
  6
Continuous
 62
               3
100
AcDbLine
 10
333.21989858602103
 20
106.08287074688747
 30
0.0
 11
338.71989858602103
 21
106.08287074688747
 31
0.0
  0
LINE
  5
28D
100
AcDbEntity
  8
0
370
              -3
390
0
  6
Continuous
 62
               3
100
AcDbLine
 10
338.71989858602103
 20
105.48287074688756
 30
0.0
 11
338.71989858602103
 21
106.08287074688747
 31
0.0
  0
LINE
  5
28E
100
AcDbEntity
  8
0
370
              -3
390
0
  6
Continuous
 62
               3
100
AcDbLine
 10
333.21989858602103
 20
105.48287074688756
 30
0.0
 11
333.21989858602103
 21
106.08287074688747
 31
0.0
  0
LINE
  5
28F
100
AcDbEntity
  8
0
370
              -3
390
0
  6
Continuous
 62
               3
100
AcDbLine
 10
333.21989858602103
 20
105.48287074688756
 30
0.0
 11
338.71989858602103
 21
105.48287074688756
 31
0.0
  0
ENDBLK
  5
290
100
AcDbEntity
  8
0
390
0
100
AcDbBlockEnd
  0
BLOCK
  5
295
100
AcDbEntity
  8
0
390
0
100
AcDbBlockBegin
  2
B0247AC58
 70
               0
 10
0.0
 20
0.0
 30
0.0
  3

  1

  0
LINE
  5
296
100
AcDbEntity
  8
0
370
              -3
390
0
  6
Continuous
 62
               7
100
AcDbLine
 10
136.16223093686426
 20
230.26523858462946
 30
0.0
 11
136.16955729721252
 21
243.52241147357262
 31
0.0
  0
LINE
  5
297
100
AcDbEntity
  8
0
370
              -3
390
0
  6
Continuous
 62
               7
100
AcDbLine
 10
135.66979840180716
 20
242.02971163223236
 30
0.0
 11
135.66928950466939
 21
242.49199167700721
 31
0.0
  0
ARC
  5
298
100
AcDbEntity
  8
0
370
              -3
390
0
  6
Continuous
 62
               7
100
AcDbCircle
 10
136.16955729721252
 20
239.24594763768249
 30
0.0
 40
3.284367483929322
100
AcDbArc
 50
40.4315264411984
 51
81.337851417618865
  0
ARC
  5
299
100
AcDbEntity
  8
0
370
              -3
390
0
  6
Continuous
 62
               7
100
AcDbCircle
 10
136.16955729721252
 20
239.24594763768249
 30
0.0
 40
3.284367483929322
100
AcDbArc
 50
98.761273307376641
 51
139.5684735588016
  0
LINE
  5
29A
100
AcDbEntity
  8
0
370
              -3
390
0
  6
Continuous
 62
               7
100
AcDbLine
 10
136.66550411711182
 20
242.02971163223236
 30
0.0
 11
136.66418545348921
 21
242.50109658881587
 31
0.0
  0
LINE
  5
29B
100
AcDbEntity
  8
0
370
              -3
390
0
  6
Continuous
 62
               7
100
AcDbLine
 10
135.66880091370837
 20
242.02971163223236
 30
0.0
 11
136.6696492049058
 21
242.02971163223236
 31
0.0
  0
LINE
  5
29C
100
AcDbEntity
  8
0
370
              -3
390
0
  6
Continuous
 62
               7
100
AcDbLine
 10
137.26955729721254
 20
231.99721894675389
 30
0.0
 11
136.16408423698334
 21
230.88901231508765
 31
0.0
  0
LINE
  5
29D
100
AcDbEntity
  8
0
370
              -3
390
0
  6
Continuous
 62
               7
100
AcDbLine
 10
136.16408423698334
 20
230.88901231508765
 30
0.0
 11
135.06955729721255
 21
231.99721894675389
 31
0.0
  0
LINE
  5
29E
100
AcDbEntity
  8
0
370
              -3
390
0
  6
Continuous
 62
               7
100
AcDbLine
 10
135.06955729721255
 20
240.77598748930308
 30
0.0
 11
135.06955729721255
 21
231.99721894675389
 31
0.0
  0
LINE
  5
29F
100
AcDbEntity
  8
0
370
              -3
390
0
  6
Continuous
 62
               7
100
AcDbLine
 10
137.26955729721254
 20
240.77598748930308
 30
0.0
 11
137.26955729721254
 21
231.99721894675389
 31
0.0
  0
LINE
  5
2A0
100
AcDbEntity
  8
0
370
              -3
390
0
  6
Continuous
 62
               7
100
AcDbLine
 10
135.06955729721255
 20
231.99721894675389
 30
0.0
 11
137.26955729721254
 21
231.99721894675389
 31
0.0
  0
INSERT
  5
2A8
100
AcDbEntity
  8
0
390
0
100
AcDbBlockReference
  2
B02BF13D0
 10
0.0
 20
0.0
 30
0.0
  0
ENDBLK
  5
2A9
100
AcDbEntity
  8
0
390
0
100
AcDbBlockEnd
  0
BLOCK
  5
2A2
100
AcDbEntity
  8
0
390
0
100
AcDbBlockBegin
  2
B02BF13D0
 70
               0
 10
0.0
 20
0.0
 30
0.0
  3

  1

  0
LINE
  5
2A3
100
AcDbEntity
  8
0
370
              -3
390
0
  6
Continuous
 62
               7
100
AcDbLine
 10
133.41955729721252
 20
241.37598748930299
 30
0.0
 11
138.91955729721252
 21
241.37598748930299
 31
0.0
  0
LINE
  5
2A4
100
AcDbEntity
  8
0
370
              -3
390
0
  6
Continuous
 62
               7
100
AcDbLine
 10
138.91955729721252
 20
240.77598748930308
 30
0.0
 11
138.91955729721252
 21
241.37598748930299
 31
0.0
  0
LINE
  5
2A5
100
AcDbEntity
  8
0
370
              -3
390
0
  6
Continuous
 62
               7
100
AcDbLine
 10
133.41955729721252
 20
240.77598748930308
 30
0.0
 11
133.41955729721252
 21
241.37598748930299
 31
0.0
  0
LINE
  5
2A6
100
AcDbEntity
  8
0
370
              -3
390
0
  6
Continuous
 62
               7
100
AcDbLine
 10
133.41955729721252
 20
240.77598748930308
 30
0.0
 11
138.91955729721252
 21
240.77598748930308
 31
0.0
  0
ENDBLK
  5
2A7
100
AcDbEntity
  8
0
390
0
100
AcDbBlockEnd
  0
BLOCK
  5
2AC
100
AcDbEntity
  8
0
390
0
100
AcDbBlockBegin
  2
B02BF156C
 70
               0
 10
0.0
 20
0.0
 30
0.0
  3

  1

  0
ARC
  5
2AD
100
AcDbEntity
  8
0
370
              -3
390
0
  6
Continuous
 62
               3
100
AcDbCircle
 10
325.15123416973444
 20
82.584861804788034
 30
0.0
 40
1.25
100
AcDbArc
 50
66.926081934369023
 51
113.07391806563098
  0
LINE
  5
2AE
100
AcDbEntity
  8
0
370
              -3
390
0
  6
Continuous
 62
               3
100
AcDbLine
 10
325.64113211829107
 20
83.734861804788125
 30
0.0
 11
325.64113211829107
 21
83.074759753344779
 31
0.0
  0
LINE
  5
2AF
100
AcDbEntity
  8
0
370
              -3
390
0
  6
Continuous
 62
               3
100
AcDbLine
 10
325.64113211829107
 20
82.094963856231516
 30
0.0
 11
325.64113211829107
 21
81.43486180478817
 31
0.0
  0
LINE
  5
2B0
100
AcDbEntity
  8
0
370
              -3
390
0
  6
Continuous
 62
               3
100
AcDbLine
 10
324.66133622117781
 20
81.43486180478817
 30
0.0
 11
324.66133622117781
 21
82.094963856231516
 31
0.0
  0
LINE
  5
2B1
100
AcDbEntity
  8
0
370
              -3
390
0
  6
Continuous
 62
               3
100
AcDbLine
 10
324.00123416973446
 20
82.094963856231516
 30
0.0
 11
324.66133622117781
 21
82.094963856231516
 31
0.0
  0
LINE
  5
2B2
100
AcDbEntity
  8
0
370
              -3
390
0
  6
Continuous
 62
               3
100
AcDbLine
 10
326.30123416973447
 20
83.074759753344779
 30
0.0
 11
325.64113211829107
 21
83.074759753344779
 31
0.0
  0
LINE
  5
2B3
100
AcDbEntity
  8
0
370
              -3
390
0
  6
Continuous
 62
               3
100
AcDbLine
 10
325.64113211829107
 20
82.094963856231516
 30
0.0
 11
326.30123416973447
 21
82.094963856231516
 31
0.0
  0
LINE
  5
2B4
100
AcDbEntity
  8
0
370
              -3
390
0
  6
Continuous
 62
               3
100
AcDbLine
 10
324.66133622117781
 20
83.734861804788125
 30
0.0
 11
324.66133622117781
 21
83.074759753344779
 31
0.0
  0
LINE
  5
2B5
100
AcDbEntity
  8
0
370
              -3
390
0
  6
Continuous
 62
               3
100
AcDbLine
 10
324.00123416973446
 20
83.074759753344779
 30
0.0
 11
324.66133622117781
 21
83.074759753344779
 31
0.0
  0
ARC
  5
2B6
100
AcDbEntity
  8
0
370
              -3
390
0
  6
Continuous
 62
               3
100
AcDbCircle
 10
325.15123416973444
 20
82.584861804788034
 30
0.0
 40
1.25
100
AcDbArc
 50
156.92608193436905
 51
203.07391806563098
  0
ARC
  5
2B7
100
AcDbEntity
  8
0
370
              -3
390
0
  6
Continuous
 62
               3
100
AcDbCircle
 10
325.15123416973444
 20
82.584861804788034
 30
0.0
 40
1.25
100
AcDbArc
 50
246.92608193436902
 51
293.07391806563095
  0
ARC
  5
2B8
100
AcDbEntity
  8
0
370
              -3
390
0
  6
Continuous
 62
               3
100
AcDbCircle
 10
325.15123416973444
 20
82.584861804788034
 30
0.0
 40
1.25
100
AcDbArc
 50
336.92608193436899
 51
0.0
  0
ARC
  5
2B9
100
AcDbEntity
  8
0
370
              -3
390
0
  6
Continuous
 62
               3
100
AcDbCircle
 10
325.15123416973444
 20
82.584861804788034
 30
0.0
 40
1.25
100
AcDbArc
 50
0.0
 51
23.073918065630977
  0
LINE
  5
2BA
100
AcDbEntity
  8
0
370
              -3
390
0
  6
Continuous
 62
               3
100
AcDbLine
 10
325.15123416973444
 20
86.211240353398125
 30
0.0
 11
325.15123416973444
 21
79.834861804788034
 31
0.0
  0
LINE
  5
2BB
100
AcDbEntity
  8
0
370
              -3
390
0
  6
Continuous
 62
               3
100
AcDbLine
 10
321.14841540498497
 20
82.584861804788034
 30
0.0
 11
329.42742469550933
 21
82.584861804788034
 31
0.0
  0
CIRCLE
  5
2BC
100
AcDbEntity
  8
0
370
              -3
390
0
  6
Continuous
 62
               3
100
AcDbCircle
 10
325.15123416973444
 20
82.584861804788034
 30
0.0
 40
2.5
  0
CIRCLE
  5
2BD
100
AcDbEntity
  8
0
370
              -3
390
0
  6
Continuous
 62
               3
100
AcDbCircle
 10
325.15123416973444
 20
82.584861804788034
 30
0.0
 40
2.75
  0
ENDBLK
  5
2BE
100
AcDbEntity
  8
0
390
0
100
AcDbBlockEnd
  0
BLOCK
  5
2C1
100
AcDbEntity
  8
0
390
0
100
AcDbBlockBegin
  2
B023DFA6C
 70
               0
 10
0.0
 20
0.0
 30
0.0
  3

  1

  0
LINE
  5
2C2
100
AcDbEntity
  8
0
370
              -3
390
0
  6
Continuous
 62
               3
100
AcDbLine
 10
325.15123416973444
 20
90.089582075016096
 30
0.0
 11
325.1585605300827
 21
103.34675496395903
 31
0.0
  0
LINE
  5
2C3
100
AcDbEntity
  8
0
370
              -3
390
0
  6
Continuous
 62
               3
100
AcDbLine
 10
324.65880163467733
 20
101.85405512261877
 30
0.0
 11
324.65829273753957
 21
102.31633516739385
 31
0.0
  0
ARC
  5
2C4
100
AcDbEntity
  8
0
370
              -3
390
0
  6
Continuous
 62
               3
100
AcDbCircle
 10
325.1585605300827
 20
99.070291128068902
 30
0.0
 40
3.284367483929322
100
AcDbArc
 50
40.4315264411984
 51
81.337851417618865
  0
ARC
  5
2C5
100
AcDbEntity
  8
0
370
              -3
390
0
  6
Continuous
 62
               3
100
AcDbCircle
 10
325.1585605300827
 20
99.070291128068902
 30
0.0
 40
3.284367483929322
100
AcDbArc
 50
98.761273307376641
 51
139.5684735588016
  0
LINE
  5
2C6
100
AcDbEntity
  8
0
370
              -3
390
0
  6
Continuous
 62
               3
100
AcDbLine
 10
325.654507349982
 20
101.85405512261877
 30
0.0
 11
325.65318868635939
 21
102.32544007920228
 31
0.0
  0
LINE
  5
2C7
100
AcDbEntity
  8
0
370
              -3
390
0
  6
Continuous
 62
               3
100
AcDbLine
 10
324.65780414657854
 20
101.85405512261877
 30
0.0
 11
325.65865243777597
 21
101.85405512261877
 31
0.0
  0
LINE
  5
2C8
100
AcDbEntity
  8
0
370
              -3
390
0
  6
Continuous
 62
               3
100
AcDbLine
 10
326.25856053008272
 20
91.821562437140528
 30
0.0
 11
325.15308746985352
 21
90.713355805474293
 31
0.0
  0
LINE
  5
2C9
100
AcDbEntity
  8
0
370
              -3
390
0
  6
Continuous
 62
               3
100
AcDbLine
 10
325.15308746985352
 20
90.713355805474293
 30
0.0
 11
324.05856053008273
 21
91.821562437140528
 31
0.0
  0
LINE
  5
2CA
100
AcDbEntity
  8
0
370
              -3
390
0
  6
Continuous
 62
               3
100
AcDbLine
 10
324.05856053008273
 20
100.60033097968949
 30
0.0
 11
324.05856053008273
 21
91.821562437140528
 31
0.0
  0
LINE
  5
2CB
100
AcDbEntity
  8
0
370
              -3
390
0
  6
Continuous
 62
               3
100
AcDbLine
 10
326.25856053008272
 20
100.60033097968949
 30
0.0
 11
326.25856053008272
 21
91.821562437140528
 31
0.0
  0
LINE
  5
2CC
100
AcDbEntity
  8
0
370
              -3
390
0
  6
Continuous
 62
               3
100
AcDbLine
 10
324.05856053008273
 20
91.821562437140528
 30
0.0
 11
326.25856053008272
 21
91.821562437140528
 31
0.0
  0
INSERT
  5
2D4
100
AcDbEntity
  8
0
390
0
100
AcDbBlockReference
  2
B02469D1C
 10
0.0
 20
0.0
 30
0.0
  0
ENDBLK
  5
2D5
100
AcDbEntity
  8
0
390
0
100
AcDbBlockEnd
  0
BLOCK
  5
2CE
100
AcDbEntity
  8
0
390
0
100
AcDbBlockBegin
  2
B02469D1C
 70
               0
 10
0.0
 20
0.0
 30
0.0
  3

  1

  0
LINE
  5
2CF
100
AcDbEntity
  8
0
370
              -3
390
0
  6
Continuous
 62
               3
100
AcDbLine
 10
322.4085605300827
 20
101.20033097968962
 30
0.0
 11
327.9085605300827
 21
101.20033097968962
 31
0.0
  0
LINE
  5
2D0
100
AcDbEntity
  8
0
370
              -3
390
0
  6
Continuous
 62
               3
100
AcDbLine
 10
327.9085605300827
 20
100.60033097968949
 30
0.0
 11
327.9085605300827
 21
101.20033097968962
 31
0.0
  0
LINE
  5
2D1
100
AcDbEntity
  8
0
370
              -3
390
0
  6
Continuous
 62
               3
100
AcDbLine
 10
322.4085605300827
 20
100.60033097968949
 30
0.0
 11
322.4085605300827
 21
101.20033097968962
 31
0.0
  0
LINE
  5
2D2
100
AcDbEntity
  8
0
370
              -3
390
0
  6
Continuous
 62
               3
100
AcDbLine
 10
322.4085605300827
 20
100.60033097968949
 30
0.0
 11
327.9085605300827
 21
100.60033097968949
 31
0.0
  0
ENDBLK
  5
2D3
100
AcDbEntity
  8
0
390
0
100
AcDbBlockEnd
  0
BLOCK
  5
2DB
100
AcDbEntity
  8
0
390
0
100
AcDbBlockBegin
  2
B032F4378
 70
               0
 10
0.0
 20
0.0
 30
0.0
  3

  1

  0
LINE
  5
2DC
100
AcDbEntity
  8
0
390
0
 62
               3
100
AcDbLine
 10
235.03304972712615
 20
158.32953800173806
 30
0.0
 11
235.03304972712615
 21
155.56529668025695
 31
0.0
  0
LINE
  5
2DD
100
AcDbEntity
  8
0
390
0
 62
               3
100
AcDbLine
 10
234.83304972712617
 20
158.52953800173805
 30
0.0
 11
230.95864490250986
 21
158.52953800173805
 31
0.0
  0
ARC
  5
2DE
100
AcDbEntity
  8
0
390
0
 62
               3
100
AcDbCircle
 10
235.03304972712615
 20
158.52953800173805
 30
0.0
 40
0.2
100
AcDbArc
 50
270.0
 51
180.0
  0
LINE
  5
2DF
100
AcDbEntity
  8
0
390
0
 62
               3
100
AcDbLine
 10
234.25209807489011
 20
169.7356799155373
 30
0.0
 11
231.20329830640645
 21
162.65632367737098
 31
0.0
  0
LINE
  5
2E0
100
AcDbEntity
  8
0
390
0
 62
               3
100
AcDbLine
 10
230.95864490250938
 20
161.46970447335136
 30
0.0
 11
230.95864490250986
 21
158.52953800173805
 31
0.0
  0
ARC
  5
2E1
100
AcDbEntity
  8
0
390
0
 62
               3
100
AcDbCircle
 10
233.95864490250938
 20
161.46970447335309
 30
0.0
 40
3.0
100
AcDbArc
 50
156.70035981994403
 51
180.00000000003303
  0
LINE
  5
2E2
100
AcDbEntity
  8
0
390
0
 62
               3
100
AcDbLine
 10
237.0074446709923
 20
171.54906071151987
 30
0.0
 11
237.95864490251014
 21
171.54906071151959
 31
0.0
  0
ARC
  5
2E3
100
AcDbEntity
  8
0
390
0
 62
               3
100
AcDbCircle
 10
237.00744467099321
 20
168.54906071151984
 30
0.0
 40
3.0
100
AcDbArc
 50
90.00000000001782
 51
156.7003598199536
  0
LINE
  5
2E4
100
AcDbEntity
  8
0
390
0
 62
               3
100
AcDbLine
 10
240.95864490250983
 20
168.54906071151964
 30
0.0
 11
240.95864490250983
 21
155.56529668025695
 31
0.0
  0
ARC
  5
2E5
100
AcDbEntity
  8
0
390
0
 62
               3
100
AcDbCircle
 10
237.95864490250983
 20
168.54906071151959
 30
0.0
 40
3.0
100
AcDbArc
 50
0.0000000000012582
 51
89.999999999994188
  0
LINE
  5
2E6
100
AcDbEntity
  8
0
390
0
 62
               3
100
AcDbLine
 10
235.03304972712615
 20
155.56529668025695
 30
0.0
 11
240.95864490250983
 21
155.56529668025695
 31
0.0
  0
CIRCLE
  5
2E7
100
AcDbEntity
  8
0
390
0
 62
               3
100
AcDbCircle
 10
237.9609505556414
 20
165.03929935662882
 30
0.0
 40
0.9
  0
ENDBLK
  5
2E8
100
AcDbEntity
  8
0
390
0
100
AcDbBlockEnd
  0
BLOCK
  5
2EB
100
AcDbEntity
  8
0
390
0
100
AcDbBlockBegin
  2
B023CBE4C
 70
               0
 10
0.0
 20
0.0
 30
0.0
  3

  1

  0
LINE
  5
2EC
100
AcDbEntity
  8
0
390
0
 62
               3
100
AcDbLine
 10
96.097551266993634
 20
248.0252523407726
 30
0.0
 11
96.097551266993634
 21
226.25852218168407
 31
0.0
  0
LINE
  5
2ED
100
AcDbEntity
  8
0
390
0
 62
               3
100
AcDbLine
 10
100.03005576840218
 20
237.14188726122765
 30
0.0
 11
100.03005576840218
 21
234.84188726122761
 31
0.0
  0
ARC
  5
2EE
100
AcDbEntity
  8
0
390
0
 62
               3
100
AcDbCircle
 10
100.03005576840218
 20
234.64188726122762
 30
0.0
 40
0.2
100
AcDbArc
 50
90.000000000000014
 51
0.0
  0
LINE
  5
2EF
100
AcDbEntity
  8
0
390
0
 62
               3
100
AcDbLine
 10
100.23005576840218
 20
234.64188726122762
 30
0.0
 11
106.00352455718055
 21
234.64188726122762
 31
0.0
  0
LINE
  5
2F0
100
AcDbEntity
  8
0
390
0
 62
               3
100
AcDbLine
 10
106.00352455718055
 20
234.64188726122762
 30
0.0
 11
106.00352455718055
 21
226.25852193269805
 31
0.0
  0
CIRCLE
  5
2F1
100
AcDbEntity
  8
0
390
0
 62
               3
100
AcDbCircle
 10
101.05053791208709
 20
226.25852218168407
 30
0.0
 40
1.1000000000000001
  0
ARC
  5
2F2
100
AcDbEntity
  8
0
390
0
 62
               3
100
AcDbCircle
 10
101.05053791208709
 20
226.25852218168407
 30
0.0
 40
4.9529866450934605
100
AcDbArc
 50
180.00000000000003
 51
359.99999728790948
  0
LINE
  5
2F3
100
AcDbEntity
  8
0
390
0
 62
               3
100
AcDbLine
 10
100.03005576840218
 20
237.14188726122902
 30
0.0
 11
100.03005576840218
 21
239.44188726122906
 31
0.0
  0
CIRCLE
  5
2F4
100
AcDbEntity
  8
0
390
0
 62
               3
100
AcDbCircle
 10
101.05053791208709
 20
248.0252523407726
 30
0.0
 40
1.1000000000000001
  0
ARC
  5
2F5
100
AcDbEntity
  8
0
390
0
 62
               3
100
AcDbCircle
 10
101.05053791208709
 20
248.0252523407726
 30
0.0
 40
4.9529866450934605
100
AcDbArc
 50
0.0000027120905396
 51
180.0
  0
LINE
  5
2F6
100
AcDbEntity
  8
0
390
0
 62
               3
100
AcDbLine
 10
106.00352455718055
 20
239.64188726122904
 30
0.0
 11
106.00352455718055
 21
248.02525258975862
 31
0.0
  0
ARC
  5
2F7
100
AcDbEntity
  8
0
390
0
 62
               3
100
AcDbCircle
 10
100.03005576840218
 20
239.64188726122904
 30
0.0
 40
0.2
100
AcDbArc
 50
0.0
 51
270.0
  0
LINE
  5
2F8
100
AcDbEntity
  8
0
390
0
 62
               3
100
AcDbLine
 10
100.23005576840218
 20
239.64188726122904
 30
0.0
 11
106.00352455718055
 21
239.64188726122904
 31
0.0
  0
ENDBLK
  5
2F9
100
AcDbEntity
  8
0
390
0
100
AcDbBlockEnd
  0
BLOCK
  5
2FF
100
AcDbEntity
  8
0
390
0
100
AcDbBlockBegin
  2
B023DFCD4
 70
               0
 10
0.0
 20
0.0
 30
0.0
  3

  1

  0
CIRCLE
  5
300
100
AcDbEntity
  8
0
390
0
 62
               3
100
AcDbCircle
 10
101.12438610152645
 20
206.73234982082221
 30
0.0
 40
0.9
  0
LINE
  5
301
100
AcDbEntity
  8
0
390
0
 62
               3
100
AcDbLine
 10
99.198790926142777
 20
197.25834714445034
 30
0.0
 11
105.12438610152645
 21
197.25834714445034
 31
0.0
  0
ARC
  5
302
100
AcDbEntity
  8
0
390
0
 62
               3
100
AcDbCircle
 10
102.12438610152645
 20
210.24211117571298
 30
0.0
 40
3.0
100
AcDbArc
 50
0.0000000000012582
 51
89.999999999994188
  0
LINE
  5
303
100
AcDbEntity
  8
0
390
0
 62
               3
100
AcDbLine
 10
105.12438610152645
 20
210.24211117571303
 30
0.0
 11
105.12438610152645
 21
197.25834714445034
 31
0.0
  0
ARC
  5
304
100
AcDbEntity
  8
0
390
0
 62
               3
100
AcDbCircle
 10
101.17318587000983
 20
210.24211117571323
 30
0.0
 40
3.0
100
AcDbArc
 50
90.00000000001782
 51
156.7003598199536
  0
LINE
  5
305
100
AcDbEntity
  8
0
390
0
 62
               3
100
AcDbLine
 10
101.17318587000892
 20
213.24211117571326
 30
0.0
 11
102.12438610152677
 21
213.24211117571298
 31
0.0
  0
ARC
  5
306
100
AcDbEntity
  8
0
390
0
 62
               3
100
AcDbCircle
 10
98.124386101525999
 20
203.16275493754648
 30
0.0
 40
3.0
100
AcDbArc
 50
156.70035981994403
 51
180.00000000003303
  0
LINE
  5
307
100
AcDbEntity
  8
0
390
0
 62
               3
100
AcDbLine
 10
95.124386101525999
 20
203.16275493754475
 30
0.0
 11
95.124386101526483
 21
200.22258846593144
 31
0.0
  0
LINE
  5
308
100
AcDbEntity
  8
0
390
0
 62
               3
100
AcDbLine
 10
98.417839273906736
 20
211.42873037973069
 30
0.0
 11
95.369039505423075
 21
204.34937414156437
 31
0.0
  0
ARC
  5
309
100
AcDbEntity
  8
0
390
0
 62
               3
100
AcDbCircle
 10
99.198790926142777
 20
200.22258846593144
 30
0.0
 40
0.2
100
AcDbArc
 50
270.0
 51
180.0
  0
LINE
  5
30A
100
AcDbEntity
  8
0
390
0
 62
               3
100
AcDbLine
 10
98.998790926142789
 20
200.22258846593144
 30
0.0
 11
95.124386101526483
 21
200.22258846593144
 31
0.0
  0
LINE
  5
30B
100
AcDbEntity
  8
0
390
0
 62
               3
100
AcDbLine
 10
99.198790926142777
 20
200.02258846593145
 30
0.0
 11
99.198790926142777
 21
197.25834714445034
 31
0.0
  0
ENDBLK
  5
30C
100
AcDbEntity
  8
0
390
0
100
AcDbBlockEnd
  0
BLOCK
  5
310
100
AcDbEntity
  8
0
390
0
100
AcDbBlockBegin
  2
B00FA87F4
 70
               0
 10
0.0
 20
0.0
 30
0.0
  3

  1

  0
LINE
  5
311
100
AcDbEntity
  8
0
390
0
  6
Continuous
 62
               3
100
AcDbLine
 10
229.53883666666667
 20
130.60807
 30
0.0
 11
229.13011666666671
 21
130.67367659571306
 31
0.0
  0
LINE
  5
312
100
AcDbEntity
  8
0
390
0
  6
Continuous
 62
               3
100
AcDbLine
 10
233.49342666666666
 20
129.93187999999998
 30
0.0
 11
229.53883666666667
 21
130.60807
 31
0.0
  0
LINE
  5
313
100
AcDbEntity
  8
0
390
0
  6
Continuous
 62
               3
100
AcDbLine
 10
237.44061666666664
 20
129.21908999999999
 30
0.0
 11
233.49342666666666
 21
129.93187999999998
 31
0.0
  0
LINE
  5
314
100
AcDbEntity
  8
0
390
0
  6
Continuous
 62
               3
100
AcDbLine
 10
239.10492499692859
 20
128.90085335797818
 30
0.0
 11
237.44061666666664
 21
129.21908999999999
 31
0.0
  0
ENDBLK
  5
315
100
AcDbEntity
  8
0
390
0
100
AcDbBlockEnd
  0
BLOCK
  5
31E
100
AcDbEntity
  8
0
390
0
100
AcDbBlockBegin
  2
B02483A1C
 70
               0
 10
0.0
 20
0.0
 30
0.0
  3

  1

  0
LINE
  5
31F
100
AcDbEntity
  8
0
370
              -3
390
0
  6
Continuous
 62
               1
100
AcDbLine
 10
204.40612423285998
 20
125.4941046324037
 30
0.0
 11
176.40612423285998
 21
125.4941046324037
 31
0.0
  0
LINE
  5
320
100
AcDbEntity
  8
0
370
              -3
390
0
  6
Continuous
 62
               1
100
AcDbLine
 10
176.40612423285998
 20
112.4941046324037
 30
0.0
 11
176.40612423285998
 21
125.4941046324037
 31
0.0
  0
LINE
  5
321
100
AcDbEntity
  8
0
370
              -3
390
0
  6
Continuous
 62
               1
100
AcDbLine
 10
204.40612423285998
 20
112.4941046324037
 30
0.0
 11
204.40612423285998
 21
125.4941046324037
 31
0.0
  0
LINE
  5
322
100
AcDbEntity
  8
0
370
              -3
390
0
  6
Continuous
 62
               1
100
AcDbLine
 10
204.40612423285998
 20
112.4941046324037
 30
0.0
 11
176.40612423285998
 21
112.4941046324037
 31
0.0
  0
ENDBLK
  5
323
100
AcDbEntity
  8
0
390
0
100
AcDbBlockEnd
  0
BLOCK
  5
328
100
AcDbEntity
  8
0
390
0
100
AcDbBlockBegin
  2
B024806B4
 70
               0
 10
0.0
 20
0.0
 30
0.0
  3

  1

  0
LINE
  5
329
100
AcDbEntity
  8
0
370
              -3
390
0
  6
Continuous
 62
               1
100
AcDbLine
 10
194.72819786263037
 20
132.34025164478473
 30
0.0
 11
192.38053695740871
 21
118.98882874952882
 31
0.0
  0
CIRCLE
  5
32A
100
AcDbEntity
  8
0
370
              -3
390
0
  6
Continuous
 62
               1
100
AcDbCircle
 10
196.72819786263037
 20
132.34025164478473
 30
0.0
 40
2.0
  0
LINE
  5
32B
100
AcDbEntity
  8
0
370
              -3
390
0
  6
Continuous
 62
               1
100
AcDbLine
 10
198.72819786263037
 20
132.34025164478473
 30
0.0
 11
201.38053695740871
 21
118.98882874952882
 31
0.0
  0
CIRCLE
  5
32C
100
AcDbEntity
  8
0
370
              -3
390
0
  6
Continuous
 62
               1
100
AcDbCircle
 10
196.88053695740871
 20
118.98882874952882
 30
0.0
 40
4.5
  0
LINE
  5
32D
100
AcDbEntity
  8
0
370
              -3
390
0
  6
Continuous
 62
               1
100
AcDbLine
 10
196.72819786263037
 20
134.98443370125725
 30
0.0
 11
196.72819786263037
 21
102.9932237978004
 31
0.0
  0
LINE
  5
32E
100
AcDbEntity
  8
0
370
              -3
390
0
  6
Continuous
 62
               1
100
AcDbLine
 10
201.38053695740871
 20
118.98882874952882
 30
0.0
 11
192.38053695740871
 21
118.98882874952882
 31
0.0
  0
LINE
  5
32F
100
AcDbEntity
  8
0
370
              -3
390
0
  6
Continuous
 62
               1
100
AcDbLine
 10
194.72819786263037
 20
105.63740585427293
 30
0.0
 11
192.38053695740871
 21
118.98882874952882
 31
0.0
  0
LINE
  5
330
100
AcDbEntity
  8
0
370
              -3
390
0
  6
Continuous
 62
               1
100
AcDbLine
 10
198.72819786263037
 20
105.63740585427293
 30
0.0
 11
201.38053695740871
 21
118.98882874952882
 31
0.0
  0
CIRCLE
  5
331
100
AcDbEntity
  8
0
370
              -3
390
0
  6
Continuous
 62
               1
100
AcDbCircle
 10
196.72819786263037
 20
105.63740585427293
 30
0.0
 40
2.0
  0
ENDBLK
  5
332
100
AcDbEntity
  8
0
390
0
100
AcDbBlockEnd
  0
BLOCK
  5
335
100
AcDbEntity
  8
0
390
0
100
AcDbBlockBegin
  2
B02C46748
 70
               0
 10
0.0
 20
0.0
 30
0.0
  3

  1

  0
LINE
  5
336
100
AcDbEntity
  8
0
390
0
 62
               3
100
AcDbLine
 10
204.40612423285998
 20
128.35320024910976
 30
0.0
 11
214.40612423285998
 21
128.35320024910976
 31
0.0
  0
LINE
  5
337
100
AcDbEntity
  8
0
390
0
 62
               3
100
AcDbLine
 10
214.40612423285998
 20
125.4941046324037
 30
0.0
 11
214.40612423285998
 21
128.35320024910976
 31
0.0
  0
LINE
  5
338
100
AcDbEntity
  8
0
390
0
 62
               3
100
AcDbLine
 10
204.40612423285998
 20
125.4941046324037
 30
0.0
 11
204.40612423285998
 21
128.35320024910976
 31
0.0
  0
LINE
  5
339
100
AcDbEntity
  8
0
390
0
 62
               3
100
AcDbLine
 10
204.40612423285998
 20
125.4941046324037
 30
0.0
 11
214.40612423285998
 21
125.4941046324037
 31
0.0
  0
ENDBLK
  5
33A
100
AcDbEntity
  8
0
390
0
100
AcDbBlockEnd
  0
BLOCK
  5
33D
100
AcDbEntity
  8
0
390
0
100
AcDbBlockBegin
  2
B02C3DE4C
 70
               0
 10
0.0
 20
0.0
 30
0.0
  3

  1

  0
LINE
  5
33E
100
AcDbEntity
  8
0
390
0
 62
               3
100
AcDbLine
 10
204.40612423285998
 20
131.2122958658158
 30
0.0
 11
214.40612423285998
 21
131.2122958658158
 31
0.0
  0
LINE
  5
33F
100
AcDbEntity
  8
0
390
0
 62
               3
100
AcDbLine
 10
214.40612423285998
 20
128.35320024910976
 30
0.0
 11
214.40612423285998
 21
131.2122958658158
 31
0.0
  0
LINE
  5
340
100
AcDbEntity
  8
0
390
0
 62
               3
100
AcDbLine
 10
204.40612423285998
 20
128.35320024910976
 30
0.0
 11
204.40612423285998
 21
131.2122958658158
 31
0.0
  0
LINE
  5
341
100
AcDbEntity
  8
0
390
0
 62
               3
100
AcDbLine
 10
204.40612423285998
 20
128.35320024910976
 30
0.0
 11
214.40612423285998
 21
128.35320024910976
 31
0.0
  0
ENDBLK
  5
342
100
AcDbEntity
  8
0
390
0
100
AcDbBlockEnd
  0
BLOCK
  5
345
100
AcDbEntity
  8
0
390
0
100
AcDbBlockBegin
  2
B02C3DFE8
 70
               0
 10
0.0
 20
0.0
 30
0.0
  3

  1

  0
LINE
  5
346
100
AcDbEntity
  8
0
390
0
 62
               3
100
AcDbLine
 10
166.40612423285998
 20
131.2122958658158
 30
0.0
 11
176.40612423285998
 21
131.2122958658158
 31
0.0
  0
LINE
  5
347
100
AcDbEntity
  8
0
390
0
 62
               3
100
AcDbLine
 10
176.40612423285998
 20
128.35320024910976
 30
0.0
 11
176.40612423285998
 21
131.2122958658158
 31
0.0
  0
LINE
  5
348
100
AcDbEntity
  8
0
390
0
 62
               3
100
AcDbLine
 10
166.40612423285998
 20
128.35320024910976
 30
0.0
 11
166.40612423285998
 21
131.2122958658158
 31
0.0
  0
LINE
  5
349
100
AcDbEntity
  8
0
390
0
 62
               3
100
AcDbLine
 10
166.40612423285998
 20
128.35320024910976
 30
0.0
 11
176.40612423285998
 21
128.35320024910976
 31
0.0
  0
ENDBLK
  5
34A
100
AcDbEntity
  8
0
390
0
100
AcDbBlockEnd
  0
BLOCK
  5
34D
100
AcDbEntity
  8
0
390
0
100
AcDbBlockBegin
  2
B032F4154
 70
               0
 10
0.0
 20
0.0
 30
0.0
  3

  1

  0
LINE
  5
34E
100
AcDbEntity
  8
0
390
0
 62
               3
100
AcDbLine
 10
166.40612423285998
 20
128.35320024910976
 30
0.0
 11
176.40612423285998
 21
128.35320024910976
 31
0.0
  0
LINE
  5
34F
100
AcDbEntity
  8
0
390
0
 62
               3
100
AcDbLine
 10
176.40612423285998
 20
125.4941046324037
 30
0.0
 11
176.40612423285998
 21
128.35320024910976
 31
0.0
  0
LINE
  5
350
100
AcDbEntity
  8
0
390
0
 62
               3
100
AcDbLine
 10
166.40612423285998
 20
125.4941046324037
 30
0.0
 11
166.40612423285998
 21
128.35320024910976
 31
0.0
  0
LINE
  5
351
100
AcDbEntity
  8
0
390
0
 62
               3
100
AcDbLine
 10
166.40612423285998
 20
125.4941046324037
 30
0.0
 11
176.40612423285998
 21
125.4941046324037
 31
0.0
  0
ENDBLK
  5
352
100
AcDbEntity
  8
0
390
0
100
AcDbBlockEnd
  0
BLOCK
  5
355
100
AcDbEntity
  8
0
390
0
100
AcDbBlockBegin
  2
B02C3E140
 70
               0
 10
0.0
 20
0.0
 30
0.0
  3

  1

  0
LINE
  5
356
100
AcDbEntity
  8
0
390
0
 62
               3
100
AcDbLine
 10
129.02216336774671
 20
246.98760198061305
 30
0.0
 11
129.02216336774671
 21
225.22087182152453
 31
0.0
  0
LINE
  5
357
100
AcDbEntity
  8
0
390
0
 62
               3
100
AcDbLine
 10
132.95466786915526
 20
236.10423690106811
 30
0.0
 11
132.95466786915526
 21
233.80423690106807
 31
0.0
  0
ARC
  5
358
100
AcDbEntity
  8
0
390
0
 62
               3
100
AcDbCircle
 10
132.95466786915526
 20
233.60423690106808
 30
0.0
 40
0.2
100
AcDbArc
 50
90.000000000000014
 51
0.0
  0
LINE
  5
359
100
AcDbEntity
  8
0
390
0
 62
               3
100
AcDbLine
 10
133.15466786915528
 20
233.60423690106808
 30
0.0
 11
138.92813665793363
 21
233.60423690106808
 31
0.0
  0
LINE
  5
35A
100
AcDbEntity
  8
0
390
0
 62
               3
100
AcDbLine
 10
138.92813665793363
 20
233.60423690106808
 30
0.0
 11
138.92813665793363
 21
225.2208715725385
 31
0.0
  0
CIRCLE
  5
35B
100
AcDbEntity
  8
0
390
0
 62
               3
100
AcDbCircle
 10
133.97515001284017
 20
225.22087182152453
 30
0.0
 40
1.1000000000000001
  0
ARC
  5
35C
100
AcDbEntity
  8
0
390
0
 62
               3
100
AcDbCircle
 10
133.97515001284017
 20
225.22087182152453
 30
0.0
 40
4.9529866450934605
100
AcDbArc
 50
180.00000000000003
 51
359.99999728790948
  0
LINE
  5
35D
100
AcDbEntity
  8
0
390
0
 62
               3
100
AcDbLine
 10
132.95466786915526
 20
236.10423690106947
 30
0.0
 11
132.95466786915526
 21
238.40423690106951
 31
0.0
  0
CIRCLE
  5
35E
100
AcDbEntity
  8
0
390
0
 62
               3
100
AcDbCircle
 10
133.97515001284017
 20
246.98760198061305
 30
0.0
 40
1.1000000000000001
  0
ARC
  5
35F
100
AcDbEntity
  8
0
390
0
 62
               3
100
AcDbCircle
 10
133.97515001284017
 20
246.98760198061305
 30
0.0
 40
4.9529866450934605
100
AcDbArc
 50
0.0000027120905396
 51
180.0
  0
LINE
  5
360
100
AcDbEntity
  8
0
390
0
 62
               3
100
AcDbLine
 10
138.92813665793363
 20
238.6042369010695
 30
0.0
 11
138.92813665793363
 21
246.98760222959908
 31
0.0
  0
ARC
  5
361
100
AcDbEntity
  8
0
390
0
 62
               3
100
AcDbCircle
 10
132.95466786915526
 20
238.6042369010695
 30
0.0
 40
0.2
100
AcDbArc
 50
0.0
 51
270.0
  0
LINE
  5
362
100
AcDbEntity
  8
0
390
0
 62
               3
100
AcDbLine
 10
133.15466786915528
 20
238.6042369010695
 30
0.0
 11
138.92813665793363
 21
238.6042369010695
 31
0.0
  0
ENDBLK
  5
363
100
AcDbEntity
  8
0
390
0
100
AcDbBlockEnd
  0
BLOCK
  5
368
100
AcDbEntity
  8
0
390
0
100
AcDbBlockBegin
  2
B02BEC150
 70
               0
 10
0.0
 20
0.0
 30
0.0
  3

  1

  0
CIRCLE
  5
369
100
AcDbEntity
  8
0
390
0
 62
               3
100
AcDbCircle
 10
116.34206594322335
 20
225.22224687965044
 30
0.0
 40
0.9
  0
CIRCLE
  5
36A
100
AcDbEntity
  8
0
390
0
 62
               3
100
AcDbCircle
 10
116.34206594322335
 20
246.98897703873897
 30
0.0
 40
0.9
  0
INSERT
  5
372
100
AcDbEntity
  8
0
390
0
100
AcDbBlockReference
  2
B02BEC234
 10
0.0
 20
0.0
 30
0.0
  0
ENDBLK
  5
373
100
AcDbEntity
  8
0
390
0
100
AcDbBlockEnd
  0
BLOCK
  5
36C
100
AcDbEntity
  8
0
390
0
100
AcDbBlockBegin
  2
B02BEC234
 70
               0
 10
0.0
 20
0.0
 30
0.0
  3

  1

  0
LINE
  5
36D
100
AcDbEntity
  8
0
390
0
 62
               3
100
AcDbLine
 10
111.35278075383773
 20
272.30511750876298
 30
0.0
 11
121.35278075383773
 21
272.30511750876298
 31
0.0
  0
LINE
  5
36E
100
AcDbEntity
  8
0
390
0
 62
               3
100
AcDbLine
 10
121.35278075383773
 20
215.30511750876298
 30
0.0
 11
121.35278075383773
 21
272.30511750876298
 31
0.0
  0
LINE
  5
36F
100
AcDbEntity
  8
0
390
0
 62
               3
100
AcDbLine
 10
111.35278075383773
 20
215.30511750876298
 30
0.0
 11
111.35278075383773
 21
272.30511750876298
 31
0.0
  0
LINE
  5
370
100
AcDbEntity
  8
0
390
0
 62
               3
100
AcDbLine
 10
111.35278075383773
 20
215.30511750876298
 30
0.0
 11
121.35278075383773
 21
215.30511750876298
 31
0.0
  0
ENDBLK
  5
371
100
AcDbEntity
  8
0
390
0
100
AcDbBlockEnd
  0
BLOCK
  5
376
100
AcDbEntity
  8
0
390
0
100
AcDbBlockBegin
  2
B02BF2C0C
 70
               0
 10
0.0
 20
0.0
 30
0.0
  3

  1

  0
LINE
  5
377
100
AcDbEntity
  8
0
390
0
  6
Continuous
 62
               3
100
AcDbLine
 10
167.65449666666666
 20
110.07525
 30
0.0
 11
165.49996983171027
 21
110.07525
 31
0.0
  0
LINE
  5
378
100
AcDbEntity
  8
0
390
0
  6
Continuous
 62
               3
100
AcDbLine
 10
171.71400666666665
 20
110.10213
 30
0.0
 11
167.65449666666666
 21
110.07525
 31
0.0
  0
LINE
  5
379
100
AcDbEntity
  8
0
390
0
  6
Continuous
 62
               3
100
AcDbLine
 10
175.77061666666668
 20
110.15589999999999
 30
0.0
 11
171.71400666666665
 21
110.10213
 31
0.0
  0
LINE
  5
37A
100
AcDbEntity
  8
0
390
0
  6
Continuous
 62
               3
100
AcDbLine
 10
179.82724666666667
 20
110.23897999999998
 30
0.0
 11
175.77061666666668
 21
110.15589999999999
 31
0.0
  0
LINE
  5
37B
100
AcDbEntity
  8
0
390
0
  6
Continuous
 62
               3
100
AcDbLine
 10
183.88679666666667
 20
110.34896999999999
 30
0.0
 11
179.82724666666667
 21
110.23897999999998
 31
0.0
  0
LINE
  5
37C
100
AcDbEntity
  8
0
390
0
  6
Continuous
 62
               3
100
AcDbLine
 10
187.94879666666668
 20
110.48583000000001
 30
0.0
 11
183.88679666666667
 21
110.34896999999999
 31
0.0
  0
LINE
  5
37D
100
AcDbEntity
  8
0
390
0
  6
Continuous
 62
               3
100
AcDbLine
 10
192.01175666666666
 20
110.64961999999998
 30
0.0
 11
187.94879666666668
 21
110.48583000000001
 31
0.0
  0
LINE
  5
37E
100
AcDbEntity
  8
0
390
0
  6
Continuous
 62
               3
100
AcDbLine
 10
196.08212666666668
 20
110.83541999999998
 30
0.0
 11
192.01175666666666
 21
110.64961999999998
 31
0.0
  0
LINE
  5
37F
100
AcDbEntity
  8
0
390
0
  6
Continuous
 62
               3
100
AcDbLine
 10
200.15782666666667
 20
111.04813
 30
0.0
 11
196.08212666666668
 21
110.83541999999998
 31
0.0
  0
LINE
  5
380
100
AcDbEntity
  8
0
390
0
  6
Continuous
 62
               3
100
AcDbLine
 10
204.23737666666665
 20
111.28046999999999
 30
0.0
 11
200.15782666666667
 21
111.04813
 31
0.0
  0
LINE
  5
381
100
AcDbEntity
  8
0
390
0
  6
Continuous
 62
               3
100
AcDbLine
 10
208.32429666666667
 20
111.53239000000001
 30
0.0
 11
204.23737666666665
 21
111.28046999999999
 31
0.0
  0
LINE
  5
382
100
AcDbEntity
  8
0
390
0
  6
Continuous
 62
               3
100
AcDbLine
 10
212.41457666666668
 20
111.80392999999999
 30
0.0
 11
208.32429666666667
 21
111.53239000000001
 31
0.0
  0
LINE
  5
383
100
AcDbEntity
  8
0
390
0
  6
Continuous
 62
               3
100
AcDbLine
 10
216.51314666666667
 20
112.09022
 30
0.0
 11
212.41457666666668
 21
111.80392999999999
 31
0.0
  0
LINE
  5
384
100
AcDbEntity
  8
0
390
0
  6
Continuous
 62
               3
100
AcDbLine
 10
220.61707666666666
 20
112.39122999999999
 30
0.0
 11
216.51314666666667
 21
112.09022
 31
0.0
  0
LINE
  5
385
100
AcDbEntity
  8
0
390
0
  6
Continuous
 62
               3
100
AcDbLine
 10
224.72881666666666
 20
112.70449999999998
 30
0.0
 11
220.61707666666666
 21
112.39122999999999
 31
0.0
  0
LINE
  5
386
100
AcDbEntity
  8
0
390
0
  6
Continuous
 62
               3
100
AcDbLine
 10
228.84632666666664
 20
113.03007999999998
 30
0.0
 11
224.72881666666666
 21
112.70449999999998
 31
0.0
  0
LINE
  5
387
100
AcDbEntity
  8
0
390
0
  6
Continuous
 62
               3
100
AcDbLine
 10
232.97002666666668
 20
113.36310999999999
 30
0.0
 11
228.84632666666664
 21
113.03007999999998
 31
0.0
  0
LINE
  5
388
100
AcDbEntity
  8
0
390
0
  6
Continuous
 62
               3
100
AcDbLine
 10
237.09558666666669
 20
113.70099
 30
0.0
 11
232.97002666666668
 21
113.36310999999999
 31
0.0
  0
LINE
  5
389
100
AcDbEntity
  8
0
390
0
  6
Continuous
 62
               3
100
AcDbLine
 10
239.10492499692864
 20
113.87052811972568
 30
0.0
 11
237.09558666666669
 21
113.70099
 31
0.0
  0
ENDBLK
  5
38A
100
AcDbEntity
  8
0
390
0
100
AcDbBlockEnd
  0
ENDSEC
  0
SECTION
  2
ENTITIES
  0
LINE
  5
5D
100
AcDbEntity
  8
SENZA_NOME
390
0
100
AcDbLine
 10
159.51321666666666
 20
106.0622
 30
0.0
 11
159.51321666666666
 21
140.84555999999998
 31
0.0
  0
LWPOLYLINE
  5
5E
100
AcDbEntity
  8
SENZA_NOME
390
0
100
AcDbPolyline
 90
       70
 70
               0
 10
296.13011666666665
 20
120.30829999999999
 10
294.65766666666667
 20
119.94324999999999
 10
292.10966666666667
 20
119.4165
 10
289.03981666666664
 20
118.80399999999999
 10
285.40156666666667
 20
118.1082
 10
281.42521666666664
 20
117.38789999999999
 10
277.45131666666668
 20
116.71169999999999
 10
273.53131666666667
 20
116.09429999999999
 10
269.58926666666667
 20
115.52344999999998
 10
265.62271666666669
 20
114.99424999999998
 10
261.64146666666664
 20
114.5116
 10
257.63571666666667
 20
114.0706
 10
253.60301666666669
 20
113.65900000000001
 10
249.54091666666665
 20
113.27434999999998
 10
245.45186666666666
 20
112.90685000000001
 10
241.34321666666665
 20
112.55405
 10
237.21986666666669
 20
112.20614999999999
 10
233.09161666666665
 20
111.86805
 10
228.96581666666668
 20
111.53484999999999
 10
224.84491666666668
 20
111.20899999999999
 10
220.72891666666669
 20
110.89539999999998
 10
216.62026666666668
 20
110.59405
 10
212.51651666666669
 20
110.30739999999999
 10
208.42011666666667
 20
110.03544999999998
 10
204.32616666666667
 20
109.7831
 10
200.23956666666669
 20
109.55034999999999
 10
196.15541666666667
 20
109.33719999999998
 10
192.07616666666667
 20
109.151
 10
188.00426666666664
 20
108.98684999999999
 10
183.93236666666667
 20
108.84964999999998
 10
179.86291666666665
 20
108.7394
 10
175.79591666666667
 20
108.6561
 10
171.72891666666666
 20
108.6022
 10
167.65946666666667
 20
108.57525
 10
163.58756666666665
 20
108.57525
 10
159.51321666666666
 20
108.6022
 10
155.43641666666667
 20
108.65364999999998
 10
151.35226666666665
 20
108.72959999999999
 10
147.26811666666669
 20
108.83004999999999
 10
143.17906666666667
 20
108.95254999999999
 10
139.08511666666666
 20
109.09464999999999
 10
134.98626666666667
 20
109.25634999999998
 10
130.88741666666667
 20
109.43765
 10
126.78366666666666
 20
109.63365
 10
122.67746666666666
 20
109.84679999999999
 10
118.57126666666666
 20
110.07709999999999
 10
114.46506666666667
 20
110.31964999999998
 10
110.35886666666667
 20
110.57689999999998
 10
106.25266666666667
 20
110.84884999999998
 10
102.15381666666667
 20
111.13549999999999
 10
98.062316666666675
 20
111.43929999999999
 10
93.978166666666667
 20
111.76025
 10
89.908716666666663
 20
112.10080000000001
 10
85.861316666666667
 20
112.46585
 10
81.84086666666667
 20
112.86029999999998
 10
77.854716666666661
 20
113.2915
 10
73.907766666666674
 20
113.76434999999999
 10
70.017166666666668
 20
114.29109999999999
 10
66.20986666666667
 20
114.87419999999999
 10
62.571616666666664
 20
115.51854999999999
 10
59.318016666666665
 20
116.18984999999999
 10
56.755316666666666
 20
116.81949999999999
 10
54.952116666666669
 20
117.35605
 10
53.705066666666667
 20
117.80684999999998
 10
52.810816666666668
 20
118.2111
 10
52.151766666666667
 20
118.60064999999999
 10
51.666666666666664
 20
118.99999999999999
 10
51.338366666666666
 20
119.42385
 10
51.164416666666668
 20
119.86975
 10
51.130116666666666
 20
120.30829999999999
  0
LWPOLYLINE
  5
5F
100
AcDbEntity
  8
SENZA_NOME
390
0
100
AcDbPolyline
 90
       71
 70
               0
 10
296.13011666666665
 20
120.30829999999999
 10
294.63316666666668
 20
120.4063
 10
292.05331666666666
 20
120.68559999999998
 10
288.96141666666665
 20
121.05065
 10
285.32561666666669
 20
121.52594999999998
 10
281.37621666666666
 20
122.09435000000001
 10
277.43416666666667
 20
122.71909999999998
 10
273.54601666666667
 20
123.39039999999999
 10
269.63581666666664
 20
124.12050000000001
 10
265.68641666666667
 20
124.9045
 10
261.71006666666665
 20
125.72769999999998
 10
257.68961666666667
 20
126.5852
 10
253.64711666666665
 20
127.45494999999998
 10
249.63156666666669
 20
128.31245000000001
 10
245.64296666666667
 20
129.14299999999997
 10
241.67396666666667
 20
129.93680000000001
 10
237.71476666666666
 20
130.69385
 10
233.75311666666664
 20
131.40924999999999
 10
229.78411666666665
 20
132.08789999999999
 10
225.80041666666665
 20
132.72735
 10
221.80936666666668
 20
133.33249999999998
 10
217.80606666666665
 20
133.90089999999998
 10
213.79786666666666
 20
134.43745000000001
 10
209.78231666666665
 20
134.93970000000002
 10
205.76186666666666
 20
135.40764999999999
 10
201.73896666666667
 20
135.84375
 10
197.71116666666666
 20
136.24554999999998
 10
193.68336666666664
 20
136.61304999999999
 10
189.65311666666668
 20
136.94625000000002
 10
185.62286666666665
 20
137.24514999999997
 10
181.59016666666668
 20
137.50729999999999
 10
177.55746666666667
 20
137.73269999999997
 10
173.52231666666665
 20
137.92379999999997
 10
169.48716666666667
 20
138.0806
 10
165.44711666666666
 20
138.19819999999999
 10
161.40461666666667
 20
138.28149999999999
 10
157.35966666666667
 20
138.33294999999998
 10
153.30981666666668
 20
138.34764999999999
 10
149.25751666666667
 20
138.33049999999997
 10
145.20521666666667
 20
138.28149999999999
 10
141.14556666666667
 20
138.20065
 10
137.08836666666667
 20
138.09039999999999
 10
133.03116666666665
 20
137.95074999999997
 10
128.97396666666668
 20
137.77924999999999
 10
124.91921666666667
 20
137.57835
 10
120.87181666666666
 20
137.34559999999999
 10
116.83176666666667
 20
137.08344999999997
 10
112.80151666666666
 20
136.78699999999998
 10
108.78351666666666
 20
136.4538
 10
104.78266666666667
 20
136.08139999999997
 10
100.80141666666667
 20
135.66980000000001
 10
96.847116666666665
 20
135.20920000000001
 10
92.924666666666667
 20
134.69959999999998
 10
89.038966666666667
 20
134.13119999999998
 10
85.199816666666663
 20
133.49664999999999
 10
81.414566666666673
 20
132.79104999999998
 10
77.688116666666673
 20
132.00459999999998
 10
74.022916666666674
 20
131.12995000000001
 10
70.431216666666671
 20
130.15730000000002
 10
66.925266666666658
 20
129.08175
 10
63.539366666666666
 20
127.90575
 10
60.364166666666662
 20
126.66115000000001
 10
57.610366666666664
 20
125.43614999999998
 10
55.505816666666668
 20
124.3704
 10
54.035816666666669
 20
123.51535
 10
53.021516666666663
 20
122.82934999999999
 10
52.303666666666665
 20
122.24624999999999
 10
51.791616666666663
 20
121.72439999999999
 10
51.436366666666665
 20
121.23195
 10
51.218316666666666
 20
120.7591
 10
51.130116666666666
 20
120.30829999999999
  0
LWPOLYLINE
  5
60
100
AcDbEntity
  8
SENZA_NOME_4
390
0
100
AcDbPolyline
 90
      146
 70
               0
 10
148.42011666666667
 20
125.74346999999999
 10
148.41366666666667
 20
125.99736
 10
148.39433666666667
 20
126.25060000000001
 10
148.36216666666667
 20
126.50251999999999
 10
148.31724666666668
 20
126.75248999999998
 10
148.25969666666668
 20
126.99986
 10
148.18964666666665
 20
127.24398000000001
 10
148.10730666666666
 20
127.48422999999998
 10
148.01286666666667
 20
127.71999999999998
 10
147.90657666666667
 20
127.95065999999998
 10
147.78871666666669
 20
128.17561999999998
 10
147.65957666666668
 20
128.39431999999999
 10
147.51950666666667
 20
128.60617000000002
 10
147.36884666666668
 20
128.81063
 10
147.20801666666665
 20
129.00718999999998
 10
147.03739666666667
 20
129.19531999999998
 10
146.85745666666668
 20
129.37453999999997
 10
146.66864666666666
 20
129.5444
 10
146.47144666666668
 20
129.70445000000001
 10
146.26637666666664
 20
129.85428000000002
 10
146.05396666666667
 20
129.99351000000001
 10
145.83475666666666
 20
130.12176999999997
 10
145.60932666666668
 20
130.23872999999998
 10
145.37823666666668
 20
130.34409999999997
 10
145.14209666666665
 20
130.43759
 10
144.90151666666668
 20
130.51896999999997
 10
144.65711666666667
 20
130.58803999999998
 10
144.40952666666666
 20
130.64459999999997
 10
144.15937666666667
 20
130.68851999999998
 10
143.90732666666668
 20
130.71967999999998
 10
143.65401666666668
 20
130.738
 10
143.40009666666668
 20
130.74342999999999
 10
143.32055666666668
 20
130.74248
 10
141.32210666666668
 20
130.70267999999999
 10
137.31923666666665
 20
130.59390000000002
 10
133.31854666666666
 20
130.45619999999997
 10
129.31791666666666
 20
130.28708999999998
 10
125.32008666666667
 20
130.08900999999997
 10
121.32993666666667
 20
129.85955000000001
 10
117.34968666666667
 20
129.60127999999997
 10
113.38653666666667
 20
129.30977000000001
 10
109.44099666666666
 20
128.98257999999998
 10
105.51586666666667
 20
128.61723000000001
 10
104.08043666666666
 20
128.46882999999997
 10
103.82855666666666
 20
128.43630000000002
 10
103.57865666666666
 20
128.39103
 10
103.33136666666667
 20
128.33312000000001
 10
103.08734666666666
 20
128.26274000000001
 10
102.84720666666666
 20
128.18004999999999
 10
102.61158666666667
 20
128.08528000000001
 10
102.38107666666667
 20
127.97866
 10
102.15627666666666
 20
127.86047999999998
 10
101.93776666666668
 20
127.73102999999999
 10
101.72611666666666
 20
127.59065
 10
101.52185666666666
 20
127.43971000000001
 10
101.32553666666666
 20
127.2786
 10
101.13764666666667
 20
127.10771999999999
 10
100.95867666666666
 20
126.92752
 10
100.78908666666666
 20
126.73845999999999
 10
100.62931666666667
 20
126.54104
 10
100.47977666666667
 20
126.33576000000001
 10
100.34084666666666
 20
126.12315
 10
100.21290666666667
 20
125.90375999999999
 10
100.09625666666668
 20
125.67816000000001
 10
99.991226666666662
 20
125.44692999999999
 10
99.898066666666665
 20
125.21066
 10
99.81701666666666
 20
124.96996
 10
99.748306666666664
 20
124.72545999999998
 10
99.692096666666657
 20
124.47778999999998
 10
99.648526666666669
 20
124.22758
 10
99.61772666666667
 20
123.97547999999999
 10
99.599766666666667
 20
123.72213999999998
 10
99.594696666666664
 20
123.46821999999999
 10
99.602526666666677
 20
123.21436999999999
 10
99.623226666666667
 20
122.96123999999999
 10
99.65676666666667
 20
122.70949
 10
99.703036666666662
 20
122.45977000000001
 10
99.761926666666668
 20
122.21272
 10
99.833296666666669
 20
121.96898
 10
99.916936666666658
 20
121.72918
 10
100.01265666666666
 20
121.49392999999999
 10
100.12019666666666
 20
121.26385000000001
 10
100.23927666666667
 20
121.03953
 10
100.36959666666667
 20
120.82153999999998
 10
100.51081666666667
 20
120.61045
 10
100.66257666666667
 20
120.40679999999999
 10
100.82447666666667
 20
120.21112999999998
 10
100.99610666666666
 20
120.02391999999999
 10
101.17702666666666
 20
119.84567
 10
101.36675666666667
 20
119.67683999999998
 10
101.56481666666667
 20
119.51786
 10
101.77069666666667
 20
119.36915
 10
101.98385666666667
 20
119.23108000000001
 10
102.20375666666666
 20
119.10401
 10
102.42982666666666
 20
118.98826999999999
 10
102.66147666666666
 20
118.88415999999999
 10
102.89811666666667
 20
118.79195
 10
103.13913666666667
 20
118.71186999999999
 10
103.38390666666666
 20
118.64413
 10
103.63180666666668
 20
118.58890999999998
 10
103.88218666666667
 20
118.54635
 10
104.13440666666666
 20
118.51655999999998
 10
104.24580666666667
 20
118.50751999999999
 10
106.76209666666666
 20
118.33154
 10
110.84115666666666
 20
118.06139
 10
114.92066666666668
 20
117.80580999999999
 10
119.00238666666667
 20
117.56471000000001
 10
123.08185666666667
 20
117.33591
 10
127.15696666666666
 20
117.12436999999998
 10
131.23202666666668
 20
116.92974
 10
135.29979666666668
 20
116.74981999999999
 10
139.36302666666666
 20
116.58952000000001
 10
143.24667666666667
 20
116.45471999999999
 10
143.50063666666665
 20
116.45235999999998
 10
143.75438666666668
 20
116.4629
 10
144.00727666666666
 20
116.48630999999999
 10
144.25865666666667
 20
116.52253
 10
144.50786666666667
 20
116.57146999999999
 10
144.75427666666667
 20
116.633
 10
144.99723666666665
 20
116.70696
 10
145.23613666666665
 20
116.79315999999999
 10
145.47034666666667
 20
116.89138999999999
 10
145.69926666666666
 20
117.00138
 10
145.92230666666666
 20
117.12284999999999
 10
146.13888666666668
 20
117.25548999999999
 10
146.34845666666666
 20
117.39896
 10
146.55046666666667
 20
117.55288
 10
146.74440666666666
 20
117.71685999999998
 10
146.92976666666667
 20
117.89047999999998
 10
147.10607666666667
 20
118.07329
 10
147.27286666666669
 20
118.26482
 10
147.42972666666668
 20
118.46455999999999
 10
147.57623666666666
 20
118.67201999999999
 10
147.71201666666667
 20
118.88663999999999
 10
147.83672666666666
 20
119.10788999999998
 10
147.95004666666665
 20
119.33517999999999
 10
148.05167666666665
 20
119.56793
 10
148.14135666666667
 20
119.80553999999999
 10
148.21885666666668
 20
120.0474
 10
148.28397666666666
 20
120.29287999999998
 10
148.33654666666666
 20
120.54135999999998
 10
148.37642666666665
 20
120.79217999999999
 10
148.40352666666666
 20
121.04469999999999
 10
148.41776666666667
 20
121.29826999999999
 10
148.42011666666667
 20
121.45171000000001
 10
148.42011666666667
 20
125.74346999999999
  0
LINE
  5
61
100
AcDbEntity
  8
SENZA_NOME_3
390
0
100
AcDbLine
 10
226.13011666666665
 20
125.16725999999998
 30
0.0
 11
226.13011666666665
 21
118.81725999999999
 31
0.0
  0
LINE
  5
62
100
AcDbEntity
  8
SENZA_NOME_3
390
0
100
AcDbLine
 10
229.30511666666666
 20
121.99226
 30
0.0
 11
222.95511666666664
 21
121.99226
 31
0.0
  0
LINE
  5
63
100
AcDbEntity
  8
SENZA_NOME_3
390
0
100
AcDbLine
 10
86.130116666666666
 20
126.22340999999999
 30
0.0
 11
86.130116666666666
 21
119.87340999999999
 31
0.0
  0
LINE
  5
64
100
AcDbEntity
  8
SENZA_NOME_3
390
0
100
AcDbLine
 10
89.305116666666663
 20
123.04841
 30
0.0
 11
82.955116666666669
 21
123.04841
 31
0.0
  0
CIRCLE
  5
65
100
AcDbEntity
  8
SENZA_NOME_3
390
0
100
AcDbCircle
 10
86.130116666666666
 20
123.04841
 30
0.0
 40
3.0
  0
LWPOLYLINE
  5
66
100
AcDbEntity
  8
SENZA_NOME_2
390
0
100
AcDbPolyline
 90
        5
 70
               0
 10
61.130116666666666
 20
121.30829999999999
 10
61.130116666666666
 20
119.30829999999999
 10
71.130116666666666
 20
119.30829999999999
 10
71.130116666666666
 20
121.30829999999999
 10
61.130116666666666
 20
121.30829999999999
  0
LINE
  5
67
100
AcDbEntity
  8
SENZA_NOME_2
390
0
100
AcDbLine
 10
263.52282666666667
 20
123.82061
 30
0.0
 11
253.74149666666665
 21
125.90032000000001
 31
0.0
  0
LINE
  5
68
100
AcDbEntity
  8
SENZA_NOME_2
390
0
100
AcDbLine
 10
253.74149666666665
 20
125.90032000000001
 30
0.0
 11
253.22156666666666
 21
123.45497999999999
 31
0.0
  0
LINE
  5
69
100
AcDbEntity
  8
SENZA_NOME_2
390
0
100
AcDbLine
 10
263.00289666666669
 20
121.37526999999999
 30
0.0
 11
263.52282666666667
 21
123.82061
 31
0.0
  0
CIRCLE
  5
6A
100
AcDbEntity
  8
SENZA_NOME_2
390
0
100
AcDbCircle
 10
252.13011666666665
 20
125.51200999999999
 30
0.0
 40
1.25
  0
LINE
  5
6B
100
AcDbEntity
  8
SENZA_NOME_2
390
0
100
AcDbLine
 10
252.13011666666665
 20
113.51952999999999
 30
0.0
 11
252.13011666666665
 21
127.77890000000001
 31
0.0
  0
LINE
  5
6C
100
AcDbEntity
  8
SENZA_NOME_2
390
0
100
AcDbLine
 10
251.13011666666665
 20
114.93155
 30
0.0
 11
251.13011666666665
 21
117.43155
 31
0.0
  0
LINE
  5
6D
100
AcDbEntity
  8
SENZA_NOME_2
390
0
100
AcDbLine
 10
251.13011666666665
 20
117.43155
 30
0.0
 11
241.13011666666665
 21
117.43155
 31
0.0
  0
LINE
  5
6E
100
AcDbEntity
  8
SENZA_NOME_2
390
0
100
AcDbLine
 10
241.13011666666665
 20
117.43155
 30
0.0
 11
241.13011666666665
 21
114.93155
 31
0.0
  0
LINE
  5
6F
100
AcDbEntity
  8
SENZA_NOME_2
390
0
100
AcDbLine
 10
241.13011666666665
 20
114.93155
 30
0.0
 11
251.13011666666665
 21
114.93155
 31
0.0
  0
LINE
  5
70
100
AcDbEntity
  8
SENZA_NOME_2
390
0
100
AcDbLine
 10
251.13011666666665
 20
126.45861999999998
 30
0.0
 11
251.13011666666665
 21
123.95861999999998
 31
0.0
  0
LINE
  5
71
100
AcDbEntity
  8
SENZA_NOME_2
390
0
100
AcDbLine
 10
251.13011666666665
 20
123.95861999999998
 30
0.0
 11
241.13011666666665
 21
123.95861999999998
 31
0.0
  0
LINE
  5
72
100
AcDbEntity
  8
SENZA_NOME_2
390
0
100
AcDbLine
 10
241.13011666666665
 20
123.95861999999998
 30
0.0
 11
241.13011666666665
 21
126.45861999999998
 31
0.0
  0
LINE
  5
73
100
AcDbEntity
  8
SENZA_NOME_2
390
0
100
AcDbLine
 10
241.13011666666665
 20
126.45861999999998
 30
0.0
 11
251.13011666666665
 21
126.45861999999998
 31
0.0
  0
LINE
  5
74
100
AcDbEntity
  8
SENZA_NOME_2
390
0
100
AcDbLine
 10
164.42011666666667
 20
110.17280999999998
 30
0.0
 11
164.42011666666667
 21
115.67280999999998
 31
0.0
  0
LINE
  5
75
100
AcDbEntity
  8
SENZA_NOME_2
390
0
100
AcDbLine
 10
164.42011666666667
 20
115.67280999999998
 30
0.0
 11
154.42011666666667
 21
115.67280999999998
 31
0.0
  0
LINE
  5
76
100
AcDbEntity
  8
SENZA_NOME_2
390
0
100
AcDbLine
 10
154.42011666666667
 20
115.67280999999998
 30
0.0
 11
154.42011666666667
 21
110.17280999999998
 31
0.0
  0
LINE
  5
77
100
AcDbEntity
  8
SENZA_NOME_2
390
0
100
AcDbLine
 10
154.42011666666667
 20
110.17280999999998
 30
0.0
 11
164.42011666666667
 21
110.17280999999998
 31
0.0
  0
LINE
  5
78
100
AcDbEntity
  8
SENZA_NOME_2
390
0
100
AcDbLine
 10
164.42011666666667
 20
136.71904000000001
 30
0.0
 11
164.42011666666667
 21
131.21904000000001
 31
0.0
  0
LINE
  5
79
100
AcDbEntity
  8
SENZA_NOME_2
390
0
100
AcDbLine
 10
164.42011666666667
 20
131.21904000000001
 30
0.0
 11
154.42011666666667
 21
131.21904000000001
 31
0.0
  0
LINE
  5
7A
100
AcDbEntity
  8
SENZA_NOME_2
390
0
100
AcDbLine
 10
154.42011666666667
 20
131.21904000000001
 30
0.0
 11
154.42011666666667
 21
136.71904000000001
 31
0.0
  0
LINE
  5
7B
100
AcDbEntity
  8
SENZA_NOME_2
390
0
100
AcDbLine
 10
154.42011666666667
 20
136.71904000000001
 30
0.0
 11
164.42011666666667
 21
136.71904000000001
 31
0.0
  0
LINE
  5
7C
100
AcDbEntity
  8
0
390
0
100
AcDbLine
 10
61.130116666666666
 20
117.34756
 30
0.0
 11
61.130116666666666
 21
125.35026999999998
 31
0.0
  0
LINE
  5
7D
100
AcDbEntity
  8
SENZA_NOME
390
0
100
AcDbLine
 10
159.51321666666666
 20
68.2898
 30
0.0
 11
159.51321666666666
 21
103.07315999999999
 31
0.0
  0
LWPOLYLINE
  5
7E
100
AcDbEntity
  8
SENZA_NOME
390
0
100
AcDbPolyline
 90
       71
 70
               0
 10
296.13011666666665
 20
82.535899999999984
 10
294.63316666666668
 20
82.633899999999997
 10
292.05331666666666
 20
82.913200000000003
 10
288.96141666666665
 20
83.27825
 10
285.32561666666669
 20
83.753550000000004
 10
281.37621666666666
 20
84.321950000000001
 10
277.43416666666667
 20
84.946700000000007
 10
273.54601666666667
 20
85.617999999999981
 10
269.63581666666664
 20
86.348100000000002
 10
265.68641666666667
 20
87.132099999999994
 10
261.71006666666665
 20
87.95529999999998
 10
257.68961666666667
 20
88.812799999999996
 10
253.64711666666665
 20
89.682550000000006
 10
249.63156666666669
 20
90.540049999999994
 10
245.64296666666667
 20
91.370599999999982
 10
241.67396666666667
 20
92.164399999999986
 10
237.71476666666666
 20
92.921450000000007
 10
233.75311666666664
 20
93.636849999999995
 10
229.78411666666665
 20
94.3155
 10
225.80041666666665
 20
94.954949999999982
 10
221.80936666666668
 20
95.560099999999991
 10
217.80606666666665
 20
96.128499999999988
 10
213.79786666666666
 20
96.665049999999994
 10
209.78231666666665
 20
97.167299999999997
 10
205.76186666666666
 20
97.635249999999999
 10
201.73896666666667
 20
98.071349999999981
 10
197.71116666666666
 20
98.47314999999999
 10
193.68336666666664
 20
98.840649999999997
 10
189.65311666666668
 20
99.173850000000002
 10
185.62286666666665
 20
99.472750000000005
 10
181.59016666666668
 20
99.734899999999996
 10
177.55746666666667
 20
99.960300000000004
 10
173.52231666666665
 20
100.15139999999998
 10
169.48716666666667
 20
100.30819999999999
 10
165.44711666666666
 20
100.4258
 10
161.40461666666667
 20
100.5091
 10
157.35966666666667
 20
100.56054999999999
 10
153.30981666666668
 20
100.57525
 10
149.25751666666667
 20
100.55809999999998
 10
145.20521666666667
 20
100.5091
 10
141.14556666666667
 20
100.42825000000001
 10
137.08836666666667
 20
100.318
 10
133.03116666666665
 20
100.17834999999998
 10
128.97396666666668
 20
100.00685
 10
124.91921666666667
 20
99.805949999999982
 10
120.87181666666666
 20
99.5732
 10
116.83176666666667
 20
99.31104999999998
 10
112.80151666666666
 20
99.014599999999987
 10
108.78351666666666
 20
98.681399999999982
 10
104.78266666666667
 20
98.308999999999983
 10
100.80141666666667
 20
97.89739999999999
 10
96.847116666666665
 20
97.436799999999991
 10
92.924666666666667
 20
96.927199999999985
 10
89.038966666666667
 20
96.358799999999988
 10
85.199816666666663
 20
95.724249999999998
 10
81.414566666666673
 20
95.018649999999994
 10
77.688116666666673
 20
94.232199999999992
 10
74.022916666666674
 20
93.357549999999989
 10
70.431216666666671
 20
92.384900000000002
 10
66.925266666666658
 20
91.309349999999981
 10
63.539366666666666
 20
90.133349999999993
 10
60.364166666666662
 20
88.888750000000002
 10
57.610366666666664
 20
87.663750000000007
 10
55.505816666666668
 20
86.597999999999999
 10
54.035816666666669
 20
85.742949999999993
 10
53.021516666666663
 20
85.056949999999986
 10
52.303666666666665
 20
84.473849999999985
 10
51.791616666666663
 20
83.951999999999984
 10
51.436366666666665
 20
83.459549999999993
 10
51.218316666666666
 20
82.986699999999999
 10
51.130116666666666
 20
82.535899999999984
  0
LWPOLYLINE
  5
7F
100
AcDbEntity
  8
SENZA_NOME_4
390
0
100
AcDbPolyline
 90
      144
 70
               0
 10
208.48269666666664
 20
79.783709999999999
 10
208.73559666666665
 20
79.806969999999993
 10
208.98699666666664
 20
79.843029999999985
 10
209.23623666666668
 20
79.891819999999981
 10
209.48268666666667
 20
79.953199999999995
 10
209.72569666666669
 20
80.027010000000004
 10
209.96464666666668
 20
80.113070000000008
 10
210.19891666666666
 20
80.211149999999989
 10
210.42789666666664
 20
80.320999999999984
 10
210.65101666666669
 20
80.442329999999984
 10
210.86767666666668
 20
80.57483999999998
 10
211.07733666666667
 20
80.718180000000004
 10
211.27944666666667
 20
80.871979999999994
 10
211.47348666666664
 20
81.035839999999993
 10
211.65894666666668
 20
81.209349999999986
 10
211.83536666666669
 20
81.392049999999998
 10
212.00227666666666
 20
81.583469999999991
 10
212.15925666666669
 20
81.783119999999982
 10
212.30589666666668
 20
81.99048999999998
 10
212.44180666666665
 20
82.205030000000008
 10
212.56665666666669
 20
82.42619999999998
 10
212.68011666666666
 20
82.653419999999997
 10
212.78188666666665
 20
82.886109999999988
 10
212.87171666666666
 20
83.123659999999987
 10
212.94935666666669
 20
83.365480000000005
 10
213.01462666666669
 20
83.610920000000007
 10
213.06734666666665
 20
83.859359999999995
 10
213.10738666666668
 20
84.110159999999993
 10
213.13463666666667
 20
84.362659999999991
 10
213.14903666666669
 20
84.616229999999987
 10
213.15053666666665
 20
84.870199999999997
 10
213.13913666666667
 20
85.123909999999981
 10
213.11486666666667
 20
85.376719999999992
 10
213.07779666666664
 20
85.627979999999994
 10
213.02801666666664
 20
85.877020000000002
 10
212.96564666666666
 20
86.123219999999989
 10
212.89086666666668
 20
86.365930000000006
 10
212.80384666666669
 20
86.604529999999997
 10
212.70483666666667
 20
86.838409999999996
 10
212.59406666666666
 20
87.066950000000006
 10
212.47183666666666
 20
87.289579999999987
 10
212.33846666666665
 20
87.505710000000008
 10
212.19428666666664
 20
87.714790000000008
 10
212.03967666666665
 20
87.916279999999986
 10
211.87503666666669
 20
88.109660000000005
 10
211.70079666666669
 20
88.294439999999994
 10
211.51738666666665
 20
88.470119999999994
 10
211.32529666666665
 20
88.636260000000007
 10
211.12502666666666
 20
88.792439999999985
 10
210.91707666666667
 20
88.938249999999996
 10
210.70198666666664
 20
89.073300000000003
 10
210.48032666666666
 20
89.197269999999989
 10
210.25264666666669
 20
89.309809999999985
 10
210.01955666666669
 20
89.41064999999999
 10
209.78163666666666
 20
89.499530000000007
 10
209.53951666666666
 20
89.576209999999989
 10
209.29381666666666
 20
89.640489999999986
 10
209.04516666666666
 20
89.692220000000006
 10
208.79421666666667
 20
89.731250000000003
 10
208.72954666666669
 20
89.739199999999997
 10
204.92415666666665
 20
90.182119999999983
 10
200.96256666666665
 20
90.611579999999989
 10
196.99817666666667
 20
91.007050000000007
 10
193.03363666666667
 20
91.368780000000001
 10
189.06677666666667
 20
91.696739999999991
 10
185.10224666666664
 20
91.99075999999998
 10
181.13762666666668
 20
92.24848999999999
 10
177.17078666666669
 20
92.470209999999994
 10
175.65664666666666
 20
92.541909999999987
 10
175.40273666666667
 20
92.547479999999993
 10
175.14886666666666
 20
92.540149999999997
 10
174.89569666666665
 20
92.519940000000005
 10
174.64388666666667
 20
92.486890000000002
 10
174.39407666666665
 20
92.441099999999992
 10
174.14690666666667
 20
92.382689999999982
 10
173.90303666666665
 20
92.311799999999991
 10
173.66306666666668
 20
92.228619999999992
 10
173.42763666666667
 20
92.133359999999996
 10
173.19734666666665
 20
92.026269999999997
 10
172.97278666666665
 20
91.907629999999997
 10
172.75454666666667
 20
91.777730000000005
 10
172.54318666666666
 20
91.636919999999989
 10
172.33924666666667
 20
91.485560000000007
 10
172.14324666666667
 20
91.324039999999982
 10
171.95571666666666
 20
91.15276999999999
 10
171.77711666666667
 20
90.972210000000004
 10
171.60791666666665
 20
90.782799999999995
 10
171.44854666666669
 20
90.585049999999981
 10
171.29943666666668
 20
90.379469999999984
 10
171.16094666666666
 20
90.166569999999993
 10
171.03344666666666
 20
89.946919999999992
 10
170.91727666666668
 20
89.721079999999986
 10
170.81270666666666
 20
89.489629999999991
 10
170.72003666666666
 20
89.253169999999997
 10
170.63948666666667
 20
89.012309999999999
 10
170.57127666666668
 20
88.767659999999992
 10
170.51557666666668
 20
88.519879999999986
 10
170.47252666666668
 20
88.269580000000005
 10
170.44224666666668
 20
88.017420000000001
 10
170.42480666666665
 20
87.76403999999998
 10
170.42011666666667
 20
87.547510000000003
 10
170.42011666666667
 20
83.379819999999981
 10
170.42656666666664
 20
83.125929999999997
 10
170.44589666666667
 20
82.872689999999992
 10
170.47806666666668
 20
82.620760000000004
 10
170.52298666666667
 20
82.370789999999985
 10
170.58053666666666
 20
82.123429999999999
 10
170.65058666666667
 20
81.87930999999999
 10
170.73292666666669
 20
81.639049999999983
 10
170.82736666666665
 20
81.403289999999984
 10
170.93365666666665
 20
81.172629999999984
 10
171.05151666666666
 20
80.947659999999999
 10
171.18065666666666
 20
80.72896999999999
 10
171.32072666666667
 20
80.517119999999991
 10
171.47138666666666
 20
80.312650000000005
 10
171.63221666666666
 20
80.116100000000003
 10
171.80283666666668
 20
79.927970000000002
 10
171.98277666666667
 20
79.748739999999984
 10
172.17158666666666
 20
79.578889999999987
 10
172.36878666666667
 20
79.41883
 10
172.57385666666667
 20
79.268999999999991
 10
172.78626666666668
 20
79.129779999999997
 10
173.00547666666665
 20
79.001519999999985
 10
173.23090666666667
 20
78.884560000000008
 10
173.46199666666666
 20
78.779189999999986
 10
173.69813666666667
 20
78.685699999999983
 10
173.93871666666666
 20
78.604309999999984
 10
174.18311666666665
 20
78.535250000000005
 10
174.43070666666665
 20
78.478689999999986
 10
174.68085666666667
 20
78.43477
 10
174.93290666666667
 20
78.40361
 10
175.18621666666667
 20
78.385289999999983
 10
175.44013666666666
 20
78.379859999999994
 10
175.48637666666667
 20
78.380260000000007
 10
175.66942666666665
 20
78.382680000000008
 10
179.68456666666668
 20
78.464919999999992
 10
183.70452666666665
 20
78.573830000000001
 10
187.72692666666666
 20
78.70935999999999
 10
191.75411666666668
 20
78.871709999999993
 10
195.78897666666666
 20
79.055879999999988
 10
199.83088666666669
 20
79.266829999999985
 10
203.88221666666669
 20
79.497569999999982
 10
207.94099666666665
 20
79.747749999999982
 10
208.48269666666664
 20
79.783709999999999
  0
LWPOLYLINE
  5
80
100
AcDbEntity
  8
SENZA_NOME_4
390
0
100
AcDbPolyline
 90
      146
 70
               0
 10
148.42011666666667
 20
87.971069999999983
 10
148.41366666666667
 20
88.224959999999996
 10
148.39433666666667
 20
88.478200000000001
 10
148.36216666666667
 20
88.730119999999985
 10
148.31724666666668
 20
88.980090000000004
 10
148.25969666666668
 20
89.227459999999994
 10
148.18964666666665
 20
89.471580000000003
 10
148.10730666666666
 20
89.711830000000006
 10
148.01286666666667
 20
89.94759999999998
 10
147.90657666666667
 20
90.17825999999998
 10
147.78871666666669
 20
90.40321999999999
 10
147.65957666666668
 20
90.621920000000003
 10
147.51950666666667
 20
90.833770000000001
 10
147.36884666666668
 20
91.038229999999984
 10
147.20801666666665
 20
91.23478999999999
 10
147.03739666666667
 20
91.422919999999991
 10
146.85745666666668
 20
91.602140000000006
 10
146.66864666666666
 20
91.772000000000006
 10
146.47144666666668
 20
91.93204999999999
 10
146.26637666666664
 20
92.081879999999998
 10
146.05396666666667
 20
92.221109999999996
 10
145.83475666666666
 20
92.349370000000008
 10
145.60932666666668
 20
92.466329999999985
 10
145.37823666666668
 20
92.571700000000007
 10
145.14209666666665
 20
92.665189999999981
 10
144.90151666666668
 20
92.746570000000006
 10
144.65711666666667
 20
92.815639999999988
 10
144.40952666666666
 20
92.872200000000007
 10
144.15937666666667
 20
92.916119999999992
 10
143.90732666666668
 20
92.947279999999992
 10
143.65401666666668
 20
92.965599999999981
 10
143.40009666666668
 20
92.971029999999999
 10
143.32055666666668
 20
92.970079999999982
 10
141.32210666666668
 20
92.930279999999996
 10
137.31923666666665
 20
92.8215
 10
133.31854666666666
 20
92.683800000000005
 10
129.31791666666666
 20
92.514689999999987
 10
125.32008666666667
 20
92.316609999999983
 10
121.32993666666667
 20
92.087149999999994
 10
117.34968666666667
 20
91.828879999999984
 10
113.38653666666667
 20
91.537369999999996
 10
109.44099666666666
 20
91.210179999999994
 10
105.51586666666667
 20
90.844829999999988
 10
104.08043666666666
 20
90.696430000000007
 10
103.82855666666666
 20
90.663899999999998
 10
103.57865666666666
 20
90.618629999999982
 10
103.33136666666667
 20
90.560719999999989
 10
103.08734666666666
 20
90.490339999999989
 10
102.84720666666666
 20
90.407650000000004
 10
102.61158666666667
 20
90.312879999999993
 10
102.38107666666667
 20
90.20626
 10
102.15627666666666
 20
90.088080000000005
 10
101.93776666666668
 20
89.958629999999985
 10
101.72611666666666
 20
89.818249999999992
 10
101.52185666666666
 20
89.667310000000001
 10
101.32553666666666
 20
89.506199999999993
 10
101.13764666666667
 20
89.335319999999982
 10
100.95867666666666
 20
89.155119999999997
 10
100.78908666666666
 20
88.966059999999985
 10
100.62931666666667
 20
88.768639999999991
 10
100.47977666666667
 20
88.563360000000003
 10
100.34084666666666
 20
88.350749999999991
 10
100.21290666666667
 20
88.131359999999987
 10
100.09625666666668
 20
87.905760000000001
 10
99.991226666666662
 20
87.67452999999999
 10
99.898066666666665
 20
87.43826
 10
99.81701666666666
 20
87.197559999999996
 10
99.748306666666664
 20
86.953060000000008
 10
99.692096666666657
 20
86.70538999999998
 10
99.648526666666669
 20
86.455179999999999
 10
99.61772666666667
 20
86.203079999999986
 10
99.599766666666667
 20
85.949740000000006
 10
99.594696666666664
 20
85.695819999999983
 10
99.602526666666677
 20
85.441969999999984
 10
99.623226666666667
 20
85.188839999999985
 10
99.65676666666667
 20
84.937089999999998
 10
99.703036666666662
 20
84.687370000000001
 10
99.761926666666668
 20
84.44032
 10
99.833296666666669
 20
84.196579999999997
 10
99.916936666666658
 20
83.956779999999995
 10
100.01265666666666
 20
83.721529999999987
 10
100.12019666666666
 20
83.49145
 10
100.23927666666667
 20
83.267129999999995
 10
100.36959666666667
 20
83.04913999999998
 10
100.51081666666667
 20
82.838049999999996
 10
100.66257666666667
 20
82.634399999999985
 10
100.82447666666667
 20
82.438730000000007
 10
100.99610666666666
 20
82.251519999999985
 10
101.17702666666666
 20
82.073269999999994
 10
101.36675666666667
 20
81.90443999999998
 10
101.56481666666667
 20
81.745459999999994
 10
101.77069666666667
 20
81.59675
 10
101.98385666666667
 20
81.458680000000001
 10
102.20375666666666
 20
81.331609999999998
 10
102.42982666666666
 20
81.215869999999981
 10
102.66147666666666
 20
81.11175999999999
 10
102.89811666666667
 20
81.019549999999995
 10
103.13913666666667
 20
80.939469999999986
 10
103.38390666666666
 20
80.871729999999999
 10
103.63180666666668
 20
80.81650999999998
 10
103.88218666666667
 20
80.773949999999999
 10
104.13440666666666
 20
80.74415999999998
 10
104.24580666666667
 20
80.735119999999981
 10
106.76209666666666
 20
80.559139999999999
 10
110.84115666666666
 20
80.288989999999998
 10
114.92066666666668
 20
80.033409999999989
 10
119.00238666666667
 20
79.792310000000001
 10
123.08185666666667
 20
79.563509999999994
 10
127.15696666666666
 20
79.35196999999998
 10
131.23202666666668
 20
79.157339999999991
 10
135.29979666666668
 20
78.977419999999981
 10
139.36302666666666
 20
78.817120000000003
 10
143.24667666666667
 20
78.68231999999999
 10
143.50063666666665
 20
78.67995999999998
 10
143.75438666666668
 20
78.6905
 10
144.00727666666666
 20
78.713909999999984
 10
144.25865666666667
 20
78.750129999999999
 10
144.50786666666667
 20
78.799069999999986
 10
144.75427666666667
 20
78.860599999999991
 10
144.99723666666665
 20
78.934559999999991
 10
145.23613666666665
 20
79.020759999999981
 10
145.47034666666667
 20
79.118989999999982
 10
145.69926666666666
 20
79.228979999999993
 10
145.92230666666666
 20
79.350449999999981
 10
146.13888666666668
 20
79.48308999999999
 10
146.34845666666666
 20
79.626559999999998
 10
146.55046666666667
 20
79.780479999999997
 10
146.74440666666666
 20
79.944460000000007
 10
146.92976666666667
 20
80.118080000000006
 10
147.10607666666667
 20
80.300889999999995
 10
147.27286666666669
 20
80.492419999999996
 10
147.42972666666668
 20
80.692159999999987
 10
147.57623666666666
 20
80.899619999999985
 10
147.71201666666667
 20
81.114239999999981
 10
147.83672666666666
 20
81.335490000000007
 10
147.95004666666665
 20
81.562779999999989
 10
148.05167666666665
 20
81.795529999999999
 10
148.14135666666667
 20
82.033139999999989
 10
148.21885666666668
 20
82.274999999999991
 10
148.28397666666666
 20
82.520480000000006
 10
148.33654666666666
 20
82.768960000000007
 10
148.37642666666665
 20
83.019779999999983
 10
148.40352666666666
 20
83.272299999999987
 10
148.41776666666667
 20
83.525869999999983
 10
148.42011666666667
 20
83.679310000000001
 10
148.42011666666667
 20
87.971069999999983
  0
LINE
  5
81
100
AcDbEntity
  8
SENZA_NOME_3
390
0
100
AcDbLine
 10
226.13011666666665
 20
87.39485999999998
 30
0.0
 11
226.13011666666665
 21
81.044859999999986
 31
0.0
  0
LINE
  5
82
100
AcDbEntity
  8
SENZA_NOME_3
390
0
100
AcDbLine
 10
229.30511666666666
 20
84.219859999999997
 30
0.0
 11
222.95511666666664
 21
84.219859999999997
 31
0.0
  0
CIRCLE
  5
83
100
AcDbEntity
  8
SENZA_NOME_3
390
0
100
AcDbCircle
 10
226.13011666666665
 20
84.219859999999997
 30
0.0
 40
3.0
  0
LINE
  5
84
100
AcDbEntity
  8
SENZA_NOME_3
390
0
100
AcDbLine
 10
86.130116666666666
 20
88.451009999999982
 30
0.0
 11
86.130116666666666
 21
82.101009999999988
 31
0.0
  0
LINE
  5
85
100
AcDbEntity
  8
SENZA_NOME_3
390
0
100
AcDbLine
 10
89.305116666666663
 20
85.276009999999999
 30
0.0
 11
82.955116666666669
 21
85.276009999999999
 31
0.0
  0
CIRCLE
  5
86
100
AcDbEntity
  8
SENZA_NOME_3
390
0
100
AcDbCircle
 10
86.130116666666666
 20
85.276009999999999
 30
0.0
 40
3.0
  0
LWPOLYLINE
  5
87
100
AcDbEntity
  8
SENZA_NOME_2
390
0
100
AcDbPolyline
 90
        5
 70
               0
 10
61.130116666666666
 20
83.535899999999984
 10
61.130116666666666
 20
81.535899999999984
 10
71.130116666666666
 20
81.535899999999984
 10
71.130116666666666
 20
83.535899999999984
 10
61.130116666666666
 20
83.535899999999984
  0
LWPOLYLINE
  5
88
100
AcDbEntity
  8
0
390
0
100
AcDbPolyline
 90
       58
 70
               0
 10
286.54412666666667
 20
82.081489999999988
 10
285.12699666666668
 20
81.810469999999995
 10
281.16571666666664
 20
81.0929
 10
277.20880666666665
 20
80.419599999999988
 10
273.30713666666668
 20
79.80507999999999
 10
269.38258666666667
 20
79.236769999999993
 10
265.43326666666667
 20
78.709869999999981
 10
261.46912666666668
 20
78.229290000000006
 10
257.47748666666666
 20
77.789839999999984
 10
253.45615666666669
 20
77.37939999999999
 10
249.40307666666666
 20
76.995609999999985
 10
245.32056666666665
 20
76.628699999999995
 10
241.21599666666668
 20
76.27624999999999
 10
237.09558666666669
 20
75.92859
 10
232.97002666666668
 20
75.590709999999987
 10
228.84632666666664
 20
75.257680000000008
 10
224.72881666666666
 20
74.932100000000005
 10
220.61707666666666
 20
74.618829999999988
 10
216.51314666666667
 20
74.317819999999998
 10
212.41457666666668
 20
74.031529999999989
 10
208.32429666666667
 20
73.759990000000002
 10
204.23737666666665
 20
73.508069999999989
 10
200.15782666666667
 20
73.275729999999996
 10
196.08212666666668
 20
73.06301999999998
 10
192.01175666666666
 20
72.87721999999998
 10
187.94879666666668
 20
72.713430000000002
 10
183.88679666666667
 20
72.57656999999999
 10
179.82724666666667
 20
72.466580000000008
 10
175.77061666666668
 20
72.383499999999984
 10
171.71400666666665
 20
72.329729999999998
 10
167.65449666666666
 20
72.302849999999992
 10
163.59252666666669
 20
72.302849999999992
 10
159.52764666666667
 20
72.329740000000001
 10
155.45982666666669
 20
72.38106999999998
 10
151.38465666666667
 20
72.456859999999992
 10
147.30901666666665
 20
72.557100000000005
 10
143.22754666666668
 20
72.679369999999992
 10
139.14069666666666
 20
72.821219999999997
 10
135.04897666666665
 20
72.982639999999989
 10
130.95633666666669
 20
73.163669999999982
 10
126.85832666666667
 20
73.359390000000005
 10
122.75834666666667
 20
73.572220000000002
 10
118.65748666666667
 20
73.802219999999991
 10
114.55618666666666
 20
74.044480000000007
 10
110.45532666666666
 20
74.301399999999987
 10
106.35455666666667
 20
74.57298999999999
 10
102.26167666666666
 20
74.859220000000008
 10
98.176606666666657
 20
75.162539999999993
 10
94.099466666666672
 20
75.482939999999999
 10
90.038636666666662
 20
75.822770000000006
 10
86.001926666666662
 20
76.186859999999982
 10
81.994766666666663
 20
76.579999999999998
 10
78.024596666666667
 20
77.009470000000007
 10
74.097616666666667
 20
77.479929999999982
 10
70.231346666666667
 20
78.003389999999982
 10
66.454236666666674
 20
78.581859999999992
 10
62.854016666666666
 20
79.21947999999999
 10
61.130116666666666
 20
79.575159999999997
  0
LWPOLYLINE
  5
89
100
AcDbEntity
  8
0
390
0
100
AcDbPolyline
 90
       59
 70
               0
 10
286.54412666666667
 20
82.081489999999988
 10
285.12154666666669
 20
82.267459999999986
 10
281.15196666666668
 20
82.838769999999997
 10
277.18915666666669
 20
83.466809999999995
 10
273.28074666666669
 20
84.14161
 10
269.35211666666669
 20
84.875150000000005
 10
265.38833666666665
 20
85.661999999999992
 10
261.40157666666664
 20
86.487359999999981
 10
257.37541666666664
 20
87.346079999999986
 10
253.33273666666668
 20
88.215860000000006
 10
249.32204666666667
 20
89.07232999999998
 10
245.34297666666669
 20
89.90088999999999
 10
241.38601666666665
 20
90.692279999999997
 10
237.44061666666664
 20
91.446690000000004
 10
233.49342666666666
 20
92.159479999999988
 10
229.53883666666667
 20
92.835670000000007
 10
225.56910666666664
 20
93.472879999999989
 10
221.59149666666667
 20
94.075990000000004
 10
217.60112666666669
 20
94.642549999999986
 10
213.60526666666669
 20
95.177450000000007
 10
209.60252666666668
 20
95.678099999999986
 10
205.59432666666669
 20
96.144619999999989
 10
201.58368666666667
 20
96.579400000000007
 10
197.56856666666664
 20
96.979929999999982
 10
193.55341666666669
 20
97.346279999999993
 10
189.53584666666666
 20
97.678430000000006
 10
185.51874666666669
 20
97.976349999999982
 10
181.49965666666668
 20
98.237620000000007
 10
177.48012666666665
 20
98.462280000000007
 10
173.45771666666667
 20
98.652779999999993
 10
169.43621666666667
 20
98.809049999999999
 10
165.40984666666668
 20
98.926249999999996
 10
161.37962666666667
 20
99.009299999999982
 10
157.34740666666667
 20
99.060580000000002
 10
153.31026666666668
 20
99.075239999999994
 10
149.26975666666667
 20
99.058139999999995
 10
145.22921666666667
 20
99.009280000000004
 10
141.18087666666668
 20
98.928659999999994
 10
137.13453666666666
 20
98.818699999999993
 10
133.08864666666665
 20
98.679439999999985
 10
129.04275666666666
 20
98.508419999999987
 10
124.99938666666667
 20
98.308080000000004
 10
120.96343666666667
 20
98.075990000000004
 10
116.93534666666666
 20
97.814620000000005
 10
112.91851666666668
 20
97.519149999999982
 10
108.91501666666667
 20
97.187159999999992
 10
104.92930666666666
 20
96.816169999999985
 10
100.96532666666667
 20
96.406349999999989
 10
97.030526666666674
 20
95.94802
 10
93.129856666666669
 20
95.441249999999982
 10
89.269846666666666
 20
94.876609999999985
 10
85.459586666666667
 20
94.246830000000003
 10
81.706916666666672
 20
93.547309999999996
 10
78.017136666666659
 20
92.768600000000006
 10
74.393136666666663
 20
91.903779999999998
 10
70.847336666666664
 20
90.943560000000005
 10
67.39145666666667
 20
89.883369999999999
 10
64.05934666666667
 20
88.726050000000001
 10
61.130116666666666
 20
87.577870000000004
  0
LINE
  5
8A
100
AcDbEntity
  8
SENZA_NOME_2
390
0
100
AcDbLine
 10
263.52282666666667
 20
86.048209999999997
 30
0.0
 11
253.74149666666665
 21
88.127920000000003
 31
0.0
  0
LINE
  5
8B
100
AcDbEntity
  8
SENZA_NOME_2
390
0
100
AcDbLine
 10
253.74149666666665
 20
88.127920000000003
 30
0.0
 11
253.22156666666666
 21
85.682579999999987
 31
0.0
  0
LINE
  5
8C
100
AcDbEntity
  8
SENZA_NOME_2
390
0
100
AcDbLine
 10
253.22156666666666
 20
85.682579999999987
 30
0.0
 11
263.00289666666669
 21
83.602869999999982
 31
0.0
  0
LINE
  5
8D
100
AcDbEntity
  8
SENZA_NOME_2
390
0
100
AcDbLine
 10
263.00289666666669
 20
83.602869999999982
 30
0.0
 11
263.52282666666667
 21
86.048209999999997
 31
0.0
  0
CIRCLE
  5
8E
100
AcDbEntity
  8
SENZA_NOME_2
390
0
100
AcDbCircle
 10
252.13011666666665
 20
87.739609999999985
 30
0.0
 40
1.25
  0
LINE
  5
8F
100
AcDbEntity
  8
SENZA_NOME_2
390
0
100
AcDbLine
 10
252.13011666666665
 20
75.747129999999984
 30
0.0
 11
252.13011666666665
 21
90.006500000000003
 31
0.0
  0
LINE
  5
90
100
AcDbEntity
  8
SENZA_NOME_2
390
0
100
AcDbLine
 10
251.13011666666665
 20
77.159149999999997
 30
0.0
 11
251.13011666666665
 21
79.659149999999997
 31
0.0
  0
LINE
  5
91
100
AcDbEntity
  8
SENZA_NOME_2
390
0
100
AcDbLine
 10
251.13011666666665
 20
79.659149999999997
 30
0.0
 11
241.13011666666665
 21
79.659149999999997
 31
0.0
  0
LINE
  5
92
100
AcDbEntity
  8
SENZA_NOME_2
390
0
100
AcDbLine
 10
241.13011666666665
 20
79.659149999999997
 30
0.0
 11
241.13011666666665
 21
77.159149999999997
 31
0.0
  0
LINE
  5
93
100
AcDbEntity
  8
SENZA_NOME_2
390
0
100
AcDbLine
 10
241.13011666666665
 20
77.159149999999997
 30
0.0
 11
251.13011666666665
 21
77.159149999999997
 31
0.0
  0
LINE
  5
94
100
AcDbEntity
  8
SENZA_NOME_2
390
0
100
AcDbLine
 10
251.13011666666665
 20
88.686220000000006
 30
0.0
 11
251.13011666666665
 21
86.186220000000006
 31
0.0
  0
LINE
  5
95
100
AcDbEntity
  8
SENZA_NOME_2
390
0
100
AcDbLine
 10
251.13011666666665
 20
86.186220000000006
 30
0.0
 11
241.13011666666665
 21
86.186220000000006
 31
0.0
  0
LINE
  5
96
100
AcDbEntity
  8
SENZA_NOME_2
390
0
100
AcDbLine
 10
241.13011666666665
 20
86.186220000000006
 30
0.0
 11
241.13011666666665
 21
88.686220000000006
 31
0.0
  0
LINE
  5
97
100
AcDbEntity
  8
SENZA_NOME_2
390
0
100
AcDbLine
 10
241.13011666666665
 20
88.686220000000006
 30
0.0
 11
251.13011666666665
 21
88.686220000000006
 31
0.0
  0
LINE
  5
98
100
AcDbEntity
  8
SENZA_NOME_2
390
0
100
AcDbLine
 10
164.42011666666667
 20
72.40040999999998
 30
0.0
 11
164.42011666666667
 21
77.90040999999998
 31
0.0
  0
LINE
  5
99
100
AcDbEntity
  8
SENZA_NOME_2
390
0
100
AcDbLine
 10
164.42011666666667
 20
77.90040999999998
 30
0.0
 11
154.42011666666667
 21
77.90040999999998
 31
0.0
  0
LINE
  5
9A
100
AcDbEntity
  8
SENZA_NOME_2
390
0
100
AcDbLine
 10
154.42011666666667
 20
77.90040999999998
 30
0.0
 11
154.42011666666667
 21
72.40040999999998
 31
0.0
  0
LINE
  5
9B
100
AcDbEntity
  8
SENZA_NOME_2
390
0
100
AcDbLine
 10
154.42011666666667
 20
72.40040999999998
 30
0.0
 11
164.42011666666667
 21
72.40040999999998
 31
0.0
  0
LINE
  5
9C
100
AcDbEntity
  8
SENZA_NOME_2
390
0
100
AcDbLine
 10
164.42011666666667
 20
98.946639999999988
 30
0.0
 11
164.42011666666667
 21
93.446639999999988
 31
0.0
  0
LINE
  5
9D
100
AcDbEntity
  8
SENZA_NOME_2
390
0
100
AcDbLine
 10
164.42011666666667
 20
93.446639999999988
 30
0.0
 11
154.42011666666667
 21
93.446639999999988
 31
0.0
  0
LINE
  5
9E
100
AcDbEntity
  8
SENZA_NOME_2
390
0
100
AcDbLine
 10
154.42011666666667
 20
93.446639999999988
 30
0.0
 11
154.42011666666667
 21
98.946639999999988
 31
0.0
  0
LINE
  5
9F
100
AcDbEntity
  8
SENZA_NOME_2
390
0
100
AcDbLine
 10
154.42011666666667
 20
98.946639999999988
 30
0.0
 11
164.42011666666667
 21
98.946639999999988
 31
0.0
  0
LINE
  5
A0
100
AcDbEntity
  8
0
390
0
100
AcDbLine
 10
61.130116666666666
 20
79.575159999999997
 30
0.0
 11
61.130116666666666
 21
87.577870000000004
 31
0.0
  0
LINE
  5
A1
100
AcDbEntity
  8
0
390
0
100
AcDbLine
 10
164.42011666666667
 20
136.71904000000001
 30
0.0
 11
165.40984666666668
 21
136.69864999999999
 31
0.0
  0
LINE
  5
A2
100
AcDbEntity
  8
0
390
0
100
AcDbLine
 10
165.40984666666668
 20
110.07487401007917
 30
0.0
 11
164.37868970482361
 21
110.07487401007917
 31
0.0
  0
LINE
  5
A3
100
AcDbEntity
  8
0
390
0
100
AcDbLine
 10
164.37868970482361
 20
110.07487401007917
 30
0.0
 11
164.42011666666667
 21
136.71904000000001
 31
0.0
  0
LINE
  5
A4
100
AcDbEntity
  8
0
390
0
100
AcDbLine
 10
241.13011666666665
 20
126.45861999999998
 30
0.0
 11
239.10492499692867
 21
126.45861999999998
 31
0.0
  0
LINE
  5
A5
100
AcDbEntity
  8
0
390
0
100
AcDbLine
 10
239.10492499692867
 20
126.45861999999998
 30
0.0
 11
239.10492499692867
 21
114.94987350472009
 31
0.0
  0
LINE
  5
A6
100
AcDbEntity
  8
0
390
0
100
AcDbLine
 10
239.10492499692867
 20
114.94987350472009
 30
0.0
 11
241.13011666666665
 21
114.93155
 31
0.0
  0
LINE
  5
A7
100
AcDbEntity
  8
0
390
0
100
AcDbLine
 10
241.13011666666665
 20
126.45861999999998
 30
0.0
 11
241.13011666666665
 21
114.93155
 31
0.0
  0
LINE
  5
A8
100
AcDbEntity
  8
0
390
0
  6
Continuous
100
AcDbLine
 10
286.54412666666667
 20
119.85388999999999
 30
0.0
 11
285.12154666666669
 21
120.03985999999999
 31
0.0
  0
LINE
  5
A9
100
AcDbEntity
  8
0
390
0
  6
Continuous
100
AcDbLine
 10
285.12154666666669
 20
120.03985999999999
 30
0.0
 11
281.15196666666668
 21
120.61117
 31
0.0
  0
LINE
  5
AA
100
AcDbEntity
  8
0
390
0
  6
Continuous
100
AcDbLine
 10
281.15196666666668
 20
120.61117
 30
0.0
 11
277.18915666666669
 21
121.23921
 31
0.0
  0
LINE
  5
AB
100
AcDbEntity
  8
0
390
0
  6
Continuous
100
AcDbLine
 10
277.18915666666669
 20
121.23921
 30
0.0
 11
273.28074666666669
 21
121.91401
 31
0.0
  0
LINE
  5
AC
100
AcDbEntity
  8
0
390
0
  6
Continuous
100
AcDbLine
 10
273.28074666666669
 20
121.91401
 30
0.0
 11
269.35211666666669
 21
122.64754999999998
 31
0.0
  0
LINE
  5
AD
100
AcDbEntity
  8
0
390
0
  6
Continuous
100
AcDbLine
 10
269.35211666666669
 20
122.64754999999998
 30
0.0
 11
265.38833666666665
 21
123.4344
 31
0.0
  0
LINE
  5
AE
100
AcDbEntity
  8
0
390
0
  6
Continuous
100
AcDbLine
 10
265.38833666666665
 20
123.4344
 30
0.0
 11
261.40157666666664
 21
124.25975999999999
 31
0.0
  0
LINE
  5
AF
100
AcDbEntity
  8
0
390
0
  6
Continuous
100
AcDbLine
 10
261.40157666666664
 20
124.25975999999999
 30
0.0
 11
257.37541666666664
 21
125.11847999999999
 31
0.0
  0
LINE
  5
B0
100
AcDbEntity
  8
0
390
0
  6
Continuous
100
AcDbLine
 10
257.37541666666664
 20
125.11847999999999
 30
0.0
 11
253.33273666666668
 21
125.98825999999998
 31
0.0
  0
LINE
  5
B1
100
AcDbEntity
  8
0
390
0
  6
Continuous
100
AcDbLine
 10
253.33273666666668
 20
125.98825999999998
 30
0.0
 11
249.32204666666667
 21
126.84472999999998
 31
0.0
  0
LINE
  5
B2
100
AcDbEntity
  8
0
390
0
  6
Continuous
100
AcDbLine
 10
249.32204666666667
 20
126.84472999999998
 30
0.0
 11
245.34297666666669
 21
127.67328999999999
 31
0.0
  0
LINE
  5
B3
100
AcDbEntity
  8
0
390
0
  6
Continuous
100
AcDbLine
 10
245.34297666666669
 20
127.67328999999999
 30
0.0
 11
241.38601666666665
 21
128.46467999999999
 31
0.0
  0
LINE
  5
B4
100
AcDbEntity
  8
0
390
0
  6
Continuous
100
AcDbLine
 10
225.56910666666664
 20
131.24527999999998
 30
0.0
 11
221.59149666666667
 21
131.84838999999999
 31
0.0
  0
LINE
  5
B5
100
AcDbEntity
  8
0
390
0
  6
Continuous
100
AcDbLine
 10
221.59149666666667
 20
131.84838999999999
 30
0.0
 11
217.60112666666669
 21
132.41494999999998
 31
0.0
  0
LINE
  5
B6
100
AcDbEntity
  8
0
390
0
  6
Continuous
100
AcDbLine
 10
217.60112666666669
 20
132.41494999999998
 30
0.0
 11
213.60526666666669
 21
132.94984999999997
 31
0.0
  0
LINE
  5
B7
100
AcDbEntity
  8
0
390
0
  6
Continuous
100
AcDbLine
 10
213.60526666666669
 20
132.94984999999997
 30
0.0
 11
209.60252666666668
 21
133.45049999999998
 31
0.0
  0
LINE
  5
B8
100
AcDbEntity
  8
0
390
0
  6
Continuous
100
AcDbLine
 10
209.60252666666668
 20
133.45049999999998
 30
0.0
 11
205.59432666666669
 21
133.91701999999998
 31
0.0
  0
LINE
  5
B9
100
AcDbEntity
  8
0
390
0
  6
Continuous
100
AcDbLine
 10
205.59432666666669
 20
133.91701999999998
 30
0.0
 11
201.58368666666667
 21
134.35179999999997
 31
0.0
  0
LINE
  5
BA
100
AcDbEntity
  8
0
390
0
  6
Continuous
100
AcDbLine
 10
201.58368666666667
 20
134.35179999999997
 30
0.0
 11
197.56856666666664
 21
134.75232999999997
 31
0.0
  0
LINE
  5
BB
100
AcDbEntity
  8
0
390
0
  6
Continuous
100
AcDbLine
 10
197.56856666666664
 20
134.75232999999997
 30
0.0
 11
193.55341666666669
 21
135.11867999999998
 31
0.0
  0
LINE
  5
BC
100
AcDbEntity
  8
0
390
0
  6
Continuous
100
AcDbLine
 10
193.55341666666669
 20
135.11867999999998
 30
0.0
 11
189.53584666666666
 21
135.45083
 31
0.0
  0
LINE
  5
BD
100
AcDbEntity
  8
0
390
0
  6
Continuous
100
AcDbLine
 10
189.53584666666666
 20
135.45083
 30
0.0
 11
185.51874666666669
 21
135.74874999999997
 31
0.0
  0
LINE
  5
BE
100
AcDbEntity
  8
0
390
0
  6
Continuous
100
AcDbLine
 10
185.51874666666669
 20
135.74874999999997
 30
0.0
 11
181.49965666666668
 21
136.01002
 31
0.0
  0
LINE
  5
BF
100
AcDbEntity
  8
0
390
0
  6
Continuous
100
AcDbLine
 10
181.49965666666668
 20
136.01002
 30
0.0
 11
177.48012666666665
 21
136.23467999999997
 31
0.0
  0
LINE
  5
C0
100
AcDbEntity
  8
0
390
0
  6
Continuous
100
AcDbLine
 10
177.48012666666665
 20
136.23467999999997
 30
0.0
 11
173.45771666666667
 21
136.42518000000001
 31
0.0
  0
LINE
  5
C1
100
AcDbEntity
  8
0
390
0
  6
Continuous
100
AcDbLine
 10
165.40984666666668
 20
136.69864999999999
 30
0.0
 11
161.37962666666667
 21
136.7817
 31
0.0
  0
LINE
  5
C2
100
AcDbEntity
  8
0
390
0
  6
Continuous
100
AcDbLine
 10
161.37962666666667
 20
136.7817
 30
0.0
 11
157.34740666666667
 21
136.83298000000002
 31
0.0
  0
LINE
  5
C3
100
AcDbEntity
  8
0
390
0
  6
Continuous
100
AcDbLine
 10
157.34740666666667
 20
136.83298000000002
 30
0.0
 11
153.31026666666668
 21
136.84764000000001
 31
0.0
  0
LINE
  5
C4
100
AcDbEntity
  8
0
390
0
  6
Continuous
100
AcDbLine
 10
153.31026666666668
 20
136.84764000000001
 30
0.0
 11
149.26975666666667
 21
136.83053999999998
 31
0.0
  0
LINE
  5
C5
100
AcDbEntity
  8
0
390
0
  6
Continuous
100
AcDbLine
 10
149.26975666666667
 20
136.83053999999998
 30
0.0
 11
145.22921666666667
 21
136.78167999999999
 31
0.0
  0
LINE
  5
C6
100
AcDbEntity
  8
0
390
0
  6
Continuous
100
AcDbLine
 10
145.22921666666667
 20
136.78167999999999
 30
0.0
 11
141.18087666666668
 21
136.70105999999998
 31
0.0
  0
LINE
  5
C7
100
AcDbEntity
  8
0
390
0
  6
Continuous
100
AcDbLine
 10
141.18087666666668
 20
136.70105999999998
 30
0.0
 11
137.13453666666666
 21
136.59109999999998
 31
0.0
  0
LINE
  5
C8
100
AcDbEntity
  8
0
390
0
  6
Continuous
100
AcDbLine
 10
137.13453666666666
 20
136.59109999999998
 30
0.0
 11
133.08864666666665
 21
136.45184
 31
0.0
  0
LINE
  5
C9
100
AcDbEntity
  8
0
390
0
  6
Continuous
100
AcDbLine
 10
133.08864666666665
 20
136.45184
 30
0.0
 11
129.04275666666666
 21
136.28082000000001
 31
0.0
  0
LINE
  5
CA
100
AcDbEntity
  8
0
390
0
  6
Continuous
100
AcDbLine
 10
129.04275666666666
 20
136.28082000000001
 30
0.0
 11
124.99938666666667
 21
136.08047999999997
 31
0.0
  0
LINE
  5
CB
100
AcDbEntity
  8
0
390
0
  6
Continuous
100
AcDbLine
 10
124.99938666666667
 20
136.08047999999997
 30
0.0
 11
120.96343666666667
 21
135.84838999999999
 31
0.0
  0
LINE
  5
CC
100
AcDbEntity
  8
0
390
0
  6
Continuous
100
AcDbLine
 10
120.96343666666667
 20
135.84838999999999
 30
0.0
 11
116.93534666666666
 21
135.58702
 31
0.0
  0
LINE
  5
CD
100
AcDbEntity
  8
0
390
0
  6
Continuous
100
AcDbLine
 10
116.93534666666666
 20
135.58702
 30
0.0
 11
112.91851666666668
 21
135.29154999999997
 31
0.0
  0
LINE
  5
CE
100
AcDbEntity
  8
0
390
0
  6
Continuous
100
AcDbLine
 10
112.91851666666668
 20
135.29154999999997
 30
0.0
 11
108.91501666666667
 21
134.95956000000001
 31
0.0
  0
LINE
  5
CF
100
AcDbEntity
  8
0
390
0
  6
Continuous
100
AcDbLine
 10
108.91501666666667
 20
134.95956000000001
 30
0.0
 11
104.92930666666666
 21
134.58857
 31
0.0
  0
LINE
  5
D0
100
AcDbEntity
  8
0
390
0
  6
Continuous
100
AcDbLine
 10
104.92930666666666
 20
134.58857
 30
0.0
 11
100.96532666666667
 21
134.17874999999998
 31
0.0
  0
LINE
  5
D1
100
AcDbEntity
  8
0
390
0
  6
Continuous
100
AcDbLine
 10
100.96532666666667
 20
134.17874999999998
 30
0.0
 11
97.030526666666674
 21
133.72041999999999
 31
0.0
  0
LINE
  5
D2
100
AcDbEntity
  8
0
390
0
  6
Continuous
100
AcDbLine
 10
97.030526666666674
 20
133.72041999999999
 30
0.0
 11
93.129856666666669
 21
133.21364999999997
 31
0.0
  0
LINE
  5
D3
100
AcDbEntity
  8
0
390
0
  6
Continuous
100
AcDbLine
 10
93.129856666666669
 20
133.21364999999997
 30
0.0
 11
89.269846666666666
 21
132.64900999999998
 31
0.0
  0
LINE
  5
D4
100
AcDbEntity
  8
0
390
0
  6
Continuous
100
AcDbLine
 10
89.269846666666666
 20
132.64900999999998
 30
0.0
 11
85.459586666666667
 21
132.01922999999999
 31
0.0
  0
LINE
  5
D5
100
AcDbEntity
  8
0
390
0
  6
Continuous
100
AcDbLine
 10
85.459586666666667
 20
132.01922999999999
 30
0.0
 11
81.706916666666672
 21
131.31970999999999
 31
0.0
  0
LINE
  5
D6
100
AcDbEntity
  8
0
390
0
  6
Continuous
100
AcDbLine
 10
81.706916666666672
 20
131.31970999999999
 30
0.0
 11
78.017136666666659
 21
130.541
 31
0.0
  0
LINE
  5
D7
100
AcDbEntity
  8
0
390
0
  6
Continuous
100
AcDbLine
 10
78.017136666666659
 20
130.541
 30
0.0
 11
74.393136666666663
 21
129.67617999999999
 31
0.0
  0
LINE
  5
D8
100
AcDbEntity
  8
0
390
0
  6
Continuous
100
AcDbLine
 10
74.393136666666663
 20
129.67617999999999
 30
0.0
 11
70.847336666666664
 21
128.71596
 31
0.0
  0
LINE
  5
D9
100
AcDbEntity
  8
0
390
0
  6
Continuous
100
AcDbLine
 10
70.847336666666664
 20
128.71596
 30
0.0
 11
67.39145666666667
 21
127.65577
 31
0.0
  0
LINE
  5
DA
100
AcDbEntity
  8
0
390
0
  6
Continuous
100
AcDbLine
 10
67.39145666666667
 20
127.65577
 30
0.0
 11
64.05934666666667
 21
126.49845000000001
 31
0.0
  0
LINE
  5
DB
100
AcDbEntity
  8
0
390
0
  6
Continuous
100
AcDbLine
 10
64.05934666666667
 20
126.49845000000001
 30
0.0
 11
61.130116666666666
 21
125.35026999999998
 31
0.0
  0
LINE
  5
DC
100
AcDbEntity
  8
0
390
0
  6
Continuous
100
AcDbLine
 10
229.13011666666671
 20
130.67367659571306
 30
0.0
 11
225.56910666666664
 21
131.24527999999998
 31
0.0
  0
LINE
  5
DD
100
AcDbEntity
  8
0
390
0
  6
Continuous
100
AcDbLine
 10
241.38601666666665
 20
128.46467999999999
 30
0.0
 11
239.10492499692859
 21
128.90085335797818
 31
0.0
  0
ARC
  5
DE
100
AcDbEntity
  8
0
390
0
 62
               3
100
AcDbCircle
 10
226.13011666666665
 20
121.99225999999999
 30
0.0
 40
3.0
100
AcDbArc
 50
270.0
 51
0.0000000000002714
  0
LINE
  5
DF
100
AcDbEntity
  8
0
390
0
  6
Continuous
100
AcDbLine
 10
286.54412666666667
 20
119.85388999999999
 30
0.0
 11
285.12699666666668
 21
119.58287
 31
0.0
  0
LINE
  5
E0
100
AcDbEntity
  8
0
390
0
  6
Continuous
100
AcDbLine
 10
285.12699666666668
 20
119.58287
 30
0.0
 11
281.16571666666664
 21
118.8653
 31
0.0
  0
LINE
  5
E1
100
AcDbEntity
  8
0
390
0
  6
Continuous
100
AcDbLine
 10
281.16571666666664
 20
118.8653
 30
0.0
 11
277.20880666666665
 21
118.19199999999999
 31
0.0
  0
LINE
  5
E2
100
AcDbEntity
  8
0
390
0
  6
Continuous
100
AcDbLine
 10
277.20880666666665
 20
118.19199999999999
 30
0.0
 11
273.30713666666668
 21
117.57747999999999
 31
0.0
  0
LINE
  5
E3
100
AcDbEntity
  8
0
390
0
  6
Continuous
100
AcDbLine
 10
273.30713666666668
 20
117.57747999999999
 30
0.0
 11
269.38258666666667
 21
117.00917
 31
0.0
  0
LINE
  5
E4
100
AcDbEntity
  8
0
390
0
  6
Continuous
100
AcDbLine
 10
269.38258666666667
 20
117.00917
 30
0.0
 11
265.43326666666667
 21
116.48226999999999
 31
0.0
  0
LINE
  5
E5
100
AcDbEntity
  8
0
390
0
  6
Continuous
100
AcDbLine
 10
265.43326666666667
 20
116.48226999999999
 30
0.0
 11
261.46912666666668
 21
116.00168999999998
 31
0.0
  0
LINE
  5
E6
100
AcDbEntity
  8
0
390
0
  6
Continuous
100
AcDbLine
 10
261.46912666666668
 20
116.00168999999998
 30
0.0
 11
257.47748666666666
 21
115.56223999999999
 31
0.0
  0
LINE
  5
E7
100
AcDbEntity
  8
0
390
0
  6
Continuous
100
AcDbLine
 10
257.47748666666666
 20
115.56223999999999
 30
0.0
 11
253.45615666666669
 21
115.15179999999999
 31
0.0
  0
LINE
  5
E8
100
AcDbEntity
  8
0
390
0
  6
Continuous
100
AcDbLine
 10
253.45615666666669
 20
115.15179999999999
 30
0.0
 11
249.40307666666666
 21
114.76800999999999
 31
0.0
  0
LINE
  5
E9
100
AcDbEntity
  8
0
390
0
  6
Continuous
100
AcDbLine
 10
249.40307666666666
 20
114.76800999999999
 30
0.0
 11
245.32056666666665
 21
114.4011
 31
0.0
  0
LINE
  5
EA
100
AcDbEntity
  8
0
390
0
  6
Continuous
100
AcDbLine
 10
245.32056666666665
 20
114.4011
 30
0.0
 11
241.21599666666668
 21
114.04864999999999
 31
0.0
  0
LINE
  5
EB
100
AcDbEntity
  8
0
390
0
  6
Continuous
100
AcDbLine
 10
163.59252666666669
 20
110.07525
 30
0.0
 11
159.52764666666667
 21
110.10214000000001
 31
0.0
  0
LINE
  5
EC
100
AcDbEntity
  8
0
390
0
  6
Continuous
100
AcDbLine
 10
159.52764666666667
 20
110.10214000000001
 30
0.0
 11
155.45982666666669
 21
110.15346999999998
 31
0.0
  0
LINE
  5
ED
100
AcDbEntity
  8
0
390
0
  6
Continuous
100
AcDbLine
 10
155.45982666666669
 20
110.15346999999998
 30
0.0
 11
151.38465666666667
 21
110.22926
 31
0.0
  0
LINE
  5
EE
100
AcDbEntity
  8
0
390
0
  6
Continuous
100
AcDbLine
 10
151.38465666666667
 20
110.22926
 30
0.0
 11
147.30901666666665
 21
110.32949999999998
 31
0.0
  0
LINE
  5
EF
100
AcDbEntity
  8
0
390
0
  6
Continuous
100
AcDbLine
 10
147.30901666666665
 20
110.32949999999998
 30
0.0
 11
143.22754666666668
 21
110.45177
 31
0.0
  0
LINE
  5
F0
100
AcDbEntity
  8
0
390
0
  6
Continuous
100
AcDbLine
 10
143.22754666666668
 20
110.45177
 30
0.0
 11
139.14069666666666
 21
110.59362
 31
0.0
  0
LINE
  5
F1
100
AcDbEntity
  8
0
390
0
  6
Continuous
100
AcDbLine
 10
139.14069666666666
 20
110.59362
 30
0.0
 11
135.04897666666665
 21
110.75503999999999
 31
0.0
  0
LINE
  5
F2
100
AcDbEntity
  8
0
390
0
  6
Continuous
100
AcDbLine
 10
135.04897666666665
 20
110.75503999999999
 30
0.0
 11
130.95633666666669
 21
110.93606999999999
 31
0.0
  0
LINE
  5
F3
100
AcDbEntity
  8
0
390
0
  6
Continuous
100
AcDbLine
 10
130.95633666666669
 20
110.93606999999999
 30
0.0
 11
126.85832666666667
 21
111.13178999999998
 31
0.0
  0
LINE
  5
F4
100
AcDbEntity
  8
0
390
0
  6
Continuous
100
AcDbLine
 10
126.85832666666667
 20
111.13178999999998
 30
0.0
 11
122.75834666666667
 21
111.34462000000001
 31
0.0
  0
LINE
  5
F5
100
AcDbEntity
  8
0
390
0
  6
Continuous
100
AcDbLine
 10
122.75834666666667
 20
111.34462000000001
 30
0.0
 11
118.65748666666667
 21
111.57462
 31
0.0
  0
LINE
  5
F6
100
AcDbEntity
  8
0
390
0
  6
Continuous
100
AcDbLine
 10
118.65748666666667
 20
111.57462
 30
0.0
 11
114.55618666666666
 21
111.81687999999998
 31
0.0
  0
LINE
  5
F7
100
AcDbEntity
  8
0
390
0
  6
Continuous
100
AcDbLine
 10
114.55618666666666
 20
111.81687999999998
 30
0.0
 11
110.45532666666666
 21
112.07379999999999
 31
0.0
  0
LINE
  5
F8
100
AcDbEntity
  8
0
390
0
  6
Continuous
100
AcDbLine
 10
110.45532666666666
 20
112.07379999999999
 30
0.0
 11
106.35455666666667
 21
112.34538999999999
 31
0.0
  0
LINE
  5
F9
100
AcDbEntity
  8
0
390
0
  6
Continuous
100
AcDbLine
 10
106.35455666666667
 20
112.34538999999999
 30
0.0
 11
102.26167666666666
 21
112.63161999999998
 31
0.0
  0
LINE
  5
FA
100
AcDbEntity
  8
0
390
0
  6
Continuous
100
AcDbLine
 10
102.26167666666666
 20
112.63161999999998
 30
0.0
 11
98.176606666666657
 21
112.93494
 31
0.0
  0
LINE
  5
FB
100
AcDbEntity
  8
0
390
0
  6
Continuous
100
AcDbLine
 10
98.176606666666657
 20
112.93494
 30
0.0
 11
94.099466666666672
 21
113.25534
 31
0.0
  0
LINE
  5
FC
100
AcDbEntity
  8
0
390
0
  6
Continuous
100
AcDbLine
 10
94.099466666666672
 20
113.25534
 30
0.0
 11
90.038636666666662
 21
113.59516999999998
 31
0.0
  0
LINE
  5
FD
100
AcDbEntity
  8
0
390
0
  6
Continuous
100
AcDbLine
 10
90.038636666666662
 20
113.59516999999998
 30
0.0
 11
86.001926666666662
 21
113.95925999999999
 31
0.0
  0
LINE
  5
FE
100
AcDbEntity
  8
0
390
0
  6
Continuous
100
AcDbLine
 10
86.001926666666662
 20
113.95925999999999
 30
0.0
 11
81.994766666666663
 21
114.3524
 31
0.0
  0
LINE
  5
FF
100
AcDbEntity
  8
0
390
0
  6
Continuous
100
AcDbLine
 10
81.994766666666663
 20
114.3524
 30
0.0
 11
78.024596666666667
 21
114.78186999999998
 31
0.0
  0
LINE
  5
100
100
AcDbEntity
  8
0
390
0
  6
Continuous
100
AcDbLine
 10
78.024596666666667
 20
114.78186999999998
 30
0.0
 11
74.097616666666667
 21
115.25232999999999
 31
0.0
  0
LINE
  5
101
100
AcDbEntity
  8
0
390
0
  6
Continuous
100
AcDbLine
 10
74.097616666666667
 20
115.25232999999999
 30
0.0
 11
70.231346666666667
 21
115.77578999999999
 31
0.0
  0
LINE
  5
102
100
AcDbEntity
  8
0
390
0
  6
Continuous
100
AcDbLine
 10
70.231346666666667
 20
115.77578999999999
 30
0.0
 11
66.454236666666674
 21
116.35426
 31
0.0
  0
LINE
  5
103
100
AcDbEntity
  8
0
390
0
  6
Continuous
100
AcDbLine
 10
66.454236666666674
 20
116.35426
 30
0.0
 11
62.854016666666666
 21
116.99187999999999
 31
0.0
  0
LINE
  5
104
100
AcDbEntity
  8
0
390
0
  6
Continuous
100
AcDbLine
 10
62.854016666666666
 20
116.99187999999999
 30
0.0
 11
61.130116666666666
 21
117.34756
 31
0.0
  0
LINE
  5
105
100
AcDbEntity
  8
0
390
0
  6
Continuous
100
AcDbLine
 10
165.49996983171027
 20
110.07525
 30
0.0
 11
163.59252666666669
 21
110.07525
 31
0.0
  0
LINE
  5
106
100
AcDbEntity
  8
0
390
0
  6
Continuous
100
AcDbLine
 10
241.21599666666668
 20
114.04864999999999
 30
0.0
 11
239.10492499692864
 21
113.87052811972568
 31
0.0
  0
LINE
  5
107
100
AcDbEntity
  8
0
390
0
  6
Continuous
100
AcDbLine
 10
173.45771666666667
 20
136.42518000000001
 30
0.0
 11
172.77108909604948
 21
136.45186141003614
 31
0.0
  0
LINE
  5
108
100
AcDbEntity
  8
0
390
0
 62
               3
100
AcDbLine
 10
295.23648513572476
 20
129.79495430565601
 30
0.0
 11
295.23648513572476
 21
131.95935169899423
 31
0.0
  0
LINE
  5
109
100
AcDbEntity
  8
0
390
0
 62
               3
100
AcDbLine
 10
295.23648513572476
 20
131.95935169899423
 30
0.0
 11
317.66990932209717
 21
131.95935169899423
 31
0.0
  0
LINE
  5
10A
100
AcDbEntity
  8
0
390
0
 62
               3
100
AcDbLine
 10
317.66990932209717
 20
131.95935169899423
 30
0.0
 11
317.66990932209717
 21
129.66457255731154
 31
0.0
  0
LINE
  5
10B
100
AcDbEntity
  8
0
390
0
 62
               3
100
AcDbLine
 10
317.66990932209717
 20
129.66457255731154
 30
0.0
 11
289.56946363702343
 21
129.85670486712573
 31
0.0
  0
LINE
  5
10C
100
AcDbEntity
  8
0
390
0
 62
               3
100
AcDbLine
 10
289.56946363702343
 20
129.85670486712573
 30
0.0
 11
289.56946363702343
 21
131.95935169899423
 31
0.0
  0
LINE
  5
10D
100
AcDbEntity
  8
0
390
0
 62
               3
100
AcDbLine
 10
289.56946363702343
 20
131.95935169899423
 30
0.0
 11
295.23648513572476
 21
131.95935169899423
 31
0.0
  0
LINE
  5
10E
100
AcDbEntity
  8
0
390
0
 62
               3
100
AcDbLine
 10
295.23648513572476
 20
131.95935169899423
 30
0.0
 11
295.23648513572476
 21
130.87715300232512
 31
0.0
  0
INSERT
  5
116
100
AcDbEntity
  8
0
390
0
100
AcDbBlockReference
  2
B024990C4
 10
0.0
 20
0.0
 30
0.0
  0
INSERT
  5
11E
100
AcDbEntity
  8
0
390
0
100
AcDbBlockReference
  2
B02499260
 10
0.0
 20
0.0
 30
0.0
  0
LINE
  5
11F
100
AcDbEntity
  8
0
390
0
 62
               3
100
AcDbLine
 10
252.13011666666665
 20
112.16600598019137
 30
0.0
 11
252.13011666666665
 21
110.50918661998423
 31
0.0
  0
LINE
  5
120
100
AcDbEntity
  8
SENZA_NOME_2
390
0
100
AcDbLine
 10
253.22156666666666
 20
123.45497999999999
 30
0.0
 11
263.00289666666657
 21
121.37527000000001
 31
0.0
  0
LINE
  5
121
100
AcDbEntity
  8
0
390
0
  6
Continuous
100
AcDbLine
 10
286.54412666666661
 20
119.85388999999999
 30
0.0
 11
285.12154666666669
 21
120.03985999999999
 31
0.0
  0
LINE
  5
122
100
AcDbEntity
  8
0
390
0
  6
Continuous
100
AcDbLine
 10
285.12154666666669
 20
120.03985999999999
 30
0.0
 11
281.15196666666662
 21
120.61117000000003
 31
0.0
  0
LINE
  5
123
100
AcDbEntity
  8
0
390
0
  6
Continuous
100
AcDbLine
 10
281.15196666666662
 20
120.61117000000003
 30
0.0
 11
277.18915666666663
 21
121.23921000000003
 31
0.0
  0
LINE
  5
124
100
AcDbEntity
  8
0
390
0
  6
Continuous
100
AcDbLine
 10
277.18915666666663
 20
121.23921000000003
 30
0.0
 11
273.28074666666663
 21
121.91401000000003
 31
0.0
  0
LINE
  5
125
100
AcDbEntity
  8
0
390
0
  6
Continuous
100
AcDbLine
 10
273.28074666666663
 20
121.91401000000003
 30
0.0
 11
269.35211666666663
 21
122.64754999999998
 31
0.0
  0
LINE
  5
126
100
AcDbEntity
  8
0
390
0
  6
Continuous
100
AcDbLine
 10
269.35211666666663
 20
122.64754999999998
 30
0.0
 11
265.38833666666659
 21
123.4344
 31
0.0
  0
LINE
  5
127
100
AcDbEntity
  8
0
390
0
  6
Continuous
100
AcDbLine
 10
265.38833666666659
 20
123.4344
 30
0.0
 11
263.52282620627096
 21
123.82060777613705
 31
0.0
  0
LINE
  5
128
100
AcDbEntity
  8
0
390
0
  6
Continuous
100
AcDbLine
 10
286.54412666666661
 20
119.85388999999999
 30
0.0
 11
285.12699666666657
 21
119.58287000000003
 31
0.0
  0
LINE
  5
129
100
AcDbEntity
  8
0
390
0
  6
Continuous
100
AcDbLine
 10
285.12699666666657
 20
119.58287000000003
 30
0.0
 11
281.16571666666658
 21
118.8653
 31
0.0
  0
LINE
  5
12A
100
AcDbEntity
  8
0
390
0
  6
Continuous
100
AcDbLine
 10
281.16571666666658
 20
118.8653
 30
0.0
 11
277.2088066666667
 21
118.19200000000002
 31
0.0
  0
LINE
  5
12B
100
AcDbEntity
  8
0
390
0
  6
Continuous
100
AcDbLine
 10
277.2088066666667
 20
118.19200000000002
 30
0.0
 11
273.30713666666662
 21
117.57747999999999
 31
0.0
  0
LINE
  5
12C
100
AcDbEntity
  8
0
390
0
  6
Continuous
100
AcDbLine
 10
273.30713666666662
 20
117.57747999999999
 30
0.0
 11
269.38258666666655
 21
117.00917
 31
0.0
  0
LINE
  5
12D
100
AcDbEntity
  8
0
390
0
  6
Continuous
100
AcDbLine
 10
269.38258666666655
 20
117.00917
 30
0.0
 11
265.43326666666661
 21
116.48226999999999
 31
0.0
  0
LINE
  5
12E
100
AcDbEntity
  8
0
390
0
  6
Continuous
100
AcDbLine
 10
265.43326666666661
 20
116.48226999999999
 30
0.0
 11
261.46912666666657
 21
116.00169000000001
 31
0.0
  0
LINE
  5
12F
100
AcDbEntity
  8
0
390
0
  6
Continuous
100
AcDbLine
 10
261.46912666666657
 20
116.00169000000001
 30
0.0
 11
257.47748666666661
 21
115.56223999999999
 31
0.0
  0
LINE
  5
130
100
AcDbEntity
  8
0
390
0
  6
Continuous
100
AcDbLine
 10
257.47748666666661
 20
115.56223999999999
 30
0.0
 11
257.00424489358301
 21
115.51393823084788
 31
0.0
  0
LINE
  5
131
100
AcDbEntity
  8
0
390
0
 62
               3
100
AcDbLine
 10
253.22156666666666
 20
123.45497999999999
 30
0.0
 11
263.00289666666657
 21
121.37527000000001
 31
0.0
  0
LINE
  5
132
100
AcDbEntity
  8
0
390
0
 62
               3
100
AcDbLine
 10
263.00289666666657
 20
121.37527000000001
 30
0.0
 11
263.52282666666667
 21
123.82061
 31
0.0
  0
LINE
  5
133
100
AcDbEntity
  8
0
390
0
 62
               3
100
AcDbLine
 10
279.56946363702343
 20
184.85670486712573
 30
0.0
 11
289.56946363702343
 21
184.85670486712573
 31
0.0
  0
LINE
  5
134
100
AcDbEntity
  8
0
390
0
 62
               3
100
AcDbLine
 10
289.56946363702343
 20
129.85670486712573
 30
0.0
 11
289.56946363702343
 21
184.85670486712573
 31
0.0
  0
LINE
  5
135
100
AcDbEntity
  8
0
390
0
 62
               3
100
AcDbLine
 10
279.56946363702343
 20
129.85670486712573
 30
0.0
 11
279.56946363702343
 21
184.85670486712573
 31
0.0
  0
LINE
  5
136
100
AcDbEntity
  8
0
390
0
 62
               3
100
AcDbLine
 10
279.56946363702343
 20
129.85670486712573
 30
0.0
 11
289.56946363702343
 21
129.85670486712573
 31
0.0
  0
LINE
  5
137
100
AcDbEntity
  8
0
390
0
 62
               3
100
AcDbLine
 10
317.66990932209717
 20
184.66457255731154
 30
0.0
 11
327.66990932209717
 21
184.66457255731154
 31
0.0
  0
LINE
  5
138
100
AcDbEntity
  8
0
390
0
 62
               3
100
AcDbLine
 10
327.66990932209717
 20
129.66457255731154
 30
0.0
 11
327.66990932209717
 21
184.66457255731154
 31
0.0
  0
LINE
  5
139
100
AcDbEntity
  8
0
390
0
 62
               3
100
AcDbLine
 10
317.66990932209717
 20
129.66457255731154
 30
0.0
 11
317.66990932209717
 21
184.66457255731154
 31
0.0
  0
LINE
  5
13A
100
AcDbEntity
  8
0
390
0
 62
               3
100
AcDbLine
 10
317.66990932209717
 20
129.66457255731154
 30
0.0
 11
327.66990932209717
 21
129.66457255731154
 31
0.0
  0
LINE
  5
13B
100
AcDbEntity
  8
0
390
0
 62
               3
100
AcDbLine
 10
327.66990932209717
 20
182.73897972792392
 30
0.0
 11
327.66990932209717
 21
179.78984126675519
 31
0.0
  0
LINE
  5
13C
100
AcDbEntity
  8
0
390
0
 62
               3
100
AcDbLine
 10
327.66990932209717
 20
179.78984126675519
 30
0.0
 11
327.66990932209717
 21
176.70665105735151
 31
0.0
  0
LINE
  5
13D
100
AcDbEntity
  8
0
390
0
 62
               3
100
AcDbLine
 10
327.66990932209717
 20
172.14889161736352
 30
0.0
 11
327.66990932209717
 21
169.06570140795986
 31
0.0
  0
LINE
  5
13E
100
AcDbEntity
  8
0
390
0
 62
               3
100
AcDbLine
 10
164.42011666666667
 20
72.40040999999998
 30
0.0
 11
164.42011666666667
 21
69.129369999101556
 31
0.0
  0
LINE
  5
13F
100
AcDbEntity
  8
0
390
0
 62
               3
100
AcDbLine
 10
251.13011666666665
 20
78.409149999999997
 30
0.0
 11
251.13011666666665
 21
72.741989304062329
 31
0.0
  0
LINE
  5
140
100
AcDbEntity
  8
SENZA_NOME
390
0
  6
Continuous
100
AcDbLine
 10
296.13011666666665
 20
82.535899999999984
 30
0.0
 11
294.65766666666667
 21
82.170849999999987
 31
0.0
  0
LINE
  5
141
100
AcDbEntity
  8
SENZA_NOME
390
0
  6
Continuous
100
AcDbLine
 10
294.65766666666667
 20
82.170849999999987
 30
0.0
 11
292.10966666666667
 21
81.644099999999995
 31
0.0
  0
LINE
  5
142
100
AcDbEntity
  8
SENZA_NOME
390
0
  6
Continuous
100
AcDbLine
 10
292.10966666666667
 20
81.644099999999995
 30
0.0
 11
289.03981666666664
 21
81.031599999999983
 31
0.0
  0
LINE
  5
143
100
AcDbEntity
  8
SENZA_NOME
390
0
  6
Continuous
100
AcDbLine
 10
289.03981666666664
 20
81.031599999999983
 30
0.0
 11
285.40156666666667
 21
80.335799999999992
 31
0.0
  0
LINE
  5
144
100
AcDbEntity
  8
SENZA_NOME
390
0
  6
Continuous
100
AcDbLine
 10
285.40156666666667
 20
80.335799999999992
 30
0.0
 11
281.42521666666664
 21
79.615499999999983
 31
0.0
  0
LINE
  5
145
100
AcDbEntity
  8
SENZA_NOME
390
0
  6
Continuous
100
AcDbLine
 10
281.42521666666664
 20
79.615499999999983
 30
0.0
 11
277.45131666666668
 21
78.939299999999989
 31
0.0
  0
LINE
  5
146
100
AcDbEntity
  8
SENZA_NOME
390
0
  6
Continuous
100
AcDbLine
 10
277.45131666666668
 20
78.939299999999989
 30
0.0
 11
273.53131666666667
 21
78.321899999999985
 31
0.0
  0
LINE
  5
147
100
AcDbEntity
  8
SENZA_NOME
390
0
  6
Continuous
100
AcDbLine
 10
273.53131666666667
 20
78.321899999999985
 30
0.0
 11
269.58926666666667
 21
77.751050000000006
 31
0.0
  0
LINE
  5
148
100
AcDbEntity
  8
SENZA_NOME
390
0
  6
Continuous
100
AcDbLine
 10
269.58926666666667
 20
77.751050000000006
 30
0.0
 11
265.62271666666669
 21
77.221850000000003
 31
0.0
  0
LINE
  5
149
100
AcDbEntity
  8
SENZA_NOME
390
0
  6
Continuous
100
AcDbLine
 10
265.62271666666669
 20
77.221850000000003
 30
0.0
 11
261.64146666666664
 21
76.739199999999997
 31
0.0
  0
LINE
  5
14A
100
AcDbEntity
  8
SENZA_NOME
390
0
  6
Continuous
100
AcDbLine
 10
261.64146666666664
 20
76.739199999999997
 30
0.0
 11
257.63571666666667
 21
76.298199999999994
 31
0.0
  0
LINE
  5
14B
100
AcDbEntity
  8
SENZA_NOME
390
0
  6
Continuous
100
AcDbLine
 10
257.63571666666667
 20
76.298199999999994
 30
0.0
 11
253.60301666666669
 21
75.886600000000001
 31
0.0
  0
LINE
  5
14C
100
AcDbEntity
  8
SENZA_NOME
390
0
  6
Continuous
100
AcDbLine
 10
249.54091666666665
 20
75.501950000000008
 30
0.0
 11
245.45186666666666
 21
75.134450000000001
 31
0.0
  0
LINE
  5
14D
100
AcDbEntity
  8
SENZA_NOME
390
0
  6
Continuous
100
AcDbLine
 10
245.45186666666666
 20
75.134450000000001
 30
0.0
 11
241.34321666666665
 21
74.781649999999999
 31
0.0
  0
LINE
  5
14E
100
AcDbEntity
  8
SENZA_NOME
390
0
  6
Continuous
100
AcDbLine
 10
241.34321666666665
 20
74.781649999999999
 30
0.0
 11
237.21986666666669
 21
74.433749999999989
 31
0.0
  0
LINE
  5
14F
100
AcDbEntity
  8
SENZA_NOME
390
0
  6
Continuous
100
AcDbLine
 10
237.21986666666669
 20
74.433749999999989
 30
0.0
 11
233.09161666666665
 21
74.095649999999992
 31
0.0
  0
LINE
  5
150
100
AcDbEntity
  8
SENZA_NOME
390
0
  6
Continuous
100
AcDbLine
 10
233.09161666666665
 20
74.095649999999992
 30
0.0
 11
228.96581666666668
 21
73.762449999999987
 31
0.0
  0
LINE
  5
151
100
AcDbEntity
  8
SENZA_NOME
390
0
  6
Continuous
100
AcDbLine
 10
228.96581666666668
 20
73.762449999999987
 30
0.0
 11
224.84491666666668
 21
73.436599999999984
 31
0.0
  0
LINE
  5
152
100
AcDbEntity
  8
SENZA_NOME
390
0
  6
Continuous
100
AcDbLine
 10
224.84491666666668
 20
73.436599999999984
 30
0.0
 11
220.72891666666669
 21
73.123000000000005
 31
0.0
  0
LINE
  5
153
100
AcDbEntity
  8
SENZA_NOME
390
0
  6
Continuous
100
AcDbLine
 10
220.72891666666669
 20
73.123000000000005
 30
0.0
 11
216.62026666666668
 21
72.821649999999991
 31
0.0
  0
LINE
  5
154
100
AcDbEntity
  8
SENZA_NOME
390
0
  6
Continuous
100
AcDbLine
 10
216.62026666666668
 20
72.821649999999991
 30
0.0
 11
212.51651666666669
 21
72.534999999999982
 31
0.0
  0
LINE
  5
155
100
AcDbEntity
  8
SENZA_NOME
390
0
  6
Continuous
100
AcDbLine
 10
212.51651666666669
 20
72.534999999999982
 30
0.0
 11
208.42011666666667
 21
72.263050000000007
 31
0.0
  0
LINE
  5
156
100
AcDbEntity
  8
SENZA_NOME
390
0
  6
Continuous
100
AcDbLine
 10
208.42011666666667
 20
72.263050000000007
 30
0.0
 11
204.32616666666667
 21
72.0107
 31
0.0
  0
LINE
  5
157
100
AcDbEntity
  8
SENZA_NOME
390
0
  6
Continuous
100
AcDbLine
 10
204.32616666666667
 20
72.0107
 30
0.0
 11
200.23956666666669
 21
71.77794999999999
 31
0.0
  0
LINE
  5
158
100
AcDbEntity
  8
SENZA_NOME
390
0
  6
Continuous
100
AcDbLine
 10
200.23956666666669
 20
71.77794999999999
 30
0.0
 11
196.15541666666667
 21
71.564800000000005
 31
0.0
  0
LINE
  5
159
100
AcDbEntity
  8
SENZA_NOME
390
0
  6
Continuous
100
AcDbLine
 10
196.15541666666667
 20
71.564800000000005
 30
0.0
 11
192.07616666666667
 21
71.378599999999992
 31
0.0
  0
LINE
  5
15A
100
AcDbEntity
  8
SENZA_NOME
390
0
  6
Continuous
100
AcDbLine
 10
192.07616666666667
 20
71.378599999999992
 30
0.0
 11
188.00426666666664
 21
71.214449999999985
 31
0.0
  0
LINE
  5
15B
100
AcDbEntity
  8
SENZA_NOME
390
0
  6
Continuous
100
AcDbLine
 10
188.00426666666664
 20
71.214449999999985
 30
0.0
 11
183.93236666666667
 21
71.077250000000006
 31
0.0
  0
LINE
  5
15C
100
AcDbEntity
  8
SENZA_NOME
390
0
  6
Continuous
100
AcDbLine
 10
183.93236666666667
 20
71.077250000000006
 30
0.0
 11
179.86291666666665
 21
70.966999999999999
 31
0.0
  0
LINE
  5
15D
100
AcDbEntity
  8
SENZA_NOME
390
0
  6
Continuous
100
AcDbLine
 10
179.86291666666665
 20
70.966999999999999
 30
0.0
 11
175.79591666666667
 21
70.88369999999999
 31
0.0
  0
LINE
  5
15E
100
AcDbEntity
  8
SENZA_NOME
390
0
  6
Continuous
100
AcDbLine
 10
175.79591666666667
 20
70.88369999999999
 30
0.0
 11
171.72891666666666
 21
70.829799999999992
 31
0.0
  0
LINE
  5
15F
100
AcDbEntity
  8
SENZA_NOME
390
0
  6
Continuous
100
AcDbLine
 10
171.72891666666666
 20
70.829799999999992
 30
0.0
 11
167.65946666666667
 21
70.802849999999992
 31
0.0
  0
LINE
  5
160
100
AcDbEntity
  8
SENZA_NOME
390
0
  6
Continuous
100
AcDbLine
 10
163.58756666666665
 20
70.802849999999992
 30
0.0
 11
159.51321666666666
 21
70.829799999999992
 31
0.0
  0
LINE
  5
161
100
AcDbEntity
  8
SENZA_NOME
390
0
  6
Continuous
100
AcDbLine
 10
159.51321666666666
 20
70.829799999999992
 30
0.0
 11
155.43641666666667
 21
70.88124999999998
 31
0.0
  0
LINE
  5
162
100
AcDbEntity
  8
SENZA_NOME
390
0
  6
Continuous
100
AcDbLine
 10
155.43641666666667
 20
70.88124999999998
 30
0.0
 11
151.35226666666665
 21
70.957199999999986
 31
0.0
  0
LINE
  5
163
100
AcDbEntity
  8
SENZA_NOME
390
0
  6
Continuous
100
AcDbLine
 10
151.35226666666665
 20
70.957199999999986
 30
0.0
 11
147.26811666666669
 21
71.057649999999981
 31
0.0
  0
LINE
  5
164
100
AcDbEntity
  8
SENZA_NOME
390
0
  6
Continuous
100
AcDbLine
 10
147.26811666666669
 20
71.057649999999981
 30
0.0
 11
143.17906666666667
 21
71.180149999999983
 31
0.0
  0
LINE
  5
165
100
AcDbEntity
  8
SENZA_NOME
390
0
  6
Continuous
100
AcDbLine
 10
143.17906666666667
 20
71.180149999999983
 30
0.0
 11
139.08511666666666
 21
71.322249999999983
 31
0.0
  0
LINE
  5
166
100
AcDbEntity
  8
SENZA_NOME
390
0
  6
Continuous
100
AcDbLine
 10
139.08511666666666
 20
71.322249999999983
 30
0.0
 11
134.98626666666667
 21
71.483950000000007
 31
0.0
  0
LINE
  5
167
100
AcDbEntity
  8
SENZA_NOME
390
0
  6
Continuous
100
AcDbLine
 10
134.98626666666667
 20
71.483950000000007
 30
0.0
 11
130.88741666666667
 21
71.66525
 31
0.0
  0
LINE
  5
168
100
AcDbEntity
  8
SENZA_NOME
390
0
  6
Continuous
100
AcDbLine
 10
130.88741666666667
 20
71.66525
 30
0.0
 11
126.78366666666666
 21
71.861249999999998
 31
0.0
  0
LINE
  5
169
100
AcDbEntity
  8
SENZA_NOME
390
0
  6
Continuous
100
AcDbLine
 10
126.78366666666666
 20
71.861249999999998
 30
0.0
 11
122.67746666666666
 21
72.074399999999983
 31
0.0
  0
LINE
  5
16A
100
AcDbEntity
  8
SENZA_NOME
390
0
  6
Continuous
100
AcDbLine
 10
122.67746666666666
 20
72.074399999999983
 30
0.0
 11
118.57126666666666
 21
72.304699999999983
 31
0.0
  0
LINE
  5
16B
100
AcDbEntity
  8
SENZA_NOME
390
0
  6
Continuous
100
AcDbLine
 10
118.57126666666666
 20
72.304699999999983
 30
0.0
 11
114.46506666666667
 21
72.547250000000005
 31
0.0
  0
LINE
  5
16C
100
AcDbEntity
  8
SENZA_NOME
390
0
  6
Continuous
100
AcDbLine
 10
114.46506666666667
 20
72.547250000000005
 30
0.0
 11
110.35886666666667
 21
72.804500000000004
 31
0.0
  0
LINE
  5
16D
100
AcDbEntity
  8
SENZA_NOME
390
0
  6
Continuous
100
AcDbLine
 10
110.35886666666667
 20
72.804500000000004
 30
0.0
 11
106.25266666666667
 21
73.07644999999998
 31
0.0
  0
LINE
  5
16E
100
AcDbEntity
  8
SENZA_NOME
390
0
  6
Continuous
100
AcDbLine
 10
106.25266666666667
 20
73.07644999999998
 30
0.0
 11
102.15381666666667
 21
73.363099999999989
 31
0.0
  0
LINE
  5
16F
100
AcDbEntity
  8
SENZA_NOME
390
0
  6
Continuous
100
AcDbLine
 10
102.15381666666667
 20
73.363099999999989
 30
0.0
 11
98.062316666666675
 21
73.666899999999984
 31
0.0
  0
LINE
  5
170
100
AcDbEntity
  8
SENZA_NOME
390
0
  6
Continuous
100
AcDbLine
 10
98.062316666666675
 20
73.666899999999984
 30
0.0
 11
93.978166666666667
 21
73.987849999999995
 31
0.0
  0
LINE
  5
171
100
AcDbEntity
  8
SENZA_NOME
390
0
  6
Continuous
100
AcDbLine
 10
93.978166666666667
 20
73.987849999999995
 30
0.0
 11
89.908716666666663
 21
74.328400000000002
 31
0.0
  0
LINE
  5
172
100
AcDbEntity
  8
SENZA_NOME
390
0
  6
Continuous
100
AcDbLine
 10
89.908716666666663
 20
74.328400000000002
 30
0.0
 11
85.861316666666667
 21
74.693449999999999
 31
0.0
  0
LINE
  5
173
100
AcDbEntity
  8
SENZA_NOME
390
0
  6
Continuous
100
AcDbLine
 10
85.861316666666667
 20
74.693449999999999
 30
0.0
 11
81.84086666666667
 21
75.087900000000005
 31
0.0
  0
LINE
  5
174
100
AcDbEntity
  8
SENZA_NOME
390
0
  6
Continuous
100
AcDbLine
 10
81.84086666666667
 20
75.087900000000005
 30
0.0
 11
77.854716666666661
 21
75.519099999999995
 31
0.0
  0
LINE
  5
175
100
AcDbEntity
  8
SENZA_NOME
390
0
  6
Continuous
100
AcDbLine
 10
77.854716666666661
 20
75.519099999999995
 30
0.0
 11
73.907766666666674
 21
75.991949999999989
 31
0.0
  0
LINE
  5
176
100
AcDbEntity
  8
SENZA_NOME
390
0
  6
Continuous
100
AcDbLine
 10
73.907766666666674
 20
75.991949999999989
 30
0.0
 11
70.017166666666668
 21
76.518699999999981
 31
0.0
  0
LINE
  5
177
100
AcDbEntity
  8
SENZA_NOME
390
0
  6
Continuous
100
AcDbLine
 10
70.017166666666668
 20
76.518699999999981
 30
0.0
 11
66.20986666666667
 21
77.101799999999983
 31
0.0
  0
LINE
  5
178
100
AcDbEntity
  8
SENZA_NOME
390
0
  6
Continuous
100
AcDbLine
 10
66.20986666666667
 20
77.101799999999983
 30
0.0
 11
62.571616666666664
 21
77.746149999999986
 31
0.0
  0
LINE
  5
179
100
AcDbEntity
  8
SENZA_NOME
390
0
  6
Continuous
100
AcDbLine
 10
62.571616666666664
 20
77.746149999999986
 30
0.0
 11
59.318016666666665
 21
78.417449999999988
 31
0.0
  0
LINE
  5
17A
100
AcDbEntity
  8
SENZA_NOME
390
0
  6
Continuous
100
AcDbLine
 10
59.318016666666665
 20
78.417449999999988
 30
0.0
 11
56.755316666666666
 21
79.047099999999986
 31
0.0
  0
LINE
  5
17B
100
AcDbEntity
  8
SENZA_NOME
390
0
  6
Continuous
100
AcDbLine
 10
56.755316666666666
 20
79.047099999999986
 30
0.0
 11
54.952116666666669
 21
79.583649999999992
 31
0.0
  0
LINE
  5
17C
100
AcDbEntity
  8
SENZA_NOME
390
0
  6
Continuous
100
AcDbLine
 10
54.952116666666669
 20
79.583649999999992
 30
0.0
 11
53.705066666666667
 21
80.034450000000007
 31
0.0
  0
LINE
  5
17D
100
AcDbEntity
  8
SENZA_NOME
390
0
  6
Continuous
100
AcDbLine
 10
53.705066666666667
 20
80.034450000000007
 30
0.0
 11
52.810816666666668
 21
80.438699999999997
 31
0.0
  0
LINE
  5
17E
100
AcDbEntity
  8
SENZA_NOME
390
0
  6
Continuous
100
AcDbLine
 10
52.810816666666668
 20
80.438699999999997
 30
0.0
 11
52.151766666666667
 21
80.828249999999983
 31
0.0
  0
LINE
  5
17F
100
AcDbEntity
  8
SENZA_NOME
390
0
  6
Continuous
100
AcDbLine
 10
52.151766666666667
 20
80.828249999999983
 30
0.0
 11
51.666666666666664
 21
81.227599999999981
 31
0.0
  0
LINE
  5
180
100
AcDbEntity
  8
SENZA_NOME
390
0
  6
Continuous
100
AcDbLine
 10
51.666666666666664
 20
81.227599999999981
 30
0.0
 11
51.338366666666666
 21
81.651449999999997
 31
0.0
  0
LINE
  5
181
100
AcDbEntity
  8
SENZA_NOME
390
0
  6
Continuous
100
AcDbLine
 10
51.338366666666666
 20
81.651449999999997
 30
0.0
 11
51.164416666666668
 21
82.097349999999992
 31
0.0
  0
LINE
  5
182
100
AcDbEntity
  8
SENZA_NOME
390
0
  6
Continuous
100
AcDbLine
 10
51.164416666666668
 20
82.097349999999992
 30
0.0
 11
51.130116666666666
 21
82.535899999999984
 31
0.0
  0
LINE
  5
183
100
AcDbEntity
  8
SENZA_NOME
390
0
  6
Continuous
100
AcDbLine
 10
253.60301666666669
 20
75.886600000000001
 30
0.0
 11
251.13011666666665
 21
75.652435162846814
 31
0.0
  0
LINE
  5
184
100
AcDbEntity
  8
SENZA_NOME
390
0
  6
Continuous
100
AcDbLine
 10
251.13011666666665
 20
75.652435162846814
 30
0.0
 11
249.54091666666665
 21
75.501950000000008
 31
0.0
  0
LINE
  5
185
100
AcDbEntity
  8
SENZA_NOME
390
0
  6
Continuous
100
AcDbLine
 10
167.65946666666667
 20
70.802849999999992
 30
0.0
 11
164.42011666666667
 21
70.802849999999992
 31
0.0
  0
LINE
  5
186
100
AcDbEntity
  8
SENZA_NOME
390
0
  6
Continuous
100
AcDbLine
 10
164.42011666666667
 20
70.802849999999992
 30
0.0
 11
163.58756666666665
 21
70.802849999999992
 31
0.0
  0
INSERT
  5
194
100
AcDbEntity
  8
0
390
0
100
AcDbBlockReference
  2
B02486BC4
 10
0.0
 20
0.0
 30
0.0
  0
INSERT
  5
1C7
100
AcDbEntity
  8
0
390
0
100
AcDbBlockReference
  2
B02486E44
 10
0.0
 20
0.0
 30
0.0
  0
INSERT
  5
1D2
100
AcDbEntity
  8
0
390
0
100
AcDbBlockReference
  2
B0249AE5C
 10
0.0
 20
0.0
 30
0.0
  0
LINE
  5
1D3
100
AcDbEntity
  8
0
390
0
 62
               3
100
AcDbLine
 10
256.56351895884677
 20
115.46895521461863
 30
0.0
 11
266.50281195378182
 21
116.6249637831781
 31
0.0
  0
INSERT
  5
1E8
100
AcDbEntity
  8
0
390
0
100
AcDbBlockReference
  2
B02BC23C4
 10
0.0
 20
0.0
 30
0.0
  0
INSERT
  5
1FF
100
AcDbEntity
  8
0
390
0
100
AcDbBlockReference
  2
B02BC29D0
 10
0.0
 20
0.0
 30
0.0
  0
INSERT
  5
225
100
AcDbEntity
  8
0
390
0
100
AcDbBlockReference
  2
B02C1EB00
 10
0.0
 20
0.0
 30
0.0
  0
LINE
  5
226
100
AcDbEntity
  8
0
390
0
 62
               3
100
AcDbLine
 10
248.66347508754737
 20
156.42324196917355
 30
0.0
 11
258.66347508754734
 21
156.42324196917355
 31
0.0
  0
LINE
  5
227
100
AcDbEntity
  8
0
390
0
 62
               3
100
AcDbLine
 10
258.66347508754734
 20
153.42324196917355
 30
0.0
 11
258.66347508754734
 21
156.42324196917355
 31
0.0
  0
LINE
  5
228
100
AcDbEntity
  8
0
390
0
 62
               3
100
AcDbLine
 10
248.66347508754737
 20
153.42324196917355
 30
0.0
 11
248.66347508754737
 21
156.42324196917355
 31
0.0
  0
LINE
  5
229
100
AcDbEntity
  8
0
390
0
 62
               3
100
AcDbLine
 10
248.66347508754737
 20
153.42324196917355
 30
0.0
 11
258.66347508754734
 21
153.42324196917355
 31
0.0
  0
LINE
  5
22A
100
AcDbEntity
  8
0
390
0
 62
               3
100
AcDbLine
 10
327.66990932209717
 20
182.73897972792392
 30
0.0
 11
279.56946363702343
 21
182.73897972792392
 31
0.0
  0
LINE
  5
22B
100
AcDbEntity
  8
0
390
0
 62
               3
100
AcDbLine
 10
357.26001603360027
 20
184.85670486712573
 30
0.0
 11
357.26001603360027
 21
182.73897972792392
 31
0.0
  0
LINE
  5
22C
100
AcDbEntity
  8
0
390
0
 62
               3
100
AcDbLine
 10
279.56946363702343
 20
184.85670486712573
 30
0.0
 11
327.66990932209717
 21
184.85670486712573
 31
0.0
  0
INSERT
  5
234
100
AcDbEntity
  8
0
390
0
100
AcDbBlockReference
  2
B02BC0504
 10
0.0
 20
0.0
 30
0.0
  0
INSERT
  5
267
100
AcDbEntity
  8
0
390
0
100
AcDbBlockReference
  2
B02BC06A0
 10
0.0
 20
0.0
 30
0.0
  0
INSERT
  5
27C
100
AcDbEntity
  8
0
390
0
100
AcDbBlockReference
  2
B0247A0B0
 10
0.0
 20
0.0
 30
0.0
  0
INSERT
  5
293
100
AcDbEntity
  8
0
390
0
100
AcDbBlockReference
  2
B0247A6BC
 10
0.0
 20
0.0
 30
0.0
  0
INSERT
  5
2AA
100
AcDbEntity
  8
0
390
0
100
AcDbBlockReference
  2
B0247AC58
 10
0.0
 20
0.0
 30
0.0
  0
INSERT
  5
2BF
100
AcDbEntity
  8
0
390
0
100
AcDbBlockReference
  2
B02BF156C
 10
0.0
 20
0.0
 30
0.0
  0
INSERT
  5
2D6
100
AcDbEntity
  8
0
390
0
100
AcDbBlockReference
  2
B023DFA6C
 10
0.0
 20
0.0
 30
0.0
  0
LINE
  5
2D7
100
AcDbEntity
  8
0
390
0
 62
               3
100
AcDbLine
 10
132.96538267976965
 20
233.6042369010695
 30
0.0
 11
132.96538267976965
 21
238.6042369010695
 31
0.0
  0
LINE
  5
2D8
100
AcDbEntity
  8
0
390
0
 62
               3
100
AcDbLine
 10
132.96538267976965
 20
238.6042369010695
 30
0.0
 11
138.92813665793363
 21
238.6042369010695
 31
0.0
  0
LINE
  5
2D9
100
AcDbEntity
  8
0
390
0
 62
               3
100
AcDbLine
 10
138.92813665793363
 20
233.6042369010695
 30
0.0
 11
132.96538267976965
 21
233.6042369010695
 31
0.0
  0
INSERT
  5
2E9
100
AcDbEntity
  8
0
390
0
100
AcDbBlockReference
  2
B032F4378
 10
0.0
 20
0.0
 30
0.0
  0
INSERT
  5
2FA
100
AcDbEntity
  8
0
390
0
100
AcDbBlockReference
  2
B023CBE4C
 10
0.0
 20
0.0
 30
0.0
  0
LINE
  5
2FB
100
AcDbEntity
  8
0
370
              -3
390
0
  6
Continuous
 62
               1
100
AcDbLine
 10
204.44921773685263
 20
112.42804550491232
 30
0.0
 11
210.19691528026357
 21
112.42804550491232
 31
0.0
  0
LINE
  5
2FC
100
AcDbEntity
  8
0
370
              -3
390
0
  6
Continuous
 62
               1
100
AcDbLine
 10
170.63753302327424
 20
125.43746823731561
 30
0.0
 11
170.63753302327424
 21
112.54019570088131
 31
0.0
  0
LINE
  5
2FD
100
AcDbEntity
  8
0
370
              -3
390
0
  6
Continuous
 62
               1
100
AcDbLine
 10
170.10322022134827
 20
112.42804550491232
 30
0.0
 11
176.55185648956541
 21
112.42804550491232
 31
0.0
  0
INSERT
  5
30D
100
AcDbEntity
  8
0
390
0
100
AcDbBlockReference
  2
B023DFCD4
 10
0.0
 20
0.0
 30
0.0
  0
LINE
  5
30E
100
AcDbEntity
  8
0
390
0
  6
Continuous
 62
               3
100
AcDbLine
 10
172.77108909604948
 20
136.45186141003614
 30
0.0
 11
169.43621666666667
 21
136.58145000000002
 31
0.0
  0
INSERT
  5
316
100
AcDbEntity
  8
0
390
0
100
AcDbBlockReference
  2
B00FA87F4
 10
0.0
 20
0.0
 30
0.0
  0
LINE
  5
317
100
AcDbEntity
  8
0
390
0
 62
               3
100
AcDbLine
 10
239.10492499692867
 20
113.87052811972568
 30
0.0
 11
239.10492499692867
 21
128.90085335797815
 31
0.0
  0
CIRCLE
  5
318
100
AcDbEntity
  8
0
390
0
100
AcDbCircle
 10
226.13011666666665
 20
121.99226
 30
0.0
 40
3.0
  0
LINE
  5
319
100
AcDbEntity
  8
0
390
0
  6
Continuous
 62
               3
100
AcDbLine
 10
169.43621666666667
 20
136.58145000000002
 30
0.0
 11
165.40984666666668
 21
136.69864999999999
 31
0.0
  0
LINE
  5
31A
100
AcDbEntity
  8
0
390
0
 62
               3
100
AcDbLine
 10
165.49996983171027
 20
110.07525
 30
0.0
 11
165.43185104452829
 21
136.69800949426272
 31
0.0
  0
LINE
  5
31B
100
AcDbEntity
  8
0
390
0
100
AcDbLine
 10
165.40984666666668
 20
145.29794622046245
 30
0.0
 11
165.40984666666668
 21
110.07487401007917
 31
0.0
  0
LINE
  5
31C
100
AcDbEntity
  8
0
390
0
 62
               3
100
AcDbLine
 10
176.40612423260899
 20
128.35320024910976
 30
0.0
 11
165.4532035174575
 21
128.35285575740619
 31
0.0
  0
INSERT
  5
324
100
AcDbEntity
  8
0
390
0
100
AcDbBlockReference
  2
B02483A1C
 10
0.0
 20
0.0
 30
0.0
  0
CIRCLE
  5
325
100
AcDbEntity
  8
0
370
              -3
390
0
  6
Continuous
 62
               1
100
AcDbCircle
 10
208.29300352278298
 20
118.99401372196151
 30
0.0
 40
0.9
  0
CIRCLE
  5
326
100
AcDbEntity
  8
0
370
              -3
390
0
  6
Continuous
 62
               1
100
AcDbCircle
 10
172.40612423285998
 20
118.98476482298915
 30
0.0
 40
0.9
  0
INSERT
  5
333
100
AcDbEntity
  8
0
390
0
100
AcDbBlockReference
  2
B024806B4
 10
0.0
 20
0.0
 30
0.0
  0
INSERT
  5
33B
100
AcDbEntity
  8
0
390
0
100
AcDbBlockReference
  2
B02C46748
 10
0.0
 20
0.0
 30
0.0
  0
INSERT
  5
343
100
AcDbEntity
  8
0
390
0
100
AcDbBlockReference
  2
B02C3DE4C
 10
0.0
 20
0.0
 30
0.0
  0
INSERT
  5
34B
100
AcDbEntity
  8
0
390
0
100
AcDbBlockReference
  2
B02C3DFE8
 10
0.0
 20
0.0
 30
0.0
  0
INSERT
  5
353
100
AcDbEntity
  8
0
390
0
100
AcDbBlockReference
  2
B032F4154
 10
0.0
 20
0.0
 30
0.0
  0
INSERT
  5
364
100
AcDbEntity
  8
0
390
0
100
AcDbBlockReference
  2
B02C3E140
 10
0.0
 20
0.0
 30
0.0
  0
CIRCLE
  5
365
100
AcDbEntity
  8
0
390
0
 62
               3
100
AcDbCircle
 10
133.97515001284017
 20
246.98760198061305
 30
0.0
 40
0.9
  0
CIRCLE
  5
366
100
AcDbEntity
  8
0
390
0
 62
               3
100
AcDbCircle
 10
133.97515001284017
 20
225.22087182152453
 30
0.0
 40
0.9
  0
INSERT
  5
374
100
AcDbEntity
  8
0
390
0
100
AcDbBlockReference
  2
B02BEC150
 10
0.0
 20
0.0
 30
0.0
  0
INSERT
  5
38B
100
AcDbEntity
  8
0
390
0
100
AcDbBlockReference
  2
B02BF2C0C
 10
0.0
 20
0.0
 30
0.0
  0
ENDSEC
  0
SECTION
  2
OBJECTS
  0
DICTIONARY
  5
19
100
AcDbDictionary
280
               0
281
               1
  3
ACAD_GROUP
350
1A
  3
ACAD_MLINESTYLE
350
1B
  3
ACAD_LAYOUT
350
1E
  3
ACAD_PLOTSETTINGS
350
22
  3
ACAD_PLOTSTYLENAME
350
1F
  0
DICTIONARY
  5
1A
102
{ACAD_REACTORS
330
19
102
}
100
AcDbDictionary
280
               0
281
               1
  0
DICTIONARY
  5
1B
102
{ACAD_REACTORS
330
19
102
}
100
AcDbDictionary
280
               0
281
               1
  3
Standard
350
1C
  0
MLINESTYLE
  5
1C
102
{ACAD_REACTORS
330
1B
102
}
100
AcDbMlineStyle
  2
Standard
 70
               0
  3

 62
               0
 51
90.0
 52
90.0
 71
               2
 49
0.5
 62
             256
  6
ByLayer
 49
-0.5
 62
             256
  6
ByLayer
  0
ACDBDICTIONARYWDFLT
  5
1F
102
{ACAD_REACTORS
330
19
102
}
100
AcDbDictionary
281
               1
  3
Normal
350
1D
100
AcDbDictionaryWithDefault
340
1D
  0
ACDBPLACEHOLDER
  5
1D
102
{ACAD_REACTORS
330
1F
102
}
  0
LAYOUT
  5
20
102
{ACAD_REACTORS
330
1E
102
}
100
AcDbPlotSettings
  1

  2

  4

  6

 40
0.0
 41
0.0
 42
0.0
 43
0.0
 44
0.0
 45
0.0
 46
0.0
 47
0.0
 48
0.0
 49
0.0
140
0.0
141
0.0
142
1.0
143
1.0
 70
            1024
 72
               0
 73
               0
 74
               0
  7

 75
               0
147
1.0
148
0.0
149
0.0
100
AcDbLayout
  1
Model
 70
               0
 71
               0
 10
0.0
 20
0.0
 11
0.0
 21
0.0
 12
0.0
 22
0.0
 32
0.0
 14
0.0
 24
0.0
 34
0.0
 15
0.0
 25
0.0
 35
0.0
146
0.0
 13
0.0
 23
0.0
 33
0.0
 16
0.0
 26
0.0
 36
0.0
 17
0.0
 27
0.0
 37
0.0
 76
               0
330
A
331
0
345
0
346
0
  0
LAYOUT
  5
21
102
{ACAD_REACTORS
330
1E
102
}
100
AcDbPlotSettings
  1

  2

  4

  6

 40
0.0
 41
0.0
 42
0.0
 43
0.0
 44
0.0
 45
0.0
 46
0.0
 47
0.0
 48
0.0
 49
0.0
140
0.0
141
0.0
142
1.0
143
1.0
 70
               0
 72
               0
 73
               0
 74
               0
  7

 75
               0
147
1.0
148
0.0
149
0.0
100
AcDbLayout
  1
Layout1
 70
               0
 71
               0
 10
0.0
 20
0.0
 11
0.0
 21
0.0
 12
0.0
 22
0.0
 32
0.0
 14
0.0
 24
0.0
 34
0.0
 15
0.0
 25
0.0
 35
0.0
146
0.0
 13
0.0
 23
0.0
 33
0.0
 16
0.0
 26
0.0
 36
0.0
 17
0.0
 27
0.0
 37
0.0
 76
               0
330
B
331
0
345
0
346
0
  0
DICTIONARY
  5
1E
102
{ACAD_REACTORS
330
19
102
}
100
AcDbDictionary
280
               0
281
               1
  3
Layout1
350
21
  3
Model
350
20
  0
DICTIONARY
  5
22
102
{ACAD_REACTORS
330
19
102
}
100
AcDbDictionary
280
               0
281
               1
  0
ENDSEC
  0
EOF
