  0
SECTION
  2
HEADER
  9
$ACADVER
  1
AC1015
  9
$ACADMAINTVER
 70
               6
  9
$DWGCODEPAGE
  3
DOS437
  9
$INSBASE
 10
0.0
 20
0.0
 30
0.0
  9
$EXTMIN
 10
100.91168111570427
 20
-602.89197219713515
 30
1.0000000000000000E+20
  9
$EXTMAX
 10
1500.65529352415
 20
212.24897488610387
 30
-1.0000000000000000E+20
  9
$LIMMIN
 10
0.0
 20
0.0
  9
$LIMMAX
 10
0.0
 20
0.0
  9
$ORTHOMODE
 70
               0
  9
$REGENMODE
 70
               1
  9
$FILLMODE
 70
               1
  9
$QTEXTMODE
 70
               0
  9
$MIRRTEXT
 70
               1
  9
$LTSCALE
 40
0.1
  9
$ATTMODE
 70
               1
  9
$TEXTSIZE
 40
0.2
  9
$TRACEWID
 40
0.05
  9
$TEXTSTYLE
  7
Standard
  9
$CLAYER
  8
RINFORZI
  9
$CELTYPE
  6
ByLayer
  9
$CECOLOR
 62
             256
  9
$CELTSCALE
 40
1.0
  9
$DISPSILH
 70
               0
  9
$DIMSCALE
 40
1.0
  9
$DIMASZ
 40
0.18
  9
$DIMEXO
 40
0.0625
  9
$DIMDLI
 40
0.38
  9
$DIMRND
 40
0.0
  9
$DIMDLE
 40
0.0
  9
$DIMEXE
 40
0.18
  9
$DIMTP
 40
0.0
  9
$DIMTM
 40
0.0
  9
$DIMTXT
 40
0.18
  9
$DIMCEN
 40
0.09
  9
$DIMTSZ
 40
0.0
  9
$DIMTOL
 70
               0
  9
$DIMLIM
 70
               0
  9
$DIMTIH
 70
               1
  9
$DIMTOH
 70
               1
  9
$DIMSE1
 70
               0
  9
$DIMSE2
 70
               0
  9
$DIMTAD
 70
               0
  9
$DIMZIN
 70
               0
  9
$DIMBLK
  1

  9
$DIMASO
 70
               1
  9
$DIMSHO
 70
               1
  9
$DIMPOST
  1

  9
$DIMAPOST
  1

  9
$DIMALT
 70
               0
  9
$DIMALTD
 70
               2
  9
$DIMALTF
 40
25.399999999999999
  9
$DIMLFAC
 40
1.0
  9
$DIMTOFL
 70
               0
  9
$DIMTVP
 40
0.0
  9
$DIMTIX
 70
               0
  9
$DIMSOXD
 70
               0
  9
$DIMSAH
 70
               0
  9
$DIMBLK1
  1

  9
$DIMBLK2
  1

  9
$DIMSTYLE
  2
Standard
  9
$DIMCLRD
 70
               0
  9
$DIMCLRE
 70
               0
  9
$DIMCLRT
 70
               0
  9
$DIMTFAC
 40
1.0
  9
$DIMGAP
 40
0.09
  9
$DIMJUST
 70
               0
  9
$DIMSD1
 70
               0
  9
$DIMSD2
 70
               0
  9
$DIMTOLJ
 70
               1
  9
$DIMTZIN
 70
               0
  9
$DIMALTZ
 70
               0
  9
$DIMALTTZ
 70
               0
  9
$DIMUPT
 70
               0
  9
$DIMDEC
 70
               4
  9
$DIMTDEC
 70
               4
  9
$DIMALTU
 70
               2
  9
$DIMALTTD
 70
               2
  9
$DIMTXSTY
  7
Standard
  9
$DIMAUNIT
 70
               0
  9
$DIMADEC
 70
               0
  9
$DIMALTRND
 40
0.0
  9
$DIMAZIN
 70
               0
  9
$DIMDSEP
 70
               0
  9
$DIMATFIT
 70
               3
  9
$DIMFRAC
 70
               0
  9
$DIMLDRBLK
  1

  9
$DIMLUNIT
 70
               2
  9
$DIMLWD
 70
               0
  9
$DIMLWE
 70
               0
  9
$DIMTMOVE
 70
               0
  9
$LUNITS
 70
               2
  9
$LUPREC
 70
               4
  9
$SKETCHINC
 40
0.1
  9
$FILLETRAD
 40
0.0
  9
$AUNITS
 70
               0
  9
$AUPREC
 70
               0
  9
$MENU
  1
acad
  9
$ELEVATION
 40
0.0
  9
$PELEVATION
 40
0.0
  9
$THICKNESS
 40
0.0
  9
$LIMCHECK
 70
               0
  9
$CHAMFERA
 40
0.0
  9
$CHAMFERB
 40
0.0
  9
$CHAMFERC
 40
0.0
  9
$CHAMFERD
 40
0.0
  9
$SKPOLY
 70
               0
  9
$TDCREATE
 40
0.000000000
  9
$TDUCREATE
 40
0.000000000
  9
$TDUPDATE
 40
0.000000000
  9
$TDUUPDATE
 40
0.000000000
  9
$TDINDWG
 40
0.0000000000
  9
$TDUSRTIMER
 40
0.0000000000
  9
$USRTIMER
 70
               1
  9
$ANGBASE
 50
0.0
  9
$ANGDIR
 70
               0
  9
$PDMODE
 70
               2
  9
$PDSIZE
 40
1.5
  9
$PLINEWID
 40
0.0
  9
$SPLFRAME
 70
               0
  9
$SPLINETYPE
 70
               6
  9
$SPLINESEGS
 70
               8
  9
$HANDSEED
  5
379
  9
$SURFTAB1
 70
               6
  9
$SURFTAB2
 70
               6
  9
$SURFTYPE
 70
               6
  9
$SURFU
 70
               6
  9
$SURFV
 70
               6
  9
$UCSBASE
  2

  9
$UCSNAME
  2

  9
$UCSORG
 10
0.0
 20
0.0
 30
0.0
  9
$UCSXDIR
 10
1.0
 20
0.0
 30
0.0
  9
$UCSYDIR
 10
0.0
 20
1.0
 30
0.0
  9
$UCSORTHOREF
  2

  9
$UCSORTHOVIEW
 70
               0
  9
$UCSORGTOP
 10
0.0
 20
0.0
 30
0.0
  9
$UCSORGBOTTOM
 10
0.0
 20
0.0
 30
0.0
  9
$UCSORGLEFT
 10
0.0
 20
0.0
 30
0.0
  9
$UCSORGRIGHT
 10
0.0
 20
0.0
 30
0.0
  9
$UCSORGFRONT
 10
0.0
 20
0.0
 30
0.0
  9
$UCSORGBACK
 10
0.0
 20
0.0
 30
0.0
  9
$PUCSBASE
  2

  9
$PUCSNAME
  2

  9
$PUCSORG
 10
0.0
 20
0.0
 30
0.0
  9
$PUCSXDIR
 10
1.0
 20
0.0
 30
0.0
  9
$PUCSYDIR
 10
0.0
 20
1.0
 30
0.0
  9
$PUCSORTHOREF
  2

  9
$PUCSORTHOVIEW
 70
               0
  9
$PUCSORGTOP
 10
0.0
 20
0.0
 30
0.0
  9
$PUCSORGBOTTOM
 10
0.0
 20
0.0
 30
0.0
  9
$PUCSORGLEFT
 10
0.0
 20
0.0
 30
0.0
  9
$PUCSORGRIGHT
 10
0.0
 20
0.0
 30
0.0
  9
$PUCSORGFRONT
 10
0.0
 20
0.0
 30
0.0
  9
$PUCSORGBACK
 10
0.0
 20
0.0
 30
0.0
  9
$USERI1
 70
               0
  9
$USERI2
 70
               0
  9
$USERI3
 70
               0
  9
$USERI4
 70
               0
  9
$USERI5
 70
               0
  9
$USERR1
 40
0.0
  9
$USERR2
 40
0.0
  9
$USERR3
 40
0.0
  9
$USERR4
 40
0.0
  9
$USERR5
 40
0.0
  9
$WORLDVIEW
 70
               1
  9
$SHADEDGE
 70
               3
  9
$SHADEDIF
 70
              70
  9
$TILEMODE
 70
               1
  9
$MAXACTVP
 70
              16
  9
$PINSBASE
 10
0.0
 20
0.0
 30
0.0
  9
$PLIMCHECK
 70
               0
  9
$PEXTMIN
 10
1.0000000000000000E+20
 20
1.0000000000000000E+20
 30
1.0000000000000000E+20
  9
$PEXTMAX
 10
-1.0000000000000000E+20
 20
-1.0000000000000000E+20
 30
-1.0000000000000000E+20
  9
$PLIMMIN
 10
0.0
 20
0.0
  9
$PLIMMAX
 10
12.0
 20
9.0
  9
$UNITMODE
 70
               0
  9
$VISRETAIN
 70
               0
  9
$PLINEGEN
 70
               1
  9
$PSLTSCALE
 70
               0
  9
$TREEDEPTH
 70
            3020
  9
$CMLSTYLE
  2
Standard
  9
$CMLJUST
 70
               0
  9
$CMLSCALE
 40
1.0
  9
$PROXYGRAPHICS
 70
               0
  9
$MEASUREMENT
 70
               0
  9
$CELWEIGHT
370
              -1
  9
$ENDCAPS
280
               0
  9
$JOINSTYLE
280
               0
  9
$LWDISPLAY
290
               0
  9
$INSUNITS
 70
               0
  9
$HYPERLINKBASE
  1

  9
$STYLESHEET
  1

  9
$XEDIT
290
               1
  9
$CEPSNTYPE
380
               0
  9
$PSTYLEMODE
290
               1
  9
$FINGERPRINTGUID
  2

  9
$VERSIONGUID
  2

  9
$EXTNAMES
290
               1
  9
$PSVPSCALE
 40
0.0
  0
ENDSEC
  0
SECTION
  2
CLASSES
  0
CLASS
  1
LWPOLYLINE
  2
AcDbPolyline
  3
AutoCAD 2000
 90
        0
280
               0
281
               1
  0
CLASS
  1
IMAGE
  2
AcDbRasterImage
  3
ISM
 90
      127
280
               0
281
               1
  0
CLASS
  1
OLE2FRAME
  2
AcDbOle2Frame
  3
AutoCAD 2000
 90
        0
280
               0
281
               1
  0
CLASS
  1
HATCH
  2
AcDbHatch
  3
AutoCAD 2000
 90
        0
280
               0
281
               1
  0
CLASS
  1
DICTIONARYVAR
  2
AcDbDictionaryVar
  3
AutoCAD 2000
 90
        0
280
               0
281
               0
  0
CLASS
  1
RASTERVARIABLES
  2
AcDbRasterVariables
  3
ISM
 90
        0
280
               0
281
               0
  0
CLASS
  1
IMAGEDEF
  2
AcDbRasterImageDef
  3
ISM
 90
        0
280
               0
281
               0
  0
CLASS
  1
IMAGEDEF_REACTOR
  2
AcDbRasterImageDefReactor
  3
ISM
 90
        1
280
               0
281
               0
  0
CLASS
  1
IDBUFFER
  2
AcDbIdBuffer
  3
AutoCAD 2000
 90
        0
280
               0
281
               0
  0
CLASS
  1
SPATIAL_FILTER
  2
AcDbSpatialFilter
  3
AutoCAD 2000
 90
        0
280
               0
281
               0
  0
CLASS
  1
XRECORD
  2
AcDbXrecord
  3
AutoCAD 2000
 90
        0
280
               0
281
               0
  0
CLASS
  1
SORTENTSTABLE
  2
AcDbSortentsTable
  3
AutoCAD 2000
 90
        0
280
               0
281
               0
  0
CLASS
  1
LAYER_INDEX
  2
AcDbLayerIndex
  3
AutoCAD 2000
 90
        0
280
               0
281
               0
  0
CLASS
  1
SPATIAL_INDEX
  2
AcDbSpatialIndex
  3
AutoCAD 2000
 90
        0
280
               0
281
               0
  0
CLASS
  1
OBJECT_PTR
  2
CAseDLPNTableRecord
  3
"ASE-LPNTableRecord"
 90
        1
280
               0
281
               0
  0
CLASS
  1
LAYOUT
  2
AcDbLayout
  3
AutoCAD 2000
 90
        0
280
               0
281
               0
  0
CLASS
  1
PLOTSETTINGS
  2
AcDbPlotSettings
  3
AutoCAD 2000
 90
        0
280
               0
281
               0
  0
CLASS
  1
ACDBDICTIONARYWDFLT
  2
AcDbDictionaryWithDefault
  3
AutoCAD 2000
 90
        0
280
               0
281
               0
  0
CLASS
  1
ACDBPLACEHOLDER
  2
AcDbPlaceHolder
  3
AutoCAD 2000
 90
        0
280
               0
281
               0
  0
ENDSEC
  0
SECTION
  2
TABLES
  0
TABLE
  2
VPORT
  5
7
100
AcDbSymbolTable
 70
               1
  0
VPORT
  5
15
100
AcDbSymbolTableRecord
100
AcDbViewportTableRecord
  2
*ACTIVE
 70
               0
 10
0.0
 20
0.0
 11
1.0
 21
1.0
 12
6.5912879999999996
 22
4.5791839999999997
 13
0.0
 23
0.0
 14
1.0
 24
1.0
 15
0.0
 25
0.0
 16
0.0
 26
0.0
 36
1.0
 17
0.0
 27
0.0
 37
0.0
 40
9.1583690000000004
 41
0.688564
 42
50.0
 43
0.0
 44
0.0
 50
0.0
 51
0.0
 71
               0
 72
             100
 73
               1
 74
               1
 75
               0
 76
               0
 77
               0
 78
               0
281
               0
 65
               0
110
0.0
120
0.0
130
0.0
111
1.0
121
0.0
131
0.0
112
0.0
122
1.0
132
0.0
345
0
346
0
 79
               0
146
0.0
  0
ENDTAB
  0
TABLE
  2
LTYPE
  5
4
100
AcDbSymbolTable
 70
              48
  0
LTYPE
  5
11
100
AcDbSymbolTableRecord
100
AcDbLinetypeTableRecord
  2
ByBlock
 70
              64
  3

 72
              65
 73
               0
 40
0.0
  0
LTYPE
  5
12
100
AcDbSymbolTableRecord
100
AcDbLinetypeTableRecord
  2
ByLayer
 70
              64
  3

 72
              65
 73
               0
 40
0.0
  0
LTYPE
  5
13
100
AcDbSymbolTableRecord
100
AcDbLinetypeTableRecord
  2
Continuous
 70
              64
  3
Solid line
 72
              65
 73
               0
 40
0.0
  0
LTYPE
  5
23
100
AcDbSymbolTableRecord
100
AcDbLinetypeTableRecord
  2
DOTTED
 70
              64
  3
Punteggiato
 72
              65
 73
               2
 40
12.0
 49
2.0
 74
               0
 49
-10.0
 74
               0
  0
LTYPE
  5
24
100
AcDbSymbolTableRecord
100
AcDbLinetypeTableRecord
  2
DASHEDS
 70
              64
  3
Tratteggiato piccolo
 72
              65
 73
               2
 40
20.0
 49
10.0
 74
               0
 49
-10.0
 74
               0
  0
LTYPE
  5
25
100
AcDbSymbolTableRecord
100
AcDbLinetypeTableRecord
  2
DASHEDM
 70
              64
  3
Tratteggiato medio
 72
              65
 73
               2
 40
40.0
 49
20.0
 74
               0
 49
-20.0
 74
               0
  0
LTYPE
  5
26
100
AcDbSymbolTableRecord
100
AcDbLinetypeTableRecord
  2
DASHEDL
 70
              64
  3
Tratteggiato grande
 72
              65
 73
               2
 40
60.0
 49
40.0
 74
               0
 49
-20.0
 74
               0
  0
LTYPE
  5
27
100
AcDbSymbolTableRecord
100
AcDbLinetypeTableRecord
  2
CENTERED
 70
              64
  3
Tratteggiato misto
 72
              65
 73
               4
 40
70.0
 49
10.0
 74
               0
 49
-20.0
 74
               0
 49
20.0
 74
               0
 49
-20.0
 74
               0
  0
LTYPE
  5
28
100
AcDbSymbolTableRecord
100
AcDbLinetypeTableRecord
  2
POINTLINE
 70
              64
  3
Punto e linea
 72
              65
 73
               4
 40
62.0
 49
20.0
 74
               0
 49
-20.0
 74
               0
 49
2.0
 74
               0
 49
-20.0
 74
               0
  0
LTYPE
  5
29
100
AcDbSymbolTableRecord
100
AcDbLinetypeTableRecord
  2
2POINTLINE
 70
              64
  3
Due punti e linea
 72
              65
 73
               6
 40
84.0
 49
20.0
 74
               0
 49
-20.0
 74
               0
 49
2.0
 74
               0
 49
-20.0
 74
               0
 49
2.0
 74
               0
 49
-20.0
 74
               0
  0
LTYPE
  5
2A
100
AcDbSymbolTableRecord
100
AcDbLinetypeTableRecord
  2
ACAD_ISO02W100
 70
              64
  3
ISO Tratteggiata
 72
              65
 73
               2
 40
150.0
 49
120.0
 74
               0
 49
-30.0
 74
               0
  0
LTYPE
  5
2B
100
AcDbSymbolTableRecord
100
AcDbLinetypeTableRecord
  2
ACAD_ISO03W100
 70
              64
  3
ISO Tratto spazio
 72
              65
 73
               2
 40
300.0
 49
120.0
 74
               0
 49
-180.0
 74
               0
  0
LTYPE
  5
2C
100
AcDbSymbolTableRecord
100
AcDbLinetypeTableRecord
  2
ACAD_ISO04W100
 70
              64
  3
ISO Tratto lungo punto
 72
              65
 73
               4
 40
305.0
 49
240.0
 74
               0
 49
-30.0
 74
               0
 49
5.0
 74
               0
 49
-30.0
 74
               0
  0
LTYPE
  5
2D
100
AcDbSymbolTableRecord
100
AcDbLinetypeTableRecord
  2
ACAD_ISO05W100
 70
              64
  3
ISO Tratto lungo doppio punto
 72
              65
 73
               6
 40
340.0
 49
240.0
 74
               0
 49
-30.0
 74
               0
 49
5.0
 74
               0
 49
-30.0
 74
               0
 49
5.0
 74
               0
 49
-30.0
 74
               0
  0
LTYPE
  5
2E
100
AcDbSymbolTableRecord
100
AcDbLinetypeTableRecord
  2
ACAD_ISO06W100
 70
              64
  3
ISO Tratto lungo triplo punto
 72
              65
 73
               8
 40
375.0
 49
240.0
 74
               0
 49
-30.0
 74
               0
 49
5.0
 74
               0
 49
-30.0
 74
               0
 49
5.0
 74
               0
 49
-30.0
 74
               0
 49
5.0
 74
               0
 49
-30.0
 74
               0
  0
LTYPE
  5
2F
100
AcDbSymbolTableRecord
100
AcDbLinetypeTableRecord
  2
ACAD_ISO07W100
 70
              64
  3
ISO Punteggiata
 72
              65
 73
               2
 40
35.0
 49
5.0
 74
               0
 49
-30.0
 74
               0
  0
LTYPE
  5
30
100
AcDbSymbolTableRecord
100
AcDbLinetypeTableRecord
  2
ACAD_ISO08W100
 70
              64
  3
ISO Tratto lungo tratto corto
 72
              65
 73
               4
 40
360.0
 49
240.0
 74
               0
 49
-30.0
 74
               0
 49
60.0
 74
               0
 49
-30.0
 74
               0
  0
LTYPE
  5
31
100
AcDbSymbolTableRecord
100
AcDbLinetypeTableRecord
  2
ACAD_ISO09W100
 70
              64
  3
ISO Tratto lungo doppio tratto corto
 72
              65
 73
               6
 40
450.0
 49
240.0
 74
               0
 49
-30.0
 74
               0
 49
60.0
 74
               0
 49
-30.0
 74
               0
 49
60.0
 74
               0
 49
-30.0
 74
               0
  0
LTYPE
  5
32
100
AcDbSymbolTableRecord
100
AcDbLinetypeTableRecord
  2
ACAD_ISO10W100
 70
              64
  3
ISO Tratto punto
 72
              65
 73
               4
 40
185.0
 49
120.0
 74
               0
 49
-30.0
 74
               0
 49
5.0
 74
               0
 49
-30.0
 74
               0
  0
LTYPE
  5
33
100
AcDbSymbolTableRecord
100
AcDbLinetypeTableRecord
  2
ACAD_ISO11W100
 70
              64
  3
ISO Doppio tratto punto
 72
              65
 73
               6
 40
335.0
 49
120.0
 74
               0
 49
-30.0
 74
               0
 49
120.0
 74
               0
 49
-30.0
 74
               0
 49
5.0
 74
               0
 49
-30.0
 74
               0
  0
LTYPE
  5
34
100
AcDbSymbolTableRecord
100
AcDbLinetypeTableRecord
  2
ACAD_ISO12W100
 70
              64
  3
ISO Tratto doppio punto
 72
              65
 73
               6
 40
220.0
 49
120.0
 74
               0
 49
-30.0
 74
               0
 49
5.0
 74
               0
 49
-30.0
 74
               0
 49
5.0
 74
               0
 49
-30.0
 74
               0
  0
LTYPE
  5
35
100
AcDbSymbolTableRecord
100
AcDbLinetypeTableRecord
  2
ACAD_ISO13W100
 70
              64
  3
ISO Doppio tratto doppio punto
 72
              65
 73
               8
 40
370.0
 49
120.0
 74
               0
 49
-30.0
 74
               0
 49
120.0
 74
               0
 49
-30.0
 74
               0
 49
5.0
 74
               0
 49
-30.0
 74
               0
 49
5.0
 74
               0
 49
-30.0
 74
               0
  0
LTYPE
  5
36
100
AcDbSymbolTableRecord
100
AcDbLinetypeTableRecord
  2
ACAD_ISO14W100
 70
              64
  3
ISO Tratto triplo punto
 72
              65
 73
               8
 40
255.0
 49
120.0
 74
               0
 49
-30.0
 74
               0
 49
5.0
 74
               0
 49
-30.0
 74
               0
 49
5.0
 74
               0
 49
-30.0
 74
               0
 49
5.0
 74
               0
 49
-30.0
 74
               0
  0
LTYPE
  5
37
100
AcDbSymbolTableRecord
100
AcDbLinetypeTableRecord
  2
ACAD_ISO15W100
 70
              64
  3
ISO Doppio tratto triplo punto
 72
              65
 73
              10
 40
405.0
 49
120.0
 74
               0
 49
-30.0
 74
               0
 49
120.0
 74
               0
 49
-30.0
 74
               0
 49
5.0
 74
               0
 49
-30.0
 74
               0
 49
5.0
 74
               0
 49
-30.0
 74
               0
 49
5.0
 74
               0
 49
-30.0
 74
               0
  0
LTYPE
  5
38
100
AcDbSymbolTableRecord
100
AcDbLinetypeTableRecord
  2
BORDER
 70
              64
  3
AutoCAD BORDER
 72
              65
 73
               6
 40
450.0
 49
128.0
 74
               0
 49
-64.0
 74
               0
 49
128.0
 74
               0
 49
-64.0
 74
               0
 49
2.0
 74
               0
 49
-64.0
 74
               0
  0
LTYPE
  5
39
100
AcDbSymbolTableRecord
100
AcDbLinetypeTableRecord
  2
BORDER2
 70
              64
  3
AutoCAD BORDER2
 72
              65
 73
               6
 40
226.0
 49
64.0
 74
               0
 49
-32.0
 74
               0
 49
64.0
 74
               0
 49
-32.0
 74
               0
 49
2.0
 74
               0
 49
-32.0
 74
               0
  0
LTYPE
  5
3A
100
AcDbSymbolTableRecord
100
AcDbLinetypeTableRecord
  2
BORDERX2
 70
              64
  3
AutoCAD BORDERX2
 72
              65
 73
               6
 40
898.0
 49
256.0
 74
               0
 49
-128.0
 74
               0
 49
256.0
 74
               0
 49
-128.0
 74
               0
 49
2.0
 74
               0
 49
-128.0
 74
               0
  0
LTYPE
  5
3B
100
AcDbSymbolTableRecord
100
AcDbLinetypeTableRecord
  2
CENTER
 70
              64
  3
AutoCAD CENTER
 72
              65
 73
               4
 40
512.0
 49
320.0
 74
               0
 49
-64.0
 74
               0
 49
64.0
 74
               0
 49
-64.0
 74
               0
  0
LTYPE
  5
3C
100
AcDbSymbolTableRecord
100
AcDbLinetypeTableRecord
  2
CENTER2
 70
              64
  3
AutoCAD CENTER2
 72
              65
 73
               4
 40
256.0
 49
160.0
 74
               0
 49
-32.0
 74
               0
 49
32.0
 74
               0
 49
-32.0
 74
               0
  0
LTYPE
  5
3D
100
AcDbSymbolTableRecord
100
AcDbLinetypeTableRecord
  2
CENTERX2
 70
              64
  3
AutoCAD CENTERX2
 72
              65
 73
               4
 40
1024.0
 49
640.0
 74
               0
 49
-128.0
 74
               0
 49
128.0
 74
               0
 49
-128.0
 74
               0
  0
LTYPE
  5
3E
100
AcDbSymbolTableRecord
100
AcDbLinetypeTableRecord
  2
DASHDOT
 70
              64
  3
AutoCAD DASHDOT
 72
              65
 73
               4
 40
258.0
 49
128.0
 74
               0
 49
-64.0
 74
               0
 49
2.0
 74
               0
 49
-64.0
 74
               0
  0
LTYPE
  5
3F
100
AcDbSymbolTableRecord
100
AcDbLinetypeTableRecord
  2
DASHDOT2
 70
              64
  3
AutoCAD DASHDOT2
 72
              65
 73
               4
 40
130.0
 49
64.0
 74
               0
 49
-32.0
 74
               0
 49
2.0
 74
               0
 49
-32.0
 74
               0
  0
LTYPE
  5
40
100
AcDbSymbolTableRecord
100
AcDbLinetypeTableRecord
  2
DASHDOTX2
 70
              64
  3
AutoCAD DASHDOTX2
 72
              65
 73
               4
 40
514.0
 49
256.0
 74
               0
 49
-128.0
 74
               0
 49
2.0
 74
               0
 49
-128.0
 74
               0
  0
LTYPE
  5
41
100
AcDbSymbolTableRecord
100
AcDbLinetypeTableRecord
  2
DASHED
 70
              64
  3
AutoCAD DASHED
 72
              65
 73
               2
 40
192.0
 49
128.0
 74
               0
 49
-64.0
 74
               0
  0
LTYPE
  5
42
100
AcDbSymbolTableRecord
100
AcDbLinetypeTableRecord
  2
DASHED2
 70
              64
  3
AutoCAD DASHED2
 72
              65
 73
               2
 40
96.0
 49
64.0
 74
               0
 49
-32.0
 74
               0
  0
LTYPE
  5
43
100
AcDbSymbolTableRecord
100
AcDbLinetypeTableRecord
  2
DASHEDX2
 70
              64
  3
AutoCAD DASHEDX2
 72
              65
 73
               2
 40
384.0
 49
256.0
 74
               0
 49
-128.0
 74
               0
  0
LTYPE
  5
44
100
AcDbSymbolTableRecord
100
AcDbLinetypeTableRecord
  2
DIVIDE
 70
              64
  3
AutoCAD DIVIDE
 72
              65
 73
               6
 40
324.0
 49
128.0
 74
               0
 49
-64.0
 74
               0
 49
2.0
 74
               0
 49
-64.0
 74
               0
 49
2.0
 74
               0
 49
-64.0
 74
               0
  0
LTYPE
  5
45
100
AcDbSymbolTableRecord
100
AcDbLinetypeTableRecord
  2
DIVIDE2
 70
              64
  3
AutoCAD DIVIDE2
 72
              65
 73
               6
 40
164.0
 49
64.0
 74
               0
 49
-32.0
 74
               0
 49
2.0
 74
               0
 49
-32.0
 74
               0
 49
2.0
 74
               0
 49
-32.0
 74
               0
  0
LTYPE
  5
46
100
AcDbSymbolTableRecord
100
AcDbLinetypeTableRecord
  2
DIVIDEX2
 70
              64
  3
AutoCAD DIVIDEX2
 72
              65
 73
               6
 40
644.0
 49
256.0
 74
               0
 49
-128.0
 74
               0
 49
2.0
 74
               0
 49
-128.0
 74
               0
 49
2.0
 74
               0
 49
-128.0
 74
               0
  0
LTYPE
  5
47
100
AcDbSymbolTableRecord
100
AcDbLinetypeTableRecord
  2
DOT
 70
              64
  3
AutoCAD DOT
 72
              65
 73
               2
 40
66.0
 49
2.0
 74
               0
 49
-64.0
 74
               0
  0
LTYPE
  5
48
100
AcDbSymbolTableRecord
100
AcDbLinetypeTableRecord
  2
DOT2
 70
              64
  3
AutoCAD DOT2
 72
              65
 73
               2
 40
34.0
 49
2.0
 74
               0
 49
-32.0
 74
               0
  0
LTYPE
  5
49
100
AcDbSymbolTableRecord
100
AcDbLinetypeTableRecord
  2
DOTX2
 70
              64
  3
AutoCAD DOTX2
 72
              65
 73
               2
 40
130.0
 49
2.0
 74
               0
 49
-128.0
 74
               0
  0
LTYPE
  5
4A
100
AcDbSymbolTableRecord
100
AcDbLinetypeTableRecord
  2
HIDDEN
 70
              64
  3
AutoCAD HIDDEN
 72
              65
 73
               2
 40
96.0
 49
64.0
 74
               0
 49
-32.0
 74
               0
  0
LTYPE
  5
4B
100
AcDbSymbolTableRecord
100
AcDbLinetypeTableRecord
  2
HIDDEN2
 70
              64
  3
AutoCAD HIDDEN2
 72
              65
 73
               2
 40
48.0
 49
32.0
 74
               0
 49
-16.0
 74
               0
  0
LTYPE
  5
4C
100
AcDbSymbolTableRecord
100
AcDbLinetypeTableRecord
  2
HIDDENX2
 70
              64
  3
AutoCAD HIDDENX2
 72
              65
 73
               2
 40
192.0
 49
128.0
 74
               0
 49
-64.0
 74
               0
  0
LTYPE
  5
4D
100
AcDbSymbolTableRecord
100
AcDbLinetypeTableRecord
  2
PHANTOM
 70
              64
  3
AutoCAD PHANTOM
 72
              65
 73
               6
 40
640.0
 49
320.0
 74
               0
 49
-64.0
 74
               0
 49
64.0
 74
               0
 49
-64.0
 74
               0
 49
64.0
 74
               0
 49
-64.0
 74
               0
  0
LTYPE
  5
4E
100
AcDbSymbolTableRecord
100
AcDbLinetypeTableRecord
  2
PHANTOM2
 70
              64
  3
AutoCAD PHANTOM2
 72
              65
 73
               6
 40
320.0
 49
160.0
 74
               0
 49
-32.0
 74
               0
 49
32.0
 74
               0
 49
-32.0
 74
               0
 49
32.0
 74
               0
 49
-32.0
 74
               0
  0
LTYPE
  5
4F
100
AcDbSymbolTableRecord
100
AcDbLinetypeTableRecord
  2
PHANTOMX2
 70
              64
  3
AutoCAD PHANTOMX2
 72
              65
 73
               6
 40
1280.0
 49
640.0
 74
               0
 49
-128.0
 74
               0
 49
128.0
 74
               0
 49
-128.0
 74
               0
 49
128.0
 74
               0
 49
-128.0
 74
               0
  0
ENDTAB
  0
TABLE
  2
LAYER
  5
2
100
AcDbSymbolTable
 70
              11
  0
LAYER
  5
14
100
AcDbSymbolTableRecord
100
AcDbLayerTableRecord
  2
0
 70
               0
 62
               7
  6
Continuous
290
               1
370
              -3
390
1D
  0
LAYER
  5
50
100
AcDbSymbolTableRecord
100
AcDbLayerTableRecord
  2
FIANCATE
 70
               0
 62
               7
  6
Continuous
290
               1
370
              -3
390
1D
  0
LAYER
  5
51
100
AcDbSymbolTableRecord
100
AcDbLayerTableRecord
  2
RINFORZI
 70
               0
 62
               5
  6
Continuous
290
               1
370
              -3
390
1D
  0
LAYER
  5
52
100
AcDbSymbolTableRecord
100
AcDbLayerTableRecord
  2
COPERTURE
 70
               0
 62
               4
  6
Continuous
290
               1
370
              -3
390
1D
  0
LAYER
  5
53
100
AcDbSymbolTableRecord
100
AcDbLayerTableRecord
  2
ORDINATE
 70
               0
 62
               3
  6
Continuous
290
               1
370
              -3
390
1D
  0
LAYER
  5
54
100
AcDbSymbolTableRecord
100
AcDbLayerTableRecord
  2
QUOTE
 70
               0
 62
               6
  6
Continuous
290
               1
370
              -3
390
1D
  0
LAYER
  5
55
100
AcDbSymbolTableRecord
100
AcDbLayerTableRecord
  2
ASSI
 70
               0
 62
               1
  6
ACAD_ISO04W100
290
               1
370
              -3
390
1D
  0
LAYER
  5
56
100
AcDbSymbolTableRecord
100
AcDbLayerTableRecord
  2
PIASTRA
 70
               0
 62
              14
  6
Continuous
290
               1
370
              -3
390
1D
  0
LAYER
  5
57
100
AcDbSymbolTableRecord
100
AcDbLayerTableRecord
  2
TRIANGOLI_E_LISTELLI
 70
               0
 62
              94
  6
Continuous
290
               1
370
              -3
390
1D
  0
LAYER
  5
58
100
AcDbSymbolTableRecord
100
AcDbLayerTableRecord
  2
SERVI
 70
               0
 62
               1
  6
Continuous
290
               1
370
              -3
390
1D
  0
LAYER
  5
59
100
AcDbSymbolTableRecord
100
AcDbLayerTableRecord
  2
PIANI_DI_CODA
 70
               0
 62
              94
  6
Continuous
290
               1
370
              -3
390
1D
  0
ENDTAB
  0
TABLE
  2
STYLE
  5
3
100
AcDbSymbolTable
 70
              10
  0
STYLE
  5
17
100
AcDbSymbolTableRecord
100
AcDbTextStyleTableRecord
  2
Standard
 70
               0
 40
0.0
 41
1.0
 50
0.0
 71
               0
 42
0.0
  3
txt
  4

  0
STYLE
  5
5A
100
AcDbSymbolTableRecord
100
AcDbTextStyleTableRecord
  2
SIMPLEX
 70
               0
 40
10.0
 41
0.8
 50
0.0
 71
               0
 42
10.0
  3
simplex
  4

  0
STYLE
  5
5B
100
AcDbSymbolTableRecord
100
AcDbTextStyleTableRecord
  2
EUROSTYLE
 70
               0
 40
10.0
 41
0.88
 50
0.0
 71
               0
 42
10.0
  3
isocp
  4

  0
STYLE
  5
5C
100
AcDbSymbolTableRecord
100
AcDbTextStyleTableRecord
  2
SANSERIF
 70
               0
 40
10.0
 41
0.9
 50
0.0
 71
               0
 42
10.0
  3
romand
  4

  0
STYLE
  5
5D
100
AcDbSymbolTableRecord
100
AcDbTextStyleTableRecord
  2
TRIPLEX
 70
               0
 40
10.0
 41
0.86
 50
0.0
 71
               0
 42
10.0
  3
romant
  4

  0
STYLE
  5
5E
100
AcDbSymbolTableRecord
100
AcDbTextStyleTableRecord
  2
COMPLEX
 70
               0
 40
10.0
 41
1.0
 50
0.0
 71
               0
 42
10.0
  3
complex
  4

  0
STYLE
  5
5F
100
AcDbSymbolTableRecord
100
AcDbTextStyleTableRecord
  2
SCRIPT
 70
               0
 40
10.0
 41
0.98
 50
0.0
 71
               0
 42
10.0
  3
scripts
  4

  0
STYLE
  5
60
100
AcDbSymbolTableRecord
100
AcDbTextStyleTableRecord
  2
TRISCRIPT
 70
               0
 40
10.0
 41
0.89
 50
0.0
 71
               0
 42
10.0
  3
italict
  4

  0
STYLE
  5
61
100
AcDbSymbolTableRecord
100
AcDbTextStyleTableRecord
  2
BOLD
 70
               0
 40
10.0
 41
0.77
 50
0.0
 71
               0
 42
10.0
  3
romand
  4

  0
STYLE
  5
62
100
AcDbSymbolTableRecord
100
AcDbTextStyleTableRecord
  2
GOTHIC
 70
               0
 40
10.0
 41
0.86
 50
0.0
 71
               0
 42
10.0
  3
gothice
  4

  0
ENDTAB
  0
TABLE
  2
VIEW
  5
5
100
AcDbSymbolTable
 70
               0
  0
ENDTAB
  0
TABLE
  2
UCS
  5
6
100
AcDbSymbolTable
 70
               0
  0
ENDTAB
  0
TABLE
  2
APPID
  5
8
100
AcDbSymbolTable
 70
               1
  0
APPID
  5
16
100
AcDbSymbolTableRecord
100
AcDbRegAppTableRecord
  2
ACAD
 70
               0
  0
ENDTAB
  0
TABLE
  2
DIMSTYLE
  5
9
100
AcDbSymbolTable
 70
               1
100
AcDbDimStyleTable
 71
               0
  0
DIMSTYLE
105
18
100
AcDbSymbolTableRecord
100
AcDbDimStyleTableRecord
  2
Standard
 70
               0
  3

  4

 40
1.0
 41
0.18
 42
0.0625
 43
0.38
 44
0.18
 45
0.0
 46
0.0
 47
0.0
 48
0.0
 71
               0
 72
               0
 73
               1
 74
               1
 75
               0
 76
               0
 77
               0
 78
               0
 79
               0
140
0.18
141
0.09
142
0.0
143
25.399999999999999
144
1.0
145
0.0
146
1.0
147
0.09
148
0.0
170
               0
171
               2
172
               0
173
               0
174
               0
175
               0
176
               0
177
               0
178
               0
179
               0
271
               4
272
               4
273
               2
274
               2
275
               0
276
               0
277
               2
278
              46
279
               0
280
               0
281
               0
282
               0
283
               1
284
               0
285
               0
286
               0
288
               0
289
               3
340
17
341
0
342
0
343
0
344
0
371
              -2
372
              -2
  0
ENDTAB
  0
TABLE
  2
BLOCK_RECORD
  5
1
100
AcDbSymbolTable
 70
              51
  0
BLOCK_RECORD
  5
A
100
AcDbSymbolTableRecord
100
AcDbBlockTableRecord
  2
*MODEL_SPACE
340
20
  0
BLOCK_RECORD
  5
B
100
AcDbSymbolTableRecord
100
AcDbBlockTableRecord
  2
*PAPER_SPACE
340
21
  0
BLOCK_RECORD
  5
66
100
AcDbSymbolTableRecord
100
AcDbBlockTableRecord
  2
B024985B0
340
0
102
{BLKREFS
331
6D
102
}
  0
BLOCK_RECORD
  5
85
100
AcDbSymbolTableRecord
100
AcDbBlockTableRecord
  2
B02498E84
340
0
102
{BLKREFS
331
92
102
}
  0
BLOCK_RECORD
  5
87
100
AcDbSymbolTableRecord
100
AcDbBlockTableRecord
  2
B02498ED0
340
0
102
{BLKREFS
331
8F
102
}
  0
BLOCK_RECORD
  5
96
100
AcDbSymbolTableRecord
100
AcDbBlockTableRecord
  2
B024991B4
340
0
102
{BLKREFS
331
9D
102
}
  0
BLOCK_RECORD
  5
9F
100
AcDbSymbolTableRecord
100
AcDbBlockTableRecord
  2
B024993A4
340
0
102
{BLKREFS
331
C0
102
}
  0
BLOCK_RECORD
  5
C2
100
AcDbSymbolTableRecord
100
AcDbBlockTableRecord
  2
B02499808
340
0
102
{BLKREFS
331
FD
102
}
  0
BLOCK_RECORD
  5
C5
100
AcDbSymbolTableRecord
100
AcDbBlockTableRecord
  2
B024998A8
340
0
102
{BLKREFS
331
FB
102
}
  0
BLOCK_RECORD
  5
C7
100
AcDbSymbolTableRecord
100
AcDbBlockTableRecord
  2
B033144C4
340
0
102
{BLKREFS
331
CD
102
}
  0
BLOCK_RECORD
  5
CE
100
AcDbSymbolTableRecord
100
AcDbBlockTableRecord
  2
B0331460C
340
0
102
{BLKREFS
331
F9
102
}
  0
BLOCK_RECORD
  5
D0
100
AcDbSymbolTableRecord
100
AcDbBlockTableRecord
  2
B03314658
340
0
102
{BLKREFS
331
E7
102
}
  0
BLOCK_RECORD
  5
D3
100
AcDbSymbolTableRecord
100
AcDbBlockTableRecord
  2
B033146F8
340
0
102
{BLKREFS
331
E2
102
}
  0
BLOCK_RECORD
  5
D7
100
AcDbSymbolTableRecord
100
AcDbBlockTableRecord
  2
B033147EC
340
0
102
{BLKREFS
331
DE
102
}
  0
BLOCK_RECORD
  5
E8
100
AcDbSymbolTableRecord
100
AcDbBlockTableRecord
  2
B03314B2C
340
0
102
{BLKREFS
331
EF
102
}
  0
BLOCK_RECORD
  5
F0
100
AcDbSymbolTableRecord
100
AcDbBlockTableRecord
  2
B03314CC8
340
0
102
{BLKREFS
331
F7
102
}
  0
BLOCK_RECORD
  5
108
100
AcDbSymbolTableRecord
100
AcDbBlockTableRecord
  2
B032F4870
340
0
102
{BLKREFS
331
126
102
}
  0
BLOCK_RECORD
  5
10A
100
AcDbSymbolTableRecord
100
AcDbBlockTableRecord
  2
B032F48BC
340
0
102
{BLKREFS
331
122
102
}
  0
BLOCK_RECORD
  5
113
100
AcDbSymbolTableRecord
100
AcDbBlockTableRecord
  2
B032F4B44
340
0
102
{BLKREFS
331
11A
102
}
  0
BLOCK_RECORD
  5
127
100
AcDbSymbolTableRecord
100
AcDbBlockTableRecord
  2
B0249283C
340
0
102
{BLKREFS
331
145
102
}
  0
BLOCK_RECORD
  5
129
100
AcDbSymbolTableRecord
100
AcDbBlockTableRecord
  2
B02492888
340
0
102
{BLKREFS
331
141
102
}
  0
BLOCK_RECORD
  5
132
100
AcDbSymbolTableRecord
100
AcDbBlockTableRecord
  2
B02492B10
340
0
102
{BLKREFS
331
139
102
}
  0
BLOCK_RECORD
  5
146
100
AcDbSymbolTableRecord
100
AcDbBlockTableRecord
  2
B02492EFC
340
0
102
{BLKREFS
331
177
102
}
  0
BLOCK_RECORD
  5
14A
100
AcDbSymbolTableRecord
100
AcDbBlockTableRecord
  2
B02492FF0
340
0
102
{BLKREFS
331
15F
102
}
  0
BLOCK_RECORD
  5
14C
100
AcDbSymbolTableRecord
100
AcDbBlockTableRecord
  2
B02C3E3BC
340
0
102
{BLKREFS
331
154
102
}
  0
BLOCK_RECORD
  5
155
100
AcDbSymbolTableRecord
100
AcDbBlockTableRecord
  2
B02C3E5A4
340
0
102
{BLKREFS
331
15D
102
}
  0
BLOCK_RECORD
  5
162
100
AcDbSymbolTableRecord
100
AcDbBlockTableRecord
  2
B02C3E834
340
0
102
{BLKREFS
331
174
102
}
  0
BLOCK_RECORD
  5
187
100
AcDbSymbolTableRecord
100
AcDbBlockTableRecord
  2
B02BF2FF0
340
0
102
{BLKREFS
331
18E
102
}
  0
BLOCK_RECORD
  5
18F
100
AcDbSymbolTableRecord
100
AcDbBlockTableRecord
  2
B024866C4
340
0
102
{BLKREFS
331
196
102
}
  0
BLOCK_RECORD
  5
197
100
AcDbSymbolTableRecord
100
AcDbBlockTableRecord
  2
B02486860
340
0
102
{BLKREFS
331
19E
102
}
  0
BLOCK_RECORD
  5
1A8
100
AcDbSymbolTableRecord
100
AcDbBlockTableRecord
  2
B02486CF0
340
0
102
{BLKREFS
331
1B3
102
}
  0
BLOCK_RECORD
  5
1B5
100
AcDbSymbolTableRecord
100
AcDbBlockTableRecord
  2
B02BEDB70
340
0
102
{BLKREFS
331
1BF
102
}
  0
BLOCK_RECORD
  5
1C0
100
AcDbSymbolTableRecord
100
AcDbBlockTableRecord
  2
B02BEDE14
340
0
102
{BLKREFS
331
1CA
102
}
  0
BLOCK_RECORD
  5
1CB
100
AcDbSymbolTableRecord
100
AcDbBlockTableRecord
  2
B02BEE094
340
0
102
{BLKREFS
331
268
102
}
  0
BLOCK_RECORD
  5
1F5
100
AcDbSymbolTableRecord
100
AcDbBlockTableRecord
  2
B02BC2768
340
0
102
{BLKREFS
331
213
102
}
  0
BLOCK_RECORD
  5
22D
100
AcDbSymbolTableRecord
100
AcDbBlockTableRecord
  2
B02C1EB40
340
0
102
{BLKREFS
331
239
102
}
  0
BLOCK_RECORD
  5
245
100
AcDbSymbolTableRecord
100
AcDbBlockTableRecord
  2
B0248EB48
340
0
102
{BLKREFS
331
24F
102
}
  0
BLOCK_RECORD
  5
248
100
AcDbSymbolTableRecord
100
AcDbBlockTableRecord
  2
B0248EBE8
340
0
102
{BLKREFS
331
24D
102
}
  0
BLOCK_RECORD
  5
25B
100
AcDbSymbolTableRecord
100
AcDbBlockTableRecord
  2
B024819D8
340
0
102
{BLKREFS
331
265
102
}
  0
BLOCK_RECORD
  5
25E
100
AcDbSymbolTableRecord
100
AcDbBlockTableRecord
  2
B0246A3AC
340
0
102
{BLKREFS
331
263
102
}
  0
BLOCK_RECORD
  5
269
100
AcDbSymbolTableRecord
100
AcDbBlockTableRecord
  2
B0248434C
340
0
102
{BLKREFS
331
2A3
102
}
  0
BLOCK_RECORD
  5
2A4
100
AcDbSymbolTableRecord
100
AcDbBlockTableRecord
  2
B032F6DC4
340
0
102
{BLKREFS
331
2AB
102
}
  0
BLOCK_RECORD
  5
2AC
100
AcDbSymbolTableRecord
100
AcDbBlockTableRecord
  2
B032F6F60
340
0
102
{BLKREFS
331
327
102
}
  0
BLOCK_RECORD
  5
2AE
100
AcDbSymbolTableRecord
100
AcDbBlockTableRecord
  2
B032F6FAC
340
0
102
{BLKREFS
331
2BA
102
}
  0
BLOCK_RECORD
  5
2C3
100
AcDbSymbolTableRecord
100
AcDbBlockTableRecord
  2
B03325D44
340
0
102
{BLKREFS
331
2CB
102
}
  0
BLOCK_RECORD
  5
2CC
100
AcDbSymbolTableRecord
100
AcDbBlockTableRecord
  2
B03326F0C
340
0
102
{BLKREFS
331
2D4
102
}
  0
BLOCK_RECORD
  5
2E1
100
AcDbSymbolTableRecord
100
AcDbBlockTableRecord
  2
B03327484
340
0
102
{BLKREFS
331
2E9
102
}
  0
BLOCK_RECORD
  5
2EB
100
AcDbSymbolTableRecord
100
AcDbBlockTableRecord
  2
B03327698
340
0
102
{BLKREFS
331
2F6
102
}
  0
BLOCK_RECORD
  5
2F7
100
AcDbSymbolTableRecord
100
AcDbBlockTableRecord
  2
B02C1CE94
340
0
102
{BLKREFS
331
302
102
}
  0
BLOCK_RECORD
  5
319
100
AcDbSymbolTableRecord
100
AcDbBlockTableRecord
  2
B02BC83F4
340
0
102
{BLKREFS
331
31D
102
}
  0
BLOCK_RECORD
  5
331
100
AcDbSymbolTableRecord
100
AcDbBlockTableRecord
  2
B02BECA64
340
0
102
{BLKREFS
331
342
102
}
  0
BLOCK_RECORD
  5
343
100
AcDbSymbolTableRecord
100
AcDbBlockTableRecord
  2
B0331A27C
340
0
102
{BLKREFS
331
354
102
}
  0
BLOCK_RECORD
  5
360
100
AcDbSymbolTableRecord
100
AcDbBlockTableRecord
  2
B0331AAE4
340
0
102
{BLKREFS
331
367
102
}
  0
ENDTAB
  0
ENDSEC
  0
SECTION
  2
BLOCKS
  0
BLOCK
  5
D
100
AcDbEntity
  8
0
390
0
100
AcDbBlockBegin
  2
*MODEL_SPACE
 70
               0
 10
0.0
 20
0.0
 30
0.0
  3
*MODEL_SPACE
  1

  0
ENDBLK
  5
E
100
AcDbEntity
  8
0
390
0
100
AcDbBlockEnd
  0
BLOCK
  5
F
100
AcDbEntity
 67
               1
  8
0
390
0
100
AcDbBlockBegin
  2
*PAPER_SPACE
 70
               0
 10
0.0
 20
0.0
 30
0.0
  3
*PAPER_SPACE
  1

  0
ENDBLK
  5
10
100
AcDbEntity
 67
               1
  8
0
390
0
100
AcDbBlockEnd
  0
BLOCK
  5
67
100
AcDbEntity
  8
0
390
0
100
AcDbBlockBegin
  2
B024985B0
 70
               0
 10
0.0
 20
0.0
 30
0.0
  3

  1

  0
LINE
  5
68
100
AcDbEntity
  8
ORDINATE
390
0
100
AcDbLine
 10
129.69136843680249
 20
-389.34713205279917
 30
0.0
 11
129.69136843680249
 21
-329.0653519672162
 31
0.0
  0
LINE
  5
69
100
AcDbEntity
  8
ORDINATE
390
0
100
AcDbLine
 10
124.69752866801949
 20
-329.06535209159409
 30
0.0
 11
124.69752866801949
 21
-389.34713205279917
 31
0.0
  0
LINE
  5
6A
100
AcDbEntity
  8
ORDINATE
390
0
100
AcDbLine
 10
129.69136843680249
 20
-329.0653519672162
 30
0.0
 11
124.69354137647268
 21
-329.0653519672162
 31
0.0
  0
LINE
  5
6B
100
AcDbEntity
  8
ORDINATE
390
0
100
AcDbLine
 10
124.69752866801949
 20
-389.34713205279917
 30
0.0
 11
129.69136843680249
 21
-389.34713205279917
 31
0.0
  0
ENDBLK
  5
6C
100
AcDbEntity
  8
0
390
0
100
AcDbBlockEnd
  0
BLOCK
  5
86
100
AcDbEntity
  8
0
390
0
100
AcDbBlockBegin
  2
B02498E84
 70
               0
 10
0.0
 20
0.0
 30
0.0
  3

  1

  0
INSERT
  5
8F
100
AcDbEntity
  8
ORDINATE
390
0
100
AcDbBlockReference
  2
B02498ED0
 10
0.0
 20
0.0
 30
0.0
  0
CIRCLE
  5
90
100
AcDbEntity
  8
ORDINATE
390
0
100
AcDbCircle
 10
447.26711866863332
 20
-334.25837650631456
 30
0.0
 40
1.0
  0
ENDBLK
  5
91
100
AcDbEntity
  8
0
390
0
100
AcDbBlockEnd
  0
BLOCK
  5
88
100
AcDbEntity
  8
0
390
0
100
AcDbBlockBegin
  2
B02498ED0
 70
               0
 10
0.0
 20
0.0
 30
0.0
  3

  1

  0
LINE
  5
89
100
AcDbEntity
  8
ORDINATE
390
0
100
AcDbLine
 10
457.47363198994691
 20
-324.69381259150828
 30
0.0
 11
457.47363198994691
 21
-342.2476074066218
 31
0.0
  0
LINE
  5
8A
100
AcDbEntity
  8
ORDINATE
390
0
100
AcDbLine
 10
437.07568020633903
 20
-324.0675734306401
 30
0.0
 11
457.48303341187818
 21
-324.68806727810585
 31
0.0
  0
LINE
  5
8B
100
AcDbEntity
  8
ORDINATE
390
0
100
AcDbLine
 10
437.0662787844077
 20
-324.07540794891622
 30
0.0
 11
437.0662787844077
 21
-342.2476074066218
 31
0.0
  0
POINT
  5
8C
100
AcDbEntity
  8
ORDINATE
390
0
  6
Continuous
100
AcDbPoint
 10
447.19478234576127
 20
-334.22291752451457
 30
0.0
  0
LINE
  5
8D
100
AcDbEntity
  8
ORDINATE
390
0
100
AcDbLine
 10
437.03459786720754
 20
-342.24912897290943
 30
0.0
 11
457.54011763183604
 21
-342.24912897290943
 31
0.0
  0
ENDBLK
  5
8E
100
AcDbEntity
  8
0
390
0
100
AcDbBlockEnd
  0
BLOCK
  5
97
100
AcDbEntity
  8
0
390
0
100
AcDbBlockBegin
  2
B024991B4
 70
               0
 10
0.0
 20
0.0
 30
0.0
  3

  1

  0
LINE
  5
98
100
AcDbEntity
  8
ORDINATE
390
0
100
AcDbLine
 10
437.2128401709225
 20
-174.06383345775697
 30
0.0
 11
457.2128401709225
 21
-174.06383345775697
 31
0.0
  0
LINE
  5
99
100
AcDbEntity
  8
ORDINATE
390
0
100
AcDbLine
 10
457.2128401709225
 20
-179.06383345775697
 30
0.0
 11
457.2128401709225
 21
-174.06383345775697
 31
0.0
  0
LINE
  5
9A
100
AcDbEntity
  8
ORDINATE
390
0
100
AcDbLine
 10
437.2128401709225
 20
-179.06383345775697
 30
0.0
 11
437.2128401709225
 21
-174.06383345775697
 31
0.0
  0
LINE
  5
9B
100
AcDbEntity
  8
ORDINATE
390
0
100
AcDbLine
 10
437.2128401709225
 20
-179.06383345775697
 30
0.0
 11
457.2128401709225
 21
-179.06383345775697
 31
0.0
  0
ENDBLK
  5
9C
100
AcDbEntity
  8
0
390
0
100
AcDbBlockEnd
  0
BLOCK
  5
A0
100
AcDbEntity
  8
0
390
0
100
AcDbBlockBegin
  2
B024993A4
 70
               0
 10
0.0
 20
0.0
 30
0.0
  3

  1

  0
ARC
  5
A1
100
AcDbEntity
  8
FIANCATE
390
0
100
AcDbCircle
 10
318.43570482549393
 20
-117.53237058241939
 30
0.0
 40
5.0
100
AcDbArc
 50
0.1580478386953848
 51
89.898551101853002
  0
ARC
  5
A2
100
AcDbEntity
  8
FIANCATE
390
0
100
AcDbCircle
 10
318.43570482549393
 20
-117.53237058241939
 30
0.0
 40
5.0
100
AcDbArc
 50
270.10148367657899
 51
0.1580478386953848
  0
POLYLINE
  5
A3
100
AcDbEntity
  8
FIANCATE
390
0
100
AcDb2dPolyline
 66
               1
 10
0.0
 20
0.0
 30
0.0
 70
             129
  0
VERTEX
  5
A4
100
AcDbEntity
  8
FIANCATE
390
0
100
AcDbVertex
100
AcDb2dVertex
 10
313.42472998067342
 20
-117.51864110056817
 30
0.0
  0
VERTEX
  5
A5
100
AcDbEntity
  8
FIANCATE
390
0
100
AcDbVertex
100
AcDb2dVertex
 10
318.44457178252287
 20
-117.51864110056817
 30
0.0
  0
VERTEX
  5
A6
100
AcDbEntity
  8
FIANCATE
390
0
100
AcDbVertex
100
AcDb2dVertex
 10
318.44457178252287
 20
-122.53878069362764
 30
0.0
  0
VERTEX
  5
A7
100
AcDbEntity
  8
FIANCATE
390
0
100
AcDbVertex
100
AcDb2dVertex
 10
318.44456094232999
 20
-122.5323627393327
 30
0.0
  0
VERTEX
  5
A8
100
AcDbEntity
  8
FIANCATE
390
0
100
AcDbVertex
100
AcDb2dVertex
 10
318.03045137725104
 20
-122.5159204861213
 30
0.0
  0
VERTEX
  5
A9
100
AcDbEntity
  8
FIANCATE
390
0
100
AcDbVertex
100
AcDb2dVertex
 10
317.61912601812253
 20
-122.46523983381375
 30
0.0
  0
VERTEX
  5
AA
100
AcDbEntity
  8
FIANCATE
390
0
100
AcDbVertex
100
AcDb2dVertex
 10
317.2134107866421
 20
-122.38066897284332
 30
0.0
  0
VERTEX
  5
AB
100
AcDbEntity
  8
FIANCATE
390
0
100
AcDbVertex
100
AcDb2dVertex
 10
316.81609306134175
 20
-122.26278892897393
 30
0.0
  0
VERTEX
  5
AC
100
AcDbEntity
  8
FIANCATE
390
0
100
AcDbVertex
100
AcDb2dVertex
 10
316.42990252750798
 20
-122.11240957148861
 30
0.0
  0
VERTEX
  5
AD
100
AcDbEntity
  8
FIANCATE
390
0
100
AcDbVertex
100
AcDb2dVertex
 10
316.05749242347088
 20
-121.93056404915818
 30
0.0
  0
VERTEX
  5
AE
100
AcDbEntity
  8
FIANCATE
390
0
100
AcDbVertex
100
AcDb2dVertex
 10
315.70142131210559
 20
-121.71850169221668
 30
0.0
  0
VERTEX
  5
AF
100
AcDbEntity
  8
FIANCATE
390
0
100
AcDbVertex
100
AcDb2dVertex
 10
315.36413550278047
 20
-121.47767942910878
 30
0.0
  0
VERTEX
  5
B0
100
AcDbEntity
  8
FIANCATE
390
0
100
AcDbVertex
100
AcDb2dVertex
 10
315.04795224451925
 20
-121.20975177697885
 30
0.0
  0
VERTEX
  5
B1
100
AcDbEntity
  8
FIANCATE
390
0
100
AcDbVertex
100
AcDb2dVertex
 10
314.75504380584408
 20
-120.91655947466965
 30
0.0
  0
VERTEX
  5
B2
100
AcDbEntity
  8
FIANCATE
390
0
100
AcDbVertex
100
AcDb2dVertex
 10
314.48742255067532
 20
-120.60011683632518
 30
0.0
  0
VERTEX
  5
B3
100
AcDbEntity
  8
FIANCATE
390
0
100
AcDbVertex
100
AcDb2dVertex
 10
314.24692711282182
 20
-120.26259791248212
 30
0.0
  0
VERTEX
  5
B4
100
AcDbEntity
  8
FIANCATE
390
0
100
AcDbVertex
100
AcDb2dVertex
 10
314.03520976404599
 20
-119.90632155372695
 30
0.0
  0
VERTEX
  5
B5
100
AcDbEntity
  8
FIANCATE
390
0
100
AcDbVertex
100
AcDb2dVertex
 10
313.85372506248865
 20
-119.53373547953582
 30
0.0
  0
VERTEX
  5
B6
100
AcDbEntity
  8
FIANCATE
390
0
100
AcDbVertex
100
AcDb2dVertex
 10
313.70371985944291
 20
-119.14739946174855
 30
0.0
  0
VERTEX
  5
B7
100
AcDbEntity
  8
FIANCATE
390
0
100
AcDbVertex
100
AcDb2dVertex
 10
313.58622473313272
 20
-118.74996773821121
 30
0.0
  0
VERTEX
  5
B8
100
AcDbEntity
  8
FIANCATE
390
0
100
AcDbVertex
100
AcDb2dVertex
 10
313.50204690834846
 20
-118.34417077741048
 30
0.0
  0
VERTEX
  5
B9
100
AcDbEntity
  8
FIANCATE
390
0
100
AcDbVertex
100
AcDb2dVertex
 10
313.45176471058409
 20
-117.93279651938198
 30
0.0
  0
VERTEX
  5
BA
100
AcDbEntity
  8
FIANCATE
390
0
100
AcDbVertex
100
AcDb2dVertex
 10
313.43572359277738
 20
-117.51867122177265
 30
0.0
  0
SEQEND
  5
BB
100
AcDbEntity
  8
FIANCATE
390
0
  0
ARC
  5
BC
100
AcDbEntity
  8
FIANCATE
390
0
100
AcDbCircle
 10
318.43570482549393
 20
-117.53237058241939
 30
0.0
 40
5.0
100
AcDbArc
 50
89.898551101853002
 51
179.84301669417269
  0
LINE
  5
BD
100
AcDbEntity
  8
FIANCATE
390
0
100
AcDbLine
 10
318.44457178252287
 20
-117.51864110056817
 30
0.0
 11
323.46454559775293
 21
-117.51864110056817
 31
0.0
  0
LINE
  5
BE
100
AcDbEntity
  8
FIANCATE
390
0
100
AcDbLine
 10
318.44457178252287
 20
-112.52454207718976
 30
0.0
 11
318.44457178252287
 21
-117.51864110056817
 31
0.0
  0
ENDBLK
  5
BF
100
AcDbEntity
  8
0
390
0
100
AcDbBlockEnd
  0
BLOCK
  5
C3
100
AcDbEntity
  8
0
390
0
100
AcDbBlockBegin
  2
B02499808
 70
               0
 10
0.0
 20
0.0
 30
0.0
  3

  1

  0
LINE
  5
C4
100
AcDbEntity
  8
SERVI
370
              -3
390
0
  6
Continuous
100
AcDbLine
 10
532.60236776675504
 20
-156.17716891793276
 30
0.0
 11
532.60236776675504
 21
-174.17716891793276
 31
0.0
  0
INSERT
  5
FB
100
AcDbEntity
  8
SERVI
390
0
100
AcDbBlockReference
  2
B024998A8
 10
0.0
 20
0.0
 30
0.0
  0
ENDBLK
  5
FC
100
AcDbEntity
  8
0
390
0
100
AcDbBlockEnd
  0
BLOCK
  5
C6
100
AcDbEntity
  8
0
390
0
100
AcDbBlockBegin
  2
B024998A8
 70
               0
 10
0.0
 20
0.0
 30
0.0
  3

  1

  0
INSERT
  5
CD
100
AcDbEntity
  8
SERVI
390
0
100
AcDbBlockReference
  2
B033144C4
 10
0.0
 20
0.0
 30
0.0
  0
INSERT
  5
F9
100
AcDbEntity
  8
SERVI
390
0
100
AcDbBlockReference
  2
B0331460C
 10
0.0
 20
0.0
 30
0.0
  0
ENDBLK
  5
FA
100
AcDbEntity
  8
0
390
0
100
AcDbBlockEnd
  0
BLOCK
  5
C8
100
AcDbEntity
  8
0
390
0
100
AcDbBlockBegin
  2
B033144C4
 70
               0
 10
0.0
 20
0.0
 30
0.0
  3

  1

  0
LINE
  5
C9
100
AcDbEntity
  8
SERVI
370
              -3
390
0
  6
Continuous
 62
               1
100
AcDbLine
 10
534.93570110008829
 20
-159.24383558459942
 30
0.0
 11
534.93570110008829
 21
-162.6885812488193
 31
0.0
  0
LINE
  5
CA
100
AcDbEntity
  8
SERVI
370
              -3
390
0
  6
Continuous
 62
               1
100
AcDbLine
 10
534.93570110008829
 20
-159.24383558459942
 30
0.0
 11
530.60236776675504
 21
-159.24383558459942
 31
0.0
  0
LINE
  5
CB
100
AcDbEntity
  8
SERVI
370
              -3
390
0
  6
Continuous
 62
               1
100
AcDbLine
 10
530.60236776675504
 20
-159.24383558459942
 30
0.0
 11
530.60236776675504
 21
-162.6885812488193
 31
0.0
  0
ENDBLK
  5
CC
100
AcDbEntity
  8
0
390
0
100
AcDbBlockEnd
  0
BLOCK
  5
CF
100
AcDbEntity
  8
0
390
0
100
AcDbBlockBegin
  2
B0331460C
 70
               0
 10
0.0
 20
0.0
 30
0.0
  3

  1

  0
INSERT
  5
E7
100
AcDbEntity
  8
SERVI
390
0
100
AcDbBlockReference
  2
B03314658
 10
0.0
 20
0.0
 30
0.0
  0
INSERT
  5
EF
100
AcDbEntity
  8
SERVI
390
0
100
AcDbBlockReference
  2
B03314B2C
 10
0.0
 20
0.0
 30
0.0
  0
INSERT
  5
F7
100
AcDbEntity
  8
SERVI
390
0
100
AcDbBlockReference
  2
B03314CC8
 10
0.0
 20
0.0
 30
0.0
  0
ENDBLK
  5
F8
100
AcDbEntity
  8
0
390
0
100
AcDbBlockEnd
  0
BLOCK
  5
D1
100
AcDbEntity
  8
0
390
0
100
AcDbBlockBegin
  2
B03314658
 70
               0
 10
0.0
 20
0.0
 30
0.0
  3

  1

  0
LINE
  5
D2
100
AcDbEntity
  8
SERVI
370
              -3
390
0
  6
Continuous
 62
               1
100
AcDbLine
 10
553.5940344334216
 20
-179.63242325371289
 30
0.0
 11
561.61070110008836
 21
-179.63242325371289
 31
0.0
  0
INSERT
  5
E2
100
AcDbEntity
  8
SERVI
390
0
100
AcDbBlockReference
  2
B033146F8
 10
0.0
 20
0.0
 30
0.0
  0
LINE
  5
E3
100
AcDbEntity
  8
SERVI
370
              -3
390
0
  6
Continuous
 62
               1
100
AcDbLine
 10
561.61070110008836
 20
-174.63242325371289
 30
0.0
 11
561.61070110008836
 21
-179.63242325371289
 31
0.0
  0
LINE
  5
E4
100
AcDbEntity
  8
SERVI
370
              -3
390
0
  6
Continuous
 62
               1
100
AcDbLine
 10
553.5940344334216
 20
-174.63242325371289
 30
0.0
 11
561.61070110008836
 21
-174.63242325371289
 31
0.0
  0
LINE
  5
E5
100
AcDbEntity
  8
SERVI
370
              -3
390
0
  6
Continuous
 62
               1
100
AcDbLine
 10
557.0940344334216
 20
-183.16575658704622
 30
0.0
 11
557.01070110008834
 21
-171.13242325371289
 31
0.0
  0
ENDBLK
  5
E6
100
AcDbEntity
  8
0
390
0
100
AcDbBlockEnd
  0
BLOCK
  5
D4
100
AcDbEntity
  8
0
390
0
100
AcDbBlockBegin
  2
B033146F8
 70
               0
 10
0.0
 20
0.0
 30
0.0
  3

  1

  0
LINE
  5
D5
100
AcDbEntity
  8
SERVI
370
              -3
390
0
  6
Continuous
 62
               1
100
AcDbLine
 10
516.5940344334216
 20
-174.66575658704622
 30
0.0
 11
524.5940344334216
 21
-174.66575658704622
 31
0.0
  0
LINE
  5
D6
100
AcDbEntity
  8
SERVI
370
              -3
390
0
  6
Continuous
 62
               1
100
AcDbLine
 10
516.5940344334216
 20
-174.66575658704622
 30
0.0
 11
516.5940344334216
 21
-179.63242325371289
 31
0.0
  0
INSERT
  5
DE
100
AcDbEntity
  8
SERVI
390
0
100
AcDbBlockReference
  2
B033147EC
 10
0.0
 20
0.0
 30
0.0
  0
LINE
  5
DF
100
AcDbEntity
  8
SERVI
370
              -3
390
0
  6
Continuous
 62
               1
100
AcDbLine
 10
516.5940344334216
 20
-179.63242325371289
 30
0.0
 11
524.5940344334216
 21
-179.63242325371289
 31
0.0
  0
LINE
  5
E0
100
AcDbEntity
  8
SERVI
370
              -3
390
0
  6
Continuous
 62
               1
100
AcDbLine
 10
521.01070110008834
 20
-181.2157565870462
 30
0.0
 11
521.01070110008834
 21
-171.7157565870462
 31
0.0
  0
ENDBLK
  5
E1
100
AcDbEntity
  8
0
390
0
100
AcDbBlockEnd
  0
BLOCK
  5
D8
100
AcDbEntity
  8
0
390
0
100
AcDbBlockBegin
  2
B033147EC
 70
               0
 10
0.0
 20
0.0
 30
0.0
  3

  1

  0
LINE
  5
D9
100
AcDbEntity
  8
SERVI
370
              -3
390
0
  6
Continuous
 62
               1
100
AcDbLine
 10
553.5940344334216
 20
-168.66575658704622
 30
0.0
 11
553.5940344334216
 21
-198.66575658704622
 31
0.0
  0
LINE
  5
DA
100
AcDbEntity
  8
SERVI
370
              -3
390
0
  6
Continuous
 62
               1
100
AcDbLine
 10
524.5940344334216
 20
-168.66575658704622
 30
0.0
 11
553.5940344334216
 21
-168.66575658704622
 31
0.0
  0
LINE
  5
DB
100
AcDbEntity
  8
SERVI
370
              -3
390
0
  6
Continuous
 62
               1
100
AcDbLine
 10
524.5940344334216
 20
-168.66575658704622
 30
0.0
 11
524.5940344334216
 21
-198.66575658704622
 31
0.0
  0
LINE
  5
DC
100
AcDbEntity
  8
SERVI
370
              -3
390
0
  6
Continuous
 62
               1
100
AcDbLine
 10
524.5940344334216
 20
-198.66575658704622
 30
0.0
 11
553.5940344334216
 21
-198.66575658704622
 31
0.0
  0
ENDBLK
  5
DD
100
AcDbEntity
  8
0
390
0
100
AcDbBlockEnd
  0
BLOCK
  5
E9
100
AcDbEntity
  8
0
390
0
100
AcDbBlockBegin
  2
B03314B2C
 70
               0
 10
0.0
 20
0.0
 30
0.0
  3

  1

  0
LINE
  5
EA
100
AcDbEntity
  8
SERVI
370
              -3
390
0
  6
Continuous
 62
               1
100
AcDbLine
 10
535.5940344334216
 20
-168.66575658704622
 30
0.0
 11
535.5940344334216
 21
-164.16575658704622
 31
0.0
  0
LINE
  5
EB
100
AcDbEntity
  8
SERVI
370
              -3
390
0
  6
Continuous
 62
               1
100
AcDbLine
 10
529.5940344334216
 20
-168.66575658704622
 30
0.0
 11
529.5940344334216
 21
-164.16575658704622
 31
0.0
  0
LINE
  5
EC
100
AcDbEntity
  8
SERVI
370
              -3
390
0
  6
Continuous
 62
               1
100
AcDbLine
 10
529.5940344334216
 20
-168.66575658704622
 30
0.0
 11
535.5940344334216
 21
-168.66575658704622
 31
0.0
  0
LINE
  5
ED
100
AcDbEntity
  8
SERVI
370
              -3
390
0
  6
Continuous
 62
               1
100
AcDbLine
 10
529.5940344334216
 20
-164.16575658704622
 30
0.0
 11
535.5940344334216
 21
-164.16575658704622
 31
0.0
  0
ENDBLK
  5
EE
100
AcDbEntity
  8
0
390
0
100
AcDbBlockEnd
  0
BLOCK
  5
F1
100
AcDbEntity
  8
0
390
0
100
AcDbBlockBegin
  2
B03314CC8
 70
               0
 10
0.0
 20
0.0
 30
0.0
  3

  1

  0
LINE
  5
F2
100
AcDbEntity
  8
SERVI
370
              -3
390
0
  6
Continuous
 62
               1
100
AcDbLine
 10
540.96469468337409
 20
-162.6885812488193
 30
0.0
 11
540.96469468337409
 21
-164.16575658704622
 31
0.0
  0
LINE
  5
F3
100
AcDbEntity
  8
SERVI
370
              -3
390
0
  6
Continuous
 62
               1
100
AcDbLine
 10
524.0940344334216
 20
-162.6885812488193
 30
0.0
 11
524.0940344334216
 21
-164.16575658704622
 31
0.0
  0
LINE
  5
F4
100
AcDbEntity
  8
SERVI
370
              -3
390
0
  6
Continuous
 62
               1
100
AcDbLine
 10
524.0940344334216
 20
-162.6885812488193
 30
0.0
 11
540.96469468337409
 21
-162.6885812488193
 31
0.0
  0
LINE
  5
F5
100
AcDbEntity
  8
SERVI
370
              -3
390
0
  6
Continuous
 62
               1
100
AcDbLine
 10
524.0940344334216
 20
-164.16575658704622
 30
0.0
 11
540.96469468337409
 21
-164.16575658704622
 31
0.0
  0
ENDBLK
  5
F6
100
AcDbEntity
  8
0
390
0
100
AcDbBlockEnd
  0
BLOCK
  5
109
100
AcDbEntity
  8
0
390
0
100
AcDbBlockBegin
  2
B032F4870
 70
               0
 10
0.0
 20
0.0
 30
0.0
  3

  1

  0
INSERT
  5
122
100
AcDbEntity
  8
SERVI
390
0
100
AcDbBlockReference
  2
B032F48BC
 10
0.0
 20
0.0
 30
0.0
  0
POINT
  5
123
100
AcDbEntity
  8
SERVI
390
0
  6
Continuous
 62
               1
100
AcDbPoint
 10
532.72527451187671
 20
-336.09326211152683
 30
0.0
  0
POINT
  5
124
100
AcDbEntity
  8
SERVI
390
0
  6
Continuous
 62
               1
100
AcDbPoint
 10
532.72527451187671
 20
-348.09326211152683
 30
0.0
  0
ENDBLK
  5
125
100
AcDbEntity
  8
0
390
0
100
AcDbBlockEnd
  0
BLOCK
  5
10B
100
AcDbEntity
  8
0
390
0
100
AcDbBlockBegin
  2
B032F48BC
 70
               0
 10
0.0
 20
0.0
 30
0.0
  3

  1

  0
LINE
  5
10C
100
AcDbEntity
  8
SERVI
370
              -3
390
0
  6
Continuous
 62
               1
100
AcDbLine
 10
560.72527451187671
 20
-335.59326211152683
 30
0.0
 11
560.72527451187671
 21
-348.59326211152683
 31
0.0
  0
LINE
  5
10D
100
AcDbEntity
  8
SERVI
370
              -3
390
0
  6
Continuous
 62
               1
100
AcDbLine
 10
553.72527451187671
 20
-348.59326211152683
 30
0.0
 11
560.72527451187671
 21
-348.59326211152683
 31
0.0
  0
LINE
  5
10E
100
AcDbEntity
  8
SERVI
370
              -3
390
0
  6
Continuous
 62
               1
100
AcDbLine
 10
553.72527451187671
 20
-335.59326211152683
 30
0.0
 11
553.72527451187671
 21
-348.59326211152683
 31
0.0
  0
LINE
  5
10F
100
AcDbEntity
  8
SERVI
370
              -3
390
0
  6
Continuous
 62
               1
100
AcDbLine
 10
553.72527451187671
 20
-335.59326211152683
 30
0.0
 11
560.72527451187671
 21
-335.59326211152683
 31
0.0
  0
CIRCLE
  5
110
100
AcDbEntity
  8
SERVI
370
              -3
390
0
  6
Continuous
 62
               1
100
AcDbCircle
 10
556.72527451187671
 20
-342.09326211152683
 30
0.0
 40
0.9
  0
LINE
  5
111
100
AcDbEntity
  8
SERVI
370
              -3
390
0
  6
Continuous
 62
               1
100
AcDbLine
 10
512.72527451187671
 20
-342.09326211152683
 30
0.0
 11
563.72527451187671
 21
-342.09326211152683
 31
0.0
  0
CIRCLE
  5
112
100
AcDbEntity
  8
SERVI
370
              -3
390
0
  6
Continuous
 62
               1
100
AcDbCircle
 10
532.72527451187671
 20
-342.09326211152683
 30
0.0
 40
8.5
  0
INSERT
  5
11A
100
AcDbEntity
  8
SERVI
390
0
100
AcDbBlockReference
  2
B032F4B44
 10
0.0
 20
0.0
 30
0.0
  0
CIRCLE
  5
11B
100
AcDbEntity
  8
SERVI
370
              -3
390
0
  6
Continuous
 62
               1
100
AcDbCircle
 10
532.72527451187671
 20
-336.09326211152683
 30
0.0
 40
2.25
  0
LINE
  5
11C
100
AcDbEntity
  8
SERVI
370
              -3
390
0
  6
Continuous
 62
               1
100
AcDbLine
 10
524.72527451187671
 20
-335.59326211152683
 30
0.0
 11
516.72527451187671
 21
-335.59326211152683
 31
0.0
  0
LINE
  5
11D
100
AcDbEntity
  8
SERVI
370
              -3
390
0
  6
Continuous
 62
               1
100
AcDbLine
 10
516.72527451187671
 20
-335.59326211152683
 30
0.0
 11
516.72527451187671
 21
-348.59326211152683
 31
0.0
  0
CIRCLE
  5
11E
100
AcDbEntity
  8
SERVI
370
              -3
390
0
  6
Continuous
 62
               1
100
AcDbCircle
 10
520.72527451187671
 20
-342.09326211152683
 30
0.0
 40
0.9
  0
LINE
  5
11F
100
AcDbEntity
  8
SERVI
370
              -3
390
0
  6
Continuous
 62
               1
100
AcDbLine
 10
524.72527451187671
 20
-348.59326211152683
 30
0.0
 11
516.72527451187671
 21
-348.59326211152683
 31
0.0
  0
CIRCLE
  5
120
100
AcDbEntity
  8
SERVI
370
              -3
390
0
  6
Continuous
 62
               1
100
AcDbCircle
 10
532.72527451187671
 20
-348.09326211152683
 30
0.0
 40
2.25
  0
ENDBLK
  5
121
100
AcDbEntity
  8
0
390
0
100
AcDbBlockEnd
  0
BLOCK
  5
114
100
AcDbEntity
  8
0
390
0
100
AcDbBlockBegin
  2
B032F4B44
 70
               0
 10
0.0
 20
0.0
 30
0.0
  3

  1

  0
LINE
  5
115
100
AcDbEntity
  8
SERVI
370
              -3
390
0
  6
Continuous
 62
               1
100
AcDbLine
 10
553.72527451187671
 20
-348.59326211152683
 30
0.0
 11
553.72527451187671
 21
-335.59326211152683
 31
0.0
  0
LINE
  5
116
100
AcDbEntity
  8
SERVI
370
              -3
390
0
  6
Continuous
 62
               1
100
AcDbLine
 10
524.72527451187671
 20
-335.59326211152683
 30
0.0
 11
553.72527451187671
 21
-335.59326211152683
 31
0.0
  0
LINE
  5
117
100
AcDbEntity
  8
SERVI
370
              -3
390
0
  6
Continuous
 62
               1
100
AcDbLine
 10
524.72527451187671
 20
-348.59326211152683
 30
0.0
 11
524.72527451187671
 21
-335.59326211152683
 31
0.0
  0
LINE
  5
118
100
AcDbEntity
  8
SERVI
370
              -3
390
0
  6
Continuous
 62
               1
100
AcDbLine
 10
524.72527451187671
 20
-348.59326211152683
 30
0.0
 11
553.72527451187671
 21
-348.59326211152683
 31
0.0
  0
ENDBLK
  5
119
100
AcDbEntity
  8
0
390
0
100
AcDbBlockEnd
  0
BLOCK
  5
128
100
AcDbEntity
  8
0
390
0
100
AcDbBlockBegin
  2
B0249283C
 70
               0
 10
0.0
 20
0.0
 30
0.0
  3

  1

  0
INSERT
  5
141
100
AcDbEntity
  8
SERVI
390
0
100
AcDbBlockReference
  2
B02492888
 10
0.0
 20
0.0
 30
0.0
  0
POINT
  5
142
100
AcDbEntity
  8
SERVI
390
0
  6
Continuous
 62
               1
100
AcDbPoint
 10
532.72527451187671
 20
-369.806034381578
 30
0.0
  0
POINT
  5
143
100
AcDbEntity
  8
SERVI
390
0
  6
Continuous
 62
               1
100
AcDbPoint
 10
532.72527451187671
 20
-381.806034381578
 30
0.0
  0
ENDBLK
  5
144
100
AcDbEntity
  8
0
390
0
100
AcDbBlockEnd
  0
BLOCK
  5
12A
100
AcDbEntity
  8
0
390
0
100
AcDbBlockBegin
  2
B02492888
 70
               0
 10
0.0
 20
0.0
 30
0.0
  3

  1

  0
LINE
  5
12B
100
AcDbEntity
  8
SERVI
370
              -3
390
0
  6
Continuous
 62
               1
100
AcDbLine
 10
560.72527451187671
 20
-369.306034381578
 30
0.0
 11
560.72527451187671
 21
-382.306034381578
 31
0.0
  0
LINE
  5
12C
100
AcDbEntity
  8
SERVI
370
              -3
390
0
  6
Continuous
 62
               1
100
AcDbLine
 10
553.72527451187671
 20
-382.306034381578
 30
0.0
 11
560.72527451187671
 21
-382.306034381578
 31
0.0
  0
LINE
  5
12D
100
AcDbEntity
  8
SERVI
370
              -3
390
0
  6
Continuous
 62
               1
100
AcDbLine
 10
553.72527451187671
 20
-369.306034381578
 30
0.0
 11
553.72527451187671
 21
-382.306034381578
 31
0.0
  0
LINE
  5
12E
100
AcDbEntity
  8
SERVI
370
              -3
390
0
  6
Continuous
 62
               1
100
AcDbLine
 10
553.72527451187671
 20
-369.306034381578
 30
0.0
 11
560.72527451187671
 21
-369.306034381578
 31
0.0
  0
CIRCLE
  5
12F
100
AcDbEntity
  8
SERVI
370
              -3
390
0
  6
Continuous
 62
               1
100
AcDbCircle
 10
556.72527451187671
 20
-375.806034381578
 30
0.0
 40
0.9
  0
LINE
  5
130
100
AcDbEntity
  8
SERVI
370
              -3
390
0
  6
Continuous
 62
               1
100
AcDbLine
 10
512.72527451187671
 20
-375.806034381578
 30
0.0
 11
563.72527451187671
 21
-375.806034381578
 31
0.0
  0
CIRCLE
  5
131
100
AcDbEntity
  8
SERVI
370
              -3
390
0
  6
Continuous
 62
               1
100
AcDbCircle
 10
532.72527451187671
 20
-375.806034381578
 30
0.0
 40
8.5
  0
INSERT
  5
139
100
AcDbEntity
  8
SERVI
390
0
100
AcDbBlockReference
  2
B02492B10
 10
0.0
 20
0.0
 30
0.0
  0
CIRCLE
  5
13A
100
AcDbEntity
  8
SERVI
370
              -3
390
0
  6
Continuous
 62
               1
100
AcDbCircle
 10
532.72527451187671
 20
-369.806034381578
 30
0.0
 40
2.25
  0
LINE
  5
13B
100
AcDbEntity
  8
SERVI
370
              -3
390
0
  6
Continuous
 62
               1
100
AcDbLine
 10
524.72527451187671
 20
-369.306034381578
 30
0.0
 11
516.72527451187671
 21
-369.306034381578
 31
0.0
  0
LINE
  5
13C
100
AcDbEntity
  8
SERVI
370
              -3
390
0
  6
Continuous
 62
               1
100
AcDbLine
 10
516.72527451187671
 20
-369.306034381578
 30
0.0
 11
516.72527451187671
 21
-382.306034381578
 31
0.0
  0
CIRCLE
  5
13D
100
AcDbEntity
  8
SERVI
370
              -3
390
0
  6
Continuous
 62
               1
100
AcDbCircle
 10
520.72527451187671
 20
-375.806034381578
 30
0.0
 40
0.9
  0
LINE
  5
13E
100
AcDbEntity
  8
SERVI
370
              -3
390
0
  6
Continuous
 62
               1
100
AcDbLine
 10
524.72527451187671
 20
-382.306034381578
 30
0.0
 11
516.72527451187671
 21
-382.306034381578
 31
0.0
  0
CIRCLE
  5
13F
100
AcDbEntity
  8
SERVI
370
              -3
390
0
  6
Continuous
 62
               1
100
AcDbCircle
 10
532.72527451187671
 20
-381.806034381578
 30
0.0
 40
2.25
  0
ENDBLK
  5
140
100
AcDbEntity
  8
0
390
0
100
AcDbBlockEnd
  0
BLOCK
  5
133
100
AcDbEntity
  8
0
390
0
100
AcDbBlockBegin
  2
B02492B10
 70
               0
 10
0.0
 20
0.0
 30
0.0
  3

  1

  0
LINE
  5
134
100
AcDbEntity
  8
SERVI
370
              -3
390
0
  6
Continuous
 62
               1
100
AcDbLine
 10
553.72527451187671
 20
-382.306034381578
 30
0.0
 11
553.72527451187671
 21
-369.306034381578
 31
0.0
  0
LINE
  5
135
100
AcDbEntity
  8
SERVI
370
              -3
390
0
  6
Continuous
 62
               1
100
AcDbLine
 10
524.72527451187671
 20
-369.306034381578
 30
0.0
 11
553.72527451187671
 21
-369.306034381578
 31
0.0
  0
LINE
  5
136
100
AcDbEntity
  8
SERVI
370
              -3
390
0
  6
Continuous
 62
               1
100
AcDbLine
 10
524.72527451187671
 20
-382.306034381578
 30
0.0
 11
524.72527451187671
 21
-369.306034381578
 31
0.0
  0
LINE
  5
137
100
AcDbEntity
  8
SERVI
370
              -3
390
0
  6
Continuous
 62
               1
100
AcDbLine
 10
524.72527451187671
 20
-382.306034381578
 30
0.0
 11
553.72527451187671
 21
-382.306034381578
 31
0.0
  0
ENDBLK
  5
138
100
AcDbEntity
  8
0
390
0
100
AcDbBlockEnd
  0
BLOCK
  5
147
100
AcDbEntity
  8
0
390
0
100
AcDbBlockBegin
  2
B02492EFC
 70
               0
 10
0.0
 20
0.0
 30
0.0
  3

  1

  0
LINE
  5
148
100
AcDbEntity
  8
SERVI
370
              -3
390
0
  6
Continuous
 62
               1
100
AcDbLine
 10
560.8550222763555
 20
-380.32696603817345
 30
0.0
 11
573.8550222763555
 21
-380.32696603817345
 31
0.0
  0
LINE
  5
149
100
AcDbEntity
  8
SERVI
370
              -3
390
0
  6
Continuous
 62
               1
100
AcDbLine
 10
573.8550222763555
 20
-338.32696603817345
 30
0.0
 11
573.8550222763555
 21
-380.32696603817345
 31
0.0
  0
INSERT
  5
15F
100
AcDbEntity
  8
SERVI
390
0
100
AcDbBlockReference
  2
B02492FF0
 10
0.0
 20
0.0
 30
0.0
  0
LINE
  5
160
100
AcDbEntity
  8
SERVI
370
              -3
390
0
  6
Continuous
 62
               1
100
AcDbLine
 10
567.39668894302224
 20
-334.22696603817343
 30
0.0
 11
567.39668894302224
 21
-384.56029937150674
 31
0.0
  0
LINE
  5
161
100
AcDbEntity
  8
SERVI
370
              -3
390
0
  6
Continuous
 62
               1
100
AcDbLine
 10
560.8550222763555
 20
-338.32696603817345
 30
0.0
 11
560.8550222763555
 21
-380.32696603817345
 31
0.0
  0
INSERT
  5
174
100
AcDbEntity
  8
SERVI
390
0
100
AcDbBlockReference
  2
B02C3E834
 10
0.0
 20
0.0
 30
0.0
  0
LINE
  5
175
100
AcDbEntity
  8
SERVI
370
              -3
390
0
  6
Continuous
 62
               1
100
AcDbLine
 10
560.8550222763555
 20
-338.32696603817345
 30
0.0
 11
573.8550222763555
 21
-338.32696603817345
 31
0.0
  0
ENDBLK
  5
176
100
AcDbEntity
  8
0
390
0
100
AcDbBlockEnd
  0
BLOCK
  5
14B
100
AcDbEntity
  8
0
390
0
100
AcDbBlockBegin
  2
B02492FF0
 70
               0
 10
0.0
 20
0.0
 30
0.0
  3

  1

  0
INSERT
  5
154
100
AcDbEntity
  8
SERVI
390
0
100
AcDbBlockReference
  2
B02C3E3BC
 10
0.0
 20
0.0
 30
0.0
  0
INSERT
  5
15D
100
AcDbEntity
  8
SERVI
390
0
100
AcDbBlockReference
  2
B02C3E5A4
 10
0.0
 20
0.0
 30
0.0
  0
ENDBLK
  5
15E
100
AcDbEntity
  8
0
390
0
100
AcDbBlockEnd
  0
BLOCK
  5
14D
100
AcDbEntity
  8
0
390
0
100
AcDbBlockBegin
  2
B02C3E3BC
 70
               0
 10
0.0
 20
0.0
 30
0.0
  3

  1

  0
CIRCLE
  5
14E
100
AcDbEntity
  8
SERVI
370
              -3
390
0
  6
Continuous
 62
               1
100
AcDbCircle
 10
567.3550222763555
 20
-372.66029937150677
 30
0.0
 40
2.5
  0
LINE
  5
14F
100
AcDbEntity
  8
SERVI
370
              -3
390
0
  6
Continuous
 62
               1
100
AcDbLine
 10
567.3550222763555
 20
-372.66029937150677
 30
0.0
 11
569.16341113671444
 21
-374.38648873821302
 31
0.0
  0
LINE
  5
150
100
AcDbEntity
  8
SERVI
370
              -3
390
0
  6
Continuous
 62
               1
100
AcDbLine
 10
565.80326491544167
 20
-374.62041393266117
 30
0.0
 11
568.99546906366754
 21
-370.77378556609801
 31
0.0
  0
LINE
  5
151
100
AcDbEntity
  8
SERVI
370
              -3
390
0
  6
Continuous
 62
               1
100
AcDbLine
 10
569.16341113671444
 20
-374.38648873821302
 30
0.0
 11
565.54663341599655
 21
-370.93411000480052
 31
0.0
  0
LINE
  5
152
100
AcDbEntity
  8
SERVI
370
              -3
390
0
  6
Continuous
 62
               1
100
AcDbLine
 10
567.3550222763555
 20
-372.66029937150677
 30
0.0
 11
565.80326491544167
 21
-374.62041393266117
 31
0.0
  0
ENDBLK
  5
153
100
AcDbEntity
  8
0
390
0
100
AcDbBlockEnd
  0
BLOCK
  5
156
100
AcDbEntity
  8
0
390
0
100
AcDbBlockBegin
  2
B02C3E5A4
 70
               0
 10
0.0
 20
0.0
 30
0.0
  3

  1

  0
CIRCLE
  5
157
100
AcDbEntity
  8
SERVI
370
              -3
390
0
  6
Continuous
 62
               1
100
AcDbCircle
 10
567.3550222763555
 20
-344.66029937150677
 30
0.0
 40
2.5
  0
LINE
  5
158
100
AcDbEntity
  8
SERVI
370
              -3
390
0
  6
Continuous
 62
               1
100
AcDbLine
 10
567.3550222763555
 20
-344.66029937150677
 30
0.0
 11
569.16341113671444
 21
-346.38648873821302
 31
0.0
  0
LINE
  5
159
100
AcDbEntity
  8
SERVI
370
              -3
390
0
  6
Continuous
 62
               1
100
AcDbLine
 10
565.80326491544167
 20
-346.62041393266117
 30
0.0
 11
568.99546906366754
 21
-342.77378556609801
 31
0.0
  0
LINE
  5
15A
100
AcDbEntity
  8
SERVI
370
              -3
390
0
  6
Continuous
 62
               1
100
AcDbLine
 10
569.16341113671444
 20
-346.38648873821302
 30
0.0
 11
565.54663341599655
 21
-342.93411000480052
 31
0.0
  0
LINE
  5
15B
100
AcDbEntity
  8
SERVI
370
              -3
390
0
  6
Continuous
 62
               1
100
AcDbLine
 10
567.3550222763555
 20
-344.66029937150677
 30
0.0
 11
565.80326491544167
 21
-346.62041393266117
 31
0.0
  0
ENDBLK
  5
15C
100
AcDbEntity
  8
0
390
0
100
AcDbBlockEnd
  0
BLOCK
  5
163
100
AcDbEntity
  8
0
390
0
100
AcDbBlockBegin
  2
B02C3E834
 70
               0
 10
0.0
 20
0.0
 30
0.0
  3

  1

  0
LINE
  5
164
100
AcDbEntity
  8
SERVI
370
              -3
390
0
  6
Continuous
 62
               1
100
AcDbLine
 10
570.8550222763555
 20
-365.82696603817345
 30
0.0
 11
563.8550222763555
 21
-365.82696603817345
 31
0.0
  0
LINE
  5
165
100
AcDbEntity
  8
SERVI
370
              -3
390
0
  6
Continuous
 62
               1
100
AcDbLine
 10
570.8550222763555
 20
-352.82696603817345
 30
0.0
 11
570.8550222763555
 21
-365.82696603817345
 31
0.0
  0
LINE
  5
166
100
AcDbEntity
  8
SERVI
370
              -3
390
0
  6
Continuous
 62
               1
100
AcDbLine
 10
563.8550222763555
 20
-352.82696603817345
 30
0.0
 11
570.8550222763555
 21
-352.82696603817345
 31
0.0
  0
LINE
  5
167
100
AcDbEntity
  8
SERVI
370
              -3
390
0
  6
Continuous
 62
               1
100
AcDbLine
 10
570.2300222763555
 20
-353.41029937150677
 30
0.0
 11
564.4800222763555
 21
-353.41029937150677
 31
0.0
  0
LINE
  5
168
100
AcDbEntity
  8
SERVI
370
              -3
390
0
  6
Continuous
 62
               1
100
AcDbLine
 10
570.2300222763555
 20
-354.07696603817345
 30
0.0
 11
564.4800222763555
 21
-354.07696603817345
 31
0.0
  0
LINE
  5
169
100
AcDbEntity
  8
SERVI
370
              -3
390
0
  6
Continuous
 62
               1
100
AcDbLine
 10
570.2300222763555
 20
-354.74363270484008
 30
0.0
 11
564.4800222763555
 21
-354.74363270484008
 31
0.0
  0
LINE
  5
16A
100
AcDbEntity
  8
SERVI
370
              -3
390
0
  6
Continuous
 62
               1
100
AcDbLine
 10
570.2300222763555
 20
-355.32696603817345
 30
0.0
 11
564.4800222763555
 21
-355.32696603817345
 31
0.0
  0
LINE
  5
16B
100
AcDbEntity
  8
SERVI
370
              -3
390
0
  6
Continuous
 62
               1
100
AcDbLine
 10
570.2300222763555
 20
-355.91029937150677
 30
0.0
 11
564.4800222763555
 21
-355.91029937150677
 31
0.0
  0
LINE
  5
16C
100
AcDbEntity
  8
SERVI
370
              -3
390
0
  6
Continuous
 62
               1
100
AcDbLine
 10
570.2300222763555
 20
-356.57696603817345
 30
0.0
 11
564.4800222763555
 21
-356.57696603817345
 31
0.0
  0
LINE
  5
16D
100
AcDbEntity
  8
SERVI
370
              -3
390
0
  6
Continuous
 62
               1
100
AcDbLine
 10
570.2300222763555
 20
-357.24363270484008
 30
0.0
 11
564.4800222763555
 21
-357.24363270484008
 31
0.0
  0
LINE
  5
16E
100
AcDbEntity
  8
SERVI
370
              -3
390
0
  6
Continuous
 62
               1
100
AcDbLine
 10
570.14668894302224
 20
-357.91029937150677
 30
0.0
 11
564.4800222763555
 21
-357.91029937150677
 31
0.0
  0
LINE
  5
16F
100
AcDbEntity
  8
SERVI
370
              -3
390
0
  6
Continuous
 62
               1
100
AcDbLine
 10
564.4800222763555
 20
-358.66029937150677
 30
0.0
 11
570.2300222763555
 21
-358.66029937150677
 31
0.0
  0
LINE
  5
170
100
AcDbEntity
  8
SERVI
370
              -3
390
0
  6
Continuous
 62
               1
100
AcDbLine
 10
570.2300222763555
 20
-358.66029937150677
 30
0.0
 11
570.2300222763555
 21
-353.41029937150677
 31
0.0
  0
LINE
  5
171
100
AcDbEntity
  8
SERVI
370
              -3
390
0
  6
Continuous
 62
               1
100
AcDbLine
 10
564.4800222763555
 20
-353.41029937150677
 30
0.0
 11
564.4800222763555
 21
-358.66029937150677
 31
0.0
  0
LINE
  5
172
100
AcDbEntity
  8
SERVI
370
              -3
390
0
  6
Continuous
 62
               1
100
AcDbLine
 10
563.8550222763555
 20
-365.82696603817345
 30
0.0
 11
563.8550222763555
 21
-352.82696603817345
 31
0.0
  0
ENDBLK
  5
173
100
AcDbEntity
  8
0
390
0
100
AcDbBlockEnd
  0
BLOCK
  5
188
100
AcDbEntity
  8
0
390
0
100
AcDbBlockBegin
  2
B02BF2FF0
 70
               0
 10
0.0
 20
0.0
 30
0.0
  3

  1

  0
LINE
  5
189
100
AcDbEntity
  8
ORDINATE
390
0
100
AcDbLine
 10
524.32419297724323
 20
-333.51205398728132
 30
0.0
 11
554.66108473278541
 21
-333.51205398728132
 31
0.0
  0
LINE
  5
18A
100
AcDbEntity
  8
ORDINATE
390
0
100
AcDbLine
 10
554.66108473278541
 20
-333.51205398728132
 30
0.0
 11
554.66108473278541
 21
-347.65837893750984
 31
0.0
  0
LINE
  5
18B
100
AcDbEntity
  8
ORDINATE
390
0
100
AcDbLine
 10
524.32419297724323
 20
-347.65837893750984
 30
0.0
 11
554.66108473278541
 21
-347.65837893750984
 31
0.0
  0
LINE
  5
18C
100
AcDbEntity
  8
ORDINATE
390
0
100
AcDbLine
 10
524.32419297724323
 20
-333.51205398728132
 30
0.0
 11
524.32419297724323
 21
-347.65837893750984
 31
0.0
  0
ENDBLK
  5
18D
100
AcDbEntity
  8
0
390
0
100
AcDbBlockEnd
  0
BLOCK
  5
190
100
AcDbEntity
  8
0
390
0
100
AcDbBlockBegin
  2
B024866C4
 70
               0
 10
0.0
 20
0.0
 30
0.0
  3

  1

  0
LINE
  5
191
100
AcDbEntity
  8
ORDINATE
390
0
100
AcDbLine
 10
524.34014394940232
 20
-351.86246034525396
 30
0.0
 11
554.69296937200147
 21
-351.86246034525396
 31
0.0
  0
LINE
  5
192
100
AcDbEntity
  8
ORDINATE
390
0
100
AcDbLine
 10
554.69296937200147
 20
-351.86246034525396
 30
0.0
 11
554.69296937200147
 21
-366.0162152864537
 31
0.0
  0
LINE
  5
193
100
AcDbEntity
  8
ORDINATE
390
0
100
AcDbLine
 10
524.34014394940232
 20
-366.0162152864537
 30
0.0
 11
554.69296937200147
 21
-366.0162152864537
 31
0.0
  0
LINE
  5
194
100
AcDbEntity
  8
ORDINATE
390
0
100
AcDbLine
 10
524.34014394940232
 20
-351.86246034525396
 30
0.0
 11
524.34014394940232
 21
-366.0162152864537
 31
0.0
  0
ENDBLK
  5
195
100
AcDbEntity
  8
0
390
0
100
AcDbBlockEnd
  0
BLOCK
  5
198
100
AcDbEntity
  8
0
390
0
100
AcDbBlockBegin
  2
B02486860
 70
               0
 10
0.0
 20
0.0
 30
0.0
  3

  1

  0
LINE
  5
199
100
AcDbEntity
  8
ORDINATE
390
0
100
AcDbLine
 10
524.30212569243042
 20
-370.23414544445569
 30
0.0
 11
554.65495111502958
 21
-370.23414544445569
 31
0.0
  0
LINE
  5
19A
100
AcDbEntity
  8
ORDINATE
390
0
100
AcDbLine
 10
554.65495111502958
 20
-370.23414544445569
 30
0.0
 11
554.65495111502958
 21
-384.38790038565537
 31
0.0
  0
LINE
  5
19B
100
AcDbEntity
  8
ORDINATE
390
0
100
AcDbLine
 10
524.30212569243042
 20
-384.38790038565537
 30
0.0
 11
554.65495111502958
 21
-384.38790038565537
 31
0.0
  0
LINE
  5
19C
100
AcDbEntity
  8
ORDINATE
390
0
100
AcDbLine
 10
524.30212569243042
 20
-370.23414544445569
 30
0.0
 11
524.30212569243042
 21
-384.38790038565537
 31
0.0
  0
ENDBLK
  5
19D
100
AcDbEntity
  8
0
390
0
100
AcDbBlockEnd
  0
BLOCK
  5
1A9
100
AcDbEntity
  8
0
390
0
100
AcDbBlockBegin
  2
B02486CF0
 70
               0
 10
0.0
 20
0.0
 30
0.0
  3

  1

  0
LINE
  5
1AA
100
AcDbEntity
  8
ORDINATE
390
0
100
AcDbLine
 10
573.87197915248771
 20
-185.45622286352915
 30
0.0
 11
513.22495031616609
 21
-185.45622286352915
 31
0.0
  0
LINE
  5
1AB
100
AcDbEntity
  8
ORDINATE
390
0
100
AcDbLine
 10
513.2307952014994
 20
-182.44422931926323
 30
0.0
 11
573.8710401097062
 21
-182.44422931926323
 31
0.0
  0
LINE
  5
1AC
100
AcDbEntity
  8
ORDINATE
390
0
100
AcDbLine
 10
523.35264279758496
 20
-182.44422931926323
 30
0.0
 11
523.35264279758496
 21
-185.24108046751016
 31
0.0
  0
LINE
  5
1AD
100
AcDbEntity
  8
ORDINATE
390
0
100
AcDbLine
 10
513.22495031616609
 20
-185.45622286352915
 30
0.0
 11
513.22495031616609
 21
-182.44418682349038
 31
0.0
  0
LINE
  5
1AE
100
AcDbEntity
  8
ORDINATE
390
0
100
AcDbLine
 10
554.97857501237718
 20
-182.44422931926323
 30
0.0
 11
554.97857501237718
 21
-185.45622286352915
 31
0.0
  0
CIRCLE
  5
1AF
100
AcDbEntity
  8
ORDINATE
390
0
100
AcDbCircle
 10
567.26299660728012
 20
-180.57662389674641
 30
0.0
 40
1.75
  0
LINE
  5
1B0
100
AcDbEntity
  8
ORDINATE
390
0
100
AcDbLine
 10
567.26299660728012
 20
-175.63979751596656
 30
0.0
 11
567.26299660728012
 21
-184.45898250687426
 31
0.0
  0
LINE
  5
1B1
100
AcDbEntity
  8
ORDINATE
390
0
100
AcDbLine
 10
573.95917811331014
 20
-182.39665803719853
 30
0.0
 11
573.95917811331014
 21
-185.40865158146445
 31
0.0
  0
ENDBLK
  5
1B2
100
AcDbEntity
  8
0
390
0
100
AcDbBlockEnd
  0
BLOCK
  5
1B6
100
AcDbEntity
  8
0
390
0
100
AcDbBlockBegin
  2
B02BEDB70
 70
               0
 10
0.0
 20
0.0
 30
0.0
  3

  1

  0
LINE
  5
1B7
100
AcDbEntity
  8
PIANI_DI_CODA
390
0
100
AcDbLine
 10
866.78268498813986
 20
-559.95899410413983
 30
0.0
 11
858.71663758636362
 21
-368.33926242233713
 31
0.0
  0
LINE
  5
1B8
100
AcDbEntity
  8
PIANI_DI_CODA
390
0
100
AcDbLine
 10
951.96300041390646
 20
-602.89197219713515
 30
0.0
 11
889.7136936780762
 21
-587.85897635276797
 31
0.0
  0
ARC
  5
1B9
100
AcDbEntity
  8
PIANI_DI_CODA
390
0
100
AcDbCircle
 10
896.75614164237868
 20
-558.69729041607889
 30
0.0
 40
30.0
100
AcDbArc
 50
182.41038747209655
 51
256.42321564484206
  0
LINE
  5
1BA
100
AcDbEntity
  8
PIANI_DI_CODA
390
0
100
AcDbLine
 10
940.32842412496359
 20
-571.98134482206729
 30
0.0
 11
958.10274587295851
 21
-368.81991759637737
 31
0.0
  0
LINE
  5
1BB
100
AcDbEntity
  8
PIANI_DI_CODA
390
0
100
AcDbLine
 10
954.83573530006515
 20
-575.88826426724313
 30
0.0
 11
940.47206086927156
 21
-572.44098240385267
 31
0.0
  0
LINE
  5
1BC
100
AcDbEntity
  8
PIANI_DI_CODA
390
0
100
AcDbLine
 10
978.21517232298129
 20
-368.33926242233713
 30
0.0
 11
951.62377245357152
 21
-602.89155219741315
 31
0.0
  0
LINE
  5
1BD
100
AcDbEntity
  8
PIANI_DI_CODA
390
0
100
AcDbLine
 10
858.71663758636362
 20
-368.33926242233713
 30
0.0
 11
978.21517232298129
 21
-368.33926242233713
 31
0.0
  0
ENDBLK
  5
1BE
100
AcDbEntity
  8
0
390
0
100
AcDbBlockEnd
  0
BLOCK
  5
1C1
100
AcDbEntity
  8
0
390
0
100
AcDbBlockBegin
  2
B02BEDE14
 70
               0
 10
0.0
 20
0.0
 30
0.0
  3

  1

  0
CIRCLE
  5
1C2
100
AcDbEntity
  8
ORDINATE
390
0
100
AcDbCircle
 10
289.25086562653877
 20
-359.23856309038092
 30
0.0
 40
1.5
  0
CIRCLE
  5
1C3
100
AcDbEntity
  8
ORDINATE
390
0
100
AcDbCircle
 10
264.2559624725464
 20
-383.26592160615428
 30
0.0
 40
1.5
  0
CIRCLE
  5
1C4
100
AcDbEntity
  8
ORDINATE
390
0
100
AcDbCircle
 10
264.2559624725464
 20
-335.04994713490447
 30
0.0
 40
1.5
  0
LINE
  5
1C5
100
AcDbEntity
  8
ORDINATE
390
0
100
AcDbLine
 10
258.23322989817058
 20
-323.14668820588628
 30
0.0
 11
293.64619348013287
 21
-322.89301254950283
 31
0.0
  0
LINE
  5
1C6
100
AcDbEntity
  8
ORDINATE
390
0
100
AcDbLine
 10
258.17565375737007
 20
-395.14508155784904
 30
0.0
 11
293.5621270917984
 21
-395.68388175561972
 31
0.0
  0
LINE
  5
1C7
100
AcDbEntity
  8
ORDINATE
390
0
100
AcDbLine
 10
258.23365846184748
 20
-323.1061388321292
 30
0.0
 11
258.15687305514069
 21
-395.14364058239698
 31
0.0
  0
LINE
  5
1C8
100
AcDbEntity
  8
ORDINATE
390
0
100
AcDbLine
 10
293.63427926154918
 20
-322.89461760010079
 30
0.0
 11
293.57399140978441
 21
-395.71132387143479
 31
0.0
  0
ENDBLK
  5
1C9
100
AcDbEntity
  8
0
390
0
100
AcDbBlockEnd
  0
BLOCK
  5
1CC
100
AcDbEntity
  8
0
390
0
100
AcDbBlockBegin
  2
B02BEE094
 70
               0
 10
0.0
 20
0.0
 30
0.0
  3

  1

  0
LINE
  5
1CD
100
AcDbEntity
  8
FIANCATE
390
0
  6
Continuous
100
AcDbLine
 10
244.65662559763447
 20
-219.71749986024963
 30
0.0
 11
230.04508220555695
 21
-218.82608045984622
 31
0.0
  0
LINE
  5
1CE
100
AcDbEntity
  8
FIANCATE
390
0
  6
Continuous
100
AcDbLine
 10
665.24875830421013
 20
-205.13293311302951
 30
0.0
 11
651.43075830421014
 21
-206.20393311302951
 31
0.0
  0
LINE
  5
1CF
100
AcDbEntity
  8
FIANCATE
390
0
  6
Continuous
100
AcDbLine
 10
651.43075830421014
 20
-206.20393311302951
 30
0.0
 11
637.40275830421012
 21
-207.28543311302951
 31
0.0
  0
LINE
  5
1D0
100
AcDbEntity
  8
FIANCATE
390
0
  6
Continuous
100
AcDbLine
 10
637.40275830421012
 20
-207.28543311302951
 30
0.0
 11
623.25925830421011
 21
-208.3774331130295
 31
0.0
  0
LINE
  5
1D1
100
AcDbEntity
  8
FIANCATE
390
0
  6
Continuous
100
AcDbLine
 10
623.25925830421011
 20
-208.3774331130295
 30
0.0
 11
609.11575830421009
 21
-209.46943311302951
 31
0.0
  0
LINE
  5
1D2
100
AcDbEntity
  8
FIANCATE
390
0
  6
Continuous
100
AcDbLine
 10
609.11575830421009
 20
-209.46943311302951
 30
0.0
 11
595.00375830421012
 21
-210.56143311302949
 31
0.0
  0
LINE
  5
1D3
100
AcDbEntity
  8
FIANCATE
390
0
  6
Continuous
100
AcDbLine
 10
595.00375830421012
 20
-210.56143311302949
 30
0.0
 11
580.93375830421007
 21
-211.65343311302951
 31
0.0
  0
LINE
  5
1D4
100
AcDbEntity
  8
FIANCATE
390
0
  6
Continuous
100
AcDbLine
 10
580.93375830421007
 20
-211.65343311302951
 30
0.0
 11
566.90575830421017
 21
-212.73493311302951
 31
0.0
  0
LINE
  5
1D5
100
AcDbEntity
  8
FIANCATE
390
0
  6
Continuous
100
AcDbLine
 10
566.90575830421017
 20
-212.73493311302951
 30
0.0
 11
552.90925830421008
 21
-213.81643311302949
 31
0.0
  0
LINE
  5
1D6
100
AcDbEntity
  8
FIANCATE
390
0
  6
Continuous
100
AcDbLine
 10
552.90925830421008
 20
-213.81643311302949
 30
0.0
 11
538.99675830421006
 21
-214.88743311302949
 31
0.0
  0
LINE
  5
1D7
100
AcDbEntity
  8
FIANCATE
390
0
  6
Continuous
100
AcDbLine
 10
538.99675830421006
 20
-214.88743311302949
 30
0.0
 11
525.21025830421013
 21
-215.95843311302949
 31
0.0
  0
LINE
  5
1D8
100
AcDbEntity
  8
FIANCATE
390
0
  6
Continuous
100
AcDbLine
 10
525.21025830421013
 20
-215.95843311302949
 30
0.0
 11
511.78075830421011
 21
-216.98743311302951
 31
0.0
  0
LINE
  5
1D9
100
AcDbEntity
  8
FIANCATE
390
0
  6
Continuous
100
AcDbLine
 10
511.78075830421011
 20
-216.98743311302951
 30
0.0
 11
498.70825830421012
 21
-217.99543311302949
 31
0.0
  0
LINE
  5
1DA
100
AcDbEntity
  8
FIANCATE
390
0
  6
Continuous
100
AcDbLine
 10
498.70825830421012
 20
-217.99543311302949
 30
0.0
 11
485.5937583042101
 21
-218.8879331130295
 31
0.0
  0
LINE
  5
1DB
100
AcDbEntity
  8
FIANCATE
390
0
  6
Continuous
100
AcDbLine
 10
485.5937583042101
 20
-218.8879331130295
 30
0.0
 11
472.47925830421013
 21
-219.7174331130295
 31
0.0
  0
LINE
  5
1DC
100
AcDbEntity
  8
FIANCATE
390
0
  6
Continuous
100
AcDbLine
 10
472.47925830421013
 20
-219.7174331130295
 30
0.0
 11
459.27025830421013
 21
-220.4734331130295
 31
0.0
  0
LINE
  5
1DD
100
AcDbEntity
  8
FIANCATE
390
0
  6
Continuous
100
AcDbLine
 10
459.27025830421013
 20
-220.4734331130295
 30
0.0
 11
446.04025830421011
 21
-221.1559331130295
 31
0.0
  0
LINE
  5
1DE
100
AcDbEntity
  8
FIANCATE
390
0
  6
Continuous
100
AcDbLine
 10
432.70525830421013
 20
-221.76493311302951
 30
0.0
 11
419.26525830421014
 21
-222.28993311302949
 31
0.0
  0
LINE
  5
1DF
100
AcDbEntity
  8
FIANCATE
390
0
  6
Continuous
100
AcDbLine
 10
419.26525830421014
 20
-222.28993311302949
 30
0.0
 11
405.67825830421009
 21
-222.73093311302949
 31
0.0
  0
LINE
  5
1E0
100
AcDbEntity
  8
FIANCATE
390
0
  6
Continuous
100
AcDbLine
 10
405.67825830421009
 20
-222.73093311302949
 30
0.0
 11
391.96525830421012
 21
-223.07743311302951
 31
0.0
  0
LINE
  5
1E1
100
AcDbEntity
  8
FIANCATE
390
0
  6
Continuous
100
AcDbLine
 10
391.96525830421012
 20
-223.07743311302951
 30
0.0
 11
378.21025830421013
 21
-223.32943311302949
 31
0.0
  0
LINE
  5
1E2
100
AcDbEntity
  8
FIANCATE
390
0
  6
Continuous
100
AcDbLine
 10
364.46575830421011
 20
-223.47643311302951
 30
0.0
 11
350.76325830421013
 21
-223.51843311302952
 31
0.0
  0
LINE
  5
1E3
100
AcDbEntity
  8
FIANCATE
390
0
  6
Continuous
100
AcDbLine
 10
350.76325830421013
 20
-223.51843311302952
 30
0.0
 11
337.13425830421011
 21
-223.4554331130295
 31
0.0
  0
LINE
  5
1E4
100
AcDbEntity
  8
FIANCATE
390
0
  6
Continuous
100
AcDbLine
 10
446.04025830421011
 20
-221.1559331130295
 30
0.0
 11
432.70525830421013
 21
-221.76493311302951
 31
0.0
  0
LINE
  5
1E5
100
AcDbEntity
  8
FIANCATE
390
0
  6
Continuous
100
AcDbLine
 10
378.21025830421013
 20
-223.32943311302949
 30
0.0
 11
364.46575830421011
 21
-223.47643311302951
 31
0.0
  0
LINE
  5
1E6
100
AcDbEntity
  8
FIANCATE
390
0
  6
Continuous
100
AcDbLine
 10
337.13425830421011
 20
-223.4554331130295
 30
0.0
 11
323.5577583042101
 21
-223.28743311302949
 31
0.0
  0
LINE
  5
1E7
100
AcDbEntity
  8
FIANCATE
390
0
  6
Continuous
100
AcDbLine
 10
297.05327117770133
 20
-222.67223041587988
 30
0.0
 11
283.60547871334796
 21
-222.15510101002661
 31
0.0
  0
LINE
  5
1E8
100
AcDbEntity
  8
FIANCATE
390
0
  6
Continuous
100
AcDbLine
 10
270.14719655128459
 20
-221.50868925271004
 30
0.0
 11
256.72038348235139
 21
-220.74376867321877
 31
0.0
  0
LINE
  5
1E9
100
AcDbEntity
  8
FIANCATE
390
0
  6
Continuous
100
AcDbLine
 10
216.85953218395625
 20
-217.66253929667639
 30
0.0
 11
203.81034823258685
 21
-216.36971578204324
 31
0.0
  0
LINE
  5
1EA
100
AcDbEntity
  8
FIANCATE
390
0
  6
Continuous
100
AcDbLine
 10
203.81034823258685
 20
-216.36971578204324
 30
0.0
 11
190.91850974686903
 21
-214.92606285736954
 31
0.0
  0
LINE
  5
1EB
100
AcDbEntity
  8
FIANCATE
390
0
  6
Continuous
100
AcDbLine
 10
190.91850974686903
 20
-214.92606285736954
 30
0.0
 11
178.18401672680278
 21
-213.33158052265529
 31
0.0
  0
LINE
  5
1EC
100
AcDbEntity
  8
FIANCATE
390
0
  6
Continuous
100
AcDbLine
 10
165.59637947467797
 20
-211.56472171932333
 30
0.0
 11
153.17657738591484
 21
-209.61471291808496
 31
0.0
  0
LINE
  5
1ED
100
AcDbEntity
  8
FIANCATE
390
0
  6
Continuous
100
AcDbLine
 10
178.18401672680278
 20
-213.33158052265529
 30
0.0
 11
165.59637947467797
 21
-211.56472171932333
 31
0.0
  0
LINE
  5
1EE
100
AcDbEntity
  8
FIANCATE
390
0
  6
Continuous
100
AcDbLine
 10
153.17657738591484
 20
-209.61471291808496
 30
0.0
 11
140.96656925135377
 21
-207.47078058965164
 31
0.0
  0
LINE
  5
1EF
100
AcDbEntity
  8
FIANCATE
390
0
  6
Continuous
100
AcDbLine
 10
140.96656925135377
 20
-207.47078058965164
 30
0.0
 11
128.96635507099481
 21
-205.11137767544614
 31
0.0
  0
LINE
  5
1F0
100
AcDbEntity
  8
FIANCATE
390
0
  6
Continuous
100
AcDbLine
 10
230.04508220555695
 20
-218.82608045984622
 30
0.0
 11
216.85953218395625
 21
-217.66253929667639
 31
0.0
  0
LINE
  5
1F1
100
AcDbEntity
  8
FIANCATE
390
0
  6
Continuous
100
AcDbLine
 10
256.72038348235139
 20
-220.74376867321877
 30
0.0
 11
243.34601890196882
 21
-219.84956574226416
 31
0.0
  0
LINE
  5
1F2
100
AcDbEntity
  8
FIANCATE
390
0
  6
Continuous
100
AcDbLine
 10
283.60547871334796
 20
-222.15510101002661
 30
0.0
 11
270.14719655128459
 21
-221.50868925271004
 31
0.0
  0
LINE
  5
1F3
100
AcDbEntity
  8
FIANCATE
390
0
  6
Continuous
100
AcDbLine
 10
310.53253273518493
 20
-223.07085099955844
 30
0.0
 11
297.05327117770133
 21
-222.67223041587988
 31
0.0
  0
LINE
  5
1F4
100
AcDbEntity
  8
FIANCATE
390
0
  6
Continuous
100
AcDbLine
 10
323.5577583042101
 20
-223.28743311302949
 30
0.0
 11
310.05475830421011
 21
-223.0144331130295
 31
0.0
  0
INSERT
  5
213
100
AcDbEntity
  8
FIANCATE
390
0
100
AcDbBlockReference
  2
B02BC2768
 10
0.0
 20
0.0
 30
0.0
  0
LINE
  5
214
100
AcDbEntity
  8
FIANCATE
390
0
  6
Continuous
100
AcDbLine
 10
128.96635507099481
 20
-205.11137767544614
 30
0.0
 11
124.29135906172471
 21
-204.05649904488308
 31
0.0
  0
LINE
  5
215
100
AcDbEntity
  8
FIANCATE
390
0
100
AcDbLine
 10
1038.4427169948008
 20
-155.87062624248694
 30
0.0
 11
1008.6111517116394
 21
-159.89118339415415
 31
0.0
  0
CIRCLE
  5
216
100
AcDbEntity
  8
FIANCATE
370
              -3
390
0
  6
Continuous
100
AcDbCircle
 10
270.56534776098226
 20
-184.54614878172819
 30
0.0
 40
1.0
  0
CIRCLE
  5
217
100
AcDbEntity
  8
FIANCATE
370
              -3
390
0
  6
Continuous
100
AcDbCircle
 10
296.92688522348681
 20
-184.54614878172819
 30
0.0
 40
1.0
  0
LINE
  5
218
100
AcDbEntity
  8
FIANCATE
370
              -3
390
0
  6
Continuous
100
AcDbLine
 10
293.74558641778242
 20
-193.30174711006532
 30
0.0
 11
293.74558641778242
 21
-182.80174711006532
 31
0.0
  0
LINE
  5
219
100
AcDbEntity
  8
FIANCATE
370
              -3
390
0
  6
Continuous
100
AcDbLine
 10
291.14558641778245
 20
-193.30174711006532
 30
0.0
 11
291.14558641778245
 21
-182.80174711006532
 31
0.0
  0
CIRCLE
  5
21A
100
AcDbEntity
  8
FIANCATE
370
              -3
390
0
  6
Continuous
100
AcDbCircle
 10
284.36225308444909
 20
-189.71841377673198
 30
0.0
 40
1.6499999999999999
  0
CIRCLE
  5
21B
100
AcDbEntity
  8
FIANCATE
370
              -3
390
0
  6
Continuous
100
AcDbCircle
 10
283.74558641778242
 20
-180.21841377673198
 30
0.0
 40
2.5
  0
LINE
  5
21C
100
AcDbEntity
  8
FIANCATE
370
              -3
390
0
  6
Continuous
100
AcDbLine
 10
293.74558641778242
 20
-182.80174711006532
 30
0.0
 11
291.14558641778245
 21
-182.80174711006532
 31
0.0
  0
LINE
  5
21D
100
AcDbEntity
  8
FIANCATE
370
              -3
390
0
  6
Continuous
100
AcDbLine
 10
293.74558641778242
 20
-193.30174711006532
 30
0.0
 11
291.07891975111579
 21
-193.30174711006532
 31
0.0
  0
LINE
  5
21E
100
AcDbEntity
  8
FIANCATE
390
0
100
AcDbLine
 10
1038.2462307693677
 20
-131.09509417401213
 30
0.0
 11
1038.2890695329627
 21
-155.89831229545601
 31
0.0
  0
LINE
  5
21F
100
AcDbEntity
  8
FIANCATE
390
0
100
AcDbLine
 10
979.13253184248765
 20
-137.37516929227795
 30
0.0
 11
979.13253184248765
 21
-131.09931415270131
 31
0.0
  0
LINE
  5
220
100
AcDbEntity
  8
FIANCATE
390
0
100
AcDbLine
 10
978.91211969995709
 20
-131.09931415270131
 30
0.0
 11
1038.2462373530116
 21
-131.09931415270131
 31
0.0
  0
LINE
  5
221
100
AcDbEntity
  8
FIANCATE
390
0
100
AcDbLine
 10
124.28362615463003
 20
-187.2903392702305
 30
0.0
 11
124.28362615463003
 21
-204.0474449947007
 31
0.0
  0
LINE
  5
222
100
AcDbEntity
  8
FIANCATE
390
0
  6
Continuous
100
AcDbLine
 10
270.09917609116422
 20
-218.70860723568742
 30
0.0
 11
256.67038953642378
 21
-217.9466406188287
 31
0.0
  0
LINE
  5
223
100
AcDbEntity
  8
FIANCATE
390
0
  6
Continuous
100
AcDbLine
 10
283.55943636439224
 20
-219.35252268655398
 30
0.0
 11
270.09917609116422
 21
-218.70860723568742
 31
0.0
  0
LINE
  5
224
100
AcDbEntity
  8
FIANCATE
390
0
100
AcDbLine
 10
309.914264867778
 20
-131.39561608951217
 30
0.0
 11
505.55296215222933
 21
-131.3381248875512
 31
0.0
  0
LINE
  5
225
100
AcDbEntity
  8
FIANCATE
390
0
100
AcDbLine
 10
571.89745581675163
 20
-131.32306154077273
 30
0.0
 11
859.25406457031045
 21
-131.24347998823151
 31
0.0
  0
LINE
  5
226
100
AcDbEntity
  8
FIANCATE
390
0
100
AcDbLine
 10
571.88175863747256
 20
-136.87596147252231
 30
0.0
 11
571.88175863747256
 21
-131.36116538866833
 31
0.0
  0
LINE
  5
227
100
AcDbEntity
  8
FIANCATE
390
0
100
AcDbLine
 10
505.50940679981488
 20
-137.13282796431847
 30
0.0
 11
505.50940679981488
 21
-131.36099780995849
 31
0.0
  0
LINE
  5
228
100
AcDbEntity
  8
FIANCATE
390
0
100
AcDbLine
 10
515.55646631020602
 20
-134.11960885520466
 30
0.0
 11
561.88607380716462
 21
-134.11960885520466
 31
0.0
  0
LINE
  5
229
100
AcDbEntity
  8
FIANCATE
390
0
100
AcDbLine
 10
561.88175863747256
 20
-136.87596147252231
 30
0.0
 11
571.88175863747256
 21
-136.87596147252231
 31
0.0
  0
LINE
  5
22A
100
AcDbEntity
  8
FIANCATE
390
0
100
AcDbLine
 10
561.88175863747256
 20
-136.87596147252231
 30
0.0
 11
561.88175863747256
 21
-133.87596147252231
 31
0.0
  0
LINE
  5
22B
100
AcDbEntity
  8
FIANCATE
390
0
100
AcDbLine
 10
505.50940679981488
 20
-137.13282796431847
 30
0.0
 11
515.50940679981488
 21
-137.13282796431847
 31
0.0
  0
LINE
  5
22C
100
AcDbEntity
  8
FIANCATE
390
0
100
AcDbLine
 10
515.50940679981488
 20
-137.13282796431847
 30
0.0
 11
515.50940679981488
 21
-134.13282796431847
 31
0.0
  0
INSERT
  5
239
100
AcDbEntity
  8
FIANCATE
390
0
100
AcDbBlockReference
  2
B02C1EB40
 10
0.0
 20
0.0
 30
0.0
  0
LINE
  5
23A
100
AcDbEntity
  8
FIANCATE
390
0
100
AcDbLine
 10
501.91096025347457
 20
-183.13125418038209
 30
0.0
 11
501.91096025347457
 21
-167.97585520108373
 31
0.0
  0
LINE
  5
23B
100
AcDbEntity
  8
FIANCATE
390
0
100
AcDbLine
 10
505.29569962715016
 20
-183.13125418038209
 30
0.0
 11
501.91096025347457
 21
-183.13125418038209
 31
0.0
  0
LINE
  5
23C
100
AcDbEntity
  8
FIANCATE
390
0
100
AcDbLine
 10
505.29569962715016
 20
-168.18673211404962
 30
0.0
 11
505.29569962715016
 21
-183.13125418038209
 31
0.0
  0
LINE
  5
23D
100
AcDbEntity
  8
FIANCATE
390
0
100
AcDbLine
 10
501.91098131785134
 20
-168.18673211404962
 30
0.0
 11
505.29569962715016
 21
-168.18673211404962
 31
0.0
  0
LINE
  5
23E
100
AcDbEntity
  8
FIANCATE
390
0
100
AcDbLine
 10
257.83670147924835
 20
-213.09288359815181
 30
0.0
 11
257.41624380233588
 21
-217.89873683635855
 31
0.0
  0
LINE
  5
23F
100
AcDbEntity
  8
FIANCATE
390
0
100
AcDbLine
 10
293.34013295636834
 20
-214.76332347917455
 30
0.0
 11
257.89129981854398
 21
-213.09545245529046
 31
0.0
  0
LINE
  5
240
100
AcDbEntity
  8
FIANCATE
390
0
100
AcDbLine
 10
292.89888574687421
 20
-219.80680216213955
 30
0.0
 11
293.34013295636834
 21
-214.76332347917455
 31
0.0
  0
LINE
  5
241
100
AcDbEntity
  8
FIANCATE
390
0
100
AcDbLine
 10
257.4284960367404
 20
-218.12863318660632
 30
0.0
 11
292.89888574687421
 21
-219.80680216213955
 31
0.0
  0
LINE
  5
242
100
AcDbEntity
  8
FIANCATE
390
0
100
AcDbLine
 10
252.41539839026117
 20
-187.23708077876535
 30
0.0
 11
252.41539839026117
 21
-174.71213442528895
 31
0.0
  0
LINE
  5
243
100
AcDbEntity
  8
FIANCATE
390
0
100
AcDbLine
 10
257.4207101656703
 20
-174.4938041515266
 30
0.0
 11
257.4207101656703
 21
-187.23708077876535
 31
0.0
  0
LINE
  5
244
100
AcDbEntity
  8
FIANCATE
390
0
100
AcDbLine
 10
252.5604939379827
 20
-174.70235479910221
 30
0.0
 11
257.4207101656703
 21
-174.70235479910221
 31
0.0
  0
INSERT
  5
24F
100
AcDbEntity
  8
FIANCATE
390
0
100
AcDbBlockReference
  2
B0248EB48
 10
0.0
 20
0.0
 30
0.0
  0
LINE
  5
250
100
AcDbEntity
  8
FIANCATE
390
0
100
AcDbLine
 10
257.4207101656703
 20
-187.23708077876535
 30
0.0
 11
252.41539839026117
 21
-187.23708077876535
 31
0.0
  0
LINE
  5
251
100
AcDbEntity
  8
FIANCATE
390
0
100
AcDbLine
 10
129.03533153005128
 20
-187.2903392702305
 30
0.0
 11
124.28362615463003
 21
-187.2903392702305
 31
0.0
  0
LINE
  5
252
100
AcDbEntity
  8
FIANCATE
390
0
100
AcDbLine
 10
129.03533153005128
 20
-162.20567510197935
 30
0.0
 11
129.03533153005128
 21
-187.2903392702305
 31
0.0
  0
LINE
  5
253
100
AcDbEntity
  8
FIANCATE
390
0
100
AcDbLine
 10
124.28582288056126
 20
-162.20567510197935
 30
0.0
 11
129.03533153005128
 21
-162.20567510197935
 31
0.0
  0
LINE
  5
254
100
AcDbEntity
  8
FIANCATE
390
0
100
AcDbLine
 10
124.28582288056126
 20
-145.43134851390988
 30
0.0
 11
124.28582288056126
 21
-162.20567510197935
 31
0.0
  0
LINE
  5
255
100
AcDbEntity
  8
FIANCATE
390
0
100
AcDbLine
 10
457.18315246914847
 20
-174.14305401198237
 30
0.0
 11
437.37564604188958
 21
-174.14305401198237
 31
0.0
  0
LINE
  5
256
100
AcDbEntity
  8
FIANCATE
390
0
100
AcDbLine
 10
457.18315246914847
 20
-179.15021286837379
 30
0.0
 11
457.18315246914847
 21
-174.14305401198237
 31
0.0
  0
LINE
  5
257
100
AcDbEntity
  8
FIANCATE
390
0
100
AcDbLine
 10
437.14935571395819
 20
-179.15021286837379
 30
0.0
 11
457.18315246914847
 21
-179.15021286837379
 31
0.0
  0
LINE
  5
258
100
AcDbEntity
  8
FIANCATE
390
0
100
AcDbLine
 10
437.14935571395819
 20
-174.14305668313173
 30
0.0
 11
437.14935571395819
 21
-179.15021286837379
 31
0.0
  0
LINE
  5
259
100
AcDbEntity
  8
FIANCATE
390
0
100
AcDbLine
 10
858.94134001559416
 20
-137.37516929227795
 30
0.0
 11
979.13253184248765
 21
-137.37516929227795
 31
0.0
  0
LINE
  5
25A
100
AcDbEntity
  8
FIANCATE
390
0
100
AcDbLine
 10
858.94134001559416
 20
-131.37205766516956
 30
0.0
 11
858.94134001559416
 21
-137.37516929227795
 31
0.0
  0
INSERT
  5
265
100
AcDbEntity
  8
FIANCATE
390
0
100
AcDbBlockReference
  2
B024819D8
 10
0.0
 20
0.0
 30
0.0
  0
ARC
  5
266
100
AcDbEntity
  8
FIANCATE
390
0
100
AcDbCircle
 10
314.41451912166758
 20
-1395.8268908372493
 30
0.0
 40
1264.599597608943
100
AcDbArc
 50
90.197972965582665
 51
98.649187668827821
  0
ENDBLK
  5
267
100
AcDbEntity
  8
0
390
0
100
AcDbBlockEnd
  0
BLOCK
  5
1F6
100
AcDbEntity
  8
0
390
0
100
AcDbBlockBegin
  2
B02BC2768
 70
               0
 10
0.0
 20
0.0
 30
0.0
  3

  1

  0
LINE
  5
1F7
100
AcDbEntity
  8
FIANCATE
390
0
  6
Continuous
100
AcDbLine
 10
1009.0881334551553
 20
-162.67346008608013
 30
0.0
 11
1000.5557583042101
 21
-163.85743311302951
 31
0.0
  0
LINE
  5
1F8
100
AcDbEntity
  8
FIANCATE
390
0
100
AcDbLine
 10
1008.6607473752027
 20
-159.87928134960836
 30
0.0
 11
1009.068043448571
 21
-162.73549122982115
 31
0.0
  0
LINE
  5
1F9
100
AcDbEntity
  8
FIANCATE
390
0
  6
Continuous
100
AcDbLine
 10
678.91975830421006
 20
-204.07243311302949
 30
0.0
 11
665.24875830421013
 21
-205.13293311302951
 31
0.0
  0
LINE
  5
1FA
100
AcDbEntity
  8
FIANCATE
390
0
  6
Continuous
100
AcDbLine
 10
691.35175830421008
 20
-203.02243311302951
 30
0.0
 11
678.91975830421006
 21
-204.07243311302949
 31
0.0
  0
LINE
  5
1FB
100
AcDbEntity
  8
FIANCATE
390
0
  6
Continuous
100
AcDbLine
 10
704.51875830421011
 20
-201.72043311302949
 30
0.0
 11
691.35175830421008
 21
-203.02243311302951
 31
0.0
  0
LINE
  5
1FC
100
AcDbEntity
  8
FIANCATE
390
0
  6
Continuous
100
AcDbLine
 10
717.0767583042101
 20
-200.2714331130295
 30
0.0
 11
704.51875830421011
 21
-201.72043311302949
 31
0.0
  0
LINE
  5
1FD
100
AcDbEntity
  8
FIANCATE
390
0
  6
Continuous
100
AcDbLine
 10
729.0047583042101
 20
-198.8014331130295
 30
0.0
 11
717.0767583042101
 21
-200.2714331130295
 31
0.0
  0
LINE
  5
1FE
100
AcDbEntity
  8
FIANCATE
390
0
  6
Continuous
100
AcDbLine
 10
741.70975830421014
 20
-197.23693311302949
 30
0.0
 11
729.0047583042101
 21
-198.8014331130295
 31
0.0
  0
LINE
  5
1FF
100
AcDbEntity
  8
FIANCATE
390
0
  6
Continuous
100
AcDbLine
 10
755.04475830421006
 20
-195.58843311302951
 30
0.0
 11
741.70975830421014
 21
-197.23693311302949
 31
0.0
  0
LINE
  5
200
100
AcDbEntity
  8
FIANCATE
390
0
  6
Continuous
100
AcDbLine
 10
768.67375830421008
 20
-193.9084331130295
 30
0.0
 11
755.04475830421006
 21
-195.58843311302951
 31
0.0
  0
LINE
  5
201
100
AcDbEntity
  8
FIANCATE
390
0
  6
Continuous
100
AcDbLine
 10
782.47075830421011
 20
-192.20743311302951
 30
0.0
 11
768.67375830421008
 21
-193.9084331130295
 31
0.0
  0
LINE
  5
202
100
AcDbEntity
  8
FIANCATE
390
0
  6
Continuous
100
AcDbLine
 10
796.33075830421012
 20
-190.50643311302949
 30
0.0
 11
782.47075830421011
 21
-192.20743311302951
 31
0.0
  0
LINE
  5
203
100
AcDbEntity
  8
FIANCATE
390
0
  6
Continuous
100
AcDbLine
 10
810.22225830421007
 20
-188.79493311302949
 30
0.0
 11
796.33075830421012
 21
-190.50643311302949
 31
0.0
  0
LINE
  5
204
100
AcDbEntity
  8
FIANCATE
390
0
  6
Continuous
100
AcDbLine
 10
824.1347583042101
 20
-187.07293311302951
 30
0.0
 11
810.22225830421007
 21
-188.79493311302949
 31
0.0
  0
LINE
  5
205
100
AcDbEntity
  8
FIANCATE
390
0
  6
Continuous
100
AcDbLine
 10
838.0577583042101
 20
-185.36143311302951
 30
0.0
 11
824.1347583042101
 21
-187.07293311302951
 31
0.0
  0
LINE
  5
206
100
AcDbEntity
  8
FIANCATE
390
0
  6
Continuous
100
AcDbLine
 10
851.9807583042101
 20
-183.6499331130295
 30
0.0
 11
838.0577583042101
 21
-185.36143311302951
 31
0.0
  0
LINE
  5
207
100
AcDbEntity
  8
FIANCATE
390
0
  6
Continuous
100
AcDbLine
 10
865.93525830421015
 20
-181.9279331130295
 30
0.0
 11
851.9807583042101
 21
-183.6499331130295
 31
0.0
  0
LINE
  5
208
100
AcDbEntity
  8
FIANCATE
390
0
  6
Continuous
100
AcDbLine
 10
879.83725830421008
 20
-180.2164331130295
 30
0.0
 11
865.93525830421015
 21
-181.9279331130295
 31
0.0
  0
LINE
  5
209
100
AcDbEntity
  8
FIANCATE
390
0
  6
Continuous
100
AcDbLine
 10
893.03575830421016
 20
-178.46293311302949
 30
0.0
 11
879.83725830421008
 21
-180.2164331130295
 31
0.0
  0
LINE
  5
20A
100
AcDbEntity
  8
FIANCATE
390
0
  6
Continuous
100
AcDbLine
 10
906.09775830421006
 20
-176.6884331130295
 30
0.0
 11
893.03575830421016
 21
-178.46293311302949
 31
0.0
  0
LINE
  5
20B
100
AcDbEntity
  8
FIANCATE
390
0
  6
Continuous
100
AcDbLine
 10
918.93925830421017
 20
-174.94543311302951
 30
0.0
 11
906.09775830421006
 21
-176.6884331130295
 31
0.0
  0
LINE
  5
20C
100
AcDbEntity
  8
FIANCATE
390
0
  6
Continuous
100
AcDbLine
 10
931.77025830421007
 20
-173.20243311302951
 30
0.0
 11
918.93925830421017
 21
-174.94543311302951
 31
0.0
  0
LINE
  5
20D
100
AcDbEntity
  8
FIANCATE
390
0
  6
Continuous
100
AcDbLine
 10
944.89525830421007
 20
-171.4279331130295
 30
0.0
 11
931.77025830421007
 21
-173.20243311302951
 31
0.0
  0
LINE
  5
20E
100
AcDbEntity
  8
FIANCATE
390
0
  6
Continuous
100
AcDbLine
 10
958.5767583042101
 20
-169.5589331130295
 30
0.0
 11
944.89525830421007
 21
-171.4279331130295
 31
0.0
  0
LINE
  5
20F
100
AcDbEntity
  8
FIANCATE
390
0
  6
Continuous
100
AcDbLine
 10
972.53125830421016
 20
-167.66893311302951
 30
0.0
 11
958.5767583042101
 21
-169.5589331130295
 31
0.0
  0
LINE
  5
210
100
AcDbEntity
  8
FIANCATE
390
0
  6
Continuous
100
AcDbLine
 10
986.54875830421008
 20
-165.75793311302951
 30
0.0
 11
972.53125830421016
 21
-167.66893311302951
 31
0.0
  0
LINE
  5
211
100
AcDbEntity
  8
FIANCATE
390
0
  6
Continuous
100
AcDbLine
 10
1000.5557583042101
 20
-163.85743311302951
 30
0.0
 11
986.54875830421008
 21
-165.75793311302951
 31
0.0
  0
ENDBLK
  5
212
100
AcDbEntity
  8
0
390
0
100
AcDbBlockEnd
  0
BLOCK
  5
22E
100
AcDbEntity
  8
0
390
0
100
AcDbBlockBegin
  2
B02C1EB40
 70
               0
 10
0.0
 20
0.0
 30
0.0
  3

  1

  0
LINE
  5
22F
100
AcDbEntity
  8
FIANCATE
390
0
100
AcDbLine
 10
523.59184952867315
 20
-185.63940734981466
 30
0.0
 11
523.57002601711065
 21
-182.48066910153889
 31
0.0
  0
LINE
  5
230
100
AcDbEntity
  8
FIANCATE
390
0
100
AcDbLine
 10
523.57002601711065
 20
-182.48066910153889
 30
0.0
 11
513.23870986456984
 21
-182.48066910153889
 31
0.0
  0
LINE
  5
231
100
AcDbEntity
  8
FIANCATE
390
0
100
AcDbLine
 10
513.24095018469222
 20
-185.49266347935395
 30
0.0
 11
523.57002601711065
 21
-185.49266347935395
 31
0.0
  0
LINE
  5
232
100
AcDbEntity
  8
FIANCATE
390
0
100
AcDbLine
 10
513.24095018469222
 20
-182.48066993508803
 30
0.0
 11
513.24095018469222
 21
-185.49266347935395
 31
0.0
  0
LINE
  5
233
100
AcDbEntity
  8
FIANCATE
390
0
100
AcDbLine
 10
554.76123751432397
 20
-182.48066993508803
 30
0.0
 11
554.75362312241737
 21
-185.47238506734388
 31
0.0
  0
LINE
  5
234
100
AcDbEntity
  8
FIANCATE
390
0
100
AcDbLine
 10
554.74976578382416
 20
-185.52209125585861
 30
0.0
 11
574.03383603111024
 21
-185.52209125585861
 31
0.0
  0
LINE
  5
235
100
AcDbEntity
  8
FIANCATE
390
0
100
AcDbLine
 10
574.1145223625648
 20
-182.48066993508803
 30
0.0
 11
554.76123751432397
 21
-182.48066993508803
 31
0.0
  0
LINE
  5
236
100
AcDbEntity
  8
FIANCATE
390
0
100
AcDbLine
 10
574.03371397417118
 20
-185.52209125585861
 30
0.0
 11
574.03371397417118
 21
-182.4578137076243
 31
0.0
  0
CIRCLE
  5
237
100
AcDbEntity
  8
FIANCATE
390
0
100
AcDbCircle
 10
567.2596795801619
 20
-180.61329839934356
 30
0.0
 40
1.0
  0
ENDBLK
  5
238
100
AcDbEntity
  8
0
390
0
100
AcDbBlockEnd
  0
BLOCK
  5
246
100
AcDbEntity
  8
0
390
0
100
AcDbBlockBegin
  2
B0248EB48
 70
               0
 10
0.0
 20
0.0
 30
0.0
  3

  1

  0
LINE
  5
247
100
AcDbEntity
  8
FIANCATE
390
0
 62
               7
100
AcDbLine
 10
258.68867250364281
 20
-158.04301820645622
 30
0.0
 11
500.17259231873152
 21
-158.16174820474444
 31
0.0
  0
INSERT
  5
24D
100
AcDbEntity
  8
FIANCATE
390
0
100
AcDbBlockReference
  2
B0248EBE8
 10
0.0
 20
0.0
 30
0.0
  0
ENDBLK
  5
24E
100
AcDbEntity
  8
0
390
0
100
AcDbBlockEnd
  0
BLOCK
  5
249
100
AcDbEntity
  8
0
390
0
100
AcDbBlockBegin
  2
B0248EBE8
 70
               0
 10
0.0
 20
0.0
 30
0.0
  3

  1

  0
LWPOLYLINE
  5
24A
100
AcDbEntity
  8
FIANCATE
390
0
100
AcDbPolyline
 90
       71
 70
               0
 10
500.71424735230488
 20
-158.17517721880387
 10
499.2356273523049
 20
-158.07837721880387
 10
496.68736735230488
 20
-157.80249721880386
 10
493.63332735230489
 20
-157.44191721880387
 10
490.04204735230491
 20
-156.97243721880386
 10
486.14100735230488
 20
-156.41099721880389
 10
482.24722735230489
 20
-155.79389721880386
 10
478.40668735230491
 20
-155.13081721880388
 10
474.5443673523049
 20
-154.40965721880389
 10
470.64332735230488
 20
-153.63525721880387
 10
466.71566735230488
 20
-152.82213721880387
 10
462.74444735230492
 20
-151.97513721880387
 10
458.75144735230492
 20
-151.11603721880388
 10
454.78506735230491
 20
-150.26903721880387
 10
450.84530735230487
 20
-149.44865721880387
 10
446.9249073523049
 20
-148.66457721880388
 10
443.01418735230487
 20
-147.91679721880388
 10
439.10104735230487
 20
-147.21015721880386
 10
435.1806473523049
 20
-146.53981721880388
 10
431.24572735230487
 20
-145.90819721880388
 10
427.30354735230492
 20
-145.31045721880386
 10
423.34926735230488
 20
-144.74901721880389
 10
419.39014735230489
 20
-144.21903721880386
 10
415.42376735230488
 20
-143.72293721880388
 10
411.45254735230492
 20
-143.26071721880388
 10
407.47890735230487
 20
-142.82995721880388
 10
403.50042735230488
 20
-142.43307721880387
 10
399.52194735230489
 20
-142.07007721880387
 10
395.54104735230487
 20
-141.74095721880389
 10
391.56014735230491
 20
-141.44571721880388
 10
387.57682735230492
 20
-141.18677721880388
 10
383.59350735230487
 20
-140.96413721880387
 10
379.6077673523049
 20
-140.77537721880387
 10
375.62202735230488
 20
-140.62049721880388
 10
371.63144735230486
 20
-140.50433721880387
 10
367.63844735230487
 20
-140.42205721880387
 10
363.6430273523049
 20
-140.37123721880388
 10
359.64276735230487
 20
-140.35671721880388
 10
355.64008735230487
 20
-140.37365721880388
 10
351.63740735230488
 20
-140.42205721880387
 10
347.6274673523049
 20
-140.50191721880387
 10
343.61994735230491
 20
-140.61081721880387
 10
339.61242735230491
 20
-140.74875721880386
 10
335.60490735230491
 20
-140.91815721880388
 10
331.59980735230488
 20
-141.11659721880386
 10
327.60196735230488
 20
-141.34649721880388
 10
323.61138735230486
 20
-141.60543721880387
 10
319.6304873523049
 20
-141.89825721880388
 10
315.66168735230491
 20
-142.22737721880387
 10
311.7098273523049
 20
-142.59521721880387
 10
307.77732735230489
 20
-143.00177721880388
 10
303.87144735230487
 20
-143.45673721880388
 10
299.99702735230488
 20
-143.96009721880387
 10
296.15890735230488
 20
-144.52153721880387
 10
292.36676735230486
 20
-145.14831721880387
 10
288.62786735230486
 20
-145.84527721880386
 10
284.94704735230488
 20
-146.62209721880387
 10
281.32672735230489
 20
-147.48603721880386
 10
277.77900735230486
 20
-148.44677721880387
 10
274.31598735230489
 20
-149.50915721880386
 10
270.97154735230487
 20
-150.67075721880389
 10
267.83522735230486
 20
-151.90011721880387
 10
265.11514735230486
 20
-153.11011721880388
 10
263.03636735230486
 20
-154.16281721880387
 10
261.58436735230487
 20
-155.00739721880387
 10
260.5824873523049
 20
-155.68499721880389
 10
259.87342735230487
 20
-156.26095721880387
 10
259.36764735230486
 20
-156.77641721880389
 10
259.01674735230489
 20
-157.26283721880387
 10
258.80136735230491
 20
-157.72989721880387
 10
258.71424735230488
 20
-158.17517721880387
  0
LWPOLYLINE
  5
24B
100
AcDbEntity
  8
FIANCATE
390
0
100
AcDbPolyline
 90
       70
 70
               0
 10
500.71424735230488
 20
-158.17517721880387
 10
499.25982735230491
 20
-158.53575721880387
 10
496.74302735230492
 20
-159.05605721880389
 10
493.71076735230491
 20
-159.66105721880388
 10
490.1170673523049
 20
-160.34833721880386
 10
486.1894073523049
 20
-161.05981721880389
 10
482.26416735230487
 20
-161.72773721880387
 10
478.39216735230491
 20
-162.33757721880386
 10
474.49838735230492
 20
-162.90143721880386
 10
470.58040735230492
 20
-163.42415721880388
 10
466.64790735230491
 20
-163.90089721880386
 10
462.6912073523049
 20
-164.33649721880388
 10
458.70788735230491
 20
-164.74305721880387
 10
454.69552735230491
 20
-165.12299721880387
 10
450.65654735230487
 20
-165.48599721880387
 10
446.59820735230488
 20
-165.83447721880387
 10
442.52534735230489
 20
-166.17811721880386
 10
438.4476473523049
 20
-166.51207721880388
 10
434.37236735230488
 20
-166.84119721880387
 10
430.30192735230492
 20
-167.16305721880389
 10
426.2363273523049
 20
-167.47281721880387
 10
422.17798735230491
 20
-167.77047721880388
 10
418.12448735230487
 20
-168.05361721880388
 10
414.07824735230491
 20
-168.32223721880388
 10
410.03442735230487
 20
-168.57149721880387
 10
405.99786735230492
 20
-168.80139721880388
 10
401.96372735230489
 20
-169.01193721880387
 10
397.93442735230491
 20
-169.19585721880387
 10
393.9123873523049
 20
-169.35799721880386
 10
389.8903473523049
 20
-169.49351721880387
 10
385.87072735230487
 20
-169.60241721880388
 10
381.85352735230487
 20
-169.68469721880388
 10
377.83632735230486
 20
-169.73793721880386
 10
373.81670735230489
 20
-169.76455721880387
 10
369.79466735230488
 20
-169.76455721880387
 10
365.77020735230491
 20
-169.73793721880386
 10
361.7433273523049
 20
-169.68711721880388
 10
357.70918735230487
 20
-169.61209721880388
 10
353.67504735230489
 20
-169.51287721880388
 10
349.63606735230491
 20
-169.39187721880387
 10
345.59224735230487
 20
-169.25151721880388
 10
341.54358735230488
 20
-169.09179721880386
 10
337.4949273523049
 20
-168.91271721880386
 10
333.44142735230491
 20
-168.71911721880386
 10
329.3855073523049
 20
-168.50857721880388
 10
325.32958735230488
 20
-168.28109721880386
 10
321.27366735230487
 20
-168.04151721880388
 10
317.21774735230491
 20
-167.78741721880388
 10
313.1618273523049
 20
-167.51879721880388
 10
309.11316735230486
 20
-167.23565721880388
 10
305.0717673523049
 20
-166.93557721880387
 10
301.03762735230487
 20
-166.61855721880386
 10
297.01800735230489
 20
-166.28217721880387
 10
293.0201673523049
 20
-165.92159721880387
 10
289.04894735230488
 20
-165.53197721880386
 10
285.11160735230487
 20
-165.10605721880387
 10
281.21298735230488
 20
-164.63899721880387
 10
277.37002735230487
 20
-164.11869721880387
 10
273.60934735230489
 20
-163.54273721880386
 10
270.01564735230488
 20
-162.90627721880387
 10
266.8018873523049
 20
-162.24319721880389
 10
264.27056735230491
 20
-161.62125721880386
 10
262.48944735230486
 20
-161.09127721880387
 10
261.25766735230491
 20
-160.64599721880387
 10
260.37436735230489
 20
-160.24669721880386
 10
259.72338735230488
 20
-159.86191721880388
 10
259.2442273523049
 20
-159.46745721880387
 10
258.91994735230486
 20
-159.04879721880388
 10
258.74812735230489
 20
-158.60835721880386
 10
258.71424735230488
 20
-158.17517721880387
  0
ENDBLK
  5
24C
100
AcDbEntity
  8
0
390
0
100
AcDbBlockEnd
  0
BLOCK
  5
25C
100
AcDbEntity
  8
0
390
0
100
AcDbBlockBegin
  2
B024819D8
 70
               0
 10
0.0
 20
0.0
 30
0.0
  3

  1

  0
LINE
  5
25D
100
AcDbEntity
  8
FIANCATE
390
0
 62
               7
100
AcDbLine
 10
258.68867250364281
 20
-158.04301820645622
 30
0.0
 11
500.17259231873152
 21
-158.16174820474444
 31
0.0
  0
INSERT
  5
263
100
AcDbEntity
  8
FIANCATE
390
0
100
AcDbBlockReference
  2
B0246A3AC
 10
0.0
 20
0.0
 30
0.0
  0
ENDBLK
  5
264
100
AcDbEntity
  8
0
390
0
100
AcDbBlockEnd
  0
BLOCK
  5
25F
100
AcDbEntity
  8
0
390
0
100
AcDbBlockBegin
  2
B0246A3AC
 70
               0
 10
0.0
 20
0.0
 30
0.0
  3

  1

  0
LWPOLYLINE
  5
260
100
AcDbEntity
  8
FIANCATE
390
0
100
AcDbPolyline
 90
       71
 70
               0
 10
500.71424735230488
 20
-158.17517721880387
 10
499.2356273523049
 20
-158.07837721880387
 10
496.68736735230488
 20
-157.80249721880386
 10
493.63332735230489
 20
-157.44191721880387
 10
490.04204735230491
 20
-156.97243721880386
 10
486.14100735230488
 20
-156.41099721880389
 10
482.24722735230489
 20
-155.79389721880386
 10
478.40668735230491
 20
-155.13081721880388
 10
474.5443673523049
 20
-154.40965721880389
 10
470.64332735230488
 20
-153.63525721880387
 10
466.71566735230488
 20
-152.82213721880387
 10
462.74444735230492
 20
-151.97513721880387
 10
458.75144735230492
 20
-151.11603721880388
 10
454.78506735230491
 20
-150.26903721880387
 10
450.84530735230487
 20
-149.44865721880387
 10
446.9249073523049
 20
-148.66457721880388
 10
443.01418735230487
 20
-147.91679721880388
 10
439.10104735230487
 20
-147.21015721880386
 10
435.1806473523049
 20
-146.53981721880388
 10
431.24572735230487
 20
-145.90819721880388
 10
427.30354735230492
 20
-145.31045721880386
 10
423.34926735230488
 20
-144.74901721880389
 10
419.39014735230489
 20
-144.21903721880386
 10
415.42376735230488
 20
-143.72293721880388
 10
411.45254735230492
 20
-143.26071721880388
 10
407.47890735230487
 20
-142.82995721880388
 10
403.50042735230488
 20
-142.43307721880387
 10
399.52194735230489
 20
-142.07007721880387
 10
395.54104735230487
 20
-141.74095721880389
 10
391.56014735230491
 20
-141.44571721880388
 10
387.57682735230492
 20
-141.18677721880388
 10
383.59350735230487
 20
-140.96413721880387
 10
379.6077673523049
 20
-140.77537721880387
 10
375.62202735230488
 20
-140.62049721880388
 10
371.63144735230486
 20
-140.50433721880387
 10
367.63844735230487
 20
-140.42205721880387
 10
363.6430273523049
 20
-140.37123721880388
 10
359.64276735230487
 20
-140.35671721880388
 10
355.64008735230487
 20
-140.37365721880388
 10
351.63740735230488
 20
-140.42205721880387
 10
347.6274673523049
 20
-140.50191721880387
 10
343.61994735230491
 20
-140.61081721880387
 10
339.61242735230491
 20
-140.74875721880386
 10
335.60490735230491
 20
-140.91815721880388
 10
331.59980735230488
 20
-141.11659721880386
 10
327.60196735230488
 20
-141.34649721880388
 10
323.61138735230486
 20
-141.60543721880387
 10
319.6304873523049
 20
-141.89825721880388
 10
315.66168735230491
 20
-142.22737721880387
 10
311.7098273523049
 20
-142.59521721880387
 10
307.77732735230489
 20
-143.00177721880388
 10
303.87144735230487
 20
-143.45673721880388
 10
299.99702735230488
 20
-143.96009721880387
 10
296.15890735230488
 20
-144.52153721880387
 10
292.36676735230486
 20
-145.14831721880387
 10
288.62786735230486
 20
-145.84527721880386
 10
284.94704735230488
 20
-146.62209721880387
 10
281.32672735230489
 20
-147.48603721880386
 10
277.77900735230486
 20
-148.44677721880387
 10
274.31598735230489
 20
-149.50915721880386
 10
270.97154735230487
 20
-150.67075721880389
 10
267.83522735230486
 20
-151.90011721880387
 10
265.11514735230486
 20
-153.11011721880388
 10
263.03636735230486
 20
-154.16281721880387
 10
261.58436735230487
 20
-155.00739721880387
 10
260.5824873523049
 20
-155.68499721880389
 10
259.87342735230487
 20
-156.26095721880387
 10
259.36764735230486
 20
-156.77641721880389
 10
259.01674735230489
 20
-157.26283721880387
 10
258.80136735230491
 20
-157.72989721880387
 10
258.71424735230488
 20
-158.17517721880387
  0
LWPOLYLINE
  5
261
100
AcDbEntity
  8
FIANCATE
390
0
100
AcDbPolyline
 90
       70
 70
               0
 10
500.71424735230488
 20
-158.17517721880387
 10
499.25982735230491
 20
-158.53575721880387
 10
496.74302735230492
 20
-159.05605721880389
 10
493.71076735230491
 20
-159.66105721880388
 10
490.1170673523049
 20
-160.34833721880386
 10
486.1894073523049
 20
-161.05981721880389
 10
482.26416735230487
 20
-161.72773721880387
 10
478.39216735230491
 20
-162.33757721880386
 10
474.49838735230492
 20
-162.90143721880386
 10
470.58040735230492
 20
-163.42415721880388
 10
466.64790735230491
 20
-163.90089721880386
 10
462.6912073523049
 20
-164.33649721880388
 10
458.70788735230491
 20
-164.74305721880387
 10
454.69552735230491
 20
-165.12299721880387
 10
450.65654735230487
 20
-165.48599721880387
 10
446.59820735230488
 20
-165.83447721880387
 10
442.52534735230489
 20
-166.17811721880386
 10
438.4476473523049
 20
-166.51207721880388
 10
434.37236735230488
 20
-166.84119721880387
 10
430.30192735230492
 20
-167.16305721880389
 10
426.2363273523049
 20
-167.47281721880387
 10
422.17798735230491
 20
-167.77047721880388
 10
418.12448735230487
 20
-168.05361721880388
 10
414.07824735230491
 20
-168.32223721880388
 10
410.03442735230487
 20
-168.57149721880387
 10
405.99786735230492
 20
-168.80139721880388
 10
401.96372735230489
 20
-169.01193721880387
 10
397.93442735230491
 20
-169.19585721880387
 10
393.9123873523049
 20
-169.35799721880386
 10
389.8903473523049
 20
-169.49351721880387
 10
385.87072735230487
 20
-169.60241721880388
 10
381.85352735230487
 20
-169.68469721880388
 10
377.83632735230486
 20
-169.73793721880386
 10
373.81670735230489
 20
-169.76455721880387
 10
369.79466735230488
 20
-169.76455721880387
 10
365.77020735230491
 20
-169.73793721880386
 10
361.7433273523049
 20
-169.68711721880388
 10
357.70918735230487
 20
-169.61209721880388
 10
353.67504735230489
 20
-169.51287721880388
 10
349.63606735230491
 20
-169.39187721880387
 10
345.59224735230487
 20
-169.25151721880388
 10
341.54358735230488
 20
-169.09179721880386
 10
337.4949273523049
 20
-168.91271721880386
 10
333.44142735230491
 20
-168.71911721880386
 10
329.3855073523049
 20
-168.50857721880388
 10
325.32958735230488
 20
-168.28109721880386
 10
321.27366735230487
 20
-168.04151721880388
 10
317.21774735230491
 20
-167.78741721880388
 10
313.1618273523049
 20
-167.51879721880388
 10
309.11316735230486
 20
-167.23565721880388
 10
305.0717673523049
 20
-166.93557721880387
 10
301.03762735230487
 20
-166.61855721880386
 10
297.01800735230489
 20
-166.28217721880387
 10
293.0201673523049
 20
-165.92159721880387
 10
289.04894735230488
 20
-165.53197721880386
 10
285.11160735230487
 20
-165.10605721880387
 10
281.21298735230488
 20
-164.63899721880387
 10
277.37002735230487
 20
-164.11869721880387
 10
273.60934735230489
 20
-163.54273721880386
 10
270.01564735230488
 20
-162.90627721880387
 10
266.8018873523049
 20
-162.24319721880389
 10
264.27056735230491
 20
-161.62125721880386
 10
262.48944735230486
 20
-161.09127721880387
 10
261.25766735230491
 20
-160.64599721880387
 10
260.37436735230489
 20
-160.24669721880386
 10
259.72338735230488
 20
-159.86191721880388
 10
259.2442273523049
 20
-159.46745721880387
 10
258.91994735230486
 20
-159.04879721880388
 10
258.74812735230489
 20
-158.60835721880386
 10
258.71424735230488
 20
-158.17517721880387
  0
ENDBLK
  5
262
100
AcDbEntity
  8
0
390
0
100
AcDbBlockEnd
  0
BLOCK
  5
26A
100
AcDbEntity
  8
0
390
0
100
AcDbBlockBegin
  2
B0248434C
 70
               0
 10
0.0
 20
0.0
 30
0.0
  3

  1

  0
LINE
  5
26B
100
AcDbEntity
  8
COPERTURE
390
0
  6
Continuous
 62
               4
100
AcDbLine
 10
858.79555128386562
 20
-345.27059342253756
 30
0.0
 11
858.79555128386562
 21
-373.40500068562466
 31
0.0
  0
LINE
  5
26C
100
AcDbEntity
  8
COPERTURE
390
0
100
AcDbLine
 10
962.30114920054598
 20
-352.07555851814209
 30
0.0
 11
962.30114920054598
 21
-366.8805002359162
 31
0.0
  0
LINE
  5
26D
100
AcDbEntity
  8
COPERTURE
390
0
100
AcDbLine
 10
571.62565806096939
 20
-331.02255360674633
 30
0.0
 11
571.62565806096939
 21
-387.35644041279426
 31
0.0
  0
LINE
  5
26E
100
AcDbEntity
  8
COPERTURE
390
0
100
AcDbLine
 10
505.73544268962809
 20
-328.74655307578462
 30
0.0
 11
505.73544268962809
 21
-389.63222610007853
 31
0.0
  0
LINE
  5
26F
100
AcDbEntity
  8
COPERTURE
390
0
100
AcDbLine
 10
501.75244176044509
 20
-328.74655307578462
 30
0.0
 11
501.75244176044509
 21
-389.67209449223088
 31
0.0
  0
LINE
  5
270
100
AcDbEntity
  8
COPERTURE
390
0
100
AcDbLine
 10
258.2203849475427
 20
-325.90155241208248
 30
0.0
 11
258.2203849475427
 21
-392.48429373027784
 31
0.0
  0
LINE
  5
271
100
AcDbEntity
  8
COPERTURE
390
0
  6
Continuous
 62
               4
100
AcDbLine
 10
124.73108924835442
 20
-332.10185210506108
 30
0.0
 11
124.73108924835442
 21
-346.80763105821211
 31
0.0
  0
LINE
  5
272
100
AcDbEntity
  8
COPERTURE
390
0
  6
Continuous
 62
               4
100
AcDbLine
 10
124.73108924835442
 20
-346.80763105821211
 30
0.0
 11
129.62903396675637
 21
-346.80763105821211
 31
0.0
  0
LINE
  5
273
100
AcDbEntity
  8
COPERTURE
390
0
  6
Continuous
 62
               4
100
AcDbLine
 10
129.62903396675637
 20
-346.80763105821211
 30
0.0
 11
129.62903396675637
 21
-371.73232638120749
 31
0.0
  0
LINE
  5
274
100
AcDbEntity
  8
COPERTURE
390
0
  6
Continuous
 62
               4
100
AcDbLine
 10
129.62901929407914
 20
-371.58213671605438
 30
0.0
 11
124.7288409443362
 21
-371.58213671605438
 31
0.0
  0
LINE
  5
275
100
AcDbEntity
  8
COPERTURE
390
0
  6
Continuous
 62
               4
100
AcDbLine
 10
124.7288409443362
 20
-371.58213671605438
 30
0.0
 11
124.7288409443362
 21
-386.28782507428411
 31
0.0
  0
LINE
  5
276
100
AcDbEntity
  8
COPERTURE
390
0
  6
Continuous
 62
               4
100
AcDbLine
 10
129.62902466531514
 20
-346.80036150710737
 30
0.0
 11
129.62902466531514
 21
-371.73571983211923
 31
0.0
  0
LINE
  5
277
100
AcDbEntity
  8
COPERTURE
390
0
  6
Continuous
 62
               4
100
AcDbLine
 10
1038.2072384601863
 20
-357.12003900529947
 30
0.0
 11
1038.2072384601863
 21
-361.32867791815539
 31
0.0
  0
LINE
  5
278
100
AcDbEntity
  8
COPERTURE
390
0
  6
Continuous
 62
               4
100
AcDbLine
 10
131.75723833457818
 20
-331.48566971993131
 30
0.0
 11
124.73017689202503
 21
-332.06071098139557
 31
0.0
  0
LINE
  5
279
100
AcDbEntity
  8
COPERTURE
390
0
  6
Continuous
 62
               4
100
AcDbLine
 10
156.36760202267473
 20
-329.87221971993131
 30
0.0
 11
131.75723833457818
 21
-331.48566971993131
 31
0.0
  0
LINE
  5
27A
100
AcDbEntity
  8
COPERTURE
390
0
  6
Continuous
 62
               4
100
AcDbLine
 10
182.63919276347696
 20
-328.52158971993128
 30
0.0
 11
156.36760202267473
 21
-329.87221971993131
 31
0.0
  0
LINE
  5
27B
100
AcDbEntity
  8
COPERTURE
390
0
  6
Continuous
 62
               4
100
AcDbLine
 10
210.46199552038178
 20
-327.43378971993133
 30
0.0
 11
182.63919276347696
 21
-328.52158971993128
 31
0.0
  0
LINE
  5
27C
100
AcDbEntity
  8
COPERTURE
390
0
  6
Continuous
 62
               4
100
AcDbLine
 10
270.28817242510644
 20
-326.05394971993132
 30
0.0
 11
239.71499375312598
 21
-326.60880971993129
 31
0.0
  0
LINE
  5
27D
100
AcDbEntity
  8
COPERTURE
390
0
  6
Continuous
 62
               4
100
AcDbLine
 10
239.71499375312598
 20
-326.60880971993129
 30
0.0
 11
210.46199552038178
 21
-327.43378971993133
 31
0.0
  0
LINE
  5
27E
100
AcDbEntity
  8
COPERTURE
390
0
  6
Continuous
 62
               4
100
AcDbLine
 10
334.82299289644055
 20
-325.70351971993131
 30
0.0
 11
302.03851198873923
 21
-325.74731971993128
 31
0.0
  0
LINE
  5
27F
100
AcDbEntity
  8
COPERTURE
390
0
  6
Continuous
 62
               4
100
AcDbLine
 10
302.03851198873923
 20
-325.74731971993128
 30
0.0
 11
270.28817242510644
 21
-326.05394971993132
 31
0.0
  0
LINE
  5
280
100
AcDbEntity
  8
COPERTURE
390
0
  6
Continuous
 62
               4
100
AcDbLine
 10
368.50959710428663
 20
-325.90793971993133
 30
0.0
 11
334.82299289644055
 21
-325.70351971993131
 31
0.0
  0
LINE
  5
281
100
AcDbEntity
  8
COPERTURE
390
0
  6
Continuous
 62
               4
100
AcDbLine
 10
402.9553050646935
 20
-326.33867971993129
 30
0.0
 11
368.50959710428663
 21
-325.90793971993133
 31
0.0
  0
LINE
  5
282
100
AcDbEntity
  8
COPERTURE
390
0
  6
Continuous
 62
               4
100
AcDbLine
 10
473.52995104553361
 20
-327.82071971993133
 30
0.0
 11
402.9553050646935
 21
-326.33867971993129
 31
0.0
  0
LINE
  5
283
100
AcDbEntity
  8
COPERTURE
390
0
  6
Continuous
 62
               4
100
AcDbLine
 10
545.32576393266731
 20
-330.00362971993133
 30
0.0
 11
473.52995104553361
 21
-327.82071971993133
 31
0.0
  0
LINE
  5
284
100
AcDbEntity
  8
COPERTURE
390
0
  6
Continuous
 62
               4
100
AcDbLine
 10
617.12157681980091
 20
-332.75599971993131
 30
0.0
 11
545.32576393266731
 21
-330.00362971993133
 31
0.0
  0
LINE
  5
285
100
AcDbEntity
  8
COPERTURE
390
0
  6
Continuous
 62
               4
100
AcDbLine
 10
687.69622280064118
 20
-335.9244997199313
 30
0.0
 11
617.12157681980091
 21
-332.75599971993131
 31
0.0
  0
LINE
  5
286
100
AcDbEntity
  8
COPERTURE
390
0
  6
Continuous
 62
               4
100
AcDbLine
 10
755.82853496889413
 20
-339.35582971993131
 30
0.0
 11
687.69622280064118
 21
-335.9244997199313
 31
0.0
  0
LINE
  5
287
100
AcDbEntity
  8
COPERTURE
390
0
  6
Continuous
 62
               4
100
AcDbLine
 10
820.36335544022813
 20
-342.9039697199313
 30
0.0
 11
755.82853496889413
 21
-339.35582971993131
 31
0.0
  0
LINE
  5
288
100
AcDbEntity
  8
COPERTURE
390
0
  6
Continuous
 62
               4
100
AcDbLine
 10
880.1895323449528
 20
-346.45940971993133
 30
0.0
 11
820.36335544022813
 21
-342.9039697199313
 31
0.0
  0
LINE
  5
289
100
AcDbEntity
  8
COPERTURE
390
0
  6
Continuous
 62
               4
100
AcDbLine
 10
934.28392584265987
 20
-349.88343971993129
 30
0.0
 11
880.1895323449528
 21
-346.45940971993133
 31
0.0
  0
LINE
  5
28A
100
AcDbEntity
  8
COPERTURE
390
0
  6
Continuous
 62
               4
100
AcDbLine
 10
981.73341112954427
 20
-353.08113971993129
 30
0.0
 11
934.28392584265987
 21
-349.88343971993129
 31
0.0
  0
LINE
  5
28B
100
AcDbEntity
  8
COPERTURE
390
0
  6
Continuous
 62
               4
100
AcDbLine
 10
1021.701873927423
 20
-355.97221971993133
 30
0.0
 11
981.73341112954427
 21
-353.08113971993129
 31
0.0
  0
LINE
  5
28C
100
AcDbEntity
  8
COPERTURE
390
0
  6
Continuous
 62
               4
100
AcDbLine
 10
131.8222906365537
 20
-387.01276110684483
 30
0.0
 11
124.72611639831459
 21
-386.43198480067105
 31
0.0
  0
LINE
  5
28D
100
AcDbEntity
  8
COPERTURE
390
0
  6
Continuous
 62
               4
100
AcDbLine
 10
156.4292906365537
 20
-388.62621110684483
 30
0.0
 11
131.8222906365537
 21
-387.01276110684483
 31
0.0
  0
LINE
  5
28E
100
AcDbEntity
  8
COPERTURE
390
0
  6
Continuous
 62
               4
100
AcDbLine
 10
182.6972906365537
 20
-389.9768411068448
 30
0.0
 11
156.4292906365537
 21
-388.62621110684483
 31
0.0
  0
LINE
  5
28F
100
AcDbEntity
  8
COPERTURE
390
0
  6
Continuous
 62
               4
100
AcDbLine
 10
210.51629063655369
 20
-391.06464110684482
 30
0.0
 11
182.6972906365537
 21
-389.9768411068448
 31
0.0
  0
LINE
  5
290
100
AcDbEntity
  8
COPERTURE
390
0
  6
Continuous
 62
               4
100
AcDbLine
 10
239.76529063655371
 20
-391.8896211068448
 30
0.0
 11
210.51629063655369
 21
-391.06464110684482
 31
0.0
  0
LINE
  5
291
100
AcDbEntity
  8
COPERTURE
390
0
  6
Continuous
 62
               4
100
AcDbLine
 10
270.3342906365537
 20
-392.44448110684482
 30
0.0
 11
239.76529063655371
 21
-391.8896211068448
 31
0.0
  0
LINE
  5
292
100
AcDbEntity
  8
COPERTURE
390
0
  6
Continuous
 62
               4
100
AcDbLine
 10
302.08029063655368
 20
-392.7511111068448
 30
0.0
 11
270.3342906365537
 21
-392.44448110684482
 31
0.0
  0
LINE
  5
293
100
AcDbEntity
  8
COPERTURE
390
0
  6
Continuous
 62
               4
100
AcDbLine
 10
334.86029063655371
 20
-392.79491110684484
 30
0.0
 11
302.08029063655368
 21
-392.7511111068448
 31
0.0
  0
LINE
  5
294
100
AcDbEntity
  8
COPERTURE
390
0
  6
Continuous
 62
               4
100
AcDbLine
 10
368.54229063655373
 20
-392.59049110684481
 30
0.0
 11
334.86029063655371
 21
-392.79491110684484
 31
0.0
  0
LINE
  5
295
100
AcDbEntity
  8
COPERTURE
390
0
  6
Continuous
 62
               4
100
AcDbLine
 10
402.9832906365537
 20
-392.15975110684479
 30
0.0
 11
368.54229063655373
 21
-392.59049110684481
 31
0.0
  0
LINE
  5
296
100
AcDbEntity
  8
COPERTURE
390
0
  6
Continuous
 62
               4
100
AcDbLine
 10
473.5482906365537
 20
-390.67771110684481
 30
0.0
 11
402.9832906365537
 21
-392.15975110684479
 31
0.0
  0
LINE
  5
297
100
AcDbEntity
  8
COPERTURE
390
0
  6
Continuous
 62
               4
100
AcDbLine
 10
545.33429063655365
 20
-388.49480110684482
 30
0.0
 11
473.5482906365537
 21
-390.67771110684481
 31
0.0
  0
LINE
  5
298
100
AcDbEntity
  8
COPERTURE
390
0
  6
Continuous
 62
               4
100
AcDbLine
 10
617.12029063655359
 20
-385.74243110684483
 30
0.0
 11
545.33429063655365
 21
-388.49480110684482
 31
0.0
  0
LINE
  5
299
100
AcDbEntity
  8
COPERTURE
390
0
  6
Continuous
 62
               4
100
AcDbLine
 10
687.68529063655365
 20
-382.57393110684484
 30
0.0
 11
617.12029063655359
 21
-385.74243110684483
 31
0.0
  0
LINE
  5
29A
100
AcDbEntity
  8
COPERTURE
390
0
  6
Continuous
 62
               4
100
AcDbLine
 10
755.80829063655369
 20
-379.14260110684484
 30
0.0
 11
687.68529063655365
 21
-382.57393110684484
 31
0.0
  0
LINE
  5
29B
100
AcDbEntity
  8
COPERTURE
390
0
  6
Continuous
 62
               4
100
AcDbLine
 10
820.33429063655365
 20
-375.59446110684479
 30
0.0
 11
755.80829063655369
 21
-379.14260110684484
 31
0.0
  0
LINE
  5
29C
100
AcDbEntity
  8
COPERTURE
390
0
  6
Continuous
 62
               4
100
AcDbLine
 10
880.15229063655363
 20
-372.03902110684481
 30
0.0
 11
820.33429063655365
 21
-375.59446110684479
 31
0.0
  0
LINE
  5
29D
100
AcDbEntity
  8
COPERTURE
390
0
  6
Continuous
 62
               4
100
AcDbLine
 10
934.23929063655362
 20
-368.6149911068448
 30
0.0
 11
880.15229063655363
 21
-372.03902110684481
 31
0.0
  0
LINE
  5
29E
100
AcDbEntity
  8
COPERTURE
390
0
  6
Continuous
 62
               4
100
AcDbLine
 10
981.6822906365536
 20
-365.4172911068448
 30
0.0
 11
934.23929063655362
 21
-368.6149911068448
 31
0.0
  0
LINE
  5
29F
100
AcDbEntity
  8
COPERTURE
390
0
  6
Continuous
 62
               4
100
AcDbLine
 10
1021.6452906365536
 20
-362.52621110684481
 30
0.0
 11
981.6822906365536
 21
-365.4172911068448
 31
0.0
  0
LINE
  5
2A0
100
AcDbEntity
  8
COPERTURE
390
0
  6
Continuous
 62
               4
100
AcDbLine
 10
1038.1031697982362
 20
-357.11215485288142
 30
0.0
 11
1021.701873927423
 21
-355.97221971993133
 31
0.0
  0
LINE
  5
2A1
100
AcDbEntity
  8
COPERTURE
390
0
  6
Continuous
 62
               4
100
AcDbLine
 10
1038.0823780375295
 20
-361.38276403726013
 30
0.0
 11
1021.6452906365536
 21
-362.52621110684481
 31
0.0
  0
ENDBLK
  5
2A2
100
AcDbEntity
  8
0
390
0
100
AcDbBlockEnd
  0
BLOCK
  5
2A5
100
AcDbEntity
  8
0
390
0
100
AcDbBlockBegin
  2
B032F6DC4
 70
               0
 10
0.0
 20
0.0
 30
0.0
  3

  1

  0
LINE
  5
2A6
100
AcDbEntity
  8
ORDINATE
390
0
100
AcDbLine
 10
1009.0789983742477
 20
-351.94117186272189
 30
0.0
 11
1038.271205826388
 21
-354.49515907808114
 31
0.0
  0
LINE
  5
2A7
100
AcDbEntity
  8
ORDINATE
390
0
100
AcDbLine
 10
1009.0584956227331
 20
-351.94254186203193
 30
0.0
 11
1009.0584956227331
 21
-366.42795719562088
 31
0.0
  0
LINE
  5
2A8
100
AcDbEntity
  8
ORDINATE
390
0
100
AcDbLine
 10
1038.271205826388
 20
-363.90695904290931
 30
0.0
 11
1009.1038734215272
 21
-366.45876997362694
 31
0.0
  0
LINE
  5
2A9
100
AcDbEntity
  8
ORDINATE
390
0
100
AcDbLine
 10
1038.271205826388
 20
-354.49515907808114
 30
0.0
 11
1038.271205826388
 21
-363.90695904290931
 31
0.0
  0
ENDBLK
  5
2AA
100
AcDbEntity
  8
0
390
0
100
AcDbBlockEnd
  0
BLOCK
  5
2AD
100
AcDbEntity
  8
0
390
0
100
AcDbBlockBegin
  2
B032F6F60
 70
               0
 10
0.0
 20
0.0
 30
0.0
  3

  1

  0
INSERT
  5
2BA
100
AcDbEntity
  8
RINFORZI
390
0
100
AcDbBlockReference
  2
B032F6FAC
 10
0.0
 20
0.0
 30
0.0
  0
LINE
  5
2BB
100
AcDbEntity
  8
RINFORZI
390
0
100
AcDbLine
 10
501.91097726391524
 20
-183.32365256261028
 30
0.0
 11
501.91097726391524
 21
-168.18673211404908
 31
0.0
  0
LINE
  5
2BC
100
AcDbEntity
  8
RINFORZI
390
0
100
AcDbLine
 10
505.29569962715016
 20
-183.32365256261028
 30
0.0
 11
501.91097726391524
 21
-183.32365256261028
 31
0.0
  0
LINE
  5
2BD
100
AcDbEntity
  8
RINFORZI
390
0
100
AcDbLine
 10
505.29569962715016
 20
-168.18673211404962
 30
0.0
 11
505.29569962715016
 21
-183.32365256261028
 31
0.0
  0
LINE
  5
2BE
100
AcDbEntity
  8
RINFORZI
390
0
100
AcDbLine
 10
502.11008239486893
 20
-168.18673211404962
 30
0.0
 11
505.29569962715016
 21
-168.18673211404962
 31
0.0
  0
CIRCLE
  5
2BF
100
AcDbEntity
  8
RINFORZI
390
0
100
AcDbCircle
 10
524.98779054151214
 20
-171.34490030997227
 30
0.0
 40
6.5
  0
CIRCLE
  5
2C0
100
AcDbEntity
  8
RINFORZI
390
0
100
AcDbCircle
 10
549.98779054151214
 20
-171.34490030997227
 30
0.0
 40
6.5
  0
CIRCLE
  5
2C1
100
AcDbEntity
  8
RINFORZI
390
0
100
AcDbCircle
 10
574.98779054151214
 20
-171.34490030997227
 30
0.0
 40
6.5
  0
CIRCLE
  5
2C2
100
AcDbEntity
  8
RINFORZI
390
0
100
AcDbCircle
 10
599.98779054151214
 20
-171.34490030997227
 30
0.0
 40
6.5
  0
INSERT
  5
2CB
100
AcDbEntity
  8
RINFORZI
390
0
100
AcDbBlockReference
  2
B03325D44
 10
0.0
 20
0.0
 30
0.0
  0
INSERT
  5
2D4
100
AcDbEntity
  8
RINFORZI
390
0
100
AcDbBlockReference
  2
B03326F0C
 10
0.0
 20
0.0
 30
0.0
  0
LINE
  5
2D5
100
AcDbEntity
  8
RINFORZI
390
0
100
AcDbLine
 10
502.02893545584703
 20
-133.96898339151051
 30
0.0
 11
505.42899142499897
 21
-133.96898339151051
 31
0.0
  0
LINE
  5
2D6
100
AcDbEntity
  8
RINFORZI
390
0
100
AcDbLine
 10
515.50515520403656
 20
-133.96898339151051
 30
0.0
 11
561.83667463662084
 21
-133.96898339151051
 31
0.0
  0
LINE
  5
2D7
100
AcDbEntity
  8
RINFORZI
390
0
100
AcDbLine
 10
571.81866866071425
 20
-133.96898339151051
 30
0.0
 11
670.7092400992683
 21
-133.96898339151051
 31
0.0
  0
LINE
  5
2D8
100
AcDbEntity
  8
RINFORZI
390
0
100
AcDbLine
 10
515.52452245740574
 20
-137.10086003026834
 30
0.0
 11
515.50840064308034
 21
-133.97885825177022
 31
0.0
  0
CIRCLE
  5
2D9
100
AcDbEntity
  8
RINFORZI
390
0
100
AcDbCircle
 10
152.16653074235458
 20
-193.93308552927286
 30
0.0
 40
6.5
  0
CIRCLE
  5
2DA
100
AcDbEntity
  8
RINFORZI
390
0
100
AcDbCircle
 10
177.16653074235458
 20
-193.93308552927286
 30
0.0
 40
6.5
  0
CIRCLE
  5
2DB
100
AcDbEntity
  8
RINFORZI
390
0
100
AcDbCircle
 10
202.16653074235458
 20
-193.93308552927286
 30
0.0
 40
6.5
  0
CIRCLE
  5
2DC
100
AcDbEntity
  8
RINFORZI
390
0
100
AcDbCircle
 10
227.16653074235458
 20
-193.93308552927286
 30
0.0
 40
6.5
  0
CIRCLE
  5
2DD
100
AcDbEntity
  8
RINFORZI
390
0
100
AcDbCircle
 10
152.47289634510662
 20
-156.86284759627506
 30
0.0
 40
6.5
  0
CIRCLE
  5
2DE
100
AcDbEntity
  8
RINFORZI
390
0
100
AcDbCircle
 10
177.47289634510662
 20
-156.86284759627506
 30
0.0
 40
6.5
  0
CIRCLE
  5
2DF
100
AcDbEntity
  8
RINFORZI
390
0
100
AcDbCircle
 10
202.47289634510662
 20
-156.86284759627506
 30
0.0
 40
6.5
  0
CIRCLE
  5
2E0
100
AcDbEntity
  8
RINFORZI
390
0
100
AcDbCircle
 10
227.47289634510662
 20
-156.86284759627506
 30
0.0
 40
6.5
  0
INSERT
  5
2E9
100
AcDbEntity
  8
RINFORZI
390
0
100
AcDbBlockReference
  2
B03327484
 10
0.0
 20
0.0
 30
0.0
  0
CIRCLE
  5
2EA
100
AcDbEntity
  8
RINFORZI
390
0
100
AcDbCircle
 10
461.86430495235078
 20
-202.50556537094198
 30
0.0
 40
6.5
  0
INSERT
  5
2F6
100
AcDbEntity
  8
RINFORZI
390
0
100
AcDbBlockReference
  2
B03327698
 10
0.0
 20
0.0
 30
0.0
  0
INSERT
  5
302
100
AcDbEntity
  8
RINFORZI
390
0
100
AcDbBlockReference
  2
B02C1CE94
 10
0.0
 20
0.0
 30
0.0
  0
LINE
  5
303
100
AcDbEntity
  8
RINFORZI
390
0
100
AcDbLine
 10
670.92898492561676
 20
-133.96898339151051
 30
0.0
 11
616.58632664187576
 21
-164.56931594745194
 31
0.0
  0
LINE
  5
304
100
AcDbEntity
  8
RINFORZI
390
0
100
AcDbLine
 10
618.07270636891758
 20
-182.67976390701415
 30
0.0
 11
672.10276745509066
 21
-202.34509789796579
 31
0.0
  0
ARC
  5
305
100
AcDbEntity
  8
RINFORZI
390
0
100
AcDbCircle
 10
621.49290780217427
 20
-173.28283769915507
 30
0.0
 40
10.0
100
AcDbArc
 50
119.38384681332678
 51
250.00000000000003
  0
LINE
  5
306
100
AcDbEntity
  8
RINFORZI
390
0
100
AcDbLine
 10
558.79838166309878
 20
-210.47107104249523
 30
0.0
 11
671.26519443337554
 21
-201.81624276474989
 31
0.0
  0
ARC
  5
307
100
AcDbEntity
  8
RINFORZI
390
0
100
AcDbCircle
 10
357.0586237193512
 20
1570.7570303708196
 30
0.0
 40
1791.6836021125191
100
AcDbArc
 50
267.94540971599645
 51
274.72730595397576
  0
LINE
  5
308
100
AcDbEntity
  8
RINFORZI
390
0
100
AcDbLine
 10
293.28028778676816
 20
-214.69601482756113
 30
0.0
 11
292.83406020273623
 21
-219.79641945198054
 31
0.0
  0
LINE
  5
309
100
AcDbEntity
  8
RINFORZI
390
0
100
AcDbLine
 10
257.8680873402497
 20
-213.10408159565603
 30
0.0
 11
293.28028778676816
 21
-214.69601482756113
 31
0.0
  0
LINE
  5
30A
100
AcDbEntity
  8
RINFORZI
390
0
100
AcDbLine
 10
257.4284960367404
 20
-218.12863318660632
 30
0.0
 11
257.8680873402497
 21
-213.10408159565603
 31
0.0
  0
LINE
  5
30B
100
AcDbEntity
  8
RINFORZI
390
0
100
AcDbLine
 10
252.38478580132679
 20
-187.23644507938502
 30
0.0
 11
252.38478580132679
 21
-174.89553315351486
 31
0.0
  0
LINE
  5
30C
100
AcDbEntity
  8
RINFORZI
390
0
100
AcDbLine
 10
257.59418409976973
 20
-187.23644507938502
 30
0.0
 11
252.38478580132679
 21
-187.23644507938502
 31
0.0
  0
LINE
  5
30D
100
AcDbEntity
  8
RINFORZI
390
0
100
AcDbLine
 10
257.59418409976973
 20
-174.74827441789765
 30
0.0
 11
257.59418409976973
 21
-187.23644507938502
 31
0.0
  0
LINE
  5
30E
100
AcDbEntity
  8
RINFORZI
390
0
100
AcDbLine
 10
252.38540571136605
 20
-174.74827441789765
 30
0.0
 11
257.59418409976973
 21
-174.74827441789765
 31
0.0
  0
LINE
  5
30F
100
AcDbEntity
  8
RINFORZI
390
0
100
AcDbLine
 10
457.23691438067863
 20
-174.05836942371647
 30
0.0
 11
437.16851022257896
 21
-174.05836942371647
 31
0.0
  0
LINE
  5
310
100
AcDbEntity
  8
RINFORZI
390
0
100
AcDbLine
 10
457.23691438067863
 20
-179.11456446170109
 30
0.0
 11
457.23691438067863
 21
-174.05836942371647
 31
0.0
  0
LINE
  5
311
100
AcDbEntity
  8
RINFORZI
390
0
100
AcDbLine
 10
437.16981901126371
 20
-179.11456446170109
 30
0.0
 11
457.23691438067863
 21
-179.11456446170109
 31
0.0
  0
LINE
  5
312
100
AcDbEntity
  8
RINFORZI
390
0
100
AcDbLine
 10
437.16981901126371
 20
-174.05895181170555
 30
0.0
 11
437.16981901126371
 21
-179.11456446170109
 31
0.0
  0
LINE
  5
313
100
AcDbEntity
  8
RINFORZI
390
0
100
AcDbLine
 10
571.85499273975904
 20
-136.91744641091984
 30
0.0
 11
571.85499273975904
 21
-133.9786271302024
 31
0.0
  0
LINE
  5
314
100
AcDbEntity
  8
RINFORZI
390
0
100
AcDbLine
 10
561.85394996256446
 20
-136.91744641091984
 30
0.0
 11
571.85499273975904
 21
-136.91744641091984
 31
0.0
  0
LINE
  5
315
100
AcDbEntity
  8
RINFORZI
390
0
100
AcDbLine
 10
561.85394996256446
 20
-133.9800469552367
 30
0.0
 11
561.85394996256446
 21
-136.91744641091984
 31
0.0
  0
LINE
  5
316
100
AcDbEntity
  8
RINFORZI
390
0
100
AcDbLine
 10
505.42834901344401
 20
-137.10086003026834
 30
0.0
 11
515.52452245740574
 21
-137.10086003026834
 31
0.0
  0
LINE
  5
317
100
AcDbEntity
  8
RINFORZI
390
0
100
AcDbLine
 10
505.42834901344401
 20
-133.9800469552367
 30
0.0
 11
505.42834901344401
 21
-137.10086003026834
 31
0.0
  0
LINE
  5
318
100
AcDbEntity
  8
RINFORZI
390
0
100
AcDbLine
 10
257.41692827054663
 20
-158.04407416369421
 30
0.0
 11
258.55254575980058
 21
-158.04407416369421
 31
0.0
  0
INSERT
  5
31D
100
AcDbEntity
  8
RINFORZI
390
0
100
AcDbBlockReference
  2
B02BC83F4
 10
0.0
 20
0.0
 30
0.0
  0
LINE
  5
31E
100
AcDbEntity
  8
RINFORZI
390
0
100
AcDbLine
 10
558.85746889855102
 20
-210.5323799015126
 30
0.0
 11
505.20317948399554
 21
-215.22652197482518
 31
0.0
  0
LINE
  5
31F
100
AcDbEntity
  8
RINFORZI
390
0
100
AcDbLine
 10
502.14249720477244
 20
-158.24322228563685
 30
0.0
 11
500.58102310188377
 21
-158.24322228563685
 31
0.0
  0
LINE
  5
320
100
AcDbEntity
  8
RINFORZI
390
0
100
AcDbLine
 10
502.14249720477244
 20
-133.96898339151051
 30
0.0
 11
502.14249720477244
 21
-158.24322228563685
 31
0.0
  0
ARC
  5
321
100
AcDbEntity
  8
RINFORZI
390
0
100
AcDbCircle
 10
300.30826930012961
 20
646.77735184889821
 30
0.0
 40
865.92370775385507
100
AcDbArc
 50
258.60856976497814
 51
267.15832891401976
  0
LINE
  5
322
100
AcDbEntity
  8
RINFORZI
390
0
100
AcDbLine
 10
129.27905569662354
 20
-147.91105394187198
 30
0.0
 11
129.27905569662354
 21
-202.19615361841409
 31
0.0
  0
ARC
  5
323
100
AcDbEntity
  8
RINFORZI
390
0
100
AcDbCircle
 10
318.94212017528685
 20
-1433.4198452075282
 30
0.0
 40
1299.4856999000306
100
AcDbArc
 50
92.715400001088369
 51
98.392434795094687
  0
LINE
  5
324
100
AcDbEntity
  8
RINFORZI
390
0
100
AcDbLine
 10
257.31086939779988
 20
-135.37271465664907
 30
0.0
 11
256.5475829195442
 21
-135.37271465664907
 31
0.0
  0
LINE
  5
325
100
AcDbEntity
  8
RINFORZI
390
0
100
AcDbLine
 10
257.31086939779988
 20
-158.15368605656874
 30
0.0
 11
257.31086939779988
 21
-135.37271465664907
 31
0.0
  0
ENDBLK
  5
326
100
AcDbEntity
  8
0
390
0
100
AcDbBlockEnd
  0
BLOCK
  5
2AF
100
AcDbEntity
  8
0
390
0
100
AcDbBlockBegin
  2
B032F6FAC
 70
               0
 10
0.0
 20
0.0
 30
0.0
  3

  1

  0
LINE
  5
2B0
100
AcDbEntity
  8
RINFORZI
390
0
100
AcDbLine
 10
574.03313984676959
 20
-182.67493363179187
 30
0.0
 11
554.95688908705711
 21
-182.67493363179187
 31
0.0
  0
LINE
  5
2B1
100
AcDbEntity
  8
RINFORZI
390
0
100
AcDbLine
 10
574.03606455330055
 20
-182.57712653687591
 30
0.0
 11
574.03606455330055
 21
-185.57436363255661
 31
0.0
  0
LINE
  5
2B2
100
AcDbEntity
  8
RINFORZI
390
0
100
AcDbLine
 10
554.96122349602285
 20
-185.57258327178434
 30
0.0
 11
574.03817555533021
 21
-185.57258327178434
 31
0.0
  0
LINE
  5
2B3
100
AcDbEntity
  8
RINFORZI
390
0
100
AcDbLine
 10
554.96122349602285
 20
-182.57712653687591
 30
0.0
 11
554.96122349602285
 21
-185.57258327178434
 31
0.0
  0
LINE
  5
2B4
100
AcDbEntity
  8
RINFORZI
390
0
100
AcDbLine
 10
523.35568367631652
 20
-185.55438496795986
 30
0.0
 11
523.35568367631652
 21
-182.53868510873033
 31
0.0
  0
LINE
  5
2B5
100
AcDbEntity
  8
RINFORZI
390
0
100
AcDbLine
 10
523.35568367631652
 20
-182.53868510873033
 30
0.0
 11
513.22971905552151
 21
-182.53868510873033
 31
0.0
  0
LINE
  5
2B6
100
AcDbEntity
  8
RINFORZI
390
0
100
AcDbLine
 10
513.22971912529488
 20
-182.53987382451413
 30
0.0
 11
513.22971912529488
 21
-185.55438496795986
 31
0.0
  0
LINE
  5
2B7
100
AcDbEntity
  8
RINFORZI
390
0
100
AcDbLine
 10
513.22971912529488
 20
-185.55438496795986
 30
0.0
 11
523.35568367631652
 21
-185.55438496795986
 31
0.0
  0
CIRCLE
  5
2B8
100
AcDbEntity
  8
RINFORZI
390
0
100
AcDbCircle
 10
567.26299660728012
 20
-180.67822662386141
 30
0.0
 40
1.0
  0
ENDBLK
  5
2B9
100
AcDbEntity
  8
0
390
0
100
AcDbBlockEnd
  0
BLOCK
  5
2C4
100
AcDbEntity
  8
0
390
0
100
AcDbBlockBegin
  2
B03325D44
 70
               0
 10
0.0
 20
0.0
 30
0.0
  3

  1

  0
CIRCLE
  5
2C5
100
AcDbEntity
  8
RINFORZI
390
0
100
AcDbCircle
 10
623.10439544262658
 20
-195.8290365954843
 30
0.0
 40
6.5
  0
CIRCLE
  5
2C6
100
AcDbEntity
  8
RINFORZI
390
0
100
AcDbCircle
 10
598.10439544262658
 20
-195.8290365954843
 30
0.0
 40
6.5
  0
CIRCLE
  5
2C7
100
AcDbEntity
  8
RINFORZI
390
0
100
AcDbCircle
 10
573.10439544262658
 20
-195.8290365954843
 30
0.0
 40
6.5
  0
CIRCLE
  5
2C8
100
AcDbEntity
  8
RINFORZI
390
0
100
AcDbCircle
 10
548.10439544262658
 20
-195.8290365954843
 30
0.0
 40
6.5
  0
CIRCLE
  5
2C9
100
AcDbEntity
  8
RINFORZI
390
0
100
AcDbCircle
 10
523.10439544262658
 20
-195.8290365954843
 30
0.0
 40
6.5
  0
ENDBLK
  5
2CA
100
AcDbEntity
  8
0
390
0
100
AcDbBlockEnd
  0
BLOCK
  5
2CD
100
AcDbEntity
  8
0
390
0
100
AcDbBlockBegin
  2
B03326F0C
 70
               0
 10
0.0
 20
0.0
 30
0.0
  3

  1

  0
CIRCLE
  5
2CE
100
AcDbEntity
  8
RINFORZI
390
0
100
AcDbCircle
 10
625.3644695612893
 20
-146.86076402446025
 30
0.0
 40
6.5
  0
CIRCLE
  5
2CF
100
AcDbEntity
  8
RINFORZI
390
0
100
AcDbCircle
 10
600.3644695612893
 20
-146.86076402446025
 30
0.0
 40
6.5
  0
CIRCLE
  5
2D0
100
AcDbEntity
  8
RINFORZI
390
0
100
AcDbCircle
 10
575.3644695612893
 20
-146.86076402446025
 30
0.0
 40
6.5
  0
CIRCLE
  5
2D1
100
AcDbEntity
  8
RINFORZI
390
0
100
AcDbCircle
 10
550.3644695612893
 20
-146.86076402446025
 30
0.0
 40
6.5
  0
CIRCLE
  5
2D2
100
AcDbEntity
  8
RINFORZI
390
0
100
AcDbCircle
 10
525.3644695612893
 20
-146.86076402446025
 30
0.0
 40
6.5
  0
ENDBLK
  5
2D3
100
AcDbEntity
  8
0
390
0
100
AcDbBlockEnd
  0
BLOCK
  5
2E2
100
AcDbEntity
  8
0
390
0
100
AcDbBlockBegin
  2
B03327484
 70
               0
 10
0.0
 20
0.0
 30
0.0
  3

  1

  0
CIRCLE
  5
2E3
100
AcDbEntity
  8
RINFORZI
390
0
100
AcDbCircle
 10
240.95298286619675
 20
-175.24478376139791
 30
0.0
 40
6.5
  0
CIRCLE
  5
2E4
100
AcDbEntity
  8
RINFORZI
390
0
100
AcDbCircle
 10
215.95298286619675
 20
-175.24478376139791
 30
0.0
 40
6.5
  0
CIRCLE
  5
2E5
100
AcDbEntity
  8
RINFORZI
390
0
100
AcDbCircle
 10
190.95298286619675
 20
-175.24478376139791
 30
0.0
 40
6.5
  0
CIRCLE
  5
2E6
100
AcDbEntity
  8
RINFORZI
390
0
100
AcDbCircle
 10
165.95298286619675
 20
-175.24478376139791
 30
0.0
 40
6.5
  0
CIRCLE
  5
2E7
100
AcDbEntity
  8
RINFORZI
390
0
100
AcDbCircle
 10
140.95298286619675
 20
-175.24478376139791
 30
0.0
 40
6.5
  0
ENDBLK
  5
2E8
100
AcDbEntity
  8
0
390
0
100
AcDbBlockEnd
  0
BLOCK
  5
2EC
100
AcDbEntity
  8
0
390
0
100
AcDbBlockBegin
  2
B03327698
 70
               0
 10
0.0
 20
0.0
 30
0.0
  3

  1

  0
CIRCLE
  5
2ED
100
AcDbEntity
  8
RINFORZI
390
0
100
AcDbCircle
 10
287.08937537892359
 20
-202.51132240633018
 30
0.0
 40
6.5
  0
CIRCLE
  5
2EE
100
AcDbEntity
  8
RINFORZI
390
0
100
AcDbCircle
 10
312.08937537892359
 20
-202.51132240633018
 30
0.0
 40
6.5
  0
CIRCLE
  5
2EF
100
AcDbEntity
  8
RINFORZI
390
0
100
AcDbCircle
 10
337.08937537892359
 20
-202.51132240633018
 30
0.0
 40
6.5
  0
CIRCLE
  5
2F0
100
AcDbEntity
  8
RINFORZI
390
0
100
AcDbCircle
 10
362.08937537892359
 20
-202.51132240633018
 30
0.0
 40
6.5
  0
CIRCLE
  5
2F1
100
AcDbEntity
  8
RINFORZI
390
0
100
AcDbCircle
 10
387.08937537892359
 20
-202.51132240633018
 30
0.0
 40
6.5
  0
CIRCLE
  5
2F2
100
AcDbEntity
  8
RINFORZI
390
0
100
AcDbCircle
 10
412.08937537892359
 20
-202.51132240633018
 30
0.0
 40
6.5
  0
CIRCLE
  5
2F3
100
AcDbEntity
  8
RINFORZI
390
0
100
AcDbCircle
 10
437.08937537892359
 20
-202.51132240633018
 30
0.0
 40
6.5
  0
CIRCLE
  5
2F4
100
AcDbEntity
  8
RINFORZI
390
0
100
AcDbCircle
 10
487.08937537892359
 20
-202.51132240633018
 30
0.0
 40
6.5
  0
ENDBLK
  5
2F5
100
AcDbEntity
  8
0
390
0
100
AcDbBlockEnd
  0
BLOCK
  5
2F8
100
AcDbEntity
  8
0
390
0
100
AcDbBlockBegin
  2
B02C1CE94
 70
               0
 10
0.0
 20
0.0
 30
0.0
  3

  1

  0
CIRCLE
  5
2F9
100
AcDbEntity
  8
RINFORZI
390
0
100
AcDbCircle
 10
272.99655765232939
 20
-183.21028943295116
 30
0.0
 40
6.5
  0
CIRCLE
  5
2FA
100
AcDbEntity
  8
RINFORZI
390
0
100
AcDbCircle
 10
297.99655765232939
 20
-183.21028943295116
 30
0.0
 40
6.5
  0
CIRCLE
  5
2FB
100
AcDbEntity
  8
RINFORZI
390
0
100
AcDbCircle
 10
322.99655765232939
 20
-183.21028943295116
 30
0.0
 40
6.5
  0
CIRCLE
  5
2FC
100
AcDbEntity
  8
RINFORZI
390
0
100
AcDbCircle
 10
347.99655765232939
 20
-183.21028943295116
 30
0.0
 40
6.5
  0
CIRCLE
  5
2FD
100
AcDbEntity
  8
RINFORZI
390
0
100
AcDbCircle
 10
372.99655765232939
 20
-183.21028943295116
 30
0.0
 40
6.5
  0
CIRCLE
  5
2FE
100
AcDbEntity
  8
RINFORZI
390
0
100
AcDbCircle
 10
397.99655765232939
 20
-183.21028943295116
 30
0.0
 40
6.5
  0
CIRCLE
  5
2FF
100
AcDbEntity
  8
RINFORZI
390
0
100
AcDbCircle
 10
422.99655765232939
 20
-183.21028943295116
 30
0.0
 40
6.5
  0
CIRCLE
  5
300
100
AcDbEntity
  8
RINFORZI
390
0
100
AcDbCircle
 10
472.99655765232939
 20
-183.21028943295116
 30
0.0
 40
6.5
  0
ENDBLK
  5
301
100
AcDbEntity
  8
0
390
0
100
AcDbBlockEnd
  0
BLOCK
  5
31A
100
AcDbEntity
  8
0
390
0
100
AcDbBlockBegin
  2
B02BC83F4
 70
               0
 10
0.0
 20
0.0
 30
0.0
  3

  1

  0
LWPOLYLINE
  5
31B
100
AcDbEntity
  8
RINFORZI
390
0
 62
               5
100
AcDbPolyline
 90
       70
 70
               0
 10
500.68609574449493
 20
-158.1360571174194
 10
499.23167574449496
 20
-158.4966371174194
 10
496.71487574449498
 20
-159.01693711741939
 10
493.68261574449497
 20
-159.62193711741938
 10
490.08891574449495
 20
-160.30921711741939
 10
486.16125574449495
 20
-161.02069711741939
 10
482.23601574449492
 20
-161.6886171174194
 10
478.36401574449496
 20
-162.29845711741939
 10
474.47023574449497
 20
-162.86231711741939
 10
470.55225574449497
 20
-163.38503711741939
 10
466.61975574449497
 20
-163.86177711741939
 10
462.66305574449495
 20
-164.29737711741939
 10
458.67973574449496
 20
-164.7039371174194
 10
454.66737574449496
 20
-165.08387711741938
 10
450.62839574449492
 20
-165.44687711741938
 10
446.57005574449494
 20
-165.7953571174194
 10
442.49719574449495
 20
-166.13899711741939
 10
438.41949574449495
 20
-166.47295711741938
 10
434.34421574449493
 20
-166.80207711741937
 10
430.27377574449497
 20
-167.12393711741939
 10
426.20817574449495
 20
-167.4336971174194
 10
422.14983574449496
 20
-167.73135711741938
 10
418.09633574449492
 20
-168.01449711741938
 10
414.05009574449497
 20
-168.28311711741938
 10
410.00627574449493
 20
-168.53237711741937
 10
405.96971574449498
 20
-168.76227711741939
 10
401.93557574449494
 20
-168.9728171174194
 10
397.90627574449496
 20
-169.1567371174194
 10
393.88423574449496
 20
-169.31887711741939
 10
389.86219574449495
 20
-169.45439711741938
 10
385.84257574449492
 20
-169.56329711741938
 10
381.82537574449492
 20
-169.64557711741938
 10
377.80817574449492
 20
-169.6988171174194
 10
373.78855574449494
 20
-169.72543711741937
 10
369.76651574449494
 20
-169.72543711741937
 10
365.74205574449496
 20
-169.6988171174194
 10
361.71517574449496
 20
-169.64799711741938
 10
357.68103574449492
 20
-169.57297711741938
 10
353.64689574449494
 20
-169.47375711741938
 10
349.60791574449496
 20
-169.35275711741937
 10
345.56409574449492
 20
-169.21239711741939
 10
341.51543574449494
 20
-169.05267711741939
 10
337.46677574449495
 20
-168.87359711741939
 10
333.41327574449497
 20
-168.67999711741939
 10
329.35735574449495
 20
-168.46945711741938
 10
325.30143574449494
 20
-168.2419771174194
 10
321.24551574449492
 20
-168.00239711741938
 10
317.18959574449497
 20
-167.74829711741938
 10
313.13367574449495
 20
-167.47967711741939
 10
309.08501574449491
 20
-167.19653711741938
 10
305.04361574449496
 20
-166.89645711741937
 10
301.00947574449492
 20
-166.57943711741939
 10
296.98985574449495
 20
-166.2430571174194
 10
292.99201574449495
 20
-165.8824771174194
 10
289.02079574449493
 20
-165.49285711741939
 10
285.08345574449493
 20
-165.0669371174194
 10
281.18483574449493
 20
-164.5998771174194
 10
277.34187574449493
 20
-164.07957711741938
 10
273.58119574449495
 20
-163.5036171174194
 10
269.98749574449494
 20
-162.8671571174194
 10
266.77373574449496
 20
-162.20407711741939
 10
264.24241574449496
 20
-161.58213711741939
 10
262.46129574449492
 20
-161.0521571174194
 10
261.22951574449496
 20
-160.60687711741937
 10
260.34621574449494
 20
-160.20757711741939
 10
259.69523574449494
 20
-159.82279711741938
 10
259.21607574449496
 20
-159.42833711741937
 10
258.89179574449491
 20
-159.00967711741939
 10
258.71997574449495
 20
-158.56923711741939
 10
258.68609574449493
 20
-158.1360571174194
  0
ENDBLK
  5
31C
100
AcDbEntity
  8
0
390
0
100
AcDbBlockEnd
  0
BLOCK
  5
332
100
AcDbEntity
  8
0
390
0
100
AcDbBlockBegin
  2
B02BECA64
 70
               0
 10
0.0
 20
0.0
 30
0.0
  3

  1

  0
CIRCLE
  5
333
100
AcDbEntity
  8
RINFORZI
390
0
100
AcDbCircle
 10
837.09475945506028
 20
-502.69175262215595
 30
0.0
 40
6.0
  0
CIRCLE
  5
334
100
AcDbEntity
  8
RINFORZI
390
0
100
AcDbCircle
 10
809.31595358970208
 20
-502.69175262215595
 30
0.0
 40
6.0
  0
CIRCLE
  5
335
100
AcDbEntity
  8
RINFORZI
390
0
100
AcDbCircle
 10
792.31595358970208
 20
-502.69175262215595
 30
0.0
 40
6.0
  0
CIRCLE
  5
336
100
AcDbEntity
  8
RINFORZI
390
0
100
AcDbCircle
 10
775.31595358970208
 20
-502.69175262215595
 30
0.0
 40
6.0
  0
CIRCLE
  5
337
100
AcDbEntity
  8
RINFORZI
390
0
100
AcDbCircle
 10
758.31595358970208
 20
-502.69175262215595
 30
0.0
 40
6.0
  0
CIRCLE
  5
338
100
AcDbEntity
  8
RINFORZI
390
0
100
AcDbCircle
 10
741.31595358970208
 20
-502.69175262215595
 30
0.0
 40
6.0
  0
LINE
  5
339
100
AcDbEntity
  8
RINFORZI
390
0
100
AcDbLine
 10
731.06952063686276
 20
-513.94175262215595
 30
0.0
 11
815.56952063686276
 21
-513.94175262215595
 31
0.0
  0
LINE
  5
33A
100
AcDbEntity
  8
RINFORZI
390
0
100
AcDbLine
 10
828.5295206368628
 20
-513.22175262215592
 30
0.0
 11
847.06952063686276
 21
-512.19175262215595
 31
0.0
  0
LINE
  5
33B
100
AcDbEntity
  8
RINFORZI
390
0
100
AcDbLine
 10
847.06952063686276
 20
-493.19175262215595
 30
0.0
 11
828.55365392328338
 21
-491.89564195220538
 31
0.0
  0
LINE
  5
33C
100
AcDbEntity
  8
RINFORZI
390
0
100
AcDbLine
 10
815.56952063686276
 20
-491.44175262215595
 30
0.0
 11
731.06952063686276
 21
-491.44175262215595
 31
0.0
  0
ARC
  5
33D
100
AcDbEntity
  8
RINFORZI
390
0
100
AcDbCircle
 10
822.06952063686276
 20
-513.94175262215595
 30
0.0
 40
6.5
100
AcDbArc
 50
4.0041729407098172
 51
180.0
  0
ARC
  5
33E
100
AcDbEntity
  8
RINFORZI
390
0
100
AcDbCircle
 10
822.06952063686276
 20
-491.44175262215595
 30
0.0
 40
6.5
100
AcDbArc
 50
180.0
 51
355.99582705929066
  0
LINE
  5
33F
100
AcDbEntity
  8
RINFORZI
390
0
100
AcDbLine
 10
731.06952063686276
 20
-491.44175262215595
 30
0.0
 11
731.06952063686276
 21
-513.94175262215595
 31
0.0
  0
LINE
  5
340
100
AcDbEntity
  8
RINFORZI
390
0
100
AcDbLine
 10
847.06952063686276
 20
-512.19175262215595
 30
0.0
 11
847.06952063686276
 21
-493.19175262215595
 31
0.0
  0
ENDBLK
  5
341
100
AcDbEntity
  8
0
390
0
100
AcDbBlockEnd
  0
BLOCK
  5
344
100
AcDbEntity
  8
0
390
0
100
AcDbBlockBegin
  2
B0331A27C
 70
               0
 10
0.0
 20
0.0
 30
0.0
  3

  1

  0
CIRCLE
  5
345
100
AcDbEntity
  8
RINFORZI
390
0
100
AcDbCircle
 10
964.82079010206314
 20
-359.33779705408114
 30
0.0
 40
6.0
  0
CIRCLE
  5
346
100
AcDbEntity
  8
RINFORZI
390
0
100
AcDbCircle
 10
937.04198423670493
 20
-359.33779705408114
 30
0.0
 40
6.0
  0
CIRCLE
  5
347
100
AcDbEntity
  8
RINFORZI
390
0
100
AcDbCircle
 10
920.04198423670493
 20
-359.33779705408114
 30
0.0
 40
6.0
  0
CIRCLE
  5
348
100
AcDbEntity
  8
RINFORZI
390
0
100
AcDbCircle
 10
903.04198423670493
 20
-359.33779705408114
 30
0.0
 40
6.0
  0
CIRCLE
  5
349
100
AcDbEntity
  8
RINFORZI
390
0
100
AcDbCircle
 10
886.04198423670493
 20
-359.33779705408114
 30
0.0
 40
6.0
  0
CIRCLE
  5
34A
100
AcDbEntity
  8
RINFORZI
390
0
100
AcDbCircle
 10
869.04198423670493
 20
-359.33779705408114
 30
0.0
 40
6.0
  0
LINE
  5
34B
100
AcDbEntity
  8
RINFORZI
390
0
100
AcDbLine
 10
858.79555128386562
 20
-370.58779705408114
 30
0.0
 11
943.29555128386562
 21
-370.58779705408114
 31
0.0
  0
LINE
  5
34C
100
AcDbEntity
  8
RINFORZI
390
0
100
AcDbLine
 10
956.25555128386566
 20
-369.86779705408111
 30
0.0
 11
974.79555128386562
 21
-368.83779705408114
 31
0.0
  0
LINE
  5
34D
100
AcDbEntity
  8
RINFORZI
390
0
100
AcDbLine
 10
974.79555128386562
 20
-349.83779705408114
 30
0.0
 11
956.27968457028624
 21
-348.54168638413057
 31
0.0
  0
LINE
  5
34E
100
AcDbEntity
  8
RINFORZI
390
0
100
AcDbLine
 10
943.29555128386562
 20
-348.08779705408114
 30
0.0
 11
858.79555128386562
 21
-348.08779705408114
 31
0.0
  0
ARC
  5
34F
100
AcDbEntity
  8
RINFORZI
390
0
100
AcDbCircle
 10
949.79555128386562
 20
-370.58779705408114
 30
0.0
 40
6.5
100
AcDbArc
 50
4.0041729407098172
 51
180.0
  0
ARC
  5
350
100
AcDbEntity
  8
RINFORZI
390
0
100
AcDbCircle
 10
949.79555128386562
 20
-348.08779705408114
 30
0.0
 40
6.5
100
AcDbArc
 50
180.0
 51
355.99582705929066
  0
LINE
  5
351
100
AcDbEntity
  8
RINFORZI
390
0
100
AcDbLine
 10
858.79555128386562
 20
-348.08779705408114
 30
0.0
 11
858.79555128386562
 21
-370.58779705408114
 31
0.0
  0
LINE
  5
352
100
AcDbEntity
  8
RINFORZI
390
0
100
AcDbLine
 10
974.79555128386562
 20
-368.83779705408114
 30
0.0
 11
974.79555128386562
 21
-349.83779705408114
 31
0.0
  0
ENDBLK
  5
353
100
AcDbEntity
  8
0
390
0
100
AcDbBlockEnd
  0
BLOCK
  5
361
100
AcDbEntity
  8
0
390
0
100
AcDbBlockBegin
  2
B0331AAE4
 70
               0
 10
0.0
 20
0.0
 30
0.0
  3

  1

  0
TEXT
  5
362
100
AcDbEntity
  8
RINFORZI
390
0
100
AcDbText
 10
1289.8925174396152
 20
-57.893263841399786
 30
0.0
 40
3.3500000000000001
  1
110,0%%d
 41
1.05
100
AcDbText
  0
ARC
  5
363
100
AcDbEntity
  8
RINFORZI
390
0
  6
Continuous
100
AcDbCircle
 10
1299.6147396618373
 20
-137.35076168884754
 30
0.0
 40
74.457497847447755
100
AcDbArc
 50
34.999999999999801
 51
145.00000000000023
  0
SOLID
  5
364
100
AcDbEntity
  8
RINFORZI
390
0
100
AcDbTrace
 10
1360.6067512362176
 20
-94.643695413892985
 30
0.0
 11
1356.6414134123054
 21
-91.316381908354913
 31
0.0
 12
1358.8363246988913
 22
-89.779488479785854
 32
0.0
 13
1358.8363246988913
 23
-89.779488479785854
 33
0.0
  0
SOLID
  5
365
100
AcDbEntity
  8
RINFORZI
390
0
100
AcDbTrace
 10
1238.6227280874571
 20
-94.643695413892985
 30
0.0
 11
1240.3931546247834
 21
-89.779488479785854
 31
0.0
 12
1242.5880659113693
 22
-91.316381908354913
 32
0.0
 13
1242.5880659113693
 23
-91.316381908354913
 33
0.0
  0
ENDBLK
  5
366
100
AcDbEntity
  8
0
390
0
100
AcDbBlockEnd
  0
ENDSEC
  0
SECTION
  2
ENTITIES
  0
LINE
  5
63
100
AcDbEntity
  8
PIASTRA
390
0
100
AcDbLine
 10
932.30681127412902
 20
202.11486574037835
 30
0.0
 11
932.30681127412902
 21
201.68925777573548
 31
0.0
  0
LINE
  5
64
100
AcDbEntity
  8
PIANI_DI_CODA
390
0
100
AcDbLine
 10
1119.8626083145384
 20
210.90630709685735
 30
0.0
 11
1119.8626083145384
 21
212.24897488610387
 31
0.0
  0
LINE
  5
65
100
AcDbEntity
  8
ORDINATE
390
0
100
AcDbLine
 10
502.10797992052187
 20
-217.58960626547014
 30
0.0
 11
505.27376529555283
 21
-217.58960626547014
 31
0.0
  0
INSERT
  5
6D
100
AcDbEntity
  8
ORDINATE
390
0
100
AcDbBlockReference
  2
B024985B0
 10
0.0
 20
0.0
 30
0.0
  0
LINE
  5
6E
100
AcDbEntity
  8
ORDINATE
390
0
100
AcDbLine
 10
437.07568020633903
 20
-394.56601606687019
 30
0.0
 11
457.48303341187818
 21
-394.01446598023398
 31
0.0
  0
LINE
  5
6F
100
AcDbEntity
  8
ORDINATE
390
0
100
AcDbLine
 10
501.90373618535386
 20
-392.71010506155392
 30
0.0
 11
505.50046047568065
 21
-392.62756824109312
 31
0.0
  0
LINE
  5
70
100
AcDbEntity
  8
ORDINATE
390
0
100
AcDbLine
 10
505.28593802842607
 20
-325.80601461418104
 30
0.0
 11
501.90373554782934
 21
-325.80601461418104
 31
0.0
  0
LINE
  5
71
100
AcDbEntity
  8
ORDINATE
390
0
100
AcDbLine
 10
505.28593802842607
 20
-392.62400085609079
 30
0.0
 11
505.28593802842607
 21
-325.80356739623306
 31
0.0
  0
LINE
  5
72
100
AcDbEntity
  8
ORDINATE
390
0
100
AcDbLine
 10
501.90373618535386
 20
-325.80601461418104
 30
0.0
 11
501.90373618535386
 21
-392.71010506155392
 31
0.0
  0
POINT
  5
73
100
AcDbEntity
  8
ORDINATE
390
0
  6
Continuous
100
AcDbPoint
 10
447.19478234576127
 20
-384.23426545524239
 30
0.0
  0
LINE
  5
74
100
AcDbEntity
  8
ORDINATE
390
0
100
AcDbLine
 10
437.03568713103681
 20
-375.84219208458029
 30
0.0
 11
457.53394958884991
 21
-375.84219208458029
 31
0.0
  0
LINE
  5
75
100
AcDbEntity
  8
ORDINATE
390
0
100
AcDbLine
 10
457.47363198994691
 20
-375.84531260387553
 30
0.0
 11
457.47363198994691
 21
-394.00574534944735
 31
0.0
  0
LINE
  5
76
100
AcDbEntity
  8
ORDINATE
390
0
100
AcDbLine
 10
437.0662787844077
 20
-375.84531260387553
 30
0.0
 11
437.0662787844077
 21
-394.57353720441523
 31
0.0
  0
LINE
  5
77
100
AcDbEntity
  8
ORDINATE
390
0
 62
               3
100
AcDbLine
 10
124.0987325831006
 20
-145.25338236323742
 30
0.0
 11
129.08869995742461
 21
-145.25338236323742
 31
0.0
  0
LINE
  5
78
100
AcDbEntity
  8
ORDINATE
390
0
 62
               3
100
AcDbLine
 10
129.08869995742461
 20
-145.18244351033664
 30
0.0
 11
129.08869995742461
 21
-204.55595736083981
 31
0.0
  0
LINE
  5
79
100
AcDbEntity
  8
ORDINATE
390
0
 62
               3
100
AcDbLine
 10
124.29833127807356
 20
-145.28538590287434
 30
0.0
 11
124.29833127807356
 21
-204.82307656973319
 31
0.0
  0
LINE
  5
7A
100
AcDbEntity
  8
ORDINATE
390
0
100
AcDbLine
 10
262.48119370807348
 20
-131.06175355595147
 30
0.0
 11
262.4945854730567
 21
-130.9086849817667
 31
0.0
  0
LINE
  5
7B
100
AcDbEntity
  8
ORDINATE
390
0
100
AcDbLine
 10
252.39195158415788
 20
-220.61928286960372
 30
0.0
 11
257.44268776772458
 21
-220.61928286960372
 31
0.0
  0
LINE
  5
7C
100
AcDbEntity
  8
ORDINATE
390
0
100
AcDbLine
 10
257.44268776772458
 20
-132.65208486732897
 30
0.0
 11
252.39194525578927
 21
-132.65208486732897
 31
0.0
  0
LINE
  5
7D
100
AcDbEntity
  8
ORDINATE
390
0
100
AcDbLine
 10
257.44268776772458
 20
-220.61928286960372
 30
0.0
 11
257.44268776772458
 21
-132.65307505199908
 31
0.0
  0
LINE
  5
7E
100
AcDbEntity
  8
ORDINATE
390
0
100
AcDbLine
 10
252.39195158415788
 20
-132.65360496652119
 30
0.0
 11
252.39195158415788
 21
-220.61928286960372
 31
0.0
  0
LINE
  5
7F
100
AcDbEntity
  8
FIANCATE
390
0
  6
Continuous
100
AcDbLine
 10
1095.3342906365538
 20
-359.2247707496976
 30
0.0
 11
1090.6262906365537
 21
-358.76483074969764
 31
0.0
  0
LINE
  5
80
100
AcDbEntity
  8
FIANCATE
390
0
  6
Continuous
100
AcDbLine
 10
1095.3342906365538
 20
-359.2247707496976
 30
0.0
 11
1090.6262906365537
 21
-359.68471074969762
 31
0.0
  0
LINE
  5
81
100
AcDbEntity
  8
ORDINATE
390
0
100
AcDbLine
 10
257.44268776772458
 20
-323.43784089221174
 30
0.0
 11
257.44268776772458
 21
-395.11059599071615
 31
0.0
  0
LINE
  5
82
100
AcDbEntity
  8
ORDINATE
390
0
100
AcDbLine
 10
252.39195158415788
 20
-323.4137897675281
 30
0.0
 11
252.39195158415788
 21
-395.08614132480807
 31
0.0
  0
LINE
  5
83
100
AcDbEntity
  8
ORDINATE
390
0
100
AcDbLine
 10
252.39195158415788
 20
-323.43784089221174
 30
0.0
 11
257.44268776772458
 21
-323.43784089221174
 31
0.0
  0
LINE
  5
84
100
AcDbEntity
  8
ORDINATE
390
0
100
AcDbLine
 10
257.44268776772458
 20
-395.11059599071615
 30
0.0
 11
252.39195156803692
 21
-395.11059599071615
 31
0.0
  0
INSERT
  5
92
100
AcDbEntity
  8
ORDINATE
390
0
100
AcDbBlockReference
  2
B02498E84
 10
0.0
 20
0.0
 30
0.0
  0
LINE
  5
93
100
AcDbEntity
  8
ORDINATE
390
0
100
AcDbLine
 10
858.91495891948875
 20
-124.26993896304856
 30
0.0
 11
858.91495891948875
 21
-122.29873180747194
 31
0.0
  0
LINE
  5
94
100
AcDbEntity
  8
ORDINATE
390
0
100
AcDbLine
 10
979.16886518045578
 20
-116.38514025925126
 30
0.0
 11
979.16886518045578
 21
-107.51472700419127
 31
0.0
  0
LINE
  5
95
100
AcDbEntity
  8
ORDINATE
390
0
 62
               3
100
AcDbLine
 10
128.92394123679793
 20
-203.62156422392619
 30
0.0
 11
123.93397385510454
 21
-203.62156422392619
 31
0.0
  0
INSERT
  5
9D
100
AcDbEntity
  8
ORDINATE
390
0
100
AcDbBlockReference
  2
B024991B4
 10
0.0
 20
0.0
 30
0.0
  0
LINE
  5
9E
100
AcDbEntity
  8
ORDINATE
390
0
100
AcDbLine
 10
505.27376529555283
 20
-217.58960626547014
 30
0.0
 11
505.27376529555283
 21
-131.48016924531376
 31
0.0
  0
INSERT
  5
C0
100
AcDbEntity
  8
FIANCATE
390
0
100
AcDbBlockReference
  2
B024993A4
 10
0.0
 20
0.0
 30
0.0
  0
LINE
  5
C1
100
AcDbEntity
  8
ORDINATE
390
0
100
AcDbLine
 10
502.14150245297179
 20
-131.42028461837728
 30
0.0
 11
502.10797992052187
 21
-217.58960626547014
 31
0.0
  0
INSERT
  5
FD
100
AcDbEntity
  8
SERVI
390
0
100
AcDbBlockReference
  2
B02499808
 10
0.0
 20
0.0
 30
0.0
  0
LINE
  5
FE
100
AcDbEntity
  8
ORDINATE
390
0
100
AcDbLine
 10
512.97467729286927
 20
-392.4295795781199
 30
0.0
 11
523.22803930811756
 21
-392.0835286101053
 31
0.0
  0
LINE
  5
FF
100
AcDbEntity
  8
ORDINATE
390
0
100
AcDbLine
 10
512.97467729286927
 20
-326.00193892272745
 30
0.0
 11
523.35588901648146
 21
-326.35186740779301
 31
0.0
  0
LINE
  5
100
100
AcDbEntity
  8
ORDINATE
390
0
100
AcDbLine
 10
554.91695452649981
 20
-327.30463869674128
 30
0.0
 11
554.91695452649981
 21
-327.49755682756324
 31
0.0
  0
LINE
  5
101
100
AcDbEntity
  8
ORDINATE
390
0
100
AcDbLine
 10
512.99672405166757
 20
-325.91700562768131
 30
0.0
 11
512.99672405166757
 21
-392.4067159712082
 31
0.0
  0
LINE
  5
102
100
AcDbEntity
  8
ORDINATE
390
0
100
AcDbLine
 10
100.91168111570427
 20
-174.75787349968533
 30
0.0
 11
509.82712854039619
 21
-174.75955993921914
 31
0.0
  0
LINE
  5
103
100
AcDbEntity
  8
FIANCATE
390
0
100
AcDbLine
 10
235.75854730941623
 20
-310.5649685394053
 30
0.0
 11
272.7587398373206
 21
-310.5649685394053
 31
0.0
  0
LINE
  5
104
100
AcDbEntity
  8
FIANCATE
390
0
100
AcDbLine
 10
272.7587398373206
 20
-310.5649685394053
 30
0.0
 11
345.13894931958629
 21
-310.5649685394053
 31
0.0
  0
CIRCLE
  5
105
100
AcDbEntity
  8
FIANCATE
390
0
100
AcDbCircle
 10
268.49691098943066
 20
-282.07207503004508
 30
0.0
 40
28.5
  0
LINE
  5
106
100
AcDbEntity
  8
FIANCATE
390
0
100
AcDbLine
 10
273.19755865313408
 20
-282.32798848057047
 30
0.0
 11
262.47062647330421
 21
-282.32798848057047
 31
0.0
  0
LINE
  5
107
100
AcDbEntity
  8
FIANCATE
390
0
100
AcDbLine
 10
268.43187149921334
 20
-276.96659043240965
 30
0.0
 11
268.43187149921334
 21
-286.49796474025112
 31
0.0
  0
INSERT
  5
126
100
AcDbEntity
  8
SERVI
390
0
100
AcDbBlockReference
  2
B032F4870
 10
0.0
 20
0.0
 30
0.0
  0
INSERT
  5
145
100
AcDbEntity
  8
SERVI
390
0
100
AcDbBlockReference
  2
B0249283C
 10
0.0
 20
0.0
 30
0.0
  0
INSERT
  5
177
100
AcDbEntity
  8
SERVI
390
0
100
AcDbBlockReference
  2
B02492EFC
 10
0.0
 20
0.0
 30
0.0
  0
LINE
  5
178
100
AcDbEntity
  8
ORDINATE
390
0
100
AcDbLine
 10
554.90517953798758
 20
-391.01442512734718
 30
0.0
 11
573.75855509421729
 21
-390.37812370232439
 31
0.0
  0
LINE
  5
179
100
AcDbEntity
  8
ORDINATE
390
0
100
AcDbLine
 10
554.90479803778317
 20
-327.41531377929761
 30
0.0
 11
573.80147829177895
 21
-328.05228052943227
 31
0.0
  0
LINE
  5
17A
100
AcDbEntity
  8
ORDINATE
390
0
100
AcDbLine
 10
573.76678833545134
 20
-352.65867448054263
 30
0.0
 11
563.64830854619106
 21
-352.65867448054263
 31
0.0
  0
LINE
  5
17B
100
AcDbEntity
  8
ORDINATE
390
0
100
AcDbLine
 10
563.64830854619106
 20
-352.65867448054263
 30
0.0
 11
563.64830854619106
 21
-366.06255282553735
 31
0.0
  0
LINE
  5
17C
100
AcDbEntity
  8
ORDINATE
390
0
100
AcDbLine
 10
563.64830854619106
 20
-366.06255282553735
 30
0.0
 11
573.86267864893091
 21
-366.06255282553735
 31
0.0
  0
CIRCLE
  5
17D
100
AcDbEntity
  8
ORDINATE
390
0
100
AcDbCircle
 10
567.39182875022152
 20
-344.68204594479482
 30
0.0
 40
1.5
  0
CIRCLE
  5
17E
100
AcDbEntity
  8
ORDINATE
390
0
100
AcDbCircle
 10
567.39182875022152
 20
-372.73821136317446
 30
0.0
 40
1.5
  0
LINE
  5
17F
100
AcDbEntity
  8
ORDINATE
390
0
100
AcDbLine
 10
573.80115764428297
 20
-366.07146260369541
 30
0.0
 11
573.80096743919637
 21
-390.45378173682269
 31
0.0
  0
LINE
  5
180
100
AcDbEntity
  8
ORDINATE
390
0
100
AcDbLine
 10
573.80145395408431
 20
-328.08761963336383
 30
0.0
 11
573.8012620540062
 21
-352.68721909721148
 31
0.0
  0
LINE
  5
181
100
AcDbEntity
  8
ORDINATE
390
0
100
AcDbLine
 10
523.13502938444537
 20
-330.40090104346791
 30
0.0
 11
554.82350700850293
 21
-331.38298196156887
 31
0.0
  0
LINE
  5
182
100
AcDbEntity
  8
ORDINATE
390
0
100
AcDbLine
 10
554.91695452649981
 20
-327.41572354858016
 30
0.0
 11
554.91695452649981
 21
-331.4111190354206
 31
0.0
  0
LINE
  5
183
100
AcDbEntity
  8
ORDINATE
390
0
100
AcDbLine
 10
523.2087161911254
 20
-326.32397153172974
 30
0.0
 11
523.2087161911254
 21
-330.37769441502121
 31
0.0
  0
LINE
  5
184
100
AcDbEntity
  8
ORDINATE
390
0
100
AcDbLine
 10
523.15423937081664
 20
-388.25018860633827
 30
0.0
 11
554.82998975707687
 21
-387.27052622325806
 31
0.0
  0
LINE
  5
185
100
AcDbEntity
  8
ORDINATE
390
0
100
AcDbLine
 10
554.84145781384802
 20
-387.24307155316262
 30
0.0
 11
554.91695452649981
 21
-391.04800442249399
 31
0.0
  0
LINE
  5
186
100
AcDbEntity
  8
ORDINATE
390
0
100
AcDbLine
 10
523.2087161911254
 20
-388.14661184561419
 30
0.0
 11
523.2087161911254
 21
-392.08418076530376
 31
0.0
  0
INSERT
  5
18E
100
AcDbEntity
  8
ORDINATE
390
0
100
AcDbBlockReference
  2
B02BF2FF0
 10
0.0
 20
0.0
 30
0.0
  0
INSERT
  5
196
100
AcDbEntity
  8
ORDINATE
390
0
100
AcDbBlockReference
  2
B024866C4
 10
0.0
 20
0.0
 30
0.0
  0
INSERT
  5
19E
100
AcDbEntity
  8
ORDINATE
390
0
100
AcDbBlockReference
  2
B02486860
 10
0.0
 20
0.0
 30
0.0
  0
LINE
  5
19F
100
AcDbEntity
  8
ORDINATE
390
0
100
AcDbLine
 10
501.71188024083381
 20
-133.9413468670262
 30
0.0
 11
501.71188024083381
 21
-158.23494199598977
 31
0.0
  0
LINE
  5
1A0
100
AcDbEntity
  8
ORDINATE
390
0
100
AcDbLine
 10
501.71188024083381
 20
-158.23494199598977
 30
0.0
 11
498.72990652426483
 21
-157.9740531008577
 31
0.0
  0
LINE
  5
1A1
100
AcDbEntity
  8
ORDINATE
390
0
100
AcDbLine
 10
498.72990652426483
 20
-157.9740531008577
 30
0.0
 11
498.72990652426483
 21
-133.93812297753763
 31
0.0
  0
LINE
  5
1A2
100
AcDbEntity
  8
ORDINATE
390
0
100
AcDbLine
 10
498.72990652426483
 20
-133.93812297753763
 30
0.0
 11
501.71188198354872
 21
-133.93812297753763
 31
0.0
  0
LINE
  5
1A3
100
AcDbEntity
  8
ORDINATE
390
0
100
AcDbLine
 10
257.81306089430086
 20
-135.33505440614925
 30
0.0
 11
257.81306089430086
 21
-158.03606991877055
 31
0.0
  0
LINE
  5
1A4
100
AcDbEntity
  8
ORDINATE
390
0
100
AcDbLine
 10
257.81306089430086
 20
-158.03606991877055
 30
0.0
 11
260.79957909194036
 21
-158.03606991877055
 31
0.0
  0
LINE
  5
1A5
100
AcDbEntity
  8
ORDINATE
390
0
100
AcDbLine
 10
260.79957909194036
 20
-158.03606991877055
 30
0.0
 11
260.79957909194036
 21
-135.33156224665402
 31
0.0
  0
LINE
  5
1A6
100
AcDbEntity
  8
ORDINATE
390
0
100
AcDbLine
 10
260.79957909194036
 20
-135.33156224665402
 30
0.0
 11
257.61395790318539
 21
-135.33156224665402
 31
0.0
  0
LINE
  5
1A7
100
AcDbEntity
  8
ORDINATE
390
0
100
AcDbLine
 10
504.06127294964119
 20
-160.22268903334648
 30
0.0
 11
503.86217187262361
 21
-160.42179011036407
 31
0.0
  0
INSERT
  5
1B3
100
AcDbEntity
  8
ORDINATE
390
0
100
AcDbBlockReference
  2
B02486CF0
 10
0.0
 20
0.0
 30
0.0
  0
LINE
  5
1B4
100
AcDbEntity
  8
PIANI_DI_CODA
390
0
100
AcDbLine
 10
858.98870901382543
 20
-342.39957165866042
 30
0.0
 11
888.99402129849761
 21
-342.39957165866042
 31
0.0
  0
INSERT
  5
1BF
100
AcDbEntity
  8
PIANI_DI_CODA
390
0
100
AcDbBlockReference
  2
B02BEDB70
 10
0.0
 20
0.0
 30
0.0
  0
INSERT
  5
1CA
100
AcDbEntity
  8
ORDINATE
390
0
100
AcDbBlockReference
  2
B02BEDE14
 10
0.0
 20
0.0
 30
0.0
  0
INSERT
  5
268
100
AcDbEntity
  8
FIANCATE
390
0
100
AcDbBlockReference
  2
B02BEE094
 10
0.0
 20
0.0
 30
0.0
  0
INSERT
  5
2A3
100
AcDbEntity
  8
COPERTURE
390
0
100
AcDbBlockReference
  2
B0248434C
 10
0.0
 20
0.0
 30
0.0
  0
INSERT
  5
2AB
100
AcDbEntity
  8
ORDINATE
390
0
100
AcDbBlockReference
  2
B032F6DC4
 10
0.0
 20
0.0
 30
0.0
  0
INSERT
  5
327
100
AcDbEntity
  8
RINFORZI
390
0
100
AcDbBlockReference
  2
B032F6F60
 10
0.0
 20
0.0
 30
0.0
  0
LINE
  5
328
100
AcDbEntity
  8
PIANI_DI_CODA
390
0
100
AcDbLine
 10
866.78268498813986
 20
-158.14947601582605
 30
0.0
 11
858.71663758636362
 21
-349.7692076976287
 31
0.0
  0
LINE
  5
329
100
AcDbEntity
  8
PIANI_DI_CODA
390
0
100
AcDbLine
 10
951.96300041390646
 20
-115.21649792283068
 30
0.0
 11
889.7136936780762
 21
-130.24949376719786
 31
0.0
  0
ARC
  5
32A
100
AcDbEntity
  8
PIANI_DI_CODA
390
0
100
AcDbCircle
 10
896.75614164237868
 20
-159.41117970388697
 30
0.0
 40
30.0
100
AcDbArc
 50
103.576784355158
 51
177.58961252790345
  0
LINE
  5
32B
100
AcDbEntity
  8
PIANI_DI_CODA
390
0
100
AcDbLine
 10
940.32842412496359
 20
-146.12712529789852
 30
0.0
 11
958.10274587295851
 21
-349.28855252358846
 31
0.0
  0
LINE
  5
32C
100
AcDbEntity
  8
PIANI_DI_CODA
390
0
100
AcDbLine
 10
954.83573530006515
 20
-142.22020585272264
 30
0.0
 11
940.47206086927156
 21
-145.66748771611313
 31
0.0
  0
LINE
  5
32D
100
AcDbEntity
  8
PIANI_DI_CODA
390
0
100
AcDbLine
 10
978.21517232298129
 20
-349.7692076976287
 30
0.0
 11
951.62377245357152
 21
-115.21691792255268
 31
0.0
  0
LINE
  5
32E
100
AcDbEntity
  8
PIANI_DI_CODA
390
0
100
AcDbLine
 10
858.71663758636362
 20
-349.7692076976287
 30
0.0
 11
978.21517232298129
 21
-349.7692076976287
 31
0.0
  0
LINE
  5
32F
100
AcDbEntity
  8
RINFORZI
390
0
100
AcDbLine
 10
974.79555128386562
 20
-352.61358576661877
 30
0.0
 11
974.79555128386562
 21
-365.88146340682772
 31
0.0
  0
LINE
  5
330
100
AcDbEntity
  8
RINFORZI
390
0
100
AcDbLine
 10
949.79555128386562
 20
-350.92879404513519
 30
0.0
 11
949.79555128386562
 21
-367.56648543325946
 31
0.0
  0
INSERT
  5
342
100
AcDbEntity
  8
RINFORZI
390
0
100
AcDbBlockReference
  2
B02BECA64
 10
0.0
 20
0.0
 30
0.0
  0
INSERT
  5
354
100
AcDbEntity
  8
RINFORZI
390
0
100
AcDbBlockReference
  2
B0331A27C
 10
0.0
 20
0.0
 30
0.0
  0
LINE
  5
355
100
AcDbEntity
  8
RINFORZI
390
0
100
AcDbLine
 10
1308.7685021360819
 20
-101.69880518662471
 30
0.0
 11
1308.7685021360819
 21
-101.10416990520746
 31
0.0
  0
LINE
  5
356
100
AcDbEntity
  8
RINFORZI
390
0
100
AcDbLine
 10
1299.6147396618373
 20
-132.37516929227795
 30
0.0
 11
1306.7206220253711
 21
-132.37516929227795
 31
0.0
  0
LINE
  5
357
100
AcDbEntity
  8
RINFORZI
390
0
100
AcDbLine
 10
1299.6147396618373
 20
-132.37516929227795
 30
0.0
 11
1292.5088572983036
 21
-132.37516929227795
 31
0.0
  0
LINE
  5
358
100
AcDbEntity
  8
RINFORZI
390
0
100
AcDbLine
 10
1306.7206220253595
 20
-132.37516929227795
 30
0.0
 11
1482.8383115474928
 21
-9.0562354768029962
 31
0.0
  0
LINE
  5
359
100
AcDbEntity
  8
RINFORZI
390
0
100
AcDbLine
 10
1309.5885042071145
 20
-136.47092951372284
 30
0.0
 11
1485.7061937292481
 21
-13.151995698247894
 31
0.0
  0
LINE
  5
35A
100
AcDbEntity
  8
RINFORZI
390
0
100
AcDbLine
 10
1500.65529352415
 20
0.3674131394954259
 30
0.0
 11
1485.7061937292481
 21
-13.151995698247894
 31
0.0
  0
LINE
  5
35B
100
AcDbEntity
  8
RINFORZI
390
0
100
AcDbLine
 10
1500.65529352415
 20
0.3674131394954259
 30
0.0
 11
1482.8383115474928
 21
-9.0562354768029962
 31
0.0
  0
LINE
  5
35C
100
AcDbEntity
  8
RINFORZI
390
0
100
AcDbLine
 10
1292.5088572983152
 20
-132.37516929227795
 30
0.0
 11
1116.3911677761819
 21
-9.0562354768029962
 31
0.0
  0
LINE
  5
35D
100
AcDbEntity
  8
RINFORZI
390
0
100
AcDbLine
 10
1289.6409751165602
 20
-136.47092951372284
 30
0.0
 11
1113.5232855944266
 21
-13.151995698247894
 31
0.0
  0
LINE
  5
35E
100
AcDbEntity
  8
RINFORZI
390
0
100
AcDbLine
 10
1098.5741857995247
 20
0.3674131394954259
 30
0.0
 11
1113.5232855944266
 21
-13.151995698247894
 31
0.0
  0
LINE
  5
35F
100
AcDbEntity
  8
RINFORZI
390
0
100
AcDbLine
 10
1098.5741857995247
 20
0.3674131394954259
 30
0.0
 11
1116.3911677761819
 21
-9.0562354768029962
 31
0.0
  0
INSERT
  5
367
100
AcDbEntity
  8
RINFORZI
390
0
100
AcDbBlockReference
  2
B0331AAE4
 10
0.0
 20
0.0
 30
0.0
  0
LINE
  5
368
100
AcDbEntity
  8
RINFORZI
390
0
100
AcDbLine
 10
1306.7206220253595
 20
-132.37516929227795
 30
0.0
 11
1310.2216597164079
 21
-137.37516929227795
 31
0.0
  0
LINE
  5
369
100
AcDbEntity
  8
RINFORZI
390
0
100
AcDbLine
 10
1292.5088572983152
 20
-132.37516929227795
 30
0.0
 11
1289.0078196072668
 21
-137.37516929227795
 31
0.0
  0
LINE
  5
36A
100
AcDbEntity
  8
RINFORZI
390
0
100
AcDbLine
 10
1289.0078196072668
 20
-137.37516929227795
 30
0.0
 11
1310.251354758663
 21
-137.41757820768476
 31
0.0
  0
LINE
  5
36B
100
AcDbEntity
  8
RINFORZI
390
0
100
AcDbLine
 10
958.10274587295851
 20
-349.28855252358846
 30
0.0
 11
958.10274587295851
 21
-116.38514025925126
 31
0.0
  0
LINE
  5
36C
100
AcDbEntity
  8
RINFORZI
390
0
100
AcDbLine
 10
1288.6295871829648
 20
-137.39637374998136
 30
0.0
 11
1288.6295871829648
 21
-169.64537374998136
 31
0.0
  0
LINE
  5
36D
100
AcDbEntity
  8
RINFORZI
390
0
100
AcDbLine
 10
1288.6295871829648
 20
-169.64537374998136
 30
0.0
 11
1310.6295871829648
 21
-169.64537374998136
 31
0.0
  0
LINE
  5
36E
100
AcDbEntity
  8
RINFORZI
390
0
100
AcDbLine
 10
1310.6295871829648
 20
-169.64537374998136
 30
0.0
 11
1310.6295871829648
 21
-137.39637374998136
 31
0.0
  0
LINE
  5
36F
100
AcDbEntity
  8
RINFORZI
390
0
100
AcDbLine
 10
1291.6295871829648
 20
-137.39637374998136
 30
0.0
 11
1291.6295871829648
 21
-169.64537374998136
 31
0.0
  0
LINE
  5
370
100
AcDbEntity
  8
RINFORZI
390
0
100
AcDbLine
 10
1307.6295871829648
 20
-169.64537374998136
 30
0.0
 11
1307.6295871829648
 21
-137.39637374998136
 31
0.0
  0
LINE
  5
371
100
AcDbEntity
  8
RINFORZI
390
0
100
AcDbLine
 10
1291.6295871829648
 20
-166.64537374998136
 30
0.0
 11
1307.6295871829648
 21
-166.64537374998136
 31
0.0
  0
LINE
  5
372
100
AcDbEntity
  8
RINFORZI
390
0
100
AcDbLine
 10
1299.6147396618373
 20
-132.37516929227795
 30
0.0
 11
1299.6147396618373
 21
-177.82797682992359
 31
0.0
  0
CIRCLE
  5
373
100
AcDbEntity
  8
RINFORZI
390
0
100
AcDbCircle
 10
1304.1295871829648
 20
-159.18061855405682
 30
0.0
 40
2.0
  0
CIRCLE
  5
374
100
AcDbEntity
  8
RINFORZI
390
0
100
AcDbCircle
 10
1294.8295871829648
 20
-159.18061855405682
 30
0.0
 40
2.0
  0
LINE
  5
375
100
AcDbEntity
  8
RINFORZI
390
0
100
AcDbLine
 10
1304.1295871829648
 20
-159.18061855405682
 30
0.0
 11
1304.3806297097399
 21
-135.23442413978901
 31
0.0
  0
LINE
  5
376
100
AcDbEntity
  8
RINFORZI
390
0
100
AcDbLine
 10
1294.8295871829648
 20
-159.18061855405682
 30
0.0
 11
1294.6629986829239
 21
-135.10428991691188
 31
0.0
  0
LINE
  5
377
100
AcDbEntity
  8
RINFORZI
390
0
100
AcDbLine
 10
1304.3806297097399
 20
-135.2344241397891
 30
0.0
 11
1307.2941984617105
 21
-133.19432133656701
 31
0.0
  0
LINE
  5
378
100
AcDbEntity
  8
RINFORZI
390
0
100
AcDbLine
 10
1294.6629986829239
 20
-135.10428991691194
 30
0.0
 11
1291.935280861964
 21
-133.19432133656684
 31
0.0
  0
ENDSEC
  0
SECTION
  2
OBJECTS
  0
DICTIONARY
  5
19
100
AcDbDictionary
280
               0
281
               1
  3
ACAD_GROUP
350
1A
  3
ACAD_MLINESTYLE
350
1B
  3
ACAD_LAYOUT
350
1E
  3
ACAD_PLOTSETTINGS
350
22
  3
ACAD_PLOTSTYLENAME
350
1F
  0
DICTIONARY
  5
1A
102
{ACAD_REACTORS
330
19
102
}
100
AcDbDictionary
280
               0
281
               1
  0
DICTIONARY
  5
1B
102
{ACAD_REACTORS
330
19
102
}
100
AcDbDictionary
280
               0
281
               1
  3
Standard
350
1C
  0
MLINESTYLE
  5
1C
102
{ACAD_REACTORS
330
1B
102
}
100
AcDbMlineStyle
  2
Standard
 70
               0
  3

 62
               0
 51
90.0
 52
90.0
 71
               2
 49
0.5
 62
             256
  6
ByLayer
 49
-0.5
 62
             256
  6
ByLayer
  0
ACDBDICTIONARYWDFLT
  5
1F
102
{ACAD_REACTORS
330
19
102
}
100
AcDbDictionary
281
               1
  3
Normal
350
1D
100
AcDbDictionaryWithDefault
340
1D
  0
ACDBPLACEHOLDER
  5
1D
102
{ACAD_REACTORS
330
1F
102
}
  0
LAYOUT
  5
20
102
{ACAD_REACTORS
330
1E
102
}
100
AcDbPlotSettings
  1

  2

  4

  6

 40
0.0
 41
0.0
 42
0.0
 43
0.0
 44
0.0
 45
0.0
 46
0.0
 47
0.0
 48
0.0
 49
0.0
140
0.0
141
0.0
142
1.0
143
1.0
 70
            1024
 72
               0
 73
               0
 74
               0
  7

 75
               0
147
1.0
148
0.0
149
0.0
100
AcDbLayout
  1
Model
 70
               0
 71
               0
 10
0.0
 20
0.0
 11
0.0
 21
0.0
 12
0.0
 22
0.0
 32
0.0
 14
0.0
 24
0.0
 34
0.0
 15
0.0
 25
0.0
 35
0.0
146
0.0
 13
0.0
 23
0.0
 33
0.0
 16
0.0
 26
0.0
 36
0.0
 17
0.0
 27
0.0
 37
0.0
 76
               0
330
A
331
0
345
0
346
0
  0
LAYOUT
  5
21
102
{ACAD_REACTORS
330
1E
102
}
100
AcDbPlotSettings
  1

  2

  4

  6

 40
0.0
 41
0.0
 42
0.0
 43
0.0
 44
0.0
 45
0.0
 46
0.0
 47
0.0
 48
0.0
 49
0.0
140
0.0
141
0.0
142
1.0
143
1.0
 70
               0
 72
               0
 73
               0
 74
               0
  7

 75
               0
147
1.0
148
0.0
149
0.0
100
AcDbLayout
  1
Layout1
 70
               0
 71
               0
 10
0.0
 20
0.0
 11
0.0
 21
0.0
 12
0.0
 22
0.0
 32
0.0
 14
0.0
 24
0.0
 34
0.0
 15
0.0
 25
0.0
 35
0.0
146
0.0
 13
0.0
 23
0.0
 33
0.0
 16
0.0
 26
0.0
 36
0.0
 17
0.0
 27
0.0
 37
0.0
 76
               0
330
B
331
0
345
0
346
0
  0
DICTIONARY
  5
1E
102
{ACAD_REACTORS
330
19
102
}
100
AcDbDictionary
280
               0
281
               1
  3
Layout1
350
21
  3
Model
350
20
  0
DICTIONARY
  5
22
102
{ACAD_REACTORS
330
19
102
}
100
AcDbDictionary
280
               0
281
               1
  0
ENDSEC
  0
EOF
