  0
SECTION
  2
HEADER
  9
$ACADVER
  1
AC1015
  9
$ACADMAINTVER
 70
               6
  9
$DWGCODEPAGE
  3
DOS437
  9
$INSBASE
 10
0.0
 20
0.0
 30
0.0
  9
$EXTMIN
 10
-670.0
 20
-6.3499999999999996
 30
1.0000000000000000E+20
  9
$EXTMAX
 10
670.00000029378373
 20
318.89381445151082
 30
-1.0000000000000000E+20
  9
$LIMMIN
 10
0.0
 20
0.0
  9
$LIMMAX
 10
0.0
 20
0.0
  9
$ORTHOMODE
 70
               0
  9
$REGENMODE
 70
               1
  9
$FILLMODE
 70
               1
  9
$QTEXTMODE
 70
               0
  9
$MIRRTEXT
 70
               1
  9
$LTSCALE
 40
0.1
  9
$ATTMODE
 70
               1
  9
$TEXTSIZE
 40
0.2
  9
$TRACEWID
 40
0.05
  9
$TEXTSTYLE
  7
Standard
  9
$CLAYER
  8
0
  9
$CELTYPE
  6
Continuous
  9
$CECOLOR
 62
             256
  9
$CELTSCALE
 40
1.0
  9
$DISPSILH
 70
               0
  9
$DIMSCALE
 40
1.0
  9
$DIMASZ
 40
0.18
  9
$DIMEXO
 40
0.0625
  9
$DIMDLI
 40
0.38
  9
$DIMRND
 40
0.0
  9
$DIMDLE
 40
0.0
  9
$DIMEXE
 40
0.18
  9
$DIMTP
 40
0.0
  9
$DIMTM
 40
0.0
  9
$DIMTXT
 40
0.18
  9
$DIMCEN
 40
0.09
  9
$DIMTSZ
 40
0.0
  9
$DIMTOL
 70
               0
  9
$DIMLIM
 70
               0
  9
$DIMTIH
 70
               1
  9
$DIMTOH
 70
               1
  9
$DIMSE1
 70
               0
  9
$DIMSE2
 70
               0
  9
$DIMTAD
 70
               0
  9
$DIMZIN
 70
               0
  9
$DIMBLK
  1

  9
$DIMASO
 70
               1
  9
$DIMSHO
 70
               1
  9
$DIMPOST
  1

  9
$DIMAPOST
  1

  9
$DIMALT
 70
               0
  9
$DIMALTD
 70
               2
  9
$DIMALTF
 40
25.399999999999999
  9
$DIMLFAC
 40
1.0
  9
$DIMTOFL
 70
               0
  9
$DIMTVP
 40
0.0
  9
$DIMTIX
 70
               0
  9
$DIMSOXD
 70
               0
  9
$DIMSAH
 70
               0
  9
$DIMBLK1
  1

  9
$DIMBLK2
  1

  9
$DIMSTYLE
  2
Standard
  9
$DIMCLRD
 70
               0
  9
$DIMCLRE
 70
               0
  9
$DIMCLRT
 70
               0
  9
$DIMTFAC
 40
1.0
  9
$DIMGAP
 40
0.09
  9
$DIMJUST
 70
               0
  9
$DIMSD1
 70
               0
  9
$DIMSD2
 70
               0
  9
$DIMTOLJ
 70
               1
  9
$DIMTZIN
 70
               0
  9
$DIMALTZ
 70
               0
  9
$DIMALTTZ
 70
               0
  9
$DIMUPT
 70
               0
  9
$DIMDEC
 70
               4
  9
$DIMTDEC
 70
               4
  9
$DIMALTU
 70
               2
  9
$DIMALTTD
 70
               2
  9
$DIMTXSTY
  7
Standard
  9
$DIMAUNIT
 70
               0
  9
$DIMADEC
 70
               0
  9
$DIMALTRND
 40
0.0
  9
$DIMAZIN
 70
               0
  9
$DIMDSEP
 70
               0
  9
$DIMATFIT
 70
               3
  9
$DIMFRAC
 70
               0
  9
$DIMLDRBLK
  1

  9
$DIMLUNIT
 70
               2
  9
$DIMLWD
 70
               0
  9
$DIMLWE
 70
               0
  9
$DIMTMOVE
 70
               0
  9
$LUNITS
 70
               2
  9
$LUPREC
 70
               4
  9
$SKETCHINC
 40
0.1
  9
$FILLETRAD
 40
0.0
  9
$AUNITS
 70
               0
  9
$AUPREC
 70
               0
  9
$MENU
  1
acad
  9
$ELEVATION
 40
0.0
  9
$PELEVATION
 40
0.0
  9
$THICKNESS
 40
0.0
  9
$LIMCHECK
 70
               0
  9
$CHAMFERA
 40
0.0
  9
$CHAMFERB
 40
0.0
  9
$CHAMFERC
 40
0.0
  9
$CHAMFERD
 40
0.0
  9
$SKPOLY
 70
               0
  9
$TDCREATE
 40
0.000000000
  9
$TDUCREATE
 40
0.000000000
  9
$TDUPDATE
 40
0.000000000
  9
$TDUUPDATE
 40
0.000000000
  9
$TDINDWG
 40
0.0000000000
  9
$TDUSRTIMER
 40
0.0000000000
  9
$USRTIMER
 70
               1
  9
$ANGBASE
 50
0.0
  9
$ANGDIR
 70
               0
  9
$PDMODE
 70
               2
  9
$PDSIZE
 40
0.05
  9
$PLINEWID
 40
0.0
  9
$SPLFRAME
 70
               0
  9
$SPLINETYPE
 70
               6
  9
$SPLINESEGS
 70
               8
  9
$HANDSEED
  5
285
  9
$SURFTAB1
 70
               6
  9
$SURFTAB2
 70
               6
  9
$SURFTYPE
 70
               6
  9
$SURFU
 70
               6
  9
$SURFV
 70
               6
  9
$UCSBASE
  2

  9
$UCSNAME
  2

  9
$UCSORG
 10
0.0
 20
0.0
 30
0.0
  9
$UCSXDIR
 10
1.0
 20
0.0
 30
0.0
  9
$UCSYDIR
 10
0.0
 20
1.0
 30
0.0
  9
$UCSORTHOREF
  2

  9
$UCSORTHOVIEW
 70
               0
  9
$UCSORGTOP
 10
0.0
 20
0.0
 30
0.0
  9
$UCSORGBOTTOM
 10
0.0
 20
0.0
 30
0.0
  9
$UCSORGLEFT
 10
0.0
 20
0.0
 30
0.0
  9
$UCSORGRIGHT
 10
0.0
 20
0.0
 30
0.0
  9
$UCSORGFRONT
 10
0.0
 20
0.0
 30
0.0
  9
$UCSORGBACK
 10
0.0
 20
0.0
 30
0.0
  9
$PUCSBASE
  2

  9
$PUCSNAME
  2

  9
$PUCSORG
 10
0.0
 20
0.0
 30
0.0
  9
$PUCSXDIR
 10
1.0
 20
0.0
 30
0.0
  9
$PUCSYDIR
 10
0.0
 20
1.0
 30
0.0
  9
$PUCSORTHOREF
  2

  9
$PUCSORTHOVIEW
 70
               0
  9
$PUCSORGTOP
 10
0.0
 20
0.0
 30
0.0
  9
$PUCSORGBOTTOM
 10
0.0
 20
0.0
 30
0.0
  9
$PUCSORGLEFT
 10
0.0
 20
0.0
 30
0.0
  9
$PUCSORGRIGHT
 10
0.0
 20
0.0
 30
0.0
  9
$PUCSORGFRONT
 10
0.0
 20
0.0
 30
0.0
  9
$PUCSORGBACK
 10
0.0
 20
0.0
 30
0.0
  9
$USERI1
 70
               0
  9
$USERI2
 70
               0
  9
$USERI3
 70
               0
  9
$USERI4
 70
               0
  9
$USERI5
 70
               0
  9
$USERR1
 40
0.0
  9
$USERR2
 40
0.0
  9
$USERR3
 40
0.0
  9
$USERR4
 40
0.0
  9
$USERR5
 40
0.0
  9
$WORLDVIEW
 70
               1
  9
$SHADEDGE
 70
               3
  9
$SHADEDIF
 70
              70
  9
$TILEMODE
 70
               1
  9
$MAXACTVP
 70
              16
  9
$PINSBASE
 10
0.0
 20
0.0
 30
0.0
  9
$PLIMCHECK
 70
               0
  9
$PEXTMIN
 10
1.0000000000000000E+20
 20
1.0000000000000000E+20
 30
1.0000000000000000E+20
  9
$PEXTMAX
 10
-1.0000000000000000E+20
 20
-1.0000000000000000E+20
 30
-1.0000000000000000E+20
  9
$PLIMMIN
 10
0.0
 20
0.0
  9
$PLIMMAX
 10
12.0
 20
9.0
  9
$UNITMODE
 70
               0
  9
$VISRETAIN
 70
               0
  9
$PLINEGEN
 70
               1
  9
$PSLTSCALE
 70
               0
  9
$TREEDEPTH
 70
            3020
  9
$CMLSTYLE
  2
Standard
  9
$CMLJUST
 70
               0
  9
$CMLSCALE
 40
1.0
  9
$PROXYGRAPHICS
 70
               0
  9
$MEASUREMENT
 70
               0
  9
$CELWEIGHT
370
               0
  9
$ENDCAPS
280
               0
  9
$JOINSTYLE
280
               0
  9
$LWDISPLAY
290
               0
  9
$INSUNITS
 70
               0
  9
$HYPERLINKBASE
  1

  9
$STYLESHEET
  1

  9
$XEDIT
290
               1
  9
$CEPSNTYPE
380
               0
  9
$PSTYLEMODE
290
               1
  9
$FINGERPRINTGUID
  2

  9
$VERSIONGUID
  2

  9
$EXTNAMES
290
               1
  9
$PSVPSCALE
 40
0.0
  0
ENDSEC
  0
SECTION
  2
CLASSES
  0
CLASS
  1
LWPOLYLINE
  2
AcDbPolyline
  3
AutoCAD 2000
 90
        0
280
               0
281
               1
  0
CLASS
  1
IMAGE
  2
AcDbRasterImage
  3
ISM
 90
      127
280
               0
281
               1
  0
CLASS
  1
OLE2FRAME
  2
AcDbOle2Frame
  3
AutoCAD 2000
 90
        0
280
               0
281
               1
  0
CLASS
  1
HATCH
  2
AcDbHatch
  3
AutoCAD 2000
 90
        0
280
               0
281
               1
  0
CLASS
  1
DICTIONARYVAR
  2
AcDbDictionaryVar
  3
AutoCAD 2000
 90
        0
280
               0
281
               0
  0
CLASS
  1
RASTERVARIABLES
  2
AcDbRasterVariables
  3
ISM
 90
        0
280
               0
281
               0
  0
CLASS
  1
IMAGEDEF
  2
AcDbRasterImageDef
  3
ISM
 90
        0
280
               0
281
               0
  0
CLASS
  1
IMAGEDEF_REACTOR
  2
AcDbRasterImageDefReactor
  3
ISM
 90
        1
280
               0
281
               0
  0
CLASS
  1
IDBUFFER
  2
AcDbIdBuffer
  3
AutoCAD 2000
 90
        0
280
               0
281
               0
  0
CLASS
  1
SPATIAL_FILTER
  2
AcDbSpatialFilter
  3
AutoCAD 2000
 90
        0
280
               0
281
               0
  0
CLASS
  1
XRECORD
  2
AcDbXrecord
  3
AutoCAD 2000
 90
        0
280
               0
281
               0
  0
CLASS
  1
SORTENTSTABLE
  2
AcDbSortentsTable
  3
AutoCAD 2000
 90
        0
280
               0
281
               0
  0
CLASS
  1
LAYER_INDEX
  2
AcDbLayerIndex
  3
AutoCAD 2000
 90
        0
280
               0
281
               0
  0
CLASS
  1
SPATIAL_INDEX
  2
AcDbSpatialIndex
  3
AutoCAD 2000
 90
        0
280
               0
281
               0
  0
CLASS
  1
OBJECT_PTR
  2
CAseDLPNTableRecord
  3
"ASE-LPNTableRecord"
 90
        1
280
               0
281
               0
  0
CLASS
  1
LAYOUT
  2
AcDbLayout
  3
AutoCAD 2000
 90
        0
280
               0
281
               0
  0
CLASS
  1
PLOTSETTINGS
  2
AcDbPlotSettings
  3
AutoCAD 2000
 90
        0
280
               0
281
               0
  0
CLASS
  1
ACDBDICTIONARYWDFLT
  2
AcDbDictionaryWithDefault
  3
AutoCAD 2000
 90
        0
280
               0
281
               0
  0
CLASS
  1
ACDBPLACEHOLDER
  2
AcDbPlaceHolder
  3
AutoCAD 2000
 90
        0
280
               0
281
               0
  0
ENDSEC
  0
SECTION
  2
TABLES
  0
TABLE
  2
VPORT
  5
7
100
AcDbSymbolTable
 70
               1
  0
VPORT
  5
15
100
AcDbSymbolTableRecord
100
AcDbViewportTableRecord
  2
*ACTIVE
 70
               0
 10
0.0
 20
0.0
 11
1.0
 21
1.0
 12
6.5912879999999996
 22
4.5791839999999997
 13
0.0
 23
0.0
 14
1.0
 24
1.0
 15
0.0
 25
0.0
 16
0.0
 26
0.0
 36
1.0
 17
0.0
 27
0.0
 37
0.0
 40
9.1583690000000004
 41
0.688564
 42
50.0
 43
0.0
 44
0.0
 50
0.0
 51
0.0
 71
               0
 72
             100
 73
               1
 74
               1
 75
               0
 76
               0
 77
               0
 78
               0
281
               0
 65
               0
110
0.0
120
0.0
130
0.0
111
1.0
121
0.0
131
0.0
112
0.0
122
1.0
132
0.0
345
0
346
0
 79
               0
146
0.0
  0
ENDTAB
  0
TABLE
  2
LTYPE
  5
4
100
AcDbSymbolTable
 70
              48
  0
LTYPE
  5
11
100
AcDbSymbolTableRecord
100
AcDbLinetypeTableRecord
  2
ByBlock
 70
              64
  3

 72
              65
 73
               0
 40
0.0
  0
LTYPE
  5
12
100
AcDbSymbolTableRecord
100
AcDbLinetypeTableRecord
  2
ByLayer
 70
              64
  3

 72
              65
 73
               0
 40
0.0
  0
LTYPE
  5
13
100
AcDbSymbolTableRecord
100
AcDbLinetypeTableRecord
  2
Continuous
 70
              64
  3
Solid line
 72
              65
 73
               0
 40
0.0
  0
LTYPE
  5
23
100
AcDbSymbolTableRecord
100
AcDbLinetypeTableRecord
  2
DOTTED
 70
              64
  3
Punteggiato
 72
              65
 73
               2
 40
12.0
 49
2.0
 74
               0
 49
-10.0
 74
               0
  0
LTYPE
  5
24
100
AcDbSymbolTableRecord
100
AcDbLinetypeTableRecord
  2
DASHEDS
 70
              64
  3
Tratteggiato piccolo
 72
              65
 73
               2
 40
20.0
 49
10.0
 74
               0
 49
-10.0
 74
               0
  0
LTYPE
  5
25
100
AcDbSymbolTableRecord
100
AcDbLinetypeTableRecord
  2
DASHEDM
 70
              64
  3
Tratteggiato medio
 72
              65
 73
               2
 40
40.0
 49
20.0
 74
               0
 49
-20.0
 74
               0
  0
LTYPE
  5
26
100
AcDbSymbolTableRecord
100
AcDbLinetypeTableRecord
  2
DASHEDL
 70
              64
  3
Tratteggiato grande
 72
              65
 73
               2
 40
60.0
 49
40.0
 74
               0
 49
-20.0
 74
               0
  0
LTYPE
  5
27
100
AcDbSymbolTableRecord
100
AcDbLinetypeTableRecord
  2
CENTERED
 70
              64
  3
Tratteggiato misto
 72
              65
 73
               4
 40
70.0
 49
10.0
 74
               0
 49
-20.0
 74
               0
 49
20.0
 74
               0
 49
-20.0
 74
               0
  0
LTYPE
  5
28
100
AcDbSymbolTableRecord
100
AcDbLinetypeTableRecord
  2
POINTLINE
 70
              64
  3
Punto e linea
 72
              65
 73
               4
 40
62.0
 49
20.0
 74
               0
 49
-20.0
 74
               0
 49
2.0
 74
               0
 49
-20.0
 74
               0
  0
LTYPE
  5
29
100
AcDbSymbolTableRecord
100
AcDbLinetypeTableRecord
  2
2POINTLINE
 70
              64
  3
Due punti e linea
 72
              65
 73
               6
 40
84.0
 49
20.0
 74
               0
 49
-20.0
 74
               0
 49
2.0
 74
               0
 49
-20.0
 74
               0
 49
2.0
 74
               0
 49
-20.0
 74
               0
  0
LTYPE
  5
2A
100
AcDbSymbolTableRecord
100
AcDbLinetypeTableRecord
  2
ACAD_ISO02W100
 70
              64
  3
ISO Tratteggiata
 72
              65
 73
               2
 40
150.0
 49
120.0
 74
               0
 49
-30.0
 74
               0
  0
LTYPE
  5
2B
100
AcDbSymbolTableRecord
100
AcDbLinetypeTableRecord
  2
ACAD_ISO03W100
 70
              64
  3
ISO Tratto spazio
 72
              65
 73
               2
 40
300.0
 49
120.0
 74
               0
 49
-180.0
 74
               0
  0
LTYPE
  5
2C
100
AcDbSymbolTableRecord
100
AcDbLinetypeTableRecord
  2
ACAD_ISO04W100
 70
              64
  3
ISO Tratto lungo punto
 72
              65
 73
               4
 40
305.0
 49
240.0
 74
               0
 49
-30.0
 74
               0
 49
5.0
 74
               0
 49
-30.0
 74
               0
  0
LTYPE
  5
2D
100
AcDbSymbolTableRecord
100
AcDbLinetypeTableRecord
  2
ACAD_ISO05W100
 70
              64
  3
ISO Tratto lungo doppio punto
 72
              65
 73
               6
 40
340.0
 49
240.0
 74
               0
 49
-30.0
 74
               0
 49
5.0
 74
               0
 49
-30.0
 74
               0
 49
5.0
 74
               0
 49
-30.0
 74
               0
  0
LTYPE
  5
2E
100
AcDbSymbolTableRecord
100
AcDbLinetypeTableRecord
  2
ACAD_ISO06W100
 70
              64
  3
ISO Tratto lungo triplo punto
 72
              65
 73
               8
 40
375.0
 49
240.0
 74
               0
 49
-30.0
 74
               0
 49
5.0
 74
               0
 49
-30.0
 74
               0
 49
5.0
 74
               0
 49
-30.0
 74
               0
 49
5.0
 74
               0
 49
-30.0
 74
               0
  0
LTYPE
  5
2F
100
AcDbSymbolTableRecord
100
AcDbLinetypeTableRecord
  2
ACAD_ISO07W100
 70
              64
  3
ISO Punteggiata
 72
              65
 73
               2
 40
35.0
 49
5.0
 74
               0
 49
-30.0
 74
               0
  0
LTYPE
  5
30
100
AcDbSymbolTableRecord
100
AcDbLinetypeTableRecord
  2
ACAD_ISO08W100
 70
              64
  3
ISO Tratto lungo tratto corto
 72
              65
 73
               4
 40
360.0
 49
240.0
 74
               0
 49
-30.0
 74
               0
 49
60.0
 74
               0
 49
-30.0
 74
               0
  0
LTYPE
  5
31
100
AcDbSymbolTableRecord
100
AcDbLinetypeTableRecord
  2
ACAD_ISO09W100
 70
              64
  3
ISO Tratto lungo doppio tratto corto
 72
              65
 73
               6
 40
450.0
 49
240.0
 74
               0
 49
-30.0
 74
               0
 49
60.0
 74
               0
 49
-30.0
 74
               0
 49
60.0
 74
               0
 49
-30.0
 74
               0
  0
LTYPE
  5
32
100
AcDbSymbolTableRecord
100
AcDbLinetypeTableRecord
  2
ACAD_ISO10W100
 70
              64
  3
ISO Tratto punto
 72
              65
 73
               4
 40
185.0
 49
120.0
 74
               0
 49
-30.0
 74
               0
 49
5.0
 74
               0
 49
-30.0
 74
               0
  0
LTYPE
  5
33
100
AcDbSymbolTableRecord
100
AcDbLinetypeTableRecord
  2
ACAD_ISO11W100
 70
              64
  3
ISO Doppio tratto punto
 72
              65
 73
               6
 40
335.0
 49
120.0
 74
               0
 49
-30.0
 74
               0
 49
120.0
 74
               0
 49
-30.0
 74
               0
 49
5.0
 74
               0
 49
-30.0
 74
               0
  0
LTYPE
  5
34
100
AcDbSymbolTableRecord
100
AcDbLinetypeTableRecord
  2
ACAD_ISO12W100
 70
              64
  3
ISO Tratto doppio punto
 72
              65
 73
               6
 40
220.0
 49
120.0
 74
               0
 49
-30.0
 74
               0
 49
5.0
 74
               0
 49
-30.0
 74
               0
 49
5.0
 74
               0
 49
-30.0
 74
               0
  0
LTYPE
  5
35
100
AcDbSymbolTableRecord
100
AcDbLinetypeTableRecord
  2
ACAD_ISO13W100
 70
              64
  3
ISO Doppio tratto doppio punto
 72
              65
 73
               8
 40
370.0
 49
120.0
 74
               0
 49
-30.0
 74
               0
 49
120.0
 74
               0
 49
-30.0
 74
               0
 49
5.0
 74
               0
 49
-30.0
 74
               0
 49
5.0
 74
               0
 49
-30.0
 74
               0
  0
LTYPE
  5
36
100
AcDbSymbolTableRecord
100
AcDbLinetypeTableRecord
  2
ACAD_ISO14W100
 70
              64
  3
ISO Tratto triplo punto
 72
              65
 73
               8
 40
255.0
 49
120.0
 74
               0
 49
-30.0
 74
               0
 49
5.0
 74
               0
 49
-30.0
 74
               0
 49
5.0
 74
               0
 49
-30.0
 74
               0
 49
5.0
 74
               0
 49
-30.0
 74
               0
  0
LTYPE
  5
37
100
AcDbSymbolTableRecord
100
AcDbLinetypeTableRecord
  2
ACAD_ISO15W100
 70
              64
  3
ISO Doppio tratto triplo punto
 72
              65
 73
              10
 40
405.0
 49
120.0
 74
               0
 49
-30.0
 74
               0
 49
120.0
 74
               0
 49
-30.0
 74
               0
 49
5.0
 74
               0
 49
-30.0
 74
               0
 49
5.0
 74
               0
 49
-30.0
 74
               0
 49
5.0
 74
               0
 49
-30.0
 74
               0
  0
LTYPE
  5
38
100
AcDbSymbolTableRecord
100
AcDbLinetypeTableRecord
  2
BORDER
 70
              64
  3
AutoCAD BORDER
 72
              65
 73
               6
 40
450.0
 49
128.0
 74
               0
 49
-64.0
 74
               0
 49
128.0
 74
               0
 49
-64.0
 74
               0
 49
2.0
 74
               0
 49
-64.0
 74
               0
  0
LTYPE
  5
39
100
AcDbSymbolTableRecord
100
AcDbLinetypeTableRecord
  2
BORDER2
 70
              64
  3
AutoCAD BORDER2
 72
              65
 73
               6
 40
226.0
 49
64.0
 74
               0
 49
-32.0
 74
               0
 49
64.0
 74
               0
 49
-32.0
 74
               0
 49
2.0
 74
               0
 49
-32.0
 74
               0
  0
LTYPE
  5
3A
100
AcDbSymbolTableRecord
100
AcDbLinetypeTableRecord
  2
BORDERX2
 70
              64
  3
AutoCAD BORDERX2
 72
              65
 73
               6
 40
898.0
 49
256.0
 74
               0
 49
-128.0
 74
               0
 49
256.0
 74
               0
 49
-128.0
 74
               0
 49
2.0
 74
               0
 49
-128.0
 74
               0
  0
LTYPE
  5
3B
100
AcDbSymbolTableRecord
100
AcDbLinetypeTableRecord
  2
CENTER
 70
              64
  3
AutoCAD CENTER
 72
              65
 73
               4
 40
512.0
 49
320.0
 74
               0
 49
-64.0
 74
               0
 49
64.0
 74
               0
 49
-64.0
 74
               0
  0
LTYPE
  5
3C
100
AcDbSymbolTableRecord
100
AcDbLinetypeTableRecord
  2
CENTER2
 70
              64
  3
AutoCAD CENTER2
 72
              65
 73
               4
 40
256.0
 49
160.0
 74
               0
 49
-32.0
 74
               0
 49
32.0
 74
               0
 49
-32.0
 74
               0
  0
LTYPE
  5
3D
100
AcDbSymbolTableRecord
100
AcDbLinetypeTableRecord
  2
CENTERX2
 70
              64
  3
AutoCAD CENTERX2
 72
              65
 73
               4
 40
1024.0
 49
640.0
 74
               0
 49
-128.0
 74
               0
 49
128.0
 74
               0
 49
-128.0
 74
               0
  0
LTYPE
  5
3E
100
AcDbSymbolTableRecord
100
AcDbLinetypeTableRecord
  2
DASHDOT
 70
              64
  3
AutoCAD DASHDOT
 72
              65
 73
               4
 40
258.0
 49
128.0
 74
               0
 49
-64.0
 74
               0
 49
2.0
 74
               0
 49
-64.0
 74
               0
  0
LTYPE
  5
3F
100
AcDbSymbolTableRecord
100
AcDbLinetypeTableRecord
  2
DASHDOT2
 70
              64
  3
AutoCAD DASHDOT2
 72
              65
 73
               4
 40
130.0
 49
64.0
 74
               0
 49
-32.0
 74
               0
 49
2.0
 74
               0
 49
-32.0
 74
               0
  0
LTYPE
  5
40
100
AcDbSymbolTableRecord
100
AcDbLinetypeTableRecord
  2
DASHDOTX2
 70
              64
  3
AutoCAD DASHDOTX2
 72
              65
 73
               4
 40
514.0
 49
256.0
 74
               0
 49
-128.0
 74
               0
 49
2.0
 74
               0
 49
-128.0
 74
               0
  0
LTYPE
  5
41
100
AcDbSymbolTableRecord
100
AcDbLinetypeTableRecord
  2
DASHED
 70
              64
  3
AutoCAD DASHED
 72
              65
 73
               2
 40
192.0
 49
128.0
 74
               0
 49
-64.0
 74
               0
  0
LTYPE
  5
42
100
AcDbSymbolTableRecord
100
AcDbLinetypeTableRecord
  2
DASHED2
 70
              64
  3
AutoCAD DASHED2
 72
              65
 73
               2
 40
96.0
 49
64.0
 74
               0
 49
-32.0
 74
               0
  0
LTYPE
  5
43
100
AcDbSymbolTableRecord
100
AcDbLinetypeTableRecord
  2
DASHEDX2
 70
              64
  3
AutoCAD DASHEDX2
 72
              65
 73
               2
 40
384.0
 49
256.0
 74
               0
 49
-128.0
 74
               0
  0
LTYPE
  5
44
100
AcDbSymbolTableRecord
100
AcDbLinetypeTableRecord
  2
DIVIDE
 70
              64
  3
AutoCAD DIVIDE
 72
              65
 73
               6
 40
324.0
 49
128.0
 74
               0
 49
-64.0
 74
               0
 49
2.0
 74
               0
 49
-64.0
 74
               0
 49
2.0
 74
               0
 49
-64.0
 74
               0
  0
LTYPE
  5
45
100
AcDbSymbolTableRecord
100
AcDbLinetypeTableRecord
  2
DIVIDE2
 70
              64
  3
AutoCAD DIVIDE2
 72
              65
 73
               6
 40
164.0
 49
64.0
 74
               0
 49
-32.0
 74
               0
 49
2.0
 74
               0
 49
-32.0
 74
               0
 49
2.0
 74
               0
 49
-32.0
 74
               0
  0
LTYPE
  5
46
100
AcDbSymbolTableRecord
100
AcDbLinetypeTableRecord
  2
DIVIDEX2
 70
              64
  3
AutoCAD DIVIDEX2
 72
              65
 73
               6
 40
644.0
 49
256.0
 74
               0
 49
-128.0
 74
               0
 49
2.0
 74
               0
 49
-128.0
 74
               0
 49
2.0
 74
               0
 49
-128.0
 74
               0
  0
LTYPE
  5
47
100
AcDbSymbolTableRecord
100
AcDbLinetypeTableRecord
  2
DOT
 70
              64
  3
AutoCAD DOT
 72
              65
 73
               2
 40
66.0
 49
2.0
 74
               0
 49
-64.0
 74
               0
  0
LTYPE
  5
48
100
AcDbSymbolTableRecord
100
AcDbLinetypeTableRecord
  2
DOT2
 70
              64
  3
AutoCAD DOT2
 72
              65
 73
               2
 40
34.0
 49
2.0
 74
               0
 49
-32.0
 74
               0
  0
LTYPE
  5
49
100
AcDbSymbolTableRecord
100
AcDbLinetypeTableRecord
  2
DOTX2
 70
              64
  3
AutoCAD DOTX2
 72
              65
 73
               2
 40
130.0
 49
2.0
 74
               0
 49
-128.0
 74
               0
  0
LTYPE
  5
4A
100
AcDbSymbolTableRecord
100
AcDbLinetypeTableRecord
  2
HIDDEN
 70
              64
  3
AutoCAD HIDDEN
 72
              65
 73
               2
 40
96.0
 49
64.0
 74
               0
 49
-32.0
 74
               0
  0
LTYPE
  5
4B
100
AcDbSymbolTableRecord
100
AcDbLinetypeTableRecord
  2
HIDDEN2
 70
              64
  3
AutoCAD HIDDEN2
 72
              65
 73
               2
 40
48.0
 49
32.0
 74
               0
 49
-16.0
 74
               0
  0
LTYPE
  5
4C
100
AcDbSymbolTableRecord
100
AcDbLinetypeTableRecord
  2
HIDDENX2
 70
              64
  3
AutoCAD HIDDENX2
 72
              65
 73
               2
 40
192.0
 49
128.0
 74
               0
 49
-64.0
 74
               0
  0
LTYPE
  5
4D
100
AcDbSymbolTableRecord
100
AcDbLinetypeTableRecord
  2
PHANTOM
 70
              64
  3
AutoCAD PHANTOM
 72
              65
 73
               6
 40
640.0
 49
320.0
 74
               0
 49
-64.0
 74
               0
 49
64.0
 74
               0
 49
-64.0
 74
               0
 49
64.0
 74
               0
 49
-64.0
 74
               0
  0
LTYPE
  5
4E
100
AcDbSymbolTableRecord
100
AcDbLinetypeTableRecord
  2
PHANTOM2
 70
              64
  3
AutoCAD PHANTOM2
 72
              65
 73
               6
 40
320.0
 49
160.0
 74
               0
 49
-32.0
 74
               0
 49
32.0
 74
               0
 49
-32.0
 74
               0
 49
32.0
 74
               0
 49
-32.0
 74
               0
  0
LTYPE
  5
4F
100
AcDbSymbolTableRecord
100
AcDbLinetypeTableRecord
  2
PHANTOMX2
 70
              64
  3
AutoCAD PHANTOMX2
 72
              65
 73
               6
 40
1280.0
 49
640.0
 74
               0
 49
-128.0
 74
               0
 49
128.0
 74
               0
 49
-128.0
 74
               0
 49
128.0
 74
               0
 49
-128.0
 74
               0
  0
ENDTAB
  0
TABLE
  2
LAYER
  5
2
100
AcDbSymbolTable
 70
               7
  0
LAYER
  5
14
100
AcDbSymbolTableRecord
100
AcDbLayerTableRecord
  2
0
 70
               0
 62
               2
  6
Continuous
290
               1
370
              -3
390
1D
  0
LAYER
  5
50
100
AcDbSymbolTableRecord
100
AcDbLayerTableRecord
  2
1
 70
               0
 62
               7
  6
DOT
290
               1
370
              -3
390
1D
  0
LAYER
  5
51
100
AcDbSymbolTableRecord
100
AcDbLayerTableRecord
  2
CUTOUTS
 70
               0
 62
               6
  6
Continuous
290
               1
370
              -3
390
1D
  0
LAYER
  5
52
100
AcDbSymbolTableRecord
100
AcDbLayerTableRecord
  2
JIGHOLES
 70
               0
 62
               3
  6
Continuous
290
               1
370
              -3
390
1D
  0
LAYER
  5
53
100
AcDbSymbolTableRecord
100
AcDbLayerTableRecord
  2
LEROUNDSTK
 70
               0
 62
             220
  6
Continuous
290
               1
370
              -3
390
1D
  0
LAYER
  5
54
100
AcDbSymbolTableRecord
100
AcDbLayerTableRecord
  2
LIGHTENINGHL
 70
               0
 62
               2
  6
Continuous
290
               1
370
              -3
390
1D
  0
LAYER
  5
55
100
AcDbSymbolTableRecord
100
AcDbLayerTableRecord
  2
TEXT
 70
               0
 62
               5
  6
Continuous
290
               1
370
              -3
390
1D
  0
ENDTAB
  0
TABLE
  2
STYLE
  5
3
100
AcDbSymbolTable
 70
              10
  0
STYLE
  5
17
100
AcDbSymbolTableRecord
100
AcDbTextStyleTableRecord
  2
Standard
 70
               0
 40
0.0
 41
1.0
 50
0.0
 71
               0
 42
0.0
  3
txt
  4

  0
STYLE
  5
56
100
AcDbSymbolTableRecord
100
AcDbTextStyleTableRecord
  2
SIMPLEX
 70
               0
 40
10.0
 41
0.8
 50
0.0
 71
               0
 42
10.0
  3
simplex
  4

  0
STYLE
  5
57
100
AcDbSymbolTableRecord
100
AcDbTextStyleTableRecord
  2
EUROSTYLE
 70
               0
 40
10.0
 41
0.88
 50
0.0
 71
               0
 42
10.0
  3
isocp
  4

  0
STYLE
  5
58
100
AcDbSymbolTableRecord
100
AcDbTextStyleTableRecord
  2
SANSERIF
 70
               0
 40
10.0
 41
0.9
 50
0.0
 71
               0
 42
10.0
  3
romand
  4

  0
STYLE
  5
59
100
AcDbSymbolTableRecord
100
AcDbTextStyleTableRecord
  2
TRIPLEX
 70
               0
 40
10.0
 41
0.86
 50
0.0
 71
               0
 42
10.0
  3
romant
  4

  0
STYLE
  5
5A
100
AcDbSymbolTableRecord
100
AcDbTextStyleTableRecord
  2
COMPLEX
 70
               0
 40
10.0
 41
1.0
 50
0.0
 71
               0
 42
10.0
  3
complex
  4

  0
STYLE
  5
5B
100
AcDbSymbolTableRecord
100
AcDbTextStyleTableRecord
  2
SCRIPT
 70
               0
 40
10.0
 41
0.98
 50
0.0
 71
               0
 42
10.0
  3
scripts
  4

  0
STYLE
  5
5C
100
AcDbSymbolTableRecord
100
AcDbTextStyleTableRecord
  2
TRISCRIPT
 70
               0
 40
10.0
 41
0.89
 50
0.0
 71
               0
 42
10.0
  3
italict
  4

  0
STYLE
  5
5D
100
AcDbSymbolTableRecord
100
AcDbTextStyleTableRecord
  2
BOLD
 70
               0
 40
10.0
 41
0.77
 50
0.0
 71
               0
 42
10.0
  3
romand
  4

  0
STYLE
  5
5E
100
AcDbSymbolTableRecord
100
AcDbTextStyleTableRecord
  2
GOTHIC
 70
               0
 40
10.0
 41
0.86
 50
0.0
 71
               0
 42
10.0
  3
gothice
  4

  0
ENDTAB
  0
TABLE
  2
VIEW
  5
5
100
AcDbSymbolTable
 70
               0
  0
ENDTAB
  0
TABLE
  2
UCS
  5
6
100
AcDbSymbolTable
 70
               0
  0
ENDTAB
  0
TABLE
  2
APPID
  5
8
100
AcDbSymbolTable
 70
               1
  0
APPID
  5
16
100
AcDbSymbolTableRecord
100
AcDbRegAppTableRecord
  2
ACAD
 70
               0
  0
ENDTAB
  0
TABLE
  2
DIMSTYLE
  5
9
100
AcDbSymbolTable
 70
               1
100
AcDbDimStyleTable
 71
               0
  0
DIMSTYLE
105
18
100
AcDbSymbolTableRecord
100
AcDbDimStyleTableRecord
  2
Standard
 70
               0
  3

  4

 40
1.0
 41
0.18
 42
0.0625
 43
0.38
 44
0.18
 45
0.0
 46
0.0
 47
0.0
 48
0.0
 71
               0
 72
               0
 73
               1
 74
               1
 75
               0
 76
               0
 77
               0
 78
               0
 79
               0
140
0.18
141
0.09
142
0.0
143
25.399999999999999
144
1.0
145
0.0
146
1.0
147
0.09
148
0.0
170
               0
171
               2
172
               0
173
               0
174
               0
175
               0
176
               0
177
               0
178
               0
179
               0
271
               4
272
               4
273
               2
274
               2
275
               0
276
               0
277
               2
278
              46
279
               0
280
               0
281
               0
282
               0
283
               1
284
               0
285
               0
286
               0
288
               0
289
               3
340
17
341
0
342
0
343
0
344
0
371
              -2
372
              -2
  0
ENDTAB
  0
TABLE
  2
BLOCK_RECORD
  5
1
100
AcDbSymbolTable
 70
               0
  0
BLOCK_RECORD
  5
A
100
AcDbSymbolTableRecord
100
AcDbBlockTableRecord
  2
*MODEL_SPACE
340
20
  0
BLOCK_RECORD
  5
B
100
AcDbSymbolTableRecord
100
AcDbBlockTableRecord
  2
*PAPER_SPACE
340
21
  0
ENDTAB
  0
ENDSEC
  0
SECTION
  2
BLOCKS
  0
BLOCK
  5
D
100
AcDbEntity
  8
0
390
0
100
AcDbBlockBegin
  2
*MODEL_SPACE
 70
               0
 10
0.0
 20
0.0
 30
0.0
  3
*MODEL_SPACE
  1

  0
ENDBLK
  5
E
100
AcDbEntity
  8
0
390
0
100
AcDbBlockEnd
  0
BLOCK
  5
F
100
AcDbEntity
 67
               1
  8
0
390
0
100
AcDbBlockBegin
  2
*PAPER_SPACE
 70
               0
 10
0.0
 20
0.0
 30
0.0
  3
*PAPER_SPACE
  1

  0
ENDBLK
  5
10
100
AcDbEntity
 67
               1
  8
0
390
0
100
AcDbBlockEnd
  0
ENDSEC
  0
SECTION
  2
ENTITIES
  0
LWPOLYLINE
  5
5F
100
AcDbEntity
  8
0
390
0
100
AcDbPolyline
 90
       14
 70
               0
 10
0.0
 20
0.0
 10
31.5
 20
0.0
 10
55.0
 20
0.0
 10
110.0
 20
0.0
 10
165.0
 20
0.0
 10
220.0
 20
0.0
 10
275.0
 20
0.0
 10
330.0
 20
0.0
 10
385.0
 20
0.0
 10
440.0
 20
0.0
 10
497.5
 20
0.0
 10
555.0
 20
0.0
 10
612.5
 20
0.0
 10
670.0
 20
0.0
  0
LINE
  5
60
100
AcDbEntity
  8
0
390
0
100
AcDbLine
 10
438.0
 20
0.0
 30
0.0
 11
438.0
 21
232.0
 31
0.0
  0
LINE
  5
61
100
AcDbEntity
  8
0
390
0
100
AcDbLine
 10
438.0
 20
232.0
 30
0.0
 11
440.0
 21
232.0
 31
0.0
  0
LINE
  5
62
100
AcDbEntity
  8
0
390
0
100
AcDbLine
 10
440.0
 20
232.0
 30
0.0
 11
440.0
 21
0.0
 31
0.0
  0
LINE
  5
63
100
AcDbEntity
  8
0
390
0
100
AcDbLine
 10
440.0
 20
0.0
 30
0.0
 11
438.0
 21
0.0
 31
0.0
  0
LINE
  5
64
100
AcDbEntity
  8
1
390
0
100
AcDbLine
 10
670.0
 20
0.0
 30
0.0
 11
668.0
 21
0.0
 31
0.0
  0
LINE
  5
65
100
AcDbEntity
  8
CUTOUTS
390
0
100
AcDbLine
 10
0.0
 20
139.94404
 30
0.0
 11
31.5
 21
139.94404
 31
0.0
  0
LINE
  5
66
100
AcDbEntity
  8
CUTOUTS
390
0
100
AcDbLine
 10
31.5
 20
139.94404
 30
0.0
 11
55.0
 21
139.94404
 31
0.0
  0
LINE
  5
67
100
AcDbEntity
  8
CUTOUTS
390
0
100
AcDbLine
 10
55.0
 20
139.94404
 30
0.0
 11
110.0
 21
139.94404
 31
0.0
  0
LINE
  5
68
100
AcDbEntity
  8
CUTOUTS
390
0
100
AcDbLine
 10
110.0
 20
139.94404
 30
0.0
 11
165.0
 21
139.94404
 31
0.0
  0
LINE
  5
69
100
AcDbEntity
  8
CUTOUTS
390
0
100
AcDbLine
 10
165.0
 20
139.94404
 30
0.0
 11
220.0
 21
139.94404
 31
0.0
  0
LINE
  5
6A
100
AcDbEntity
  8
CUTOUTS
390
0
100
AcDbLine
 10
220.0
 20
139.94404
 30
0.0
 11
275.0
 21
139.94404
 31
0.0
  0
LINE
  5
6B
100
AcDbEntity
  8
CUTOUTS
390
0
100
AcDbLine
 10
275.0
 20
139.94404
 30
0.0
 11
330.0
 21
139.94404
 31
0.0
  0
LINE
  5
6C
100
AcDbEntity
  8
CUTOUTS
390
0
100
AcDbLine
 10
330.0
 20
139.94404
 30
0.0
 11
385.0
 21
139.94404
 31
0.0
  0
LINE
  5
6D
100
AcDbEntity
  8
CUTOUTS
390
0
100
AcDbLine
 10
0.0
 20
139.94404
 30
0.0
 11
31.5
 21
139.94404
 31
0.0
  0
LINE
  5
6E
100
AcDbEntity
  8
CUTOUTS
390
0
100
AcDbLine
 10
31.5
 20
139.94404
 30
0.0
 11
55.0
 21
139.94404
 31
0.0
  0
LINE
  5
6F
100
AcDbEntity
  8
CUTOUTS
390
0
100
AcDbLine
 10
55.0
 20
139.94404
 30
0.0
 11
110.0
 21
139.94404
 31
0.0
  0
LINE
  5
70
100
AcDbEntity
  8
CUTOUTS
390
0
100
AcDbLine
 10
110.0
 20
139.94404
 30
0.0
 11
165.0
 21
139.94404
 31
0.0
  0
LINE
  5
71
100
AcDbEntity
  8
CUTOUTS
390
0
100
AcDbLine
 10
165.0
 20
139.94404
 30
0.0
 11
220.0
 21
139.94404
 31
0.0
  0
LINE
  5
72
100
AcDbEntity
  8
CUTOUTS
390
0
100
AcDbLine
 10
220.0
 20
139.94404
 30
0.0
 11
275.0
 21
139.94404
 31
0.0
  0
LINE
  5
73
100
AcDbEntity
  8
CUTOUTS
390
0
100
AcDbLine
 10
275.0
 20
139.94404
 30
0.0
 11
330.0
 21
139.94404
 31
0.0
  0
LINE
  5
74
100
AcDbEntity
  8
CUTOUTS
390
0
100
AcDbLine
 10
330.0
 20
139.94404
 30
0.0
 11
385.0
 21
139.94404
 31
0.0
  0
LINE
  5
75
100
AcDbEntity
  8
CUTOUTS
390
0
100
AcDbLine
 10
0.0
 20
129.94404
 30
0.0
 11
31.5
 21
129.94404
 31
0.0
  0
LINE
  5
76
100
AcDbEntity
  8
CUTOUTS
390
0
100
AcDbLine
 10
31.5
 20
129.94404
 30
0.0
 11
55.0
 21
129.94404
 31
0.0
  0
LINE
  5
77
100
AcDbEntity
  8
CUTOUTS
390
0
100
AcDbLine
 10
55.0
 20
129.94404
 30
0.0
 11
110.0
 21
129.94404
 31
0.0
  0
LINE
  5
78
100
AcDbEntity
  8
CUTOUTS
390
0
100
AcDbLine
 10
110.0
 20
129.94404
 30
0.0
 11
165.0
 21
129.94404
 31
0.0
  0
LINE
  5
79
100
AcDbEntity
  8
CUTOUTS
390
0
100
AcDbLine
 10
165.0
 20
129.94404
 30
0.0
 11
220.0
 21
129.94404
 31
0.0
  0
LINE
  5
7A
100
AcDbEntity
  8
CUTOUTS
390
0
100
AcDbLine
 10
220.0
 20
129.94404
 30
0.0
 11
275.0
 21
129.94404
 31
0.0
  0
LINE
  5
7B
100
AcDbEntity
  8
CUTOUTS
390
0
100
AcDbLine
 10
275.0
 20
129.94404
 30
0.0
 11
330.0
 21
129.94404
 31
0.0
  0
LINE
  5
7C
100
AcDbEntity
  8
CUTOUTS
390
0
100
AcDbLine
 10
330.0
 20
129.94404
 30
0.0
 11
385.0
 21
129.94404
 31
0.0
  0
LINE
  5
7D
100
AcDbEntity
  8
CUTOUTS
390
0
100
AcDbLine
 10
0.0
 20
129.94404
 30
0.0
 11
31.5
 21
129.94404
 31
0.0
  0
LINE
  5
7E
100
AcDbEntity
  8
CUTOUTS
390
0
100
AcDbLine
 10
31.5
 20
129.94404
 30
0.0
 11
55.0
 21
129.94404
 31
0.0
  0
LINE
  5
7F
100
AcDbEntity
  8
CUTOUTS
390
0
100
AcDbLine
 10
55.0
 20
129.94404
 30
0.0
 11
110.0
 21
129.94404
 31
0.0
  0
LINE
  5
80
100
AcDbEntity
  8
CUTOUTS
390
0
100
AcDbLine
 10
110.0
 20
129.94404
 30
0.0
 11
165.0
 21
129.94404
 31
0.0
  0
LINE
  5
81
100
AcDbEntity
  8
CUTOUTS
390
0
100
AcDbLine
 10
165.0
 20
129.94404
 30
0.0
 11
220.0
 21
129.94404
 31
0.0
  0
LINE
  5
82
100
AcDbEntity
  8
CUTOUTS
390
0
100
AcDbLine
 10
220.0
 20
129.94404
 30
0.0
 11
275.0
 21
129.94404
 31
0.0
  0
LINE
  5
83
100
AcDbEntity
  8
CUTOUTS
390
0
100
AcDbLine
 10
275.0
 20
129.94404
 30
0.0
 11
330.0
 21
129.94404
 31
0.0
  0
LINE
  5
84
100
AcDbEntity
  8
CUTOUTS
390
0
100
AcDbLine
 10
330.0
 20
129.94404
 30
0.0
 11
385.0
 21
129.94404
 31
0.0
  0
LINE
  5
85
100
AcDbEntity
  8
CUTOUTS
390
0
100
AcDbLine
 10
165.0
 20
35.0
 30
0.0
 11
220.0
 21
35.0
 31
0.0
  0
LINE
  5
86
100
AcDbEntity
  8
CUTOUTS
390
0
100
AcDbLine
 10
165.0
 20
36.25
 30
0.0
 11
220.0
 21
36.25
 31
0.0
  0
LINE
  5
87
100
AcDbEntity
  8
CUTOUTS
390
0
100
AcDbLine
 10
165.0
 20
33.75
 30
0.0
 11
220.0
 21
33.75
 31
0.0
  0
LINE
  5
88
100
AcDbEntity
  8
CUTOUTS
390
0
100
AcDbLine
 10
220.0
 20
35.0
 30
0.0
 11
275.0
 21
35.0
 31
0.0
  0
LINE
  5
89
100
AcDbEntity
  8
CUTOUTS
390
0
100
AcDbLine
 10
220.0
 20
36.25
 30
0.0
 11
275.0
 21
36.25
 31
0.0
  0
LINE
  5
8A
100
AcDbEntity
  8
CUTOUTS
390
0
100
AcDbLine
 10
220.0
 20
33.75
 30
0.0
 11
275.0
 21
33.75
 31
0.0
  0
LINE
  5
8B
100
AcDbEntity
  8
CUTOUTS
390
0
100
AcDbLine
 10
275.0
 20
35.0
 30
0.0
 11
330.0
 21
35.0
 31
0.0
  0
LINE
  5
8C
100
AcDbEntity
  8
CUTOUTS
390
0
100
AcDbLine
 10
275.0
 20
36.25
 30
0.0
 11
330.0
 21
36.25
 31
0.0
  0
LINE
  5
8D
100
AcDbEntity
  8
CUTOUTS
390
0
100
AcDbLine
 10
275.0
 20
33.75
 30
0.0
 11
330.0
 21
33.75
 31
0.0
  0
LINE
  5
8E
100
AcDbEntity
  8
CUTOUTS
390
0
100
AcDbLine
 10
330.0
 20
35.0
 30
0.0
 11
385.0
 21
35.0
 31
0.0
  0
LINE
  5
8F
100
AcDbEntity
  8
CUTOUTS
390
0
100
AcDbLine
 10
330.0
 20
36.25
 30
0.0
 11
385.0
 21
36.25
 31
0.0
  0
LINE
  5
90
100
AcDbEntity
  8
CUTOUTS
390
0
100
AcDbLine
 10
330.0
 20
33.75
 30
0.0
 11
385.0
 21
33.75
 31
0.0
  0
LINE
  5
91
100
AcDbEntity
  8
CUTOUTS
390
0
100
AcDbLine
 10
440.0
 20
139.94404
 30
0.0
 11
497.5
 21
139.94404
 31
0.0
  0
LINE
  5
92
100
AcDbEntity
  8
CUTOUTS
390
0
100
AcDbLine
 10
497.5
 20
139.94404
 30
0.0
 11
555.0
 21
139.94404
 31
0.0
  0
LINE
  5
93
100
AcDbEntity
  8
CUTOUTS
390
0
100
AcDbLine
 10
555.0
 20
139.94404
 30
0.0
 11
612.5
 21
139.94404
 31
0.0
  0
LINE
  5
94
100
AcDbEntity
  8
CUTOUTS
390
0
100
AcDbLine
 10
440.0
 20
139.94404
 30
0.0
 11
497.5
 21
139.94404
 31
0.0
  0
LINE
  5
95
100
AcDbEntity
  8
CUTOUTS
390
0
100
AcDbLine
 10
497.5
 20
139.94404
 30
0.0
 11
555.0
 21
139.94404
 31
0.0
  0
LINE
  5
96
100
AcDbEntity
  8
CUTOUTS
390
0
100
AcDbLine
 10
555.0
 20
139.94404
 30
0.0
 11
612.5
 21
139.94404
 31
0.0
  0
LINE
  5
97
100
AcDbEntity
  8
CUTOUTS
390
0
100
AcDbLine
 10
440.0
 20
129.94404
 30
0.0
 11
497.5
 21
129.94404
 31
0.0
  0
LINE
  5
98
100
AcDbEntity
  8
CUTOUTS
390
0
100
AcDbLine
 10
497.5
 20
129.94404
 30
0.0
 11
555.0
 21
129.94404
 31
0.0
  0
LINE
  5
99
100
AcDbEntity
  8
CUTOUTS
390
0
100
AcDbLine
 10
555.0
 20
129.94404
 30
0.0
 11
612.5
 21
129.94404
 31
0.0
  0
LINE
  5
9A
100
AcDbEntity
  8
CUTOUTS
390
0
100
AcDbLine
 10
440.0
 20
129.94404
 30
0.0
 11
497.5
 21
129.94404
 31
0.0
  0
LINE
  5
9B
100
AcDbEntity
  8
CUTOUTS
390
0
100
AcDbLine
 10
497.5
 20
129.94404
 30
0.0
 11
555.0
 21
129.94404
 31
0.0
  0
LINE
  5
9C
100
AcDbEntity
  8
CUTOUTS
390
0
100
AcDbLine
 10
555.0
 20
129.94404
 30
0.0
 11
612.5
 21
129.94404
 31
0.0
  0
LINE
  5
9D
100
AcDbEntity
  8
CUTOUTS
390
0
100
AcDbLine
 10
0.0
 20
61.0
 30
0.0
 11
31.5
 21
61.0
 31
0.0
  0
LINE
  5
9E
100
AcDbEntity
  8
CUTOUTS
390
0
100
AcDbLine
 10
31.5
 20
61.0
 30
0.0
 11
55.0
 21
61.0
 31
0.0
  0
LINE
  5
9F
100
AcDbEntity
  8
CUTOUTS
390
0
100
AcDbLine
 10
0.0
 20
46.0
 30
0.0
 11
31.5
 21
46.0
 31
0.0
  0
LINE
  5
A0
100
AcDbEntity
  8
CUTOUTS
390
0
100
AcDbLine
 10
31.5
 20
46.0
 30
0.0
 11
55.0
 21
46.0
 31
0.0
  0
LINE
  5
A1
100
AcDbEntity
  8
CUTOUTS
390
0
100
AcDbLine
 10
0.0
 20
198.5
 30
0.0
 11
31.5
 21
198.5
 31
0.0
  0
LINE
  5
A2
100
AcDbEntity
  8
CUTOUTS
390
0
100
AcDbLine
 10
0.0
 20
195.5
 30
0.0
 11
31.5
 21
195.5
 31
0.0
  0
LINE
  5
A3
100
AcDbEntity
  8
1
390
0
100
AcDbLine
 10
55.0
 20
45.889330000000001
 30
0.0
 11
110.0
 21
45.889330000000001
 31
0.0
  0
LINE
  5
A4
100
AcDbEntity
  8
1
390
0
100
AcDbLine
 10
110.0
 20
45.889330000000001
 30
0.0
 11
165.0
 21
45.889330000000001
 31
0.0
  0
LINE
  5
A5
100
AcDbEntity
  8
1
390
0
100
AcDbLine
 10
165.0
 20
45.889330000000001
 30
0.0
 11
220.0
 21
45.889330000000001
 31
0.0
  0
LINE
  5
A6
100
AcDbEntity
  8
1
390
0
100
AcDbLine
 10
220.0
 20
45.889330000000001
 30
0.0
 11
275.0
 21
45.889330000000001
 31
0.0
  0
LINE
  5
A7
100
AcDbEntity
  8
1
390
0
100
AcDbLine
 10
275.0
 20
45.889330000000001
 30
0.0
 11
330.0
 21
45.889330000000001
 31
0.0
  0
LINE
  5
A8
100
AcDbEntity
  8
1
390
0
100
AcDbLine
 10
330.0
 20
45.889330000000001
 30
0.0
 11
385.0
 21
45.889330000000001
 31
0.0
  0
LINE
  5
A9
100
AcDbEntity
  8
1
390
0
100
AcDbLine
 10
385.0
 20
45.889330000000001
 30
0.0
 11
440.0
 21
45.889330000000001
 31
0.0
  0
LINE
  5
AA
100
AcDbEntity
  8
1
390
0
100
AcDbLine
 10
440.0
 20
45.889330000000001
 30
0.0
 11
497.5
 21
45.903570000000002
 31
0.0
  0
LINE
  5
AB
100
AcDbEntity
  8
1
390
0
100
AcDbLine
 10
497.5
 20
45.903570000000002
 30
0.0
 11
555.0
 21
45.916910000000001
 31
0.0
  0
LINE
  5
AC
100
AcDbEntity
  8
1
390
0
100
AcDbLine
 10
555.0
 20
45.916910000000001
 30
0.0
 11
612.5
 21
45.92933
 31
0.0
  0
LINE
  5
AD
100
AcDbEntity
  8
1
390
0
100
AcDbLine
 10
612.5
 20
45.92933
 30
0.0
 11
670.0
 21
45.940809999999999
 31
0.0
  0
LINE
  5
AE
100
AcDbEntity
  8
1
390
0
100
AcDbLine
 10
55.0
 20
45.976930000000003
 30
0.0
 11
110.0
 21
45.976930000000003
 31
0.0
  0
LINE
  5
AF
100
AcDbEntity
  8
1
390
0
100
AcDbLine
 10
110.0
 20
45.976930000000003
 30
0.0
 11
165.0
 21
45.976930000000003
 31
0.0
  0
LINE
  5
B0
100
AcDbEntity
  8
1
390
0
100
AcDbLine
 10
165.0
 20
45.976930000000003
 30
0.0
 11
220.0
 21
45.976930000000003
 31
0.0
  0
LINE
  5
B1
100
AcDbEntity
  8
1
390
0
100
AcDbLine
 10
220.0
 20
45.976930000000003
 30
0.0
 11
275.0
 21
45.976930000000003
 31
0.0
  0
LINE
  5
B2
100
AcDbEntity
  8
1
390
0
100
AcDbLine
 10
275.0
 20
45.976930000000003
 30
0.0
 11
330.0
 21
45.976930000000003
 31
0.0
  0
LINE
  5
B3
100
AcDbEntity
  8
1
390
0
100
AcDbLine
 10
330.0
 20
45.976930000000003
 30
0.0
 11
385.0
 21
45.976930000000003
 31
0.0
  0
LINE
  5
B4
100
AcDbEntity
  8
1
390
0
100
AcDbLine
 10
385.0
 20
45.976930000000003
 30
0.0
 11
440.0
 21
45.976930000000003
 31
0.0
  0
LINE
  5
B5
100
AcDbEntity
  8
1
390
0
100
AcDbLine
 10
440.0
 20
45.976930000000003
 30
0.0
 11
497.5
 21
45.96942
 31
0.0
  0
LINE
  5
B6
100
AcDbEntity
  8
1
390
0
100
AcDbLine
 10
497.5
 20
45.96942
 30
0.0
 11
555.0
 21
45.960889999999999
 31
0.0
  0
LINE
  5
B7
100
AcDbEntity
  8
1
390
0
100
AcDbLine
 10
555.0
 20
45.960889999999999
 30
0.0
 11
612.5
 21
45.951360000000001
 31
0.0
  0
LINE
  5
B8
100
AcDbEntity
  8
1
390
0
100
AcDbLine
 10
612.5
 20
45.951360000000001
 30
0.0
 11
670.0
 21
45.940849999999998
 31
0.0
  0
LINE
  5
B9
100
AcDbEntity
  8
1
390
0
100
AcDbLine
 10
55.0
 20
36.111020000000003
 30
0.0
 11
110.0
 21
36.111020000000003
 31
0.0
  0
LINE
  5
BA
100
AcDbEntity
  8
1
390
0
100
AcDbLine
 10
110.0
 20
36.111020000000003
 30
0.0
 11
165.0
 21
36.111020000000003
 31
0.0
  0
LINE
  5
BB
100
AcDbEntity
  8
1
390
0
100
AcDbLine
 10
165.0
 20
36.111020000000003
 30
0.0
 11
220.0
 21
36.111020000000003
 31
0.0
  0
LINE
  5
BC
100
AcDbEntity
  8
1
390
0
100
AcDbLine
 10
220.0
 20
36.111020000000003
 30
0.0
 11
275.0
 21
36.111020000000003
 31
0.0
  0
LINE
  5
BD
100
AcDbEntity
  8
1
390
0
100
AcDbLine
 10
275.0
 20
36.111020000000003
 30
0.0
 11
330.0
 21
36.111020000000003
 31
0.0
  0
LINE
  5
BE
100
AcDbEntity
  8
1
390
0
100
AcDbLine
 10
330.0
 20
36.111020000000003
 30
0.0
 11
385.0
 21
36.111020000000003
 31
0.0
  0
LINE
  5
BF
100
AcDbEntity
  8
1
390
0
100
AcDbLine
 10
385.0
 20
36.111020000000003
 30
0.0
 11
440.0
 21
36.111020000000003
 31
0.0
  0
LINE
  5
C0
100
AcDbEntity
  8
1
390
0
100
AcDbLine
 10
440.0
 20
36.111020000000003
 30
0.0
 11
497.5
 21
36.097810000000003
 31
0.0
  0
LINE
  5
C1
100
AcDbEntity
  8
1
390
0
100
AcDbLine
 10
497.5
 20
36.097810000000003
 30
0.0
 11
555.0
 21
36.085349999999998
 31
0.0
  0
LINE
  5
C2
100
AcDbEntity
  8
1
390
0
100
AcDbLine
 10
555.0
 20
36.085349999999998
 30
0.0
 11
612.5
 21
36.073680000000003
 31
0.0
  0
LINE
  5
C3
100
AcDbEntity
  8
1
390
0
100
AcDbLine
 10
612.5
 20
36.073680000000003
 30
0.0
 11
670.0
 21
36.062800000000003
 31
0.0
  0
LINE
  5
C4
100
AcDbEntity
  8
1
390
0
100
AcDbLine
 10
55.0
 20
36.027619999999999
 30
0.0
 11
110.0
 21
36.027619999999999
 31
0.0
  0
LINE
  5
C5
100
AcDbEntity
  8
1
390
0
100
AcDbLine
 10
110.0
 20
36.027619999999999
 30
0.0
 11
165.0
 21
36.027619999999999
 31
0.0
  0
LINE
  5
C6
100
AcDbEntity
  8
1
390
0
100
AcDbLine
 10
165.0
 20
36.027619999999999
 30
0.0
 11
220.0
 21
36.027619999999999
 31
0.0
  0
LINE
  5
C7
100
AcDbEntity
  8
1
390
0
100
AcDbLine
 10
220.0
 20
36.027619999999999
 30
0.0
 11
275.0
 21
36.027619999999999
 31
0.0
  0
LINE
  5
C8
100
AcDbEntity
  8
1
390
0
100
AcDbLine
 10
275.0
 20
36.027619999999999
 30
0.0
 11
330.0
 21
36.027619999999999
 31
0.0
  0
LINE
  5
C9
100
AcDbEntity
  8
1
390
0
100
AcDbLine
 10
330.0
 20
36.027619999999999
 30
0.0
 11
385.0
 21
36.027619999999999
 31
0.0
  0
LINE
  5
CA
100
AcDbEntity
  8
1
390
0
100
AcDbLine
 10
385.0
 20
36.027619999999999
 30
0.0
 11
440.0
 21
36.027619999999999
 31
0.0
  0
LINE
  5
CB
100
AcDbEntity
  8
1
390
0
100
AcDbLine
 10
440.0
 20
36.027619999999999
 30
0.0
 11
497.5
 21
36.035130000000002
 31
0.0
  0
LINE
  5
CC
100
AcDbEntity
  8
1
390
0
100
AcDbLine
 10
497.5
 20
36.035130000000002
 30
0.0
 11
555.0
 21
36.043500000000002
 31
0.0
  0
LINE
  5
CD
100
AcDbEntity
  8
1
390
0
100
AcDbLine
 10
555.0
 20
36.043500000000002
 30
0.0
 11
612.5
 21
36.052729999999997
 31
0.0
  0
LINE
  5
CE
100
AcDbEntity
  8
1
390
0
100
AcDbLine
 10
612.5
 20
36.052729999999997
 30
0.0
 11
670.0
 21
36.06279
 31
0.0
  0
LINE
  5
CF
100
AcDbEntity
  8
1
390
0
100
AcDbLine
 10
165.0
 20
33.39931
 30
0.0
 11
220.0
 21
33.39931
 31
0.0
  0
LINE
  5
D0
100
AcDbEntity
  8
1
390
0
100
AcDbLine
 10
220.0
 20
33.39931
 30
0.0
 11
275.0
 21
33.39931
 31
0.0
  0
LINE
  5
D1
100
AcDbEntity
  8
1
390
0
100
AcDbLine
 10
275.0
 20
33.39931
 30
0.0
 11
330.0
 21
33.39931
 31
0.0
  0
LINE
  5
D2
100
AcDbEntity
  8
1
390
0
100
AcDbLine
 10
330.0
 20
33.39931
 30
0.0
 11
385.0
 21
33.39931
 31
0.0
  0
LINE
  5
D3
100
AcDbEntity
  8
1
390
0
100
AcDbLine
 10
165.0
 20
23.58935
 30
0.0
 11
220.0
 21
23.58935
 31
0.0
  0
LINE
  5
D4
100
AcDbEntity
  8
1
390
0
100
AcDbLine
 10
220.0
 20
23.58935
 30
0.0
 11
275.0
 21
23.58935
 31
0.0
  0
LINE
  5
D5
100
AcDbEntity
  8
1
390
0
100
AcDbLine
 10
275.0
 20
23.58935
 30
0.0
 11
330.0
 21
23.58935
 31
0.0
  0
LINE
  5
D6
100
AcDbEntity
  8
1
390
0
100
AcDbLine
 10
330.0
 20
23.58935
 30
0.0
 11
385.0
 21
23.58935
 31
0.0
  0
LINE
  5
D7
100
AcDbEntity
  8
0
390
0
100
AcDbLine
 10
2.0
 20
0.0
 30
0.0
 11
2.0
 21
232.0
 31
0.0
  0
LINE
  5
D8
100
AcDbEntity
  8
0
390
0
100
AcDbLine
 10
2.0
 20
232.0
 30
0.0
 11
0.0
 21
232.0
 31
0.0
  0
LINE
  5
D9
100
AcDbEntity
  8
0
390
0
100
AcDbLine
 10
0.0
 20
232.0
 30
0.0
 11
0.0
 21
0.0
 31
0.0
  0
LINE
  5
DA
100
AcDbEntity
  8
0
390
0
100
AcDbLine
 10
0.0
 20
0.0
 30
0.0
 11
2.0
 21
0.0
 31
0.0
  0
LINE
  5
DB
100
AcDbEntity
  8
0
390
0
100
AcDbLine
 10
34.0
 20
0.0
 30
0.0
 11
34.0
 21
232.0
 31
0.0
  0
LINE
  5
DC
100
AcDbEntity
  8
0
390
0
100
AcDbLine
 10
34.0
 20
232.0
 30
0.0
 11
29.0
 21
232.0
 31
0.0
  0
LINE
  5
DD
100
AcDbEntity
  8
0
390
0
100
AcDbLine
 10
29.0
 20
232.0
 30
0.0
 11
29.0
 21
0.0
 31
0.0
  0
LINE
  5
DE
100
AcDbEntity
  8
0
390
0
100
AcDbLine
 10
29.0
 20
0.0
 30
0.0
 11
34.0
 21
0.0
 31
0.0
  0
LINE
  5
DF
100
AcDbEntity
  8
0
390
0
100
AcDbLine
 10
56.0
 20
0.0
 30
0.0
 11
56.0
 21
232.0
 31
0.0
  0
LINE
  5
E0
100
AcDbEntity
  8
0
390
0
100
AcDbLine
 10
56.0
 20
232.0
 30
0.0
 11
54.0
 21
232.0
 31
0.0
  0
LINE
  5
E1
100
AcDbEntity
  8
0
390
0
100
AcDbLine
 10
54.0
 20
232.0
 30
0.0
 11
54.0
 21
0.0
 31
0.0
  0
LINE
  5
E2
100
AcDbEntity
  8
0
390
0
100
AcDbLine
 10
54.0
 20
0.0
 30
0.0
 11
56.0
 21
0.0
 31
0.0
  0
LINE
  5
E3
100
AcDbEntity
  8
0
390
0
100
AcDbLine
 10
111.0
 20
0.0
 30
0.0
 11
111.0
 21
232.0
 31
0.0
  0
LINE
  5
E4
100
AcDbEntity
  8
0
390
0
100
AcDbLine
 10
111.0
 20
232.0
 30
0.0
 11
109.0
 21
232.0
 31
0.0
  0
LINE
  5
E5
100
AcDbEntity
  8
0
390
0
100
AcDbLine
 10
109.0
 20
232.0
 30
0.0
 11
109.0
 21
0.0
 31
0.0
  0
LINE
  5
E6
100
AcDbEntity
  8
0
390
0
100
AcDbLine
 10
109.0
 20
0.0
 30
0.0
 11
111.0
 21
0.0
 31
0.0
  0
LINE
  5
E7
100
AcDbEntity
  8
0
390
0
100
AcDbLine
 10
166.0
 20
0.0
 30
0.0
 11
166.0
 21
232.0
 31
0.0
  0
LINE
  5
E8
100
AcDbEntity
  8
0
390
0
100
AcDbLine
 10
166.0
 20
232.0
 30
0.0
 11
164.0
 21
232.0
 31
0.0
  0
LINE
  5
E9
100
AcDbEntity
  8
0
390
0
100
AcDbLine
 10
164.0
 20
232.0
 30
0.0
 11
164.0
 21
0.0
 31
0.0
  0
LINE
  5
EA
100
AcDbEntity
  8
0
390
0
100
AcDbLine
 10
164.0
 20
0.0
 30
0.0
 11
166.0
 21
0.0
 31
0.0
  0
LINE
  5
EB
100
AcDbEntity
  8
0
390
0
100
AcDbLine
 10
221.0
 20
0.0
 30
0.0
 11
221.0
 21
232.0
 31
0.0
  0
LINE
  5
EC
100
AcDbEntity
  8
0
390
0
100
AcDbLine
 10
221.0
 20
232.0
 30
0.0
 11
219.0
 21
232.0
 31
0.0
  0
LINE
  5
ED
100
AcDbEntity
  8
0
390
0
100
AcDbLine
 10
219.0
 20
232.0
 30
0.0
 11
219.0
 21
0.0
 31
0.0
  0
LINE
  5
EE
100
AcDbEntity
  8
0
390
0
100
AcDbLine
 10
219.0
 20
0.0
 30
0.0
 11
221.0
 21
0.0
 31
0.0
  0
LINE
  5
EF
100
AcDbEntity
  8
0
390
0
100
AcDbLine
 10
276.0
 20
0.0
 30
0.0
 11
276.0
 21
232.0
 31
0.0
  0
LINE
  5
F0
100
AcDbEntity
  8
0
390
0
100
AcDbLine
 10
276.0
 20
232.0
 30
0.0
 11
274.0
 21
232.0
 31
0.0
  0
LINE
  5
F1
100
AcDbEntity
  8
0
390
0
100
AcDbLine
 10
274.0
 20
232.0
 30
0.0
 11
274.0
 21
0.0
 31
0.0
  0
LINE
  5
F2
100
AcDbEntity
  8
0
390
0
100
AcDbLine
 10
274.0
 20
0.0
 30
0.0
 11
276.0
 21
0.0
 31
0.0
  0
LINE
  5
F3
100
AcDbEntity
  8
0
390
0
100
AcDbLine
 10
331.0
 20
0.0
 30
0.0
 11
331.0
 21
232.0
 31
0.0
  0
LINE
  5
F4
100
AcDbEntity
  8
0
390
0
100
AcDbLine
 10
331.0
 20
232.0
 30
0.0
 11
329.0
 21
232.0
 31
0.0
  0
LINE
  5
F5
100
AcDbEntity
  8
0
390
0
100
AcDbLine
 10
329.0
 20
232.0
 30
0.0
 11
329.0
 21
0.0
 31
0.0
  0
LINE
  5
F6
100
AcDbEntity
  8
0
390
0
100
AcDbLine
 10
329.0
 20
0.0
 30
0.0
 11
331.0
 21
0.0
 31
0.0
  0
LINE
  5
F7
100
AcDbEntity
  8
0
390
0
100
AcDbLine
 10
386.0
 20
0.0
 30
0.0
 11
386.0
 21
232.0
 31
0.0
  0
LINE
  5
F8
100
AcDbEntity
  8
0
390
0
100
AcDbLine
 10
386.0
 20
232.0
 30
0.0
 11
384.0
 21
232.0
 31
0.0
  0
LINE
  5
F9
100
AcDbEntity
  8
0
390
0
100
AcDbLine
 10
384.0
 20
232.0
 30
0.0
 11
384.0
 21
0.0
 31
0.0
  0
LINE
  5
FA
100
AcDbEntity
  8
0
390
0
100
AcDbLine
 10
384.0
 20
0.0
 30
0.0
 11
386.0
 21
0.0
 31
0.0
  0
LINE
  5
FB
100
AcDbEntity
  8
0
390
0
100
AcDbLine
 10
442.0
 20
0.0
 30
0.0
 11
442.0
 21
232.0
 31
0.0
  0
LINE
  5
FC
100
AcDbEntity
  8
0
390
0
100
AcDbLine
 10
442.0
 20
232.0
 30
0.0
 11
440.0
 21
232.0
 31
0.0
  0
LINE
  5
FD
100
AcDbEntity
  8
0
390
0
100
AcDbLine
 10
440.0
 20
232.0
 30
0.0
 11
440.0
 21
0.0
 31
0.0
  0
LINE
  5
FE
100
AcDbEntity
  8
0
390
0
100
AcDbLine
 10
440.0
 20
0.0
 30
0.0
 11
442.0
 21
0.0
 31
0.0
  0
LINE
  5
FF
100
AcDbEntity
  8
0
390
0
100
AcDbLine
 10
498.5
 20
0.0
 30
0.0
 11
498.5
 21
232.0
 31
0.0
  0
LINE
  5
100
100
AcDbEntity
  8
0
390
0
100
AcDbLine
 10
498.5
 20
232.0
 30
0.0
 11
496.5
 21
232.0
 31
0.0
  0
LINE
  5
101
100
AcDbEntity
  8
0
390
0
100
AcDbLine
 10
496.5
 20
232.0
 30
0.0
 11
496.5
 21
0.0
 31
0.0
  0
LINE
  5
102
100
AcDbEntity
  8
0
390
0
100
AcDbLine
 10
496.5
 20
0.0
 30
0.0
 11
498.5
 21
0.0
 31
0.0
  0
LINE
  5
103
100
AcDbEntity
  8
0
390
0
100
AcDbLine
 10
556.0
 20
0.0
 30
0.0
 11
556.0
 21
232.0
 31
0.0
  0
LINE
  5
104
100
AcDbEntity
  8
0
390
0
100
AcDbLine
 10
556.0
 20
232.0
 30
0.0
 11
554.0
 21
232.0
 31
0.0
  0
LINE
  5
105
100
AcDbEntity
  8
0
390
0
100
AcDbLine
 10
554.0
 20
232.0
 30
0.0
 11
554.0
 21
0.0
 31
0.0
  0
LINE
  5
106
100
AcDbEntity
  8
0
390
0
100
AcDbLine
 10
554.0
 20
0.0
 30
0.0
 11
556.0
 21
0.0
 31
0.0
  0
LINE
  5
107
100
AcDbEntity
  8
0
390
0
100
AcDbLine
 10
613.5
 20
0.0
 30
0.0
 11
613.5
 21
232.0
 31
0.0
  0
LINE
  5
108
100
AcDbEntity
  8
0
390
0
100
AcDbLine
 10
613.5
 20
232.0
 30
0.0
 11
611.5
 21
232.0
 31
0.0
  0
LINE
  5
109
100
AcDbEntity
  8
0
390
0
100
AcDbLine
 10
611.5
 20
232.0
 30
0.0
 11
611.5
 21
0.0
 31
0.0
  0
LINE
  5
10A
100
AcDbEntity
  8
0
390
0
100
AcDbLine
 10
611.5
 20
0.0
 30
0.0
 11
613.5
 21
0.0
 31
0.0
  0
LINE
  5
10B
100
AcDbEntity
  8
0
390
0
100
AcDbLine
 10
442.9735
 20
232.22869
 30
0.0
 11
441.0265
 21
231.77131
 31
0.0
  0
LINE
  5
10C
100
AcDbEntity
  8
0
390
0
100
AcDbLine
 10
495.5265
 20
-0.22869
 30
0.0
 11
497.4735
 21
0.22869
 31
0.0
  0
LINE
  5
10D
100
AcDbEntity
  8
0
390
0
100
AcDbLine
 10
499.47255999999999
 20
232.23266000000001
 30
0.0
 11
497.52744000000001
 21
231.76733999999999
 31
0.0
  0
LINE
  5
10E
100
AcDbEntity
  8
0
390
0
100
AcDbLine
 10
553.02743999999996
 20
-0.23266
 30
0.0
 11
554.97256000000004
 21
0.23266
 31
0.0
  0
LINE
  5
10F
100
AcDbEntity
  8
0
390
0
100
AcDbLine
 10
556.97256000000004
 20
232.23266000000001
 30
0.0
 11
555.02743999999996
 21
231.76733999999999
 31
0.0
  0
LINE
  5
110
100
AcDbEntity
  8
0
390
0
100
AcDbLine
 10
610.52743999999996
 20
-0.23266
 30
0.0
 11
612.47256000000004
 21
0.23266
 31
0.0
  0
LINE
  5
111
100
AcDbEntity
  8
0
390
0
100
AcDbLine
 10
614.47349999999994
 20
232.22869
 30
0.0
 11
612.52650000000006
 21
231.77131
 31
0.0
  0
LINE
  5
112
100
AcDbEntity
  8
0
390
0
100
AcDbLine
 10
612.52650000000006
 20
231.77131
 30
0.0
 11
667.02650000000006
 21
-0.22869
 31
0.0
  0
LINE
  5
113
100
AcDbEntity
  8
0
390
0
100
AcDbLine
 10
667.02650000000006
 20
-0.22869
 30
0.0
 11
668.97349999999994
 21
0.22869
 31
0.0
  0
CIRCLE
  5
114
100
AcDbEntity
  8
0
390
0
100
AcDbCircle
 10
335.0
 20
181.5
 30
0.0
 40
6.3499999999999996
  0
LINE
  5
115
100
AcDbEntity
  8
0
390
0
100
AcDbLine
 10
331.82499999999999
 20
181.5
 30
0.0
 11
338.17500000000001
 21
181.5
 31
0.0
  0
LINE
  5
116
100
AcDbEntity
  8
0
390
0
100
AcDbLine
 10
335.0
 20
178.32499999999999
 30
0.0
 11
335.0
 21
184.67500000000001
 31
0.0
  0
LWPOLYLINE
  5
117
100
AcDbEntity
  8
0
390
0
100
AcDbPolyline
 90
       10
 70
               0
 10
0.0
 20
210.0
 10
31.5
 20
210.0
 10
55.0
 20
210.0
 10
110.0
 20
210.0
 10
165.0
 20
210.0
 10
220.0
 20
210.0
 10
275.0
 20
210.0
 10
330.0
 20
210.0
 10
385.0
 20
210.0
 10
440.0
 20
210.0
  0
LWPOLYLINE
  5
118
100
AcDbEntity
  8
JIGHOLES
390
0
100
AcDbPolyline
 90
        9
 70
               0
 10
31.5
 20
210.0
 10
55.0
 20
210.0
 10
110.0
 20
210.0
 10
165.0
 20
210.0
 10
220.0
 20
210.0
 10
275.0
 20
210.0
 10
330.0
 20
210.0
 10
385.0
 20
210.0
 10
440.0
 20
210.0
  0
LWPOLYLINE
  5
119
100
AcDbEntity
  8
JIGHOLES
390
0
100
AcDbPolyline
 90
        8
 70
               0
 10
55.0
 20
210.0
 10
110.0
 20
210.0
 10
165.0
 20
210.0
 10
220.0
 20
210.0
 10
275.0
 20
210.0
 10
330.0
 20
210.0
 10
385.0
 20
210.0
 10
440.0
 20
210.0
  0
LWPOLYLINE
  5
11A
100
AcDbEntity
  8
JIGHOLES
390
0
100
AcDbPolyline
 90
        7
 70
               0
 10
110.0
 20
210.0
 10
165.0
 20
210.0
 10
220.0
 20
210.0
 10
275.0
 20
210.0
 10
330.0
 20
210.0
 10
385.0
 20
210.0
 10
440.0
 20
210.0
  0
LWPOLYLINE
  5
11B
100
AcDbEntity
  8
JIGHOLES
390
0
100
AcDbPolyline
 90
        6
 70
               0
 10
165.0
 20
210.0
 10
220.0
 20
210.0
 10
275.0
 20
210.0
 10
330.0
 20
210.0
 10
385.0
 20
210.0
 10
440.0
 20
210.0
  0
LWPOLYLINE
  5
11C
100
AcDbEntity
  8
JIGHOLES
390
0
100
AcDbPolyline
 90
        5
 70
               0
 10
220.0
 20
210.0
 10
275.0
 20
210.0
 10
330.0
 20
210.0
 10
385.0
 20
210.0
 10
440.0
 20
210.0
  0
LWPOLYLINE
  5
11D
100
AcDbEntity
  8
JIGHOLES
390
0
100
AcDbPolyline
 90
        4
 70
               0
 10
275.0
 20
210.0
 10
330.0
 20
210.0
 10
385.0
 20
210.0
 10
440.0
 20
210.0
  0
LWPOLYLINE
  5
11E
100
AcDbEntity
  8
JIGHOLES
390
0
100
AcDbPolyline
 90
        3
 70
               0
 10
330.0
 20
210.0
 10
385.0
 20
210.0
 10
440.0
 20
210.0
  0
LWPOLYLINE
  5
11F
100
AcDbEntity
  8
JIGHOLES
390
0
100
AcDbPolyline
 90
        2
 70
               0
 10
385.0
 20
210.0
 10
440.0
 20
210.0
  0
LWPOLYLINE
  5
120
100
AcDbEntity
  8
JIGHOLES
390
0
100
AcDbPolyline
 90
       10
 70
               0
 10
0.0
 20
204.0
 10
31.5
 20
204.0
 10
55.0
 20
204.0
 10
110.0
 20
204.0
 10
165.0
 20
204.0
 10
220.0
 20
204.0
 10
275.0
 20
204.0
 10
330.0
 20
204.0
 10
385.0
 20
204.0
 10
440.0
 20
204.0
  0
LWPOLYLINE
  5
121
100
AcDbEntity
  8
JIGHOLES
390
0
100
AcDbPolyline
 90
        9
 70
               0
 10
31.5
 20
204.0
 10
55.0
 20
204.0
 10
110.0
 20
204.0
 10
165.0
 20
204.0
 10
220.0
 20
204.0
 10
275.0
 20
204.0
 10
330.0
 20
204.0
 10
385.0
 20
204.0
 10
440.0
 20
204.0
  0
LWPOLYLINE
  5
122
100
AcDbEntity
  8
JIGHOLES
390
0
100
AcDbPolyline
 90
        8
 70
               0
 10
55.0
 20
204.0
 10
110.0
 20
204.0
 10
165.0
 20
204.0
 10
220.0
 20
204.0
 10
275.0
 20
204.0
 10
330.0
 20
204.0
 10
385.0
 20
204.0
 10
440.0
 20
204.0
  0
LWPOLYLINE
  5
123
100
AcDbEntity
  8
JIGHOLES
390
0
100
AcDbPolyline
 90
        7
 70
               0
 10
110.0
 20
204.0
 10
165.0
 20
204.0
 10
220.0
 20
204.0
 10
275.0
 20
204.0
 10
330.0
 20
204.0
 10
385.0
 20
204.0
 10
440.0
 20
204.0
  0
LWPOLYLINE
  5
124
100
AcDbEntity
  8
JIGHOLES
390
0
100
AcDbPolyline
 90
        6
 70
               0
 10
165.0
 20
204.0
 10
220.0
 20
204.0
 10
275.0
 20
204.0
 10
330.0
 20
204.0
 10
385.0
 20
204.0
 10
440.0
 20
204.0
  0
LWPOLYLINE
  5
125
100
AcDbEntity
  8
JIGHOLES
390
0
100
AcDbPolyline
 90
        5
 70
               0
 10
220.0
 20
204.0
 10
275.0
 20
204.0
 10
330.0
 20
204.0
 10
385.0
 20
204.0
 10
440.0
 20
204.0
  0
LWPOLYLINE
  5
126
100
AcDbEntity
  8
JIGHOLES
390
0
100
AcDbPolyline
 90
        4
 70
               0
 10
275.0
 20
204.0
 10
330.0
 20
204.0
 10
385.0
 20
204.0
 10
440.0
 20
204.0
  0
LWPOLYLINE
  5
127
100
AcDbEntity
  8
JIGHOLES
390
0
100
AcDbPolyline
 90
        3
 70
               0
 10
330.0
 20
204.0
 10
385.0
 20
204.0
 10
440.0
 20
204.0
  0
LWPOLYLINE
  5
128
100
AcDbEntity
  8
JIGHOLES
390
0
100
AcDbPolyline
 90
        2
 70
               0
 10
385.0
 20
204.0
 10
440.0
 20
204.0
  0
LWPOLYLINE
  5
129
100
AcDbEntity
  8
CUTOUTS
390
0
100
AcDbPolyline
 90
       21
 70
               0
 10
0.0
 20
222.0
 10
0.0
 20
232.0
 10
31.5
 20
232.0
 10
55.0
 20
232.0
 10
110.0
 20
232.0
 10
165.0
 20
232.0
 10
220.0
 20
232.0
 10
275.0
 20
232.0
 10
330.0
 20
232.0
 10
385.0
 20
232.0
 10
440.0
 20
232.0
 10
440.0
 20
222.0
 10
385.0
 20
222.0
 10
330.0
 20
222.0
 10
275.0
 20
222.0
 10
220.0
 20
222.0
 10
165.0
 20
222.0
 10
110.0
 20
222.0
 10
55.0
 20
222.0
 10
31.5
 20
222.0
 10
0.0
 20
222.0
  0
TEXT
  5
12A
100
AcDbEntity
  8
TEXT
390
0
100
AcDbText
 10
5.1749999999999998
 20
112.42749999999999
 30
0.0
 40
2.5
  1
MH 17.cor
 50
-270.0
 41
0.9999999999999999
100
AcDbText
  0
TEXT
  5
12B
100
AcDbEntity
  8
TEXT
390
0
100
AcDbText
 10
28.364999999999998
 20
108.61750000000001
 30
0.0
 40
2.5
  1
Rib#2@31.5mm.
 50
-270.0
 41
0.9999999999999999
100
AcDbText
  0
TEXT
  5
12C
100
AcDbEntity
  8
TEXT
390
0
100
AcDbText
 10
53.365000000000002
 20
110.52249999999999
 30
0.0
 40
2.5
  1
Rib#3@55mm.
 50
-270.0
 41
0.9999999999999999
100
AcDbText
  0
TEXT
  5
12D
100
AcDbEntity
  8
TEXT
390
0
100
AcDbText
 10
108.36499999999999
 20
109.56999999999999
 30
0.0
 40
2.5
  1
Rib#4@110mm.
 50
-270.0
 41
0.9999999999999999
100
AcDbText
  0
TEXT
  5
12E
100
AcDbEntity
  8
TEXT
390
0
100
AcDbText
 10
163.36500000000001
 20
109.56999999999999
 30
0.0
 40
2.5
  1
Rib#5@165mm.
 50
-270.0
 41
0.9999999999999999
100
AcDbText
  0
TEXT
  5
12F
100
AcDbEntity
  8
TEXT
390
0
100
AcDbText
 10
218.36500000000001
 20
109.56999999999999
 30
0.0
 40
2.5
  1
Rib#6@220mm.
 50
-270.0
 41
0.9999999999999999
100
AcDbText
  0
TEXT
  5
130
100
AcDbEntity
  8
TEXT
390
0
100
AcDbText
 10
273.36500000000001
 20
109.56999999999999
 30
0.0
 40
2.5
  1
Rib#7@275mm.
 50
-270.0
 41
0.9999999999999999
100
AcDbText
  0
TEXT
  5
131
100
AcDbEntity
  8
TEXT
390
0
100
AcDbText
 10
328.36500000000001
 20
109.56999999999999
 30
0.0
 40
2.5
  1
Rib#8@330mm.
 50
-270.0
 41
0.9999999999999999
100
AcDbText
  0
TEXT
  5
132
100
AcDbEntity
  8
TEXT
390
0
100
AcDbText
 10
383.36500000000001
 20
109.56999999999999
 30
0.0
 40
2.5
  1
Rib#9@385mm.
 50
-270.0
 41
0.9999999999999999
100
AcDbText
  0
TEXT
  5
133
100
AcDbEntity
  8
TEXT
390
0
100
AcDbText
 10
438.36500000000001
 20
105.76000000000001
 30
0.0
 40
2.5
  1
MH 17.cor@440mm.
 50
-270.0
 41
0.9999999999999999
100
AcDbText
  0
TEXT
  5
134
100
AcDbEntity
  8
TEXT
390
0
100
AcDbText
 10
445.17500000000001
 20
105.76000000000001
 30
0.0
 40
2.5
  1
MH 17.cor@440mm.
 50
-270.0
 41
0.9999999999999999
100
AcDbText
  0
TEXT
  5
135
100
AcDbEntity
  8
TEXT
390
0
100
AcDbText
 10
495.86500000000001
 20
106.71250000000001
 30
0.0
 40
2.5
  1
Rib#12@497.5mm.
 50
-270.0
 41
0.9999999999999999
100
AcDbText
  0
TEXT
  5
136
100
AcDbEntity
  8
TEXT
390
0
100
AcDbText
 10
553.36500000000001
 20
108.61750000000001
 30
0.0
 40
2.5
  1
Rib#13@555mm.
 50
-270.0
 41
0.9999999999999999
100
AcDbText
  0
TEXT
  5
137
100
AcDbEntity
  8
TEXT
390
0
100
AcDbText
 10
610.86500000000001
 20
106.71250000000001
 30
0.0
 40
2.5
  1
Rib#14@612.5mm.
 50
-270.0
 41
0.9999999999999999
100
AcDbText
  0
TEXT
  5
138
100
AcDbEntity
  8
TEXT
390
0
100
AcDbText
 10
314.9975
 20
169.435
 30
0.0
 40
2.5
  1
A.C.-> 335mm x 60.5mm
 41
0.9999999999999999
100
AcDbText
  0
LINE
  5
139
100
AcDbEntity
  8
1
390
0
100
AcDbLine
 10
1.0
 20
-6.3499999999999996
 30
0.0
 11
1.0
 21
248.34999999999999
 31
0.0
  0
LINE
  5
13A
100
AcDbEntity
  8
1
390
0
100
AcDbLine
 10
31.5
 20
-6.3499999999999996
 30
0.0
 11
31.5
 21
248.34999999999999
 31
0.0
  0
LINE
  5
13B
100
AcDbEntity
  8
1
390
0
100
AcDbLine
 10
55.0
 20
-6.3499999999999996
 30
0.0
 11
55.0
 21
248.34999999999999
 31
0.0
  0
LINE
  5
13C
100
AcDbEntity
  8
1
390
0
100
AcDbLine
 10
110.0
 20
-6.3499999999999996
 30
0.0
 11
110.0
 21
248.34999999999999
 31
0.0
  0
LINE
  5
13D
100
AcDbEntity
  8
1
390
0
100
AcDbLine
 10
165.0
 20
-6.3499999999999996
 30
0.0
 11
165.0
 21
248.34999999999999
 31
0.0
  0
LINE
  5
13E
100
AcDbEntity
  8
1
390
0
100
AcDbLine
 10
220.0
 20
-6.3499999999999996
 30
0.0
 11
220.0
 21
248.34999999999999
 31
0.0
  0
LINE
  5
13F
100
AcDbEntity
  8
1
390
0
100
AcDbLine
 10
275.0
 20
-6.3499999999999996
 30
0.0
 11
275.0
 21
248.34999999999999
 31
0.0
  0
LINE
  5
140
100
AcDbEntity
  8
1
390
0
100
AcDbLine
 10
330.0
 20
-6.3499999999999996
 30
0.0
 11
330.0
 21
248.34999999999999
 31
0.0
  0
LINE
  5
141
100
AcDbEntity
  8
1
390
0
100
AcDbLine
 10
385.0
 20
-6.3499999999999996
 30
0.0
 11
385.0
 21
248.34999999999999
 31
0.0
  0
LINE
  5
142
100
AcDbEntity
  8
1
390
0
100
AcDbLine
 10
441.0
 20
-6.3499999999999996
 30
0.0
 11
441.0
 21
248.34999999999999
 31
0.0
  0
LINE
  5
143
100
AcDbEntity
  8
1
390
0
100
AcDbLine
 10
497.5
 20
-6.3499999999999996
 30
0.0
 11
497.5
 21
248.34999999999999
 31
0.0
  0
LINE
  5
144
100
AcDbEntity
  8
1
390
0
100
AcDbLine
 10
555.0
 20
-6.3499999999999996
 30
0.0
 11
555.0
 21
248.34999999999999
 31
0.0
  0
LINE
  5
145
100
AcDbEntity
  8
1
390
0
100
AcDbLine
 10
612.5
 20
-6.3499999999999996
 30
0.0
 11
612.5
 21
248.34999999999999
 31
0.0
  0
LINE
  5
146
100
AcDbEntity
  8
1
390
0
100
AcDbLine
 10
439.0
 20
-6.3499999999999996
 30
0.0
 11
439.0
 21
248.34999999999999
 31
0.0
  0
LINE
  5
147
100
AcDbEntity
  8
1
390
0
100
AcDbLine
 10
611.15085999999997
 20
242.0
 30
0.0
 11
668.0
 21
0.0
 31
0.0
  0
LWPOLYLINE
  5
148
100
AcDbEntity
  8
0
390
0
100
AcDbPolyline
 90
       14
 70
               0
 10
0.0
 20
0.0
 10
-31.5
 20
0.0
 10
-55.0
 20
0.0
 10
-110.0
 20
0.0
 10
-165.0
 20
0.0
 10
-220.0
 20
0.0
 10
-275.0
 20
0.0
 10
-330.0
 20
0.0
 10
-385.0
 20
0.0
 10
-440.0
 20
0.0
 10
-497.5
 20
0.0
 10
-555.0
 20
0.0
 10
-612.5
 20
0.0
 10
-670.0
 20
0.0
  0
LINE
  5
149
100
AcDbEntity
  8
0
390
0
100
AcDbLine
 10
-438.0
 20
0.0
 30
0.0
 11
-438.0
 21
232.0
 31
0.0
  0
LINE
  5
14A
100
AcDbEntity
  8
0
390
0
100
AcDbLine
 10
-438.0
 20
232.0
 30
0.0
 11
-440.0
 21
232.0
 31
0.0
  0
LINE
  5
14B
100
AcDbEntity
  8
0
390
0
100
AcDbLine
 10
-440.0
 20
232.0
 30
0.0
 11
-440.0
 21
0.0
 31
0.0
  0
LINE
  5
14C
100
AcDbEntity
  8
0
390
0
100
AcDbLine
 10
-440.0
 20
0.0
 30
0.0
 11
-438.0
 21
0.0
 31
0.0
  0
LINE
  5
14D
100
AcDbEntity
  8
1
390
0
100
AcDbLine
 10
-670.0
 20
0.0
 30
0.0
 11
-668.0
 21
0.0
 31
0.0
  0
LINE
  5
14E
100
AcDbEntity
  8
CUTOUTS
390
0
100
AcDbLine
 10
0.0
 20
139.94404
 30
0.0
 11
-31.5
 21
139.94404
 31
0.0
  0
LINE
  5
14F
100
AcDbEntity
  8
CUTOUTS
390
0
100
AcDbLine
 10
-31.5
 20
139.94404
 30
0.0
 11
-55.0
 21
139.94404
 31
0.0
  0
LINE
  5
150
100
AcDbEntity
  8
CUTOUTS
390
0
100
AcDbLine
 10
-55.0
 20
139.94404
 30
0.0
 11
-110.0
 21
139.94404
 31
0.0
  0
LINE
  5
151
100
AcDbEntity
  8
CUTOUTS
390
0
100
AcDbLine
 10
-110.0
 20
139.94404
 30
0.0
 11
-165.0
 21
139.94404
 31
0.0
  0
LINE
  5
152
100
AcDbEntity
  8
CUTOUTS
390
0
100
AcDbLine
 10
-165.0
 20
139.94404
 30
0.0
 11
-220.0
 21
139.94404
 31
0.0
  0
LINE
  5
153
100
AcDbEntity
  8
CUTOUTS
390
0
100
AcDbLine
 10
-220.0
 20
139.94404
 30
0.0
 11
-275.0
 21
139.94404
 31
0.0
  0
LINE
  5
154
100
AcDbEntity
  8
CUTOUTS
390
0
100
AcDbLine
 10
-275.0
 20
139.94404
 30
0.0
 11
-330.0
 21
139.94404
 31
0.0
  0
LINE
  5
155
100
AcDbEntity
  8
CUTOUTS
390
0
100
AcDbLine
 10
-330.0
 20
139.94404
 30
0.0
 11
-385.0
 21
139.94404
 31
0.0
  0
LINE
  5
156
100
AcDbEntity
  8
CUTOUTS
390
0
100
AcDbLine
 10
0.0
 20
139.94404
 30
0.0
 11
-31.5
 21
139.94404
 31
0.0
  0
LINE
  5
157
100
AcDbEntity
  8
CUTOUTS
390
0
100
AcDbLine
 10
-31.5
 20
139.94404
 30
0.0
 11
-55.0
 21
139.94404
 31
0.0
  0
LINE
  5
158
100
AcDbEntity
  8
CUTOUTS
390
0
100
AcDbLine
 10
-55.0
 20
139.94404
 30
0.0
 11
-110.0
 21
139.94404
 31
0.0
  0
LINE
  5
159
100
AcDbEntity
  8
CUTOUTS
390
0
100
AcDbLine
 10
-110.0
 20
139.94404
 30
0.0
 11
-165.0
 21
139.94404
 31
0.0
  0
LINE
  5
15A
100
AcDbEntity
  8
CUTOUTS
390
0
100
AcDbLine
 10
-165.0
 20
139.94404
 30
0.0
 11
-220.0
 21
139.94404
 31
0.0
  0
LINE
  5
15B
100
AcDbEntity
  8
CUTOUTS
390
0
100
AcDbLine
 10
-220.0
 20
139.94404
 30
0.0
 11
-275.0
 21
139.94404
 31
0.0
  0
LINE
  5
15C
100
AcDbEntity
  8
CUTOUTS
390
0
100
AcDbLine
 10
-275.0
 20
139.94404
 30
0.0
 11
-330.0
 21
139.94404
 31
0.0
  0
LINE
  5
15D
100
AcDbEntity
  8
CUTOUTS
390
0
100
AcDbLine
 10
-330.0
 20
139.94404
 30
0.0
 11
-385.0
 21
139.94404
 31
0.0
  0
LINE
  5
15E
100
AcDbEntity
  8
CUTOUTS
390
0
100
AcDbLine
 10
0.0
 20
129.94404
 30
0.0
 11
-31.5
 21
129.94404
 31
0.0
  0
LINE
  5
15F
100
AcDbEntity
  8
CUTOUTS
390
0
100
AcDbLine
 10
-31.5
 20
129.94404
 30
0.0
 11
-55.0
 21
129.94404
 31
0.0
  0
LINE
  5
160
100
AcDbEntity
  8
CUTOUTS
390
0
100
AcDbLine
 10
-55.0
 20
129.94404
 30
0.0
 11
-110.0
 21
129.94404
 31
0.0
  0
LINE
  5
161
100
AcDbEntity
  8
CUTOUTS
390
0
100
AcDbLine
 10
-110.0
 20
129.94404
 30
0.0
 11
-165.0
 21
129.94404
 31
0.0
  0
LINE
  5
162
100
AcDbEntity
  8
CUTOUTS
390
0
100
AcDbLine
 10
-165.0
 20
129.94404
 30
0.0
 11
-220.0
 21
129.94404
 31
0.0
  0
LINE
  5
163
100
AcDbEntity
  8
CUTOUTS
390
0
100
AcDbLine
 10
-220.0
 20
129.94404
 30
0.0
 11
-275.0
 21
129.94404
 31
0.0
  0
LINE
  5
164
100
AcDbEntity
  8
CUTOUTS
390
0
100
AcDbLine
 10
-275.0
 20
129.94404
 30
0.0
 11
-330.0
 21
129.94404
 31
0.0
  0
LINE
  5
165
100
AcDbEntity
  8
CUTOUTS
390
0
100
AcDbLine
 10
-330.0
 20
129.94404
 30
0.0
 11
-385.0
 21
129.94404
 31
0.0
  0
LINE
  5
166
100
AcDbEntity
  8
CUTOUTS
390
0
100
AcDbLine
 10
0.0
 20
129.94404
 30
0.0
 11
-31.5
 21
129.94404
 31
0.0
  0
LINE
  5
167
100
AcDbEntity
  8
CUTOUTS
390
0
100
AcDbLine
 10
-31.5
 20
129.94404
 30
0.0
 11
-55.0
 21
129.94404
 31
0.0
  0
LINE
  5
168
100
AcDbEntity
  8
CUTOUTS
390
0
100
AcDbLine
 10
-55.0
 20
129.94404
 30
0.0
 11
-110.0
 21
129.94404
 31
0.0
  0
LINE
  5
169
100
AcDbEntity
  8
CUTOUTS
390
0
100
AcDbLine
 10
-110.0
 20
129.94404
 30
0.0
 11
-165.0
 21
129.94404
 31
0.0
  0
LINE
  5
16A
100
AcDbEntity
  8
CUTOUTS
390
0
100
AcDbLine
 10
-165.0
 20
129.94404
 30
0.0
 11
-220.0
 21
129.94404
 31
0.0
  0
LINE
  5
16B
100
AcDbEntity
  8
CUTOUTS
390
0
100
AcDbLine
 10
-220.0
 20
129.94404
 30
0.0
 11
-275.0
 21
129.94404
 31
0.0
  0
LINE
  5
16C
100
AcDbEntity
  8
CUTOUTS
390
0
100
AcDbLine
 10
-275.0
 20
129.94404
 30
0.0
 11
-330.0
 21
129.94404
 31
0.0
  0
LINE
  5
16D
100
AcDbEntity
  8
CUTOUTS
390
0
100
AcDbLine
 10
-330.0
 20
129.94404
 30
0.0
 11
-385.0
 21
129.94404
 31
0.0
  0
LINE
  5
16E
100
AcDbEntity
  8
CUTOUTS
390
0
100
AcDbLine
 10
-165.0
 20
35.0
 30
0.0
 11
-220.0
 21
35.0
 31
0.0
  0
LINE
  5
16F
100
AcDbEntity
  8
CUTOUTS
390
0
100
AcDbLine
 10
-165.0
 20
36.25
 30
0.0
 11
-220.0
 21
36.25
 31
0.0
  0
LINE
  5
170
100
AcDbEntity
  8
CUTOUTS
390
0
100
AcDbLine
 10
-165.0
 20
33.75
 30
0.0
 11
-220.0
 21
33.75
 31
0.0
  0
LINE
  5
171
100
AcDbEntity
  8
CUTOUTS
390
0
100
AcDbLine
 10
-220.0
 20
35.0
 30
0.0
 11
-275.0
 21
35.0
 31
0.0
  0
LINE
  5
172
100
AcDbEntity
  8
CUTOUTS
390
0
100
AcDbLine
 10
-220.0
 20
36.25
 30
0.0
 11
-275.0
 21
36.25
 31
0.0
  0
LINE
  5
173
100
AcDbEntity
  8
CUTOUTS
390
0
100
AcDbLine
 10
-220.0
 20
33.75
 30
0.0
 11
-275.0
 21
33.75
 31
0.0
  0
LINE
  5
174
100
AcDbEntity
  8
CUTOUTS
390
0
100
AcDbLine
 10
-275.0
 20
35.0
 30
0.0
 11
-330.0
 21
35.0
 31
0.0
  0
LINE
  5
175
100
AcDbEntity
  8
CUTOUTS
390
0
100
AcDbLine
 10
-275.0
 20
36.25
 30
0.0
 11
-330.0
 21
36.25
 31
0.0
  0
LINE
  5
176
100
AcDbEntity
  8
CUTOUTS
390
0
100
AcDbLine
 10
-275.0
 20
33.75
 30
0.0
 11
-330.0
 21
33.75
 31
0.0
  0
LINE
  5
177
100
AcDbEntity
  8
CUTOUTS
390
0
100
AcDbLine
 10
-330.0
 20
35.0
 30
0.0
 11
-385.0
 21
35.0
 31
0.0
  0
LINE
  5
178
100
AcDbEntity
  8
CUTOUTS
390
0
100
AcDbLine
 10
-330.0
 20
36.25
 30
0.0
 11
-385.0
 21
36.25
 31
0.0
  0
LINE
  5
179
100
AcDbEntity
  8
CUTOUTS
390
0
100
AcDbLine
 10
-330.0
 20
33.75
 30
0.0
 11
-385.0
 21
33.75
 31
0.0
  0
LINE
  5
17A
100
AcDbEntity
  8
CUTOUTS
390
0
100
AcDbLine
 10
-440.0
 20
139.94404
 30
0.0
 11
-497.5
 21
139.94404
 31
0.0
  0
LINE
  5
17B
100
AcDbEntity
  8
CUTOUTS
390
0
100
AcDbLine
 10
-497.5
 20
139.94404
 30
0.0
 11
-555.0
 21
139.94404
 31
0.0
  0
LINE
  5
17C
100
AcDbEntity
  8
CUTOUTS
390
0
100
AcDbLine
 10
-555.0
 20
139.94404
 30
0.0
 11
-612.5
 21
139.94404
 31
0.0
  0
LINE
  5
17D
100
AcDbEntity
  8
CUTOUTS
390
0
100
AcDbLine
 10
-440.0
 20
139.94404
 30
0.0
 11
-497.5
 21
139.94404
 31
0.0
  0
LINE
  5
17E
100
AcDbEntity
  8
CUTOUTS
390
0
100
AcDbLine
 10
-497.5
 20
139.94404
 30
0.0
 11
-555.0
 21
139.94404
 31
0.0
  0
LINE
  5
17F
100
AcDbEntity
  8
CUTOUTS
390
0
100
AcDbLine
 10
-555.0
 20
139.94404
 30
0.0
 11
-612.5
 21
139.94404
 31
0.0
  0
LINE
  5
180
100
AcDbEntity
  8
CUTOUTS
390
0
100
AcDbLine
 10
-440.0
 20
129.94404
 30
0.0
 11
-497.5
 21
129.94404
 31
0.0
  0
LINE
  5
181
100
AcDbEntity
  8
CUTOUTS
390
0
100
AcDbLine
 10
-497.5
 20
129.94404
 30
0.0
 11
-555.0
 21
129.94404
 31
0.0
  0
LINE
  5
182
100
AcDbEntity
  8
CUTOUTS
390
0
100
AcDbLine
 10
-555.0
 20
129.94404
 30
0.0
 11
-612.5
 21
129.94404
 31
0.0
  0
LINE
  5
183
100
AcDbEntity
  8
CUTOUTS
390
0
100
AcDbLine
 10
-440.0
 20
129.94404
 30
0.0
 11
-497.5
 21
129.94404
 31
0.0
  0
LINE
  5
184
100
AcDbEntity
  8
CUTOUTS
390
0
100
AcDbLine
 10
-497.5
 20
129.94404
 30
0.0
 11
-555.0
 21
129.94404
 31
0.0
  0
LINE
  5
185
100
AcDbEntity
  8
CUTOUTS
390
0
100
AcDbLine
 10
-555.0
 20
129.94404
 30
0.0
 11
-612.5
 21
129.94404
 31
0.0
  0
LINE
  5
186
100
AcDbEntity
  8
CUTOUTS
390
0
100
AcDbLine
 10
0.0
 20
61.0
 30
0.0
 11
-31.5
 21
61.0
 31
0.0
  0
LINE
  5
187
100
AcDbEntity
  8
CUTOUTS
390
0
100
AcDbLine
 10
-31.5
 20
61.0
 30
0.0
 11
-55.0
 21
61.0
 31
0.0
  0
LINE
  5
188
100
AcDbEntity
  8
CUTOUTS
390
0
100
AcDbLine
 10
0.0
 20
46.0
 30
0.0
 11
-31.5
 21
46.0
 31
0.0
  0
LINE
  5
189
100
AcDbEntity
  8
CUTOUTS
390
0
100
AcDbLine
 10
-31.5
 20
46.0
 30
0.0
 11
-55.0
 21
46.0
 31
0.0
  0
LINE
  5
18A
100
AcDbEntity
  8
CUTOUTS
390
0
100
AcDbLine
 10
0.0
 20
198.5
 30
0.0
 11
-31.5
 21
198.5
 31
0.0
  0
LINE
  5
18B
100
AcDbEntity
  8
CUTOUTS
390
0
100
AcDbLine
 10
0.0
 20
195.5
 30
0.0
 11
-31.5
 21
195.5
 31
0.0
  0
LINE
  5
18C
100
AcDbEntity
  8
1
390
0
100
AcDbLine
 10
-55.0
 20
45.889330000000001
 30
0.0
 11
-110.0
 21
45.889330000000001
 31
0.0
  0
LINE
  5
18D
100
AcDbEntity
  8
1
390
0
100
AcDbLine
 10
-110.0
 20
45.889330000000001
 30
0.0
 11
-165.0
 21
45.889330000000001
 31
0.0
  0
LINE
  5
18E
100
AcDbEntity
  8
1
390
0
100
AcDbLine
 10
-165.0
 20
45.889330000000001
 30
0.0
 11
-220.0
 21
45.889330000000001
 31
0.0
  0
LINE
  5
18F
100
AcDbEntity
  8
1
390
0
100
AcDbLine
 10
-220.0
 20
45.889330000000001
 30
0.0
 11
-275.0
 21
45.889330000000001
 31
0.0
  0
LINE
  5
190
100
AcDbEntity
  8
1
390
0
100
AcDbLine
 10
-275.0
 20
45.889330000000001
 30
0.0
 11
-330.0
 21
45.889330000000001
 31
0.0
  0
LINE
  5
191
100
AcDbEntity
  8
1
390
0
100
AcDbLine
 10
-330.0
 20
45.889330000000001
 30
0.0
 11
-385.0
 21
45.889330000000001
 31
0.0
  0
LINE
  5
192
100
AcDbEntity
  8
1
390
0
100
AcDbLine
 10
-385.0
 20
45.889330000000001
 30
0.0
 11
-440.0
 21
45.889330000000001
 31
0.0
  0
LINE
  5
193
100
AcDbEntity
  8
1
390
0
100
AcDbLine
 10
-440.0
 20
45.889330000000001
 30
0.0
 11
-497.5
 21
45.903570000000002
 31
0.0
  0
LINE
  5
194
100
AcDbEntity
  8
1
390
0
100
AcDbLine
 10
-497.5
 20
45.903570000000002
 30
0.0
 11
-555.0
 21
45.916910000000001
 31
0.0
  0
LINE
  5
195
100
AcDbEntity
  8
1
390
0
100
AcDbLine
 10
-555.0
 20
45.916910000000001
 30
0.0
 11
-612.5
 21
45.92933
 31
0.0
  0
LINE
  5
196
100
AcDbEntity
  8
1
390
0
100
AcDbLine
 10
-612.5
 20
45.92933
 30
0.0
 11
-670.0
 21
45.940809999999999
 31
0.0
  0
LINE
  5
197
100
AcDbEntity
  8
1
390
0
100
AcDbLine
 10
-55.0
 20
45.976930000000003
 30
0.0
 11
-110.0
 21
45.976930000000003
 31
0.0
  0
LINE
  5
198
100
AcDbEntity
  8
1
390
0
100
AcDbLine
 10
-110.0
 20
45.976930000000003
 30
0.0
 11
-165.0
 21
45.976930000000003
 31
0.0
  0
LINE
  5
199
100
AcDbEntity
  8
1
390
0
100
AcDbLine
 10
-165.0
 20
45.976930000000003
 30
0.0
 11
-220.0
 21
45.976930000000003
 31
0.0
  0
LINE
  5
19A
100
AcDbEntity
  8
1
390
0
100
AcDbLine
 10
-220.0
 20
45.976930000000003
 30
0.0
 11
-275.0
 21
45.976930000000003
 31
0.0
  0
LINE
  5
19B
100
AcDbEntity
  8
1
390
0
100
AcDbLine
 10
-275.0
 20
45.976930000000003
 30
0.0
 11
-330.0
 21
45.976930000000003
 31
0.0
  0
LINE
  5
19C
100
AcDbEntity
  8
1
390
0
100
AcDbLine
 10
-330.0
 20
45.976930000000003
 30
0.0
 11
-385.0
 21
45.976930000000003
 31
0.0
  0
LINE
  5
19D
100
AcDbEntity
  8
1
390
0
100
AcDbLine
 10
-385.0
 20
45.976930000000003
 30
0.0
 11
-440.0
 21
45.976930000000003
 31
0.0
  0
LINE
  5
19E
100
AcDbEntity
  8
1
390
0
100
AcDbLine
 10
-440.0
 20
45.976930000000003
 30
0.0
 11
-497.5
 21
45.96942
 31
0.0
  0
LINE
  5
19F
100
AcDbEntity
  8
1
390
0
100
AcDbLine
 10
-497.5
 20
45.96942
 30
0.0
 11
-555.0
 21
45.960889999999999
 31
0.0
  0
LINE
  5
1A0
100
AcDbEntity
  8
1
390
0
100
AcDbLine
 10
-555.0
 20
45.960889999999999
 30
0.0
 11
-612.5
 21
45.951360000000001
 31
0.0
  0
LINE
  5
1A1
100
AcDbEntity
  8
1
390
0
100
AcDbLine
 10
-612.5
 20
45.951360000000001
 30
0.0
 11
-670.0
 21
45.940849999999998
 31
0.0
  0
LINE
  5
1A2
100
AcDbEntity
  8
1
390
0
100
AcDbLine
 10
-55.0
 20
36.111020000000003
 30
0.0
 11
-110.0
 21
36.111020000000003
 31
0.0
  0
LINE
  5
1A3
100
AcDbEntity
  8
1
390
0
100
AcDbLine
 10
-110.0
 20
36.111020000000003
 30
0.0
 11
-165.0
 21
36.111020000000003
 31
0.0
  0
LINE
  5
1A4
100
AcDbEntity
  8
1
390
0
100
AcDbLine
 10
-165.0
 20
36.111020000000003
 30
0.0
 11
-220.0
 21
36.111020000000003
 31
0.0
  0
LINE
  5
1A5
100
AcDbEntity
  8
1
390
0
100
AcDbLine
 10
-220.0
 20
36.111020000000003
 30
0.0
 11
-275.0
 21
36.111020000000003
 31
0.0
  0
LINE
  5
1A6
100
AcDbEntity
  8
1
390
0
100
AcDbLine
 10
-275.0
 20
36.111020000000003
 30
0.0
 11
-330.0
 21
36.111020000000003
 31
0.0
  0
LINE
  5
1A7
100
AcDbEntity
  8
1
390
0
100
AcDbLine
 10
-330.0
 20
36.111020000000003
 30
0.0
 11
-385.0
 21
36.111020000000003
 31
0.0
  0
LINE
  5
1A8
100
AcDbEntity
  8
1
390
0
100
AcDbLine
 10
-385.0
 20
36.111020000000003
 30
0.0
 11
-440.0
 21
36.111020000000003
 31
0.0
  0
LINE
  5
1A9
100
AcDbEntity
  8
1
390
0
100
AcDbLine
 10
-440.0
 20
36.111020000000003
 30
0.0
 11
-497.5
 21
36.097810000000003
 31
0.0
  0
LINE
  5
1AA
100
AcDbEntity
  8
1
390
0
100
AcDbLine
 10
-497.5
 20
36.097810000000003
 30
0.0
 11
-555.0
 21
36.085349999999998
 31
0.0
  0
LINE
  5
1AB
100
AcDbEntity
  8
1
390
0
100
AcDbLine
 10
-555.0
 20
36.085349999999998
 30
0.0
 11
-612.5
 21
36.073680000000003
 31
0.0
  0
LINE
  5
1AC
100
AcDbEntity
  8
1
390
0
100
AcDbLine
 10
-612.5
 20
36.073680000000003
 30
0.0
 11
-670.0
 21
36.062800000000003
 31
0.0
  0
LINE
  5
1AD
100
AcDbEntity
  8
1
390
0
100
AcDbLine
 10
-55.0
 20
36.027619999999999
 30
0.0
 11
-110.0
 21
36.027619999999999
 31
0.0
  0
LINE
  5
1AE
100
AcDbEntity
  8
1
390
0
100
AcDbLine
 10
-110.0
 20
36.027619999999999
 30
0.0
 11
-165.0
 21
36.027619999999999
 31
0.0
  0
LINE
  5
1AF
100
AcDbEntity
  8
1
390
0
100
AcDbLine
 10
-165.0
 20
36.027619999999999
 30
0.0
 11
-220.0
 21
36.027619999999999
 31
0.0
  0
LINE
  5
1B0
100
AcDbEntity
  8
1
390
0
100
AcDbLine
 10
-220.0
 20
36.027619999999999
 30
0.0
 11
-275.0
 21
36.027619999999999
 31
0.0
  0
LINE
  5
1B1
100
AcDbEntity
  8
1
390
0
100
AcDbLine
 10
-275.0
 20
36.027619999999999
 30
0.0
 11
-330.0
 21
36.027619999999999
 31
0.0
  0
LINE
  5
1B2
100
AcDbEntity
  8
1
390
0
100
AcDbLine
 10
-330.0
 20
36.027619999999999
 30
0.0
 11
-385.0
 21
36.027619999999999
 31
0.0
  0
LINE
  5
1B3
100
AcDbEntity
  8
1
390
0
100
AcDbLine
 10
-385.0
 20
36.027619999999999
 30
0.0
 11
-440.0
 21
36.027619999999999
 31
0.0
  0
LINE
  5
1B4
100
AcDbEntity
  8
1
390
0
100
AcDbLine
 10
-440.0
 20
36.027619999999999
 30
0.0
 11
-497.5
 21
36.035130000000002
 31
0.0
  0
LINE
  5
1B5
100
AcDbEntity
  8
1
390
0
100
AcDbLine
 10
-497.5
 20
36.035130000000002
 30
0.0
 11
-555.0
 21
36.043500000000002
 31
0.0
  0
LINE
  5
1B6
100
AcDbEntity
  8
1
390
0
100
AcDbLine
 10
-555.0
 20
36.043500000000002
 30
0.0
 11
-612.5
 21
36.052729999999997
 31
0.0
  0
LINE
  5
1B7
100
AcDbEntity
  8
1
390
0
100
AcDbLine
 10
-612.5
 20
36.052729999999997
 30
0.0
 11
-670.0
 21
36.06279
 31
0.0
  0
LINE
  5
1B8
100
AcDbEntity
  8
1
390
0
100
AcDbLine
 10
-165.0
 20
33.39931
 30
0.0
 11
-220.0
 21
33.39931
 31
0.0
  0
LINE
  5
1B9
100
AcDbEntity
  8
1
390
0
100
AcDbLine
 10
-220.0
 20
33.39931
 30
0.0
 11
-275.0
 21
33.39931
 31
0.0
  0
LINE
  5
1BA
100
AcDbEntity
  8
1
390
0
100
AcDbLine
 10
-275.0
 20
33.39931
 30
0.0
 11
-330.0
 21
33.39931
 31
0.0
  0
LINE
  5
1BB
100
AcDbEntity
  8
1
390
0
100
AcDbLine
 10
-330.0
 20
33.39931
 30
0.0
 11
-385.0
 21
33.39931
 31
0.0
  0
LINE
  5
1BC
100
AcDbEntity
  8
1
390
0
100
AcDbLine
 10
-165.0
 20
23.58935
 30
0.0
 11
-220.0
 21
23.58935
 31
0.0
  0
LINE
  5
1BD
100
AcDbEntity
  8
1
390
0
100
AcDbLine
 10
-220.0
 20
23.58935
 30
0.0
 11
-275.0
 21
23.58935
 31
0.0
  0
LINE
  5
1BE
100
AcDbEntity
  8
1
390
0
100
AcDbLine
 10
-275.0
 20
23.58935
 30
0.0
 11
-330.0
 21
23.58935
 31
0.0
  0
LINE
  5
1BF
100
AcDbEntity
  8
1
390
0
100
AcDbLine
 10
-330.0
 20
23.58935
 30
0.0
 11
-385.0
 21
23.58935
 31
0.0
  0
LINE
  5
1C0
100
AcDbEntity
  8
0
390
0
100
AcDbLine
 10
-2.0
 20
0.0
 30
0.0
 11
-2.0
 21
232.0
 31
0.0
  0
LINE
  5
1C1
100
AcDbEntity
  8
0
390
0
100
AcDbLine
 10
-2.0
 20
232.0
 30
0.0
 11
0.0
 21
232.0
 31
0.0
  0
LINE
  5
1C2
100
AcDbEntity
  8
0
390
0
100
AcDbLine
 10
0.0
 20
232.0
 30
0.0
 11
0.0
 21
0.0
 31
0.0
  0
LINE
  5
1C3
100
AcDbEntity
  8
0
390
0
100
AcDbLine
 10
0.0
 20
0.0
 30
0.0
 11
-2.0
 21
0.0
 31
0.0
  0
LINE
  5
1C4
100
AcDbEntity
  8
0
390
0
100
AcDbLine
 10
-34.0
 20
0.0
 30
0.0
 11
-34.0
 21
232.0
 31
0.0
  0
LINE
  5
1C5
100
AcDbEntity
  8
0
390
0
100
AcDbLine
 10
-34.0
 20
232.0
 30
0.0
 11
-29.0
 21
232.0
 31
0.0
  0
LINE
  5
1C6
100
AcDbEntity
  8
0
390
0
100
AcDbLine
 10
-29.0
 20
232.0
 30
0.0
 11
-29.0
 21
0.0
 31
0.0
  0
LINE
  5
1C7
100
AcDbEntity
  8
0
390
0
100
AcDbLine
 10
-29.0
 20
0.0
 30
0.0
 11
-34.0
 21
0.0
 31
0.0
  0
LINE
  5
1C8
100
AcDbEntity
  8
0
390
0
100
AcDbLine
 10
-56.0
 20
0.0
 30
0.0
 11
-56.0
 21
232.0
 31
0.0
  0
LINE
  5
1C9
100
AcDbEntity
  8
0
390
0
100
AcDbLine
 10
-56.0
 20
232.0
 30
0.0
 11
-54.0
 21
232.0
 31
0.0
  0
LINE
  5
1CA
100
AcDbEntity
  8
0
390
0
100
AcDbLine
 10
-54.0
 20
232.0
 30
0.0
 11
-54.0
 21
0.0
 31
0.0
  0
LINE
  5
1CB
100
AcDbEntity
  8
0
390
0
100
AcDbLine
 10
-54.0
 20
0.0
 30
0.0
 11
-56.0
 21
0.0
 31
0.0
  0
LINE
  5
1CC
100
AcDbEntity
  8
0
390
0
100
AcDbLine
 10
-111.0
 20
0.0
 30
0.0
 11
-111.0
 21
232.0
 31
0.0
  0
LINE
  5
1CD
100
AcDbEntity
  8
0
390
0
100
AcDbLine
 10
-111.0
 20
232.0
 30
0.0
 11
-109.0
 21
232.0
 31
0.0
  0
LINE
  5
1CE
100
AcDbEntity
  8
0
390
0
100
AcDbLine
 10
-109.0
 20
232.0
 30
0.0
 11
-109.0
 21
0.0
 31
0.0
  0
LINE
  5
1CF
100
AcDbEntity
  8
0
390
0
100
AcDbLine
 10
-109.0
 20
0.0
 30
0.0
 11
-111.0
 21
0.0
 31
0.0
  0
LINE
  5
1D0
100
AcDbEntity
  8
0
390
0
100
AcDbLine
 10
-166.0
 20
0.0
 30
0.0
 11
-166.0
 21
232.0
 31
0.0
  0
LINE
  5
1D1
100
AcDbEntity
  8
0
390
0
100
AcDbLine
 10
-166.0
 20
232.0
 30
0.0
 11
-164.0
 21
232.0
 31
0.0
  0
LINE
  5
1D2
100
AcDbEntity
  8
0
390
0
100
AcDbLine
 10
-164.0
 20
232.0
 30
0.0
 11
-164.0
 21
0.0
 31
0.0
  0
LINE
  5
1D3
100
AcDbEntity
  8
0
390
0
100
AcDbLine
 10
-164.0
 20
0.0
 30
0.0
 11
-166.0
 21
0.0
 31
0.0
  0
LINE
  5
1D4
100
AcDbEntity
  8
0
390
0
100
AcDbLine
 10
-221.0
 20
0.0
 30
0.0
 11
-221.0
 21
232.0
 31
0.0
  0
LINE
  5
1D5
100
AcDbEntity
  8
0
390
0
100
AcDbLine
 10
-221.0
 20
232.0
 30
0.0
 11
-219.0
 21
232.0
 31
0.0
  0
LINE
  5
1D6
100
AcDbEntity
  8
0
390
0
100
AcDbLine
 10
-219.0
 20
232.0
 30
0.0
 11
-219.0
 21
0.0
 31
0.0
  0
LINE
  5
1D7
100
AcDbEntity
  8
0
390
0
100
AcDbLine
 10
-219.0
 20
0.0
 30
0.0
 11
-221.0
 21
0.0
 31
0.0
  0
LINE
  5
1D8
100
AcDbEntity
  8
0
390
0
100
AcDbLine
 10
-276.0
 20
0.0
 30
0.0
 11
-276.0
 21
232.0
 31
0.0
  0
LINE
  5
1D9
100
AcDbEntity
  8
0
390
0
100
AcDbLine
 10
-276.0
 20
232.0
 30
0.0
 11
-274.0
 21
232.0
 31
0.0
  0
LINE
  5
1DA
100
AcDbEntity
  8
0
390
0
100
AcDbLine
 10
-274.0
 20
232.0
 30
0.0
 11
-274.0
 21
0.0
 31
0.0
  0
LINE
  5
1DB
100
AcDbEntity
  8
0
390
0
100
AcDbLine
 10
-274.0
 20
0.0
 30
0.0
 11
-276.0
 21
0.0
 31
0.0
  0
LINE
  5
1DC
100
AcDbEntity
  8
0
390
0
100
AcDbLine
 10
-331.0
 20
0.0
 30
0.0
 11
-331.0
 21
232.0
 31
0.0
  0
LINE
  5
1DD
100
AcDbEntity
  8
0
390
0
100
AcDbLine
 10
-331.0
 20
232.0
 30
0.0
 11
-329.0
 21
232.0
 31
0.0
  0
LINE
  5
1DE
100
AcDbEntity
  8
0
390
0
100
AcDbLine
 10
-329.0
 20
232.0
 30
0.0
 11
-329.0
 21
0.0
 31
0.0
  0
LINE
  5
1DF
100
AcDbEntity
  8
0
390
0
100
AcDbLine
 10
-329.0
 20
0.0
 30
0.0
 11
-331.0
 21
0.0
 31
0.0
  0
LINE
  5
1E0
100
AcDbEntity
  8
0
390
0
100
AcDbLine
 10
-386.0
 20
0.0
 30
0.0
 11
-386.0
 21
232.0
 31
0.0
  0
LINE
  5
1E1
100
AcDbEntity
  8
0
390
0
100
AcDbLine
 10
-386.0
 20
232.0
 30
0.0
 11
-384.0
 21
232.0
 31
0.0
  0
LINE
  5
1E2
100
AcDbEntity
  8
0
390
0
100
AcDbLine
 10
-384.0
 20
232.0
 30
0.0
 11
-384.0
 21
0.0
 31
0.0
  0
LINE
  5
1E3
100
AcDbEntity
  8
0
390
0
100
AcDbLine
 10
-384.0
 20
0.0
 30
0.0
 11
-386.0
 21
0.0
 31
0.0
  0
LINE
  5
1E4
100
AcDbEntity
  8
0
390
0
100
AcDbLine
 10
-442.0
 20
0.0
 30
0.0
 11
-442.0
 21
232.0
 31
0.0
  0
LINE
  5
1E5
100
AcDbEntity
  8
0
390
0
100
AcDbLine
 10
-442.0
 20
232.0
 30
0.0
 11
-440.0
 21
232.0
 31
0.0
  0
LINE
  5
1E6
100
AcDbEntity
  8
0
390
0
100
AcDbLine
 10
-440.0
 20
232.0
 30
0.0
 11
-440.0
 21
0.0
 31
0.0
  0
LINE
  5
1E7
100
AcDbEntity
  8
0
390
0
100
AcDbLine
 10
-440.0
 20
0.0
 30
0.0
 11
-442.0
 21
0.0
 31
0.0
  0
LINE
  5
1E8
100
AcDbEntity
  8
0
390
0
100
AcDbLine
 10
-498.5
 20
0.0
 30
0.0
 11
-498.5
 21
232.0
 31
0.0
  0
LINE
  5
1E9
100
AcDbEntity
  8
0
390
0
100
AcDbLine
 10
-498.5
 20
232.0
 30
0.0
 11
-496.5
 21
232.0
 31
0.0
  0
LINE
  5
1EA
100
AcDbEntity
  8
0
390
0
100
AcDbLine
 10
-496.5
 20
232.0
 30
0.0
 11
-496.5
 21
0.0
 31
0.0
  0
LINE
  5
1EB
100
AcDbEntity
  8
0
390
0
100
AcDbLine
 10
-496.5
 20
0.0
 30
0.0
 11
-498.5
 21
0.0
 31
0.0
  0
LINE
  5
1EC
100
AcDbEntity
  8
0
390
0
100
AcDbLine
 10
-556.0
 20
0.0
 30
0.0
 11
-556.0
 21
232.0
 31
0.0
  0
LINE
  5
1ED
100
AcDbEntity
  8
0
390
0
100
AcDbLine
 10
-556.0
 20
232.0
 30
0.0
 11
-554.0
 21
232.0
 31
0.0
  0
LINE
  5
1EE
100
AcDbEntity
  8
0
390
0
100
AcDbLine
 10
-554.0
 20
232.0
 30
0.0
 11
-554.0
 21
0.0
 31
0.0
  0
LINE
  5
1EF
100
AcDbEntity
  8
0
390
0
100
AcDbLine
 10
-554.0
 20
0.0
 30
0.0
 11
-556.0
 21
0.0
 31
0.0
  0
LINE
  5
1F0
100
AcDbEntity
  8
0
390
0
100
AcDbLine
 10
-613.5
 20
0.0
 30
0.0
 11
-613.5
 21
232.0
 31
0.0
  0
LINE
  5
1F1
100
AcDbEntity
  8
0
390
0
100
AcDbLine
 10
-613.5
 20
232.0
 30
0.0
 11
-611.5
 21
232.0
 31
0.0
  0
LINE
  5
1F2
100
AcDbEntity
  8
0
390
0
100
AcDbLine
 10
-611.5
 20
232.0
 30
0.0
 11
-611.5
 21
0.0
 31
0.0
  0
LINE
  5
1F3
100
AcDbEntity
  8
0
390
0
100
AcDbLine
 10
-611.5
 20
0.0
 30
0.0
 11
-613.5
 21
0.0
 31
0.0
  0
LINE
  5
1F4
100
AcDbEntity
  8
0
390
0
100
AcDbLine
 10
-442.9735
 20
232.22869
 30
0.0
 11
-441.0265
 21
231.77131
 31
0.0
  0
LINE
  5
1F5
100
AcDbEntity
  8
0
390
0
100
AcDbLine
 10
-495.5265
 20
-0.22869
 30
0.0
 11
-497.4735
 21
0.22869
 31
0.0
  0
LINE
  5
1F6
100
AcDbEntity
  8
0
390
0
100
AcDbLine
 10
-499.47255999999999
 20
232.23266000000001
 30
0.0
 11
-497.52744000000001
 21
231.76733999999999
 31
0.0
  0
LINE
  5
1F7
100
AcDbEntity
  8
0
390
0
100
AcDbLine
 10
-553.02743999999996
 20
-0.23266
 30
0.0
 11
-554.97256000000004
 21
0.23266
 31
0.0
  0
LINE
  5
1F8
100
AcDbEntity
  8
0
390
0
100
AcDbLine
 10
-556.97256000000004
 20
232.23266000000001
 30
0.0
 11
-555.02743999999996
 21
231.76733999999999
 31
0.0
  0
LINE
  5
1F9
100
AcDbEntity
  8
0
390
0
100
AcDbLine
 10
-610.52743999999996
 20
-0.23266
 30
0.0
 11
-612.47256000000004
 21
0.23266
 31
0.0
  0
LINE
  5
1FA
100
AcDbEntity
  8
0
390
0
100
AcDbLine
 10
-614.47349999999994
 20
232.22869
 30
0.0
 11
-612.52650000000006
 21
231.77131
 31
0.0
  0
LINE
  5
1FB
100
AcDbEntity
  8
0
390
0
100
AcDbLine
 10
-612.52650000000006
 20
231.77131
 30
0.0
 11
-667.02650000000006
 21
-0.22869
 31
0.0
  0
LINE
  5
1FC
100
AcDbEntity
  8
0
390
0
100
AcDbLine
 10
-667.02650000000006
 20
-0.22869
 30
0.0
 11
-668.97349999999994
 21
0.22869
 31
0.0
  0
CIRCLE
  5
1FD
100
AcDbEntity
  8
0
390
0
100
AcDbCircle
 10
-335.0
 20
181.5
 30
0.0
 40
6.3499999999999996
  0
LINE
  5
1FE
100
AcDbEntity
  8
0
390
0
100
AcDbLine
 10
-331.82499999999999
 20
181.5
 30
0.0
 11
-338.17500000000001
 21
181.5
 31
0.0
  0
LINE
  5
1FF
100
AcDbEntity
  8
0
390
0
100
AcDbLine
 10
-335.0
 20
178.32499999999999
 30
0.0
 11
-335.0
 21
184.67500000000001
 31
0.0
  0
LWPOLYLINE
  5
200
100
AcDbEntity
  8
0
390
0
100
AcDbPolyline
 90
       10
 70
               0
 10
0.0
 20
210.0
 10
-31.5
 20
210.0
 10
-55.0
 20
210.0
 10
-110.0
 20
210.0
 10
-165.0
 20
210.0
 10
-220.0
 20
210.0
 10
-275.0
 20
210.0
 10
-330.0
 20
210.0
 10
-385.0
 20
210.0
 10
-440.0
 20
210.0
  0
LWPOLYLINE
  5
201
100
AcDbEntity
  8
JIGHOLES
390
0
100
AcDbPolyline
 90
        9
 70
               0
 10
-31.5
 20
210.0
 10
-55.0
 20
210.0
 10
-110.0
 20
210.0
 10
-165.0
 20
210.0
 10
-220.0
 20
210.0
 10
-275.0
 20
210.0
 10
-330.0
 20
210.0
 10
-385.0
 20
210.0
 10
-440.0
 20
210.0
  0
LWPOLYLINE
  5
202
100
AcDbEntity
  8
JIGHOLES
390
0
100
AcDbPolyline
 90
        8
 70
               0
 10
-55.0
 20
210.0
 10
-110.0
 20
210.0
 10
-165.0
 20
210.0
 10
-220.0
 20
210.0
 10
-275.0
 20
210.0
 10
-330.0
 20
210.0
 10
-385.0
 20
210.0
 10
-440.0
 20
210.0
  0
LWPOLYLINE
  5
203
100
AcDbEntity
  8
JIGHOLES
390
0
100
AcDbPolyline
 90
        7
 70
               0
 10
-110.0
 20
210.0
 10
-165.0
 20
210.0
 10
-220.0
 20
210.0
 10
-275.0
 20
210.0
 10
-330.0
 20
210.0
 10
-385.0
 20
210.0
 10
-440.0
 20
210.0
  0
LWPOLYLINE
  5
204
100
AcDbEntity
  8
JIGHOLES
390
0
100
AcDbPolyline
 90
        6
 70
               0
 10
-165.0
 20
210.0
 10
-220.0
 20
210.0
 10
-275.0
 20
210.0
 10
-330.0
 20
210.0
 10
-385.0
 20
210.0
 10
-440.0
 20
210.0
  0
LWPOLYLINE
  5
205
100
AcDbEntity
  8
JIGHOLES
390
0
100
AcDbPolyline
 90
        5
 70
               0
 10
-220.0
 20
210.0
 10
-275.0
 20
210.0
 10
-330.0
 20
210.0
 10
-385.0
 20
210.0
 10
-440.0
 20
210.0
  0
LWPOLYLINE
  5
206
100
AcDbEntity
  8
JIGHOLES
390
0
100
AcDbPolyline
 90
        4
 70
               0
 10
-275.0
 20
210.0
 10
-330.0
 20
210.0
 10
-385.0
 20
210.0
 10
-440.0
 20
210.0
  0
LWPOLYLINE
  5
207
100
AcDbEntity
  8
JIGHOLES
390
0
100
AcDbPolyline
 90
        3
 70
               0
 10
-330.0
 20
210.0
 10
-385.0
 20
210.0
 10
-440.0
 20
210.0
  0
LWPOLYLINE
  5
208
100
AcDbEntity
  8
JIGHOLES
390
0
100
AcDbPolyline
 90
        2
 70
               0
 10
-385.0
 20
210.0
 10
-440.0
 20
210.0
  0
LWPOLYLINE
  5
209
100
AcDbEntity
  8
JIGHOLES
390
0
100
AcDbPolyline
 90
       10
 70
               0
 10
0.0
 20
204.0
 10
-31.5
 20
204.0
 10
-55.0
 20
204.0
 10
-110.0
 20
204.0
 10
-165.0
 20
204.0
 10
-220.0
 20
204.0
 10
-275.0
 20
204.0
 10
-330.0
 20
204.0
 10
-385.0
 20
204.0
 10
-440.0
 20
204.0
  0
LWPOLYLINE
  5
20A
100
AcDbEntity
  8
JIGHOLES
390
0
100
AcDbPolyline
 90
        9
 70
               0
 10
-31.5
 20
204.0
 10
-55.0
 20
204.0
 10
-110.0
 20
204.0
 10
-165.0
 20
204.0
 10
-220.0
 20
204.0
 10
-275.0
 20
204.0
 10
-330.0
 20
204.0
 10
-385.0
 20
204.0
 10
-440.0
 20
204.0
  0
LWPOLYLINE
  5
20B
100
AcDbEntity
  8
JIGHOLES
390
0
100
AcDbPolyline
 90
        8
 70
               0
 10
-55.0
 20
204.0
 10
-110.0
 20
204.0
 10
-165.0
 20
204.0
 10
-220.0
 20
204.0
 10
-275.0
 20
204.0
 10
-330.0
 20
204.0
 10
-385.0
 20
204.0
 10
-440.0
 20
204.0
  0
LWPOLYLINE
  5
20C
100
AcDbEntity
  8
JIGHOLES
390
0
100
AcDbPolyline
 90
        7
 70
               0
 10
-110.0
 20
204.0
 10
-165.0
 20
204.0
 10
-220.0
 20
204.0
 10
-275.0
 20
204.0
 10
-330.0
 20
204.0
 10
-385.0
 20
204.0
 10
-440.0
 20
204.0
  0
LWPOLYLINE
  5
20D
100
AcDbEntity
  8
JIGHOLES
390
0
100
AcDbPolyline
 90
        6
 70
               0
 10
-165.0
 20
204.0
 10
-220.0
 20
204.0
 10
-275.0
 20
204.0
 10
-330.0
 20
204.0
 10
-385.0
 20
204.0
 10
-440.0
 20
204.0
  0
LWPOLYLINE
  5
20E
100
AcDbEntity
  8
JIGHOLES
390
0
100
AcDbPolyline
 90
        5
 70
               0
 10
-220.0
 20
204.0
 10
-275.0
 20
204.0
 10
-330.0
 20
204.0
 10
-385.0
 20
204.0
 10
-440.0
 20
204.0
  0
LWPOLYLINE
  5
20F
100
AcDbEntity
  8
JIGHOLES
390
0
100
AcDbPolyline
 90
        4
 70
               0
 10
-275.0
 20
204.0
 10
-330.0
 20
204.0
 10
-385.0
 20
204.0
 10
-440.0
 20
204.0
  0
LWPOLYLINE
  5
210
100
AcDbEntity
  8
JIGHOLES
390
0
100
AcDbPolyline
 90
        3
 70
               0
 10
-330.0
 20
204.0
 10
-385.0
 20
204.0
 10
-440.0
 20
204.0
  0
LWPOLYLINE
  5
211
100
AcDbEntity
  8
JIGHOLES
390
0
100
AcDbPolyline
 90
        2
 70
               0
 10
-385.0
 20
204.0
 10
-440.0
 20
204.0
  0
LWPOLYLINE
  5
212
100
AcDbEntity
  8
CUTOUTS
390
0
100
AcDbPolyline
 90
       21
 70
               0
 10
0.0
 20
222.0
 10
0.0
 20
232.0
 10
-31.5
 20
232.0
 10
-55.0
 20
232.0
 10
-110.0
 20
232.0
 10
-165.0
 20
232.0
 10
-220.0
 20
232.0
 10
-275.0
 20
232.0
 10
-330.0
 20
232.0
 10
-385.0
 20
232.0
 10
-440.0
 20
232.0
 10
-440.0
 20
222.0
 10
-385.0
 20
222.0
 10
-330.0
 20
222.0
 10
-275.0
 20
222.0
 10
-220.0
 20
222.0
 10
-165.0
 20
222.0
 10
-110.0
 20
222.0
 10
-55.0
 20
222.0
 10
-31.5
 20
222.0
 10
0.0
 20
222.0
  0
TEXT
  5
213
100
AcDbEntity
  8
TEXT
390
0
100
AcDbText
 10
1.175
 20
112.42749999999999
 30
0.0
 40
2.5
  1
MH 17.cor
 50
-270.0
 41
0.9999999999999999
100
AcDbText
  0
TEXT
  5
214
100
AcDbEntity
  8
TEXT
390
0
100
AcDbText
 10
-29.635000000000002
 20
108.61750000000001
 30
0.0
 40
2.5
  1
Rib#2@31.5mm.
 50
-270.0
 41
0.9999999999999999
100
AcDbText
  0
TEXT
  5
215
100
AcDbEntity
  8
TEXT
390
0
100
AcDbText
 10
-54.634999999999998
 20
110.52249999999999
 30
0.0
 40
2.5
  1
Rib#3@55mm.
 50
-270.0
 41
0.9999999999999999
100
AcDbText
  0
TEXT
  5
216
100
AcDbEntity
  8
TEXT
390
0
100
AcDbText
 10
-109.63500000000001
 20
109.56999999999999
 30
0.0
 40
2.5
  1
Rib#4@110mm.
 50
-270.0
 41
0.9999999999999999
100
AcDbText
  0
TEXT
  5
217
100
AcDbEntity
  8
TEXT
390
0
100
AcDbText
 10
-164.63499999999999
 20
109.56999999999999
 30
0.0
 40
2.5
  1
Rib#5@165mm.
 50
-270.0
 41
0.9999999999999999
100
AcDbText
  0
TEXT
  5
218
100
AcDbEntity
  8
TEXT
390
0
100
AcDbText
 10
-219.63499999999999
 20
109.56999999999999
 30
0.0
 40
2.5
  1
Rib#6@220mm.
 50
-270.0
 41
0.9999999999999999
100
AcDbText
  0
TEXT
  5
219
100
AcDbEntity
  8
TEXT
390
0
100
AcDbText
 10
-274.63499999999999
 20
109.56999999999999
 30
0.0
 40
2.5
  1
Rib#7@275mm.
 50
-270.0
 41
0.9999999999999999
100
AcDbText
  0
TEXT
  5
21A
100
AcDbEntity
  8
TEXT
390
0
100
AcDbText
 10
-329.63499999999999
 20
109.56999999999999
 30
0.0
 40
2.5
  1
Rib#8@330mm.
 50
-270.0
 41
0.9999999999999999
100
AcDbText
  0
TEXT
  5
21B
100
AcDbEntity
  8
TEXT
390
0
100
AcDbText
 10
-384.63499999999999
 20
109.56999999999999
 30
0.0
 40
2.5
  1
Rib#9@385mm.
 50
-270.0
 41
0.9999999999999999
100
AcDbText
  0
TEXT
  5
21C
100
AcDbEntity
  8
TEXT
390
0
100
AcDbText
 10
-439.63499999999999
 20
105.76000000000001
 30
0.0
 40
2.5
  1
MH 17.cor@440mm.
 50
-270.0
 41
0.9999999999999999
100
AcDbText
  0
TEXT
  5
21D
100
AcDbEntity
  8
TEXT
390
0
100
AcDbText
 10
-438.82499999999999
 20
105.76000000000001
 30
0.0
 40
2.5
  1
MH 17.cor@440mm.
 50
-270.0
 41
0.9999999999999999
100
AcDbText
  0
TEXT
  5
21E
100
AcDbEntity
  8
TEXT
390
0
100
AcDbText
 10
-497.13499999999999
 20
106.71250000000001
 30
0.0
 40
2.5
  1
Rib#12@497.5mm.
 50
-270.0
 41
0.9999999999999999
100
AcDbText
  0
TEXT
  5
21F
100
AcDbEntity
  8
TEXT
390
0
100
AcDbText
 10
-554.63499999999999
 20
108.61750000000001
 30
0.0
 40
2.5
  1
Rib#13@555mm.
 50
-270.0
 41
0.9999999999999999
100
AcDbText
  0
TEXT
  5
220
100
AcDbEntity
  8
TEXT
390
0
100
AcDbText
 10
-612.13499999999999
 20
106.71250000000001
 30
0.0
 40
2.5
  1
Rib#14@612.5mm.
 50
-270.0
 41
0.9999999999999999
100
AcDbText
  0
TEXT
  5
221
100
AcDbEntity
  8
TEXT
390
0
100
AcDbText
 10
-355.0025
 20
169.435
 30
0.0
 40
2.5
  1
A.C.-> 335mm x 60.5mm
 41
0.9999999999999999
100
AcDbText
  0
LINE
  5
222
100
AcDbEntity
  8
1
390
0
100
AcDbLine
 10
-1.0
 20
-6.3499999999999996
 30
0.0
 11
-1.0
 21
248.34999999999999
 31
0.0
  0
LINE
  5
223
100
AcDbEntity
  8
1
390
0
100
AcDbLine
 10
-31.5
 20
-6.3499999999999996
 30
0.0
 11
-31.5
 21
248.34999999999999
 31
0.0
  0
LINE
  5
224
100
AcDbEntity
  8
1
390
0
100
AcDbLine
 10
-55.0
 20
-6.3499999999999996
 30
0.0
 11
-55.0
 21
248.34999999999999
 31
0.0
  0
LINE
  5
225
100
AcDbEntity
  8
1
390
0
100
AcDbLine
 10
-110.0
 20
-6.3499999999999996
 30
0.0
 11
-110.0
 21
248.34999999999999
 31
0.0
  0
LINE
  5
226
100
AcDbEntity
  8
1
390
0
100
AcDbLine
 10
-165.0
 20
-6.3499999999999996
 30
0.0
 11
-165.0
 21
248.34999999999999
 31
0.0
  0
LINE
  5
227
100
AcDbEntity
  8
1
390
0
100
AcDbLine
 10
-220.0
 20
-6.3499999999999996
 30
0.0
 11
-220.0
 21
248.34999999999999
 31
0.0
  0
LINE
  5
228
100
AcDbEntity
  8
1
390
0
100
AcDbLine
 10
-275.0
 20
-6.3499999999999996
 30
0.0
 11
-275.0
 21
248.34999999999999
 31
0.0
  0
LINE
  5
229
100
AcDbEntity
  8
1
390
0
100
AcDbLine
 10
-330.0
 20
-6.3499999999999996
 30
0.0
 11
-330.0
 21
248.34999999999999
 31
0.0
  0
LINE
  5
22A
100
AcDbEntity
  8
1
390
0
100
AcDbLine
 10
-385.0
 20
-6.3499999999999996
 30
0.0
 11
-385.0
 21
248.34999999999999
 31
0.0
  0
LINE
  5
22B
100
AcDbEntity
  8
1
390
0
100
AcDbLine
 10
-441.0
 20
-6.3499999999999996
 30
0.0
 11
-441.0
 21
248.34999999999999
 31
0.0
  0
LINE
  5
22C
100
AcDbEntity
  8
1
390
0
100
AcDbLine
 10
-497.5
 20
-6.3499999999999996
 30
0.0
 11
-497.5
 21
248.34999999999999
 31
0.0
  0
LINE
  5
22D
100
AcDbEntity
  8
1
390
0
100
AcDbLine
 10
-555.0
 20
-6.3499999999999996
 30
0.0
 11
-555.0
 21
248.34999999999999
 31
0.0
  0
LINE
  5
22E
100
AcDbEntity
  8
1
390
0
100
AcDbLine
 10
-612.5
 20
-6.3499999999999996
 30
0.0
 11
-612.5
 21
248.34999999999999
 31
0.0
  0
LINE
  5
22F
100
AcDbEntity
  8
1
390
0
100
AcDbLine
 10
-439.0
 20
-6.3499999999999996
 30
0.0
 11
-439.0
 21
248.34999999999999
 31
0.0
  0
LINE
  5
230
100
AcDbEntity
  8
1
390
0
100
AcDbLine
 10
-439.65086000000002
 20
242.0
 30
0.0
 11
-496.5
 21
0.0
 31
0.0
  0
LINE
  5
231
100
AcDbEntity
  8
1
390
0
100
AcDbLine
 10
-611.15085999999997
 20
242.0
 30
0.0
 11
-668.0
 21
0.0
 31
0.0
  0
LINE
  5
232
100
AcDbEntity
  8
0
390
0
  6
Continuous
100
AcDbLine
 10
0.0
 20
0.0
 30
0.0
 11
0.0
 21
242.0
 31
0.0
  0
LINE
  5
233
100
AcDbEntity
  8
0
390
0
  6
Continuous
100
AcDbLine
 10
0.0
 20
242.0
 30
0.0
 11
-440.0
 21
242.0
 31
0.0
  0
LINE
  5
234
100
AcDbEntity
  8
0
390
0
  6
Continuous
100
AcDbLine
 10
-440.0
 20
242.0
 30
0.0
 11
-440.0
 21
0.0
 31
0.0
  0
LINE
  5
235
100
AcDbEntity
  8
0
390
0
  6
Continuous
100
AcDbLine
 10
-440.0
 20
0.0
 30
0.0
 11
0.0
 21
0.0
 31
0.0
  0
LINE
  5
236
100
AcDbEntity
  8
0
390
0
  6
Continuous
100
AcDbLine
 10
0.0
 20
0.0
 30
0.0
 11
-440.0
 21
0.0
 31
0.0
  0
LINE
  5
237
100
AcDbEntity
  8
0
390
0
  6
Continuous
100
AcDbLine
 10
-440.0
 20
0.0
 30
0.0
 11
-440.0
 21
242.0
 31
0.0
  0
LINE
  5
238
100
AcDbEntity
  8
0
390
0
  6
Continuous
100
AcDbLine
 10
-670.0
 20
0.0
 30
0.0
 11
-440.0
 21
0.0
 31
0.0
  0
LINE
  5
239
100
AcDbEntity
  8
0
390
0
  6
Continuous
100
AcDbLine
 10
0.0
 20
0.0
 30
0.0
 11
0.0
 21
242.0
 31
0.0
  0
LINE
  5
23A
100
AcDbEntity
  8
0
390
0
  6
Continuous
100
AcDbLine
 10
0.0
 20
242.0
 30
0.0
 11
440.0
 21
242.0
 31
0.0
  0
LINE
  5
23B
100
AcDbEntity
  8
0
390
0
  6
Continuous
100
AcDbLine
 10
440.0
 20
242.0
 30
0.0
 11
440.0
 21
0.0
 31
0.0
  0
LINE
  5
23C
100
AcDbEntity
  8
0
390
0
  6
Continuous
100
AcDbLine
 10
440.0
 20
0.0
 30
0.0
 11
0.0
 21
0.0
 31
0.0
  0
LINE
  5
23D
100
AcDbEntity
  8
0
390
0
  6
Continuous
100
AcDbLine
 10
0.0
 20
0.0
 30
0.0
 11
440.0
 21
0.0
 31
0.0
  0
LINE
  5
23E
100
AcDbEntity
  8
0
390
0
  6
Continuous
100
AcDbLine
 10
440.0
 20
0.0
 30
0.0
 11
440.0
 21
242.0
 31
0.0
  0
LINE
  5
23F
100
AcDbEntity
  8
0
390
0
  6
Continuous
100
AcDbLine
 10
670.0
 20
0.0
 30
0.0
 11
440.0
 21
0.0
 31
0.0
  0
LINE
  5
240
100
AcDbEntity
  8
0
390
0
100
AcDbLine
 10
668.97349999999994
 20
0.22869
 30
0.0
 11
612.17808450431028
 21
242.0
 31
0.0
  0
LINE
  5
241
100
AcDbEntity
  8
0
390
0
  6
Continuous
100
AcDbLine
 10
440.0
 20
242.0
 30
0.0
 11
612.5
 21
242.0
 31
0.0
  0
LINE
  5
242
100
AcDbEntity
  8
CUTOUTS
390
0
  6
Continuous
100
AcDbLine
 10
440.0
 20
222.0
 30
0.0
 11
440.0
 21
232.0
 31
0.0
  0
LINE
  5
243
100
AcDbEntity
  8
CUTOUTS
390
0
  6
Continuous
100
AcDbLine
 10
440.0
 20
232.0
 30
0.0
 11
497.5
 21
232.0
 31
0.0
  0
LINE
  5
244
100
AcDbEntity
  8
CUTOUTS
390
0
  6
Continuous
100
AcDbLine
 10
497.5
 20
232.0
 30
0.0
 11
555.0
 21
232.0
 31
0.0
  0
LINE
  5
245
100
AcDbEntity
  8
CUTOUTS
390
0
  6
Continuous
100
AcDbLine
 10
555.0
 20
232.0
 30
0.0
 11
612.5
 21
232.0
 31
0.0
  0
LINE
  5
246
100
AcDbEntity
  8
CUTOUTS
390
0
  6
Continuous
100
AcDbLine
 10
612.5
 20
222.0
 30
0.0
 11
555.0
 21
222.0
 31
0.0
  0
LINE
  5
247
100
AcDbEntity
  8
CUTOUTS
390
0
  6
Continuous
100
AcDbLine
 10
555.0
 20
222.0
 30
0.0
 11
497.5
 21
222.0
 31
0.0
  0
LINE
  5
248
100
AcDbEntity
  8
CUTOUTS
390
0
  6
Continuous
100
AcDbLine
 10
497.5
 20
222.0
 30
0.0
 11
440.0
 21
222.0
 31
0.0
  0
LINE
  5
249
100
AcDbEntity
  8
0
390
0
  6
Continuous
100
AcDbLine
 10
0.0
 20
232.0
 30
0.0
 11
31.5
 21
232.0
 31
0.0
  0
LINE
  5
24A
100
AcDbEntity
  8
0
390
0
  6
Continuous
100
AcDbLine
 10
31.5
 20
232.0
 30
0.0
 11
55.0
 21
232.0
 31
0.0
  0
LINE
  5
24B
100
AcDbEntity
  8
0
390
0
  6
Continuous
100
AcDbLine
 10
55.0
 20
232.0
 30
0.0
 11
110.0
 21
232.0
 31
0.0
  0
LINE
  5
24C
100
AcDbEntity
  8
0
390
0
  6
Continuous
100
AcDbLine
 10
110.0
 20
232.0
 30
0.0
 11
165.0
 21
232.0
 31
0.0
  0
LINE
  5
24D
100
AcDbEntity
  8
0
390
0
  6
Continuous
100
AcDbLine
 10
165.0
 20
232.0
 30
0.0
 11
220.0
 21
232.0
 31
0.0
  0
LINE
  5
24E
100
AcDbEntity
  8
0
390
0
  6
Continuous
100
AcDbLine
 10
220.0
 20
232.0
 30
0.0
 11
275.0
 21
232.0
 31
0.0
  0
LINE
  5
24F
100
AcDbEntity
  8
0
390
0
  6
Continuous
100
AcDbLine
 10
275.0
 20
232.0
 30
0.0
 11
330.0
 21
232.0
 31
0.0
  0
LINE
  5
250
100
AcDbEntity
  8
0
390
0
  6
Continuous
100
AcDbLine
 10
330.0
 20
232.0
 30
0.0
 11
385.0
 21
232.0
 31
0.0
  0
LINE
  5
251
100
AcDbEntity
  8
0
390
0
  6
Continuous
100
AcDbLine
 10
385.0
 20
232.0
 30
0.0
 11
440.0
 21
232.0
 31
0.0
  0
LINE
  5
252
100
AcDbEntity
  8
0
390
0
  6
Continuous
100
AcDbLine
 10
440.0
 20
232.0
 30
0.0
 11
497.5
 21
232.0
 31
0.0
  0
LINE
  5
253
100
AcDbEntity
  8
0
390
0
  6
Continuous
100
AcDbLine
 10
497.5
 20
232.0
 30
0.0
 11
555.0
 21
232.0
 31
0.0
  0
LINE
  5
254
100
AcDbEntity
  8
0
390
0
  6
Continuous
100
AcDbLine
 10
555.0
 20
232.0
 30
0.0
 11
612.5
 21
232.0
 31
0.0
  0
LINE
  5
255
100
AcDbEntity
  8
JIGHOLES
390
0
  6
Continuous
100
AcDbLine
 10
555.0
 20
210.0
 30
0.0
 11
612.5
 21
210.0
 31
0.0
  0
LINE
  5
256
100
AcDbEntity
  8
JIGHOLES
390
0
  6
Continuous
100
AcDbLine
 10
440.0
 20
210.0
 30
0.0
 11
497.5
 21
210.0
 31
0.0
  0
LINE
  5
257
100
AcDbEntity
  8
JIGHOLES
390
0
  6
Continuous
100
AcDbLine
 10
497.5
 20
210.0
 30
0.0
 11
555.0
 21
210.0
 31
0.0
  0
LINE
  5
258
100
AcDbEntity
  8
JIGHOLES
390
0
  6
Continuous
100
AcDbLine
 10
555.0
 20
210.0
 30
0.0
 11
612.5
 21
210.0
 31
0.0
  0
LINE
  5
259
100
AcDbEntity
  8
JIGHOLES
390
0
  6
Continuous
100
AcDbLine
 10
555.0
 20
204.0
 30
0.0
 11
612.5
 21
204.0
 31
0.0
  0
LINE
  5
25A
100
AcDbEntity
  8
JIGHOLES
390
0
  6
Continuous
100
AcDbLine
 10
440.0
 20
204.0
 30
0.0
 11
497.5
 21
204.0
 31
0.0
  0
LINE
  5
25B
100
AcDbEntity
  8
JIGHOLES
390
0
  6
Continuous
100
AcDbLine
 10
497.5
 20
204.0
 30
0.0
 11
555.0
 21
204.0
 31
0.0
  0
LINE
  5
25C
100
AcDbEntity
  8
JIGHOLES
390
0
  6
Continuous
100
AcDbLine
 10
555.0
 20
204.0
 30
0.0
 11
612.5
 21
204.0
 31
0.0
  0
LINE
  5
25D
100
AcDbEntity
  8
CUTOUTS
390
0
100
AcDbLine
 10
612.5
 20
139.94404
 30
0.0
 11
637.08509591350719
 21
139.94404
 31
0.0
  0
LINE
  5
25E
100
AcDbEntity
  8
CUTOUTS
390
0
100
AcDbLine
 10
612.5
 20
139.94404
 30
0.0
 11
637.08509591350719
 21
139.94404
 31
0.0
  0
LINE
  5
25F
100
AcDbEntity
  8
CUTOUTS
390
0
100
AcDbLine
 10
612.5
 20
129.94404
 30
0.0
 11
638.71445104916802
 21
129.94404
 31
0.0
  0
LINE
  5
260
100
AcDbEntity
  8
CUTOUTS
390
0
100
AcDbLine
 10
612.5
 20
129.94404
 30
0.0
 11
638.71445104916802
 21
129.94404
 31
0.0
  0
LINE
  5
261
100
AcDbEntity
  8
0
390
0
100
AcDbLine
 10
-668.97349999999994
 20
0.22869
 30
0.0
 11
-612.17808450431028
 21
242.0
 31
0.0
  0
LINE
  5
262
100
AcDbEntity
  8
0
390
0
  6
Continuous
100
AcDbLine
 10
-440.0
 20
242.0
 30
0.0
 11
-612.5
 21
242.0
 31
0.0
  0
LINE
  5
263
100
AcDbEntity
  8
CUTOUTS
390
0
  6
Continuous
100
AcDbLine
 10
-440.0
 20
222.0
 30
0.0
 11
-440.0
 21
232.0
 31
0.0
  0
LINE
  5
264
100
AcDbEntity
  8
CUTOUTS
390
0
  6
Continuous
100
AcDbLine
 10
-440.0
 20
232.0
 30
0.0
 11
-497.5
 21
232.0
 31
0.0
  0
LINE
  5
265
100
AcDbEntity
  8
CUTOUTS
390
0
  6
Continuous
100
AcDbLine
 10
-497.5
 20
232.0
 30
0.0
 11
-555.0
 21
232.0
 31
0.0
  0
LINE
  5
266
100
AcDbEntity
  8
CUTOUTS
390
0
  6
Continuous
100
AcDbLine
 10
-555.0
 20
232.0
 30
0.0
 11
-612.5
 21
232.0
 31
0.0
  0
LINE
  5
267
100
AcDbEntity
  8
CUTOUTS
390
0
  6
Continuous
100
AcDbLine
 10
-612.5
 20
222.0
 30
0.0
 11
-555.0
 21
222.0
 31
0.0
  0
LINE
  5
268
100
AcDbEntity
  8
CUTOUTS
390
0
  6
Continuous
100
AcDbLine
 10
-555.0
 20
222.0
 30
0.0
 11
-497.5
 21
222.0
 31
0.0
  0
LINE
  5
269
100
AcDbEntity
  8
CUTOUTS
390
0
  6
Continuous
100
AcDbLine
 10
-497.5
 20
222.0
 30
0.0
 11
-440.0
 21
222.0
 31
0.0
  0
LINE
  5
26A
100
AcDbEntity
  8
0
390
0
  6
Continuous
100
AcDbLine
 10
0.0
 20
232.0
 30
0.0
 11
-31.5
 21
232.0
 31
0.0
  0
LINE
  5
26B
100
AcDbEntity
  8
0
390
0
  6
Continuous
100
AcDbLine
 10
-31.5
 20
232.0
 30
0.0
 11
-55.0
 21
232.0
 31
0.0
  0
LINE
  5
26C
100
AcDbEntity
  8
0
390
0
  6
Continuous
100
AcDbLine
 10
-55.0
 20
232.0
 30
0.0
 11
-110.0
 21
232.0
 31
0.0
  0
LINE
  5
26D
100
AcDbEntity
  8
0
390
0
  6
Continuous
100
AcDbLine
 10
-110.0
 20
232.0
 30
0.0
 11
-165.0
 21
232.0
 31
0.0
  0
LINE
  5
26E
100
AcDbEntity
  8
0
390
0
  6
Continuous
100
AcDbLine
 10
-165.0
 20
232.0
 30
0.0
 11
-220.0
 21
232.0
 31
0.0
  0
LINE
  5
26F
100
AcDbEntity
  8
0
390
0
  6
Continuous
100
AcDbLine
 10
-220.0
 20
232.0
 30
0.0
 11
-275.0
 21
232.0
 31
0.0
  0
LINE
  5
270
100
AcDbEntity
  8
0
390
0
  6
Continuous
100
AcDbLine
 10
-275.0
 20
232.0
 30
0.0
 11
-330.0
 21
232.0
 31
0.0
  0
LINE
  5
271
100
AcDbEntity
  8
0
390
0
  6
Continuous
100
AcDbLine
 10
-330.0
 20
232.0
 30
0.0
 11
-385.0
 21
232.0
 31
0.0
  0
LINE
  5
272
100
AcDbEntity
  8
0
390
0
  6
Continuous
100
AcDbLine
 10
-385.0
 20
232.0
 30
0.0
 11
-440.0
 21
232.0
 31
0.0
  0
LINE
  5
273
100
AcDbEntity
  8
0
390
0
  6
Continuous
100
AcDbLine
 10
-440.0
 20
232.0
 30
0.0
 11
-497.5
 21
232.0
 31
0.0
  0
LINE
  5
274
100
AcDbEntity
  8
0
390
0
  6
Continuous
100
AcDbLine
 10
-497.5
 20
232.0
 30
0.0
 11
-555.0
 21
232.0
 31
0.0
  0
LINE
  5
275
100
AcDbEntity
  8
0
390
0
  6
Continuous
100
AcDbLine
 10
-555.0
 20
232.0
 30
0.0
 11
-612.5
 21
232.0
 31
0.0
  0
LINE
  5
276
100
AcDbEntity
  8
JIGHOLES
390
0
  6
Continuous
100
AcDbLine
 10
-555.0
 20
210.0
 30
0.0
 11
-612.5
 21
210.0
 31
0.0
  0
LINE
  5
277
100
AcDbEntity
  8
JIGHOLES
390
0
  6
Continuous
100
AcDbLine
 10
-497.5
 20
210.0
 30
0.0
 11
-555.0
 21
210.0
 31
0.0
  0
LINE
  5
278
100
AcDbEntity
  8
JIGHOLES
390
0
  6
Continuous
100
AcDbLine
 10
-555.0
 20
210.0
 30
0.0
 11
-612.5
 21
210.0
 31
0.0
  0
LINE
  5
279
100
AcDbEntity
  8
JIGHOLES
390
0
  6
Continuous
100
AcDbLine
 10
-555.0
 20
204.0
 30
0.0
 11
-612.5
 21
204.0
 31
0.0
  0
LINE
  5
27A
100
AcDbEntity
  8
JIGHOLES
390
0
  6
Continuous
100
AcDbLine
 10
-497.5
 20
204.0
 30
0.0
 11
-555.0
 21
204.0
 31
0.0
  0
LINE
  5
27B
100
AcDbEntity
  8
JIGHOLES
390
0
  6
Continuous
100
AcDbLine
 10
-555.0
 20
204.0
 30
0.0
 11
-612.5
 21
204.0
 31
0.0
  0
LINE
  5
27C
100
AcDbEntity
  8
JIGHOLES
390
0
  6
Continuous
100
AcDbLine
 10
-440.0
 20
204.0
 30
0.0
 11
-497.5
 21
204.0
 31
0.0
  0
LINE
  5
27D
100
AcDbEntity
  8
JIGHOLES
390
0
  6
Continuous
100
AcDbLine
 10
-497.5
 20
204.0
 30
0.0
 11
-555.0
 21
204.0
 31
0.0
  0
LINE
  5
27E
100
AcDbEntity
  8
JIGHOLES
390
0
  6
Continuous
100
AcDbLine
 10
-555.0
 20
204.0
 30
0.0
 11
-612.5
 21
204.0
 31
0.0
  0
LINE
  5
27F
100
AcDbEntity
  8
CUTOUTS
390
0
100
AcDbLine
 10
-612.5
 20
129.94404
 30
0.0
 11
-612.13499999999999
 21
106.71250000000001
 31
0.0
  0
LINE
  5
280
100
AcDbEntity
  8
0
370
               0
390
0
  6
Continuous
100
AcDbLine
 10
670.00000000000011
 20
318.89381445151082
 30
0.0
 11
-670.0
 21
318.89381445151082
 31
0.0
  0
LINE
  5
281
100
AcDbEntity
  8
0
370
               0
390
0
  6
Continuous
100
AcDbLine
 10
-670.0
 20
318.89381445151082
 30
0.0
 11
-611.97855108401802
 21
288.89381445151082
 31
0.0
  0
LINE
  5
282
100
AcDbEntity
  8
0
370
               0
390
0
  6
Continuous
100
AcDbLine
 10
-611.97855108401802
 20
288.89381445151082
 30
0.0
 11
612.17808450431028
 21
288.89381445151082
 31
0.0
  0
LINE
  5
283
100
AcDbEntity
  8
0
370
               0
390
0
  6
Continuous
100
AcDbLine
 10
612.17808450431028
 20
288.89381445151082
 30
0.0
 11
670.00000029378373
 21
318.89381445151082
 31
0.0
  0
LINE
  5
284
100
AcDbEntity
  8
0
370
               0
390
0
  6
Continuous
100
AcDbLine
 10
0.5000000000000284
 20
283.62190722575542
 30
0.0
 11
0.0000000000000568
 21
318.89381445151082
 31
0.0
  0
ENDSEC
  0
SECTION
  2
OBJECTS
  0
DICTIONARY
  5
19
100
AcDbDictionary
280
               0
281
               1
  3
ACAD_GROUP
350
1A
  3
ACAD_MLINESTYLE
350
1B
  3
ACAD_LAYOUT
350
1E
  3
ACAD_PLOTSETTINGS
350
22
  3
ACAD_PLOTSTYLENAME
350
1F
  0
DICTIONARY
  5
1A
102
{ACAD_REACTORS
330
19
102
}
100
AcDbDictionary
280
               0
281
               1
  0
DICTIONARY
  5
1B
102
{ACAD_REACTORS
330
19
102
}
100
AcDbDictionary
280
               0
281
               1
  3
Standard
350
1C
  0
MLINESTYLE
  5
1C
102
{ACAD_REACTORS
330
1B
102
}
100
AcDbMlineStyle
  2
Standard
 70
               0
  3

 62
               0
 51
90.0
 52
90.0
 71
               2
 49
0.5
 62
             256
  6
ByLayer
 49
-0.5
 62
             256
  6
ByLayer
  0
ACDBDICTIONARYWDFLT
  5
1F
102
{ACAD_REACTORS
330
19
102
}
100
AcDbDictionary
281
               1
  3
Normal
350
1D
100
AcDbDictionaryWithDefault
340
1D
  0
ACDBPLACEHOLDER
  5
1D
102
{ACAD_REACTORS
330
1F
102
}
  0
LAYOUT
  5
20
102
{ACAD_REACTORS
330
1E
102
}
100
AcDbPlotSettings
  1

  2

  4

  6

 40
0.0
 41
0.0
 42
0.0
 43
0.0
 44
0.0
 45
0.0
 46
0.0
 47
0.0
 48
0.0
 49
0.0
140
0.0
141
0.0
142
1.0
143
1.0
 70
            1024
 72
               0
 73
               0
 74
               0
  7

 75
               0
147
1.0
148
0.0
149
0.0
100
AcDbLayout
  1
Model
 70
               0
 71
               0
 10
0.0
 20
0.0
 11
0.0
 21
0.0
 12
0.0
 22
0.0
 32
0.0
 14
0.0
 24
0.0
 34
0.0
 15
0.0
 25
0.0
 35
0.0
146
0.0
 13
0.0
 23
0.0
 33
0.0
 16
0.0
 26
0.0
 36
0.0
 17
0.0
 27
0.0
 37
0.0
 76
               0
330
A
331
0
345
0
346
0
  0
LAYOUT
  5
21
102
{ACAD_REACTORS
330
1E
102
}
100
AcDbPlotSettings
  1

  2

  4

  6

 40
0.0
 41
0.0
 42
0.0
 43
0.0
 44
0.0
 45
0.0
 46
0.0
 47
0.0
 48
0.0
 49
0.0
140
0.0
141
0.0
142
1.0
143
1.0
 70
               0
 72
               0
 73
               0
 74
               0
  7

 75
               0
147
1.0
148
0.0
149
0.0
100
AcDbLayout
  1
Layout1
 70
               0
 71
               0
 10
0.0
 20
0.0
 11
0.0
 21
0.0
 12
0.0
 22
0.0
 32
0.0
 14
0.0
 24
0.0
 34
0.0
 15
0.0
 25
0.0
 35
0.0
146
0.0
 13
0.0
 23
0.0
 33
0.0
 16
0.0
 26
0.0
 36
0.0
 17
0.0
 27
0.0
 37
0.0
 76
               0
330
B
331
0
345
0
346
0
  0
DICTIONARY
  5
1E
102
{ACAD_REACTORS
330
19
102
}
100
AcDbDictionary
280
               0
281
               1
  3
Layout1
350
21
  3
Model
350
20
  0
DICTIONARY
  5
22
102
{ACAD_REACTORS
330
19
102
}
100
AcDbDictionary
280
               0
281
               1
  0
ENDSEC
  0
EOF
