  0
SECTION
  2
HEADER
  9
$ACADVER
  1
AC1015
  9
$ACADMAINTVER
 70
               6
  9
$DWGCODEPAGE
  3
DOS437
  9
$INSBASE
 10
0.0
 20
0.0
 30
0.0
  9
$EXTMIN
 10
-399.39616112711633
 20
-784.16184194692278
 30
1.0000000000000000E+20
  9
$EXTMAX
 10
1436.3569622460764
 20
279.81256373697653
 30
-1.0000000000000000E+20
  9
$LIMMIN
 10
0.0
 20
0.0
  9
$LIMMAX
 10
0.0
 20
0.0
  9
$ORTHOMODE
 70
               0
  9
$REGENMODE
 70
               1
  9
$FILLMODE
 70
               1
  9
$QTEXTMODE
 70
               0
  9
$MIRRTEXT
 70
               1
  9
$LTSCALE
 40
0.1
  9
$ATTMODE
 70
               1
  9
$TEXTSIZE
 40
0.2
  9
$TRACEWID
 40
0.05
  9
$TEXTSTYLE
  7
Standard
  9
$CLAYER
  8
0
  9
$CELTYPE
  6
ByLayer
  9
$CECOLOR
 62
             256
  9
$CELTSCALE
 40
1.0
  9
$DISPSILH
 70
               0
  9
$DIMSCALE
 40
1.0
  9
$DIMASZ
 40
0.18
  9
$DIMEXO
 40
0.0625
  9
$DIMDLI
 40
0.38
  9
$DIMRND
 40
0.0
  9
$DIMDLE
 40
0.0
  9
$DIMEXE
 40
0.18
  9
$DIMTP
 40
0.0
  9
$DIMTM
 40
0.0
  9
$DIMTXT
 40
0.18
  9
$DIMCEN
 40
0.09
  9
$DIMTSZ
 40
0.0
  9
$DIMTOL
 70
               0
  9
$DIMLIM
 70
               0
  9
$DIMTIH
 70
               1
  9
$DIMTOH
 70
               1
  9
$DIMSE1
 70
               0
  9
$DIMSE2
 70
               0
  9
$DIMTAD
 70
               0
  9
$DIMZIN
 70
               0
  9
$DIMBLK
  1

  9
$DIMASO
 70
               1
  9
$DIMSHO
 70
               1
  9
$DIMPOST
  1

  9
$DIMAPOST
  1

  9
$DIMALT
 70
               0
  9
$DIMALTD
 70
               2
  9
$DIMALTF
 40
25.399999999999999
  9
$DIMLFAC
 40
1.0
  9
$DIMTOFL
 70
               0
  9
$DIMTVP
 40
0.0
  9
$DIMTIX
 70
               0
  9
$DIMSOXD
 70
               0
  9
$DIMSAH
 70
               0
  9
$DIMBLK1
  1

  9
$DIMBLK2
  1

  9
$DIMSTYLE
  2
Standard
  9
$DIMCLRD
 70
               0
  9
$DIMCLRE
 70
               0
  9
$DIMCLRT
 70
               0
  9
$DIMTFAC
 40
1.0
  9
$DIMGAP
 40
0.09
  9
$DIMJUST
 70
               0
  9
$DIMSD1
 70
               0
  9
$DIMSD2
 70
               0
  9
$DIMTOLJ
 70
               1
  9
$DIMTZIN
 70
               0
  9
$DIMALTZ
 70
               0
  9
$DIMALTTZ
 70
               0
  9
$DIMUPT
 70
               0
  9
$DIMDEC
 70
               4
  9
$DIMTDEC
 70
               4
  9
$DIMALTU
 70
               2
  9
$DIMALTTD
 70
               2
  9
$DIMTXSTY
  7
Standard
  9
$DIMAUNIT
 70
               0
  9
$DIMADEC
 70
               0
  9
$DIMALTRND
 40
0.0
  9
$DIMAZIN
 70
               0
  9
$DIMDSEP
 70
               0
  9
$DIMATFIT
 70
               3
  9
$DIMFRAC
 70
               0
  9
$DIMLDRBLK
  1

  9
$DIMLUNIT
 70
               2
  9
$DIMLWD
 70
               0
  9
$DIMLWE
 70
               0
  9
$DIMTMOVE
 70
               0
  9
$LUNITS
 70
               2
  9
$LUPREC
 70
               4
  9
$SKETCHINC
 40
0.1
  9
$FILLETRAD
 40
0.0
  9
$AUNITS
 70
               0
  9
$AUPREC
 70
               0
  9
$MENU
  1
acad
  9
$ELEVATION
 40
0.0
  9
$PELEVATION
 40
0.0
  9
$THICKNESS
 40
0.0
  9
$LIMCHECK
 70
               0
  9
$CHAMFERA
 40
0.0
  9
$CHAMFERB
 40
0.0
  9
$CHAMFERC
 40
0.0
  9
$CHAMFERD
 40
0.0
  9
$SKPOLY
 70
               0
  9
$TDCREATE
 40
0.000000000
  9
$TDUCREATE
 40
0.000000000
  9
$TDUPDATE
 40
0.000000000
  9
$TDUUPDATE
 40
0.000000000
  9
$TDINDWG
 40
0.0000000000
  9
$TDUSRTIMER
 40
0.0000000000
  9
$USRTIMER
 70
               1
  9
$ANGBASE
 50
0.0
  9
$ANGDIR
 70
               0
  9
$PDMODE
 70
               2
  9
$PDSIZE
 40
1.5
  9
$PLINEWID
 40
0.0
  9
$SPLFRAME
 70
               0
  9
$SPLINETYPE
 70
               6
  9
$SPLINESEGS
 70
               8
  9
$HANDSEED
  5
594
  9
$SURFTAB1
 70
               6
  9
$SURFTAB2
 70
               6
  9
$SURFTYPE
 70
               6
  9
$SURFU
 70
               6
  9
$SURFV
 70
               6
  9
$UCSBASE
  2

  9
$UCSNAME
  2

  9
$UCSORG
 10
0.0
 20
0.0
 30
0.0
  9
$UCSXDIR
 10
1.0
 20
0.0
 30
0.0
  9
$UCSYDIR
 10
0.0
 20
1.0
 30
0.0
  9
$UCSORTHOREF
  2

  9
$UCSORTHOVIEW
 70
               0
  9
$UCSORGTOP
 10
0.0
 20
0.0
 30
0.0
  9
$UCSORGBOTTOM
 10
0.0
 20
0.0
 30
0.0
  9
$UCSORGLEFT
 10
0.0
 20
0.0
 30
0.0
  9
$UCSORGRIGHT
 10
0.0
 20
0.0
 30
0.0
  9
$UCSORGFRONT
 10
0.0
 20
0.0
 30
0.0
  9
$UCSORGBACK
 10
0.0
 20
0.0
 30
0.0
  9
$PUCSBASE
  2

  9
$PUCSNAME
  2

  9
$PUCSORG
 10
0.0
 20
0.0
 30
0.0
  9
$PUCSXDIR
 10
1.0
 20
0.0
 30
0.0
  9
$PUCSYDIR
 10
0.0
 20
1.0
 30
0.0
  9
$PUCSORTHOREF
  2

  9
$PUCSORTHOVIEW
 70
               0
  9
$PUCSORGTOP
 10
0.0
 20
0.0
 30
0.0
  9
$PUCSORGBOTTOM
 10
0.0
 20
0.0
 30
0.0
  9
$PUCSORGLEFT
 10
0.0
 20
0.0
 30
0.0
  9
$PUCSORGRIGHT
 10
0.0
 20
0.0
 30
0.0
  9
$PUCSORGFRONT
 10
0.0
 20
0.0
 30
0.0
  9
$PUCSORGBACK
 10
0.0
 20
0.0
 30
0.0
  9
$USERI1
 70
               0
  9
$USERI2
 70
               0
  9
$USERI3
 70
               0
  9
$USERI4
 70
               0
  9
$USERI5
 70
               0
  9
$USERR1
 40
0.0
  9
$USERR2
 40
0.0
  9
$USERR3
 40
0.0
  9
$USERR4
 40
0.0
  9
$USERR5
 40
0.0
  9
$WORLDVIEW
 70
               1
  9
$SHADEDGE
 70
               3
  9
$SHADEDIF
 70
              70
  9
$TILEMODE
 70
               1
  9
$MAXACTVP
 70
              16
  9
$PINSBASE
 10
0.0
 20
0.0
 30
0.0
  9
$PLIMCHECK
 70
               0
  9
$PEXTMIN
 10
1.0000000000000000E+20
 20
1.0000000000000000E+20
 30
1.0000000000000000E+20
  9
$PEXTMAX
 10
-1.0000000000000000E+20
 20
-1.0000000000000000E+20
 30
-1.0000000000000000E+20
  9
$PLIMMIN
 10
0.0
 20
0.0
  9
$PLIMMAX
 10
12.0
 20
9.0
  9
$UNITMODE
 70
               0
  9
$VISRETAIN
 70
               0
  9
$PLINEGEN
 70
               1
  9
$PSLTSCALE
 70
               0
  9
$TREEDEPTH
 70
            3020
  9
$CMLSTYLE
  2
Standard
  9
$CMLJUST
 70
               0
  9
$CMLSCALE
 40
1.0
  9
$PROXYGRAPHICS
 70
               0
  9
$MEASUREMENT
 70
               0
  9
$CELWEIGHT
370
              -1
  9
$ENDCAPS
280
               0
  9
$JOINSTYLE
280
               0
  9
$LWDISPLAY
290
               0
  9
$INSUNITS
 70
               0
  9
$HYPERLINKBASE
  1

  9
$STYLESHEET
  1

  9
$XEDIT
290
               1
  9
$CEPSNTYPE
380
               0
  9
$PSTYLEMODE
290
               1
  9
$FINGERPRINTGUID
  2

  9
$VERSIONGUID
  2

  9
$EXTNAMES
290
               1
  9
$PSVPSCALE
 40
0.0
  0
ENDSEC
  0
SECTION
  2
CLASSES
  0
CLASS
  1
LWPOLYLINE
  2
AcDbPolyline
  3
AutoCAD 2000
 90
        0
280
               0
281
               1
  0
CLASS
  1
IMAGE
  2
AcDbRasterImage
  3
ISM
 90
      127
280
               0
281
               1
  0
CLASS
  1
OLE2FRAME
  2
AcDbOle2Frame
  3
AutoCAD 2000
 90
        0
280
               0
281
               1
  0
CLASS
  1
HATCH
  2
AcDbHatch
  3
AutoCAD 2000
 90
        0
280
               0
281
               1
  0
CLASS
  1
DICTIONARYVAR
  2
AcDbDictionaryVar
  3
AutoCAD 2000
 90
        0
280
               0
281
               0
  0
CLASS
  1
RASTERVARIABLES
  2
AcDbRasterVariables
  3
ISM
 90
        0
280
               0
281
               0
  0
CLASS
  1
IMAGEDEF
  2
AcDbRasterImageDef
  3
ISM
 90
        0
280
               0
281
               0
  0
CLASS
  1
IMAGEDEF_REACTOR
  2
AcDbRasterImageDefReactor
  3
ISM
 90
        1
280
               0
281
               0
  0
CLASS
  1
IDBUFFER
  2
AcDbIdBuffer
  3
AutoCAD 2000
 90
        0
280
               0
281
               0
  0
CLASS
  1
SPATIAL_FILTER
  2
AcDbSpatialFilter
  3
AutoCAD 2000
 90
        0
280
               0
281
               0
  0
CLASS
  1
XRECORD
  2
AcDbXrecord
  3
AutoCAD 2000
 90
        0
280
               0
281
               0
  0
CLASS
  1
SORTENTSTABLE
  2
AcDbSortentsTable
  3
AutoCAD 2000
 90
        0
280
               0
281
               0
  0
CLASS
  1
LAYER_INDEX
  2
AcDbLayerIndex
  3
AutoCAD 2000
 90
        0
280
               0
281
               0
  0
CLASS
  1
SPATIAL_INDEX
  2
AcDbSpatialIndex
  3
AutoCAD 2000
 90
        0
280
               0
281
               0
  0
CLASS
  1
OBJECT_PTR
  2
CAseDLPNTableRecord
  3
"ASE-LPNTableRecord"
 90
        1
280
               0
281
               0
  0
CLASS
  1
LAYOUT
  2
AcDbLayout
  3
AutoCAD 2000
 90
        0
280
               0
281
               0
  0
CLASS
  1
PLOTSETTINGS
  2
AcDbPlotSettings
  3
AutoCAD 2000
 90
        0
280
               0
281
               0
  0
CLASS
  1
ACDBDICTIONARYWDFLT
  2
AcDbDictionaryWithDefault
  3
AutoCAD 2000
 90
        0
280
               0
281
               0
  0
CLASS
  1
ACDBPLACEHOLDER
  2
AcDbPlaceHolder
  3
AutoCAD 2000
 90
        0
280
               0
281
               0
  0
ENDSEC
  0
SECTION
  2
TABLES
  0
TABLE
  2
VPORT
  5
7
100
AcDbSymbolTable
 70
               1
  0
VPORT
  5
15
100
AcDbSymbolTableRecord
100
AcDbViewportTableRecord
  2
*ACTIVE
 70
               0
 10
0.0
 20
0.0
 11
1.0
 21
1.0
 12
6.5912879999999996
 22
4.5791839999999997
 13
0.0
 23
0.0
 14
1.0
 24
1.0
 15
0.0
 25
0.0
 16
0.0
 26
0.0
 36
1.0
 17
0.0
 27
0.0
 37
0.0
 40
9.1583690000000004
 41
0.688564
 42
50.0
 43
0.0
 44
0.0
 50
0.0
 51
0.0
 71
               0
 72
             100
 73
               1
 74
               1
 75
               0
 76
               0
 77
               0
 78
               0
281
               0
 65
               0
110
0.0
120
0.0
130
0.0
111
1.0
121
0.0
131
0.0
112
0.0
122
1.0
132
0.0
345
0
346
0
 79
               0
146
0.0
  0
ENDTAB
  0
TABLE
  2
LTYPE
  5
4
100
AcDbSymbolTable
 70
              48
  0
LTYPE
  5
11
100
AcDbSymbolTableRecord
100
AcDbLinetypeTableRecord
  2
ByBlock
 70
              64
  3

 72
              65
 73
               0
 40
0.0
  0
LTYPE
  5
12
100
AcDbSymbolTableRecord
100
AcDbLinetypeTableRecord
  2
ByLayer
 70
              64
  3

 72
              65
 73
               0
 40
0.0
  0
LTYPE
  5
13
100
AcDbSymbolTableRecord
100
AcDbLinetypeTableRecord
  2
Continuous
 70
              64
  3
Solid line
 72
              65
 73
               0
 40
0.0
  0
LTYPE
  5
23
100
AcDbSymbolTableRecord
100
AcDbLinetypeTableRecord
  2
DOTTED
 70
              64
  3
Punteggiato
 72
              65
 73
               2
 40
12.0
 49
2.0
 74
               0
 49
-10.0
 74
               0
  0
LTYPE
  5
24
100
AcDbSymbolTableRecord
100
AcDbLinetypeTableRecord
  2
DASHEDS
 70
              64
  3
Tratteggiato piccolo
 72
              65
 73
               2
 40
20.0
 49
10.0
 74
               0
 49
-10.0
 74
               0
  0
LTYPE
  5
25
100
AcDbSymbolTableRecord
100
AcDbLinetypeTableRecord
  2
DASHEDM
 70
              64
  3
Tratteggiato medio
 72
              65
 73
               2
 40
40.0
 49
20.0
 74
               0
 49
-20.0
 74
               0
  0
LTYPE
  5
26
100
AcDbSymbolTableRecord
100
AcDbLinetypeTableRecord
  2
DASHEDL
 70
              64
  3
Tratteggiato grande
 72
              65
 73
               2
 40
60.0
 49
40.0
 74
               0
 49
-20.0
 74
               0
  0
LTYPE
  5
27
100
AcDbSymbolTableRecord
100
AcDbLinetypeTableRecord
  2
CENTERED
 70
              64
  3
Tratteggiato misto
 72
              65
 73
               4
 40
70.0
 49
10.0
 74
               0
 49
-20.0
 74
               0
 49
20.0
 74
               0
 49
-20.0
 74
               0
  0
LTYPE
  5
28
100
AcDbSymbolTableRecord
100
AcDbLinetypeTableRecord
  2
POINTLINE
 70
              64
  3
Punto e linea
 72
              65
 73
               4
 40
62.0
 49
20.0
 74
               0
 49
-20.0
 74
               0
 49
2.0
 74
               0
 49
-20.0
 74
               0
  0
LTYPE
  5
29
100
AcDbSymbolTableRecord
100
AcDbLinetypeTableRecord
  2
2POINTLINE
 70
              64
  3
Due punti e linea
 72
              65
 73
               6
 40
84.0
 49
20.0
 74
               0
 49
-20.0
 74
               0
 49
2.0
 74
               0
 49
-20.0
 74
               0
 49
2.0
 74
               0
 49
-20.0
 74
               0
  0
LTYPE
  5
2A
100
AcDbSymbolTableRecord
100
AcDbLinetypeTableRecord
  2
ACAD_ISO02W100
 70
              64
  3
ISO Tratteggiata
 72
              65
 73
               2
 40
150.0
 49
120.0
 74
               0
 49
-30.0
 74
               0
  0
LTYPE
  5
2B
100
AcDbSymbolTableRecord
100
AcDbLinetypeTableRecord
  2
ACAD_ISO03W100
 70
              64
  3
ISO Tratto spazio
 72
              65
 73
               2
 40
300.0
 49
120.0
 74
               0
 49
-180.0
 74
               0
  0
LTYPE
  5
2C
100
AcDbSymbolTableRecord
100
AcDbLinetypeTableRecord
  2
ACAD_ISO04W100
 70
              64
  3
ISO Tratto lungo punto
 72
              65
 73
               4
 40
305.0
 49
240.0
 74
               0
 49
-30.0
 74
               0
 49
5.0
 74
               0
 49
-30.0
 74
               0
  0
LTYPE
  5
2D
100
AcDbSymbolTableRecord
100
AcDbLinetypeTableRecord
  2
ACAD_ISO05W100
 70
              64
  3
ISO Tratto lungo doppio punto
 72
              65
 73
               6
 40
340.0
 49
240.0
 74
               0
 49
-30.0
 74
               0
 49
5.0
 74
               0
 49
-30.0
 74
               0
 49
5.0
 74
               0
 49
-30.0
 74
               0
  0
LTYPE
  5
2E
100
AcDbSymbolTableRecord
100
AcDbLinetypeTableRecord
  2
ACAD_ISO06W100
 70
              64
  3
ISO Tratto lungo triplo punto
 72
              65
 73
               8
 40
375.0
 49
240.0
 74
               0
 49
-30.0
 74
               0
 49
5.0
 74
               0
 49
-30.0
 74
               0
 49
5.0
 74
               0
 49
-30.0
 74
               0
 49
5.0
 74
               0
 49
-30.0
 74
               0
  0
LTYPE
  5
2F
100
AcDbSymbolTableRecord
100
AcDbLinetypeTableRecord
  2
ACAD_ISO07W100
 70
              64
  3
ISO Punteggiata
 72
              65
 73
               2
 40
35.0
 49
5.0
 74
               0
 49
-30.0
 74
               0
  0
LTYPE
  5
30
100
AcDbSymbolTableRecord
100
AcDbLinetypeTableRecord
  2
ACAD_ISO08W100
 70
              64
  3
ISO Tratto lungo tratto corto
 72
              65
 73
               4
 40
360.0
 49
240.0
 74
               0
 49
-30.0
 74
               0
 49
60.0
 74
               0
 49
-30.0
 74
               0
  0
LTYPE
  5
31
100
AcDbSymbolTableRecord
100
AcDbLinetypeTableRecord
  2
ACAD_ISO09W100
 70
              64
  3
ISO Tratto lungo doppio tratto corto
 72
              65
 73
               6
 40
450.0
 49
240.0
 74
               0
 49
-30.0
 74
               0
 49
60.0
 74
               0
 49
-30.0
 74
               0
 49
60.0
 74
               0
 49
-30.0
 74
               0
  0
LTYPE
  5
32
100
AcDbSymbolTableRecord
100
AcDbLinetypeTableRecord
  2
ACAD_ISO10W100
 70
              64
  3
ISO Tratto punto
 72
              65
 73
               4
 40
185.0
 49
120.0
 74
               0
 49
-30.0
 74
               0
 49
5.0
 74
               0
 49
-30.0
 74
               0
  0
LTYPE
  5
33
100
AcDbSymbolTableRecord
100
AcDbLinetypeTableRecord
  2
ACAD_ISO11W100
 70
              64
  3
ISO Doppio tratto punto
 72
              65
 73
               6
 40
335.0
 49
120.0
 74
               0
 49
-30.0
 74
               0
 49
120.0
 74
               0
 49
-30.0
 74
               0
 49
5.0
 74
               0
 49
-30.0
 74
               0
  0
LTYPE
  5
34
100
AcDbSymbolTableRecord
100
AcDbLinetypeTableRecord
  2
ACAD_ISO12W100
 70
              64
  3
ISO Tratto doppio punto
 72
              65
 73
               6
 40
220.0
 49
120.0
 74
               0
 49
-30.0
 74
               0
 49
5.0
 74
               0
 49
-30.0
 74
               0
 49
5.0
 74
               0
 49
-30.0
 74
               0
  0
LTYPE
  5
35
100
AcDbSymbolTableRecord
100
AcDbLinetypeTableRecord
  2
ACAD_ISO13W100
 70
              64
  3
ISO Doppio tratto doppio punto
 72
              65
 73
               8
 40
370.0
 49
120.0
 74
               0
 49
-30.0
 74
               0
 49
120.0
 74
               0
 49
-30.0
 74
               0
 49
5.0
 74
               0
 49
-30.0
 74
               0
 49
5.0
 74
               0
 49
-30.0
 74
               0
  0
LTYPE
  5
36
100
AcDbSymbolTableRecord
100
AcDbLinetypeTableRecord
  2
ACAD_ISO14W100
 70
              64
  3
ISO Tratto triplo punto
 72
              65
 73
               8
 40
255.0
 49
120.0
 74
               0
 49
-30.0
 74
               0
 49
5.0
 74
               0
 49
-30.0
 74
               0
 49
5.0
 74
               0
 49
-30.0
 74
               0
 49
5.0
 74
               0
 49
-30.0
 74
               0
  0
LTYPE
  5
37
100
AcDbSymbolTableRecord
100
AcDbLinetypeTableRecord
  2
ACAD_ISO15W100
 70
              64
  3
ISO Doppio tratto triplo punto
 72
              65
 73
              10
 40
405.0
 49
120.0
 74
               0
 49
-30.0
 74
               0
 49
120.0
 74
               0
 49
-30.0
 74
               0
 49
5.0
 74
               0
 49
-30.0
 74
               0
 49
5.0
 74
               0
 49
-30.0
 74
               0
 49
5.0
 74
               0
 49
-30.0
 74
               0
  0
LTYPE
  5
38
100
AcDbSymbolTableRecord
100
AcDbLinetypeTableRecord
  2
BORDER
 70
              64
  3
AutoCAD BORDER
 72
              65
 73
               6
 40
450.0
 49
128.0
 74
               0
 49
-64.0
 74
               0
 49
128.0
 74
               0
 49
-64.0
 74
               0
 49
2.0
 74
               0
 49
-64.0
 74
               0
  0
LTYPE
  5
39
100
AcDbSymbolTableRecord
100
AcDbLinetypeTableRecord
  2
BORDER2
 70
              64
  3
AutoCAD BORDER2
 72
              65
 73
               6
 40
226.0
 49
64.0
 74
               0
 49
-32.0
 74
               0
 49
64.0
 74
               0
 49
-32.0
 74
               0
 49
2.0
 74
               0
 49
-32.0
 74
               0
  0
LTYPE
  5
3A
100
AcDbSymbolTableRecord
100
AcDbLinetypeTableRecord
  2
BORDERX2
 70
              64
  3
AutoCAD BORDERX2
 72
              65
 73
               6
 40
898.0
 49
256.0
 74
               0
 49
-128.0
 74
               0
 49
256.0
 74
               0
 49
-128.0
 74
               0
 49
2.0
 74
               0
 49
-128.0
 74
               0
  0
LTYPE
  5
3B
100
AcDbSymbolTableRecord
100
AcDbLinetypeTableRecord
  2
CENTER
 70
              64
  3
AutoCAD CENTER
 72
              65
 73
               4
 40
512.0
 49
320.0
 74
               0
 49
-64.0
 74
               0
 49
64.0
 74
               0
 49
-64.0
 74
               0
  0
LTYPE
  5
3C
100
AcDbSymbolTableRecord
100
AcDbLinetypeTableRecord
  2
CENTER2
 70
              64
  3
AutoCAD CENTER2
 72
              65
 73
               4
 40
256.0
 49
160.0
 74
               0
 49
-32.0
 74
               0
 49
32.0
 74
               0
 49
-32.0
 74
               0
  0
LTYPE
  5
3D
100
AcDbSymbolTableRecord
100
AcDbLinetypeTableRecord
  2
CENTERX2
 70
              64
  3
AutoCAD CENTERX2
 72
              65
 73
               4
 40
1024.0
 49
640.0
 74
               0
 49
-128.0
 74
               0
 49
128.0
 74
               0
 49
-128.0
 74
               0
  0
LTYPE
  5
3E
100
AcDbSymbolTableRecord
100
AcDbLinetypeTableRecord
  2
DASHDOT
 70
              64
  3
AutoCAD DASHDOT
 72
              65
 73
               4
 40
258.0
 49
128.0
 74
               0
 49
-64.0
 74
               0
 49
2.0
 74
               0
 49
-64.0
 74
               0
  0
LTYPE
  5
3F
100
AcDbSymbolTableRecord
100
AcDbLinetypeTableRecord
  2
DASHDOT2
 70
              64
  3
AutoCAD DASHDOT2
 72
              65
 73
               4
 40
130.0
 49
64.0
 74
               0
 49
-32.0
 74
               0
 49
2.0
 74
               0
 49
-32.0
 74
               0
  0
LTYPE
  5
40
100
AcDbSymbolTableRecord
100
AcDbLinetypeTableRecord
  2
DASHDOTX2
 70
              64
  3
AutoCAD DASHDOTX2
 72
              65
 73
               4
 40
514.0
 49
256.0
 74
               0
 49
-128.0
 74
               0
 49
2.0
 74
               0
 49
-128.0
 74
               0
  0
LTYPE
  5
41
100
AcDbSymbolTableRecord
100
AcDbLinetypeTableRecord
  2
DASHED
 70
              64
  3
AutoCAD DASHED
 72
              65
 73
               2
 40
192.0
 49
128.0
 74
               0
 49
-64.0
 74
               0
  0
LTYPE
  5
42
100
AcDbSymbolTableRecord
100
AcDbLinetypeTableRecord
  2
DASHED2
 70
              64
  3
AutoCAD DASHED2
 72
              65
 73
               2
 40
96.0
 49
64.0
 74
               0
 49
-32.0
 74
               0
  0
LTYPE
  5
43
100
AcDbSymbolTableRecord
100
AcDbLinetypeTableRecord
  2
DASHEDX2
 70
              64
  3
AutoCAD DASHEDX2
 72
              65
 73
               2
 40
384.0
 49
256.0
 74
               0
 49
-128.0
 74
               0
  0
LTYPE
  5
44
100
AcDbSymbolTableRecord
100
AcDbLinetypeTableRecord
  2
DIVIDE
 70
              64
  3
AutoCAD DIVIDE
 72
              65
 73
               6
 40
324.0
 49
128.0
 74
               0
 49
-64.0
 74
               0
 49
2.0
 74
               0
 49
-64.0
 74
               0
 49
2.0
 74
               0
 49
-64.0
 74
               0
  0
LTYPE
  5
45
100
AcDbSymbolTableRecord
100
AcDbLinetypeTableRecord
  2
DIVIDE2
 70
              64
  3
AutoCAD DIVIDE2
 72
              65
 73
               6
 40
164.0
 49
64.0
 74
               0
 49
-32.0
 74
               0
 49
2.0
 74
               0
 49
-32.0
 74
               0
 49
2.0
 74
               0
 49
-32.0
 74
               0
  0
LTYPE
  5
46
100
AcDbSymbolTableRecord
100
AcDbLinetypeTableRecord
  2
DIVIDEX2
 70
              64
  3
AutoCAD DIVIDEX2
 72
              65
 73
               6
 40
644.0
 49
256.0
 74
               0
 49
-128.0
 74
               0
 49
2.0
 74
               0
 49
-128.0
 74
               0
 49
2.0
 74
               0
 49
-128.0
 74
               0
  0
LTYPE
  5
47
100
AcDbSymbolTableRecord
100
AcDbLinetypeTableRecord
  2
DOT
 70
              64
  3
AutoCAD DOT
 72
              65
 73
               2
 40
66.0
 49
2.0
 74
               0
 49
-64.0
 74
               0
  0
LTYPE
  5
48
100
AcDbSymbolTableRecord
100
AcDbLinetypeTableRecord
  2
DOT2
 70
              64
  3
AutoCAD DOT2
 72
              65
 73
               2
 40
34.0
 49
2.0
 74
               0
 49
-32.0
 74
               0
  0
LTYPE
  5
49
100
AcDbSymbolTableRecord
100
AcDbLinetypeTableRecord
  2
DOTX2
 70
              64
  3
AutoCAD DOTX2
 72
              65
 73
               2
 40
130.0
 49
2.0
 74
               0
 49
-128.0
 74
               0
  0
LTYPE
  5
4A
100
AcDbSymbolTableRecord
100
AcDbLinetypeTableRecord
  2
HIDDEN
 70
              64
  3
AutoCAD HIDDEN
 72
              65
 73
               2
 40
96.0
 49
64.0
 74
               0
 49
-32.0
 74
               0
  0
LTYPE
  5
4B
100
AcDbSymbolTableRecord
100
AcDbLinetypeTableRecord
  2
HIDDEN2
 70
              64
  3
AutoCAD HIDDEN2
 72
              65
 73
               2
 40
48.0
 49
32.0
 74
               0
 49
-16.0
 74
               0
  0
LTYPE
  5
4C
100
AcDbSymbolTableRecord
100
AcDbLinetypeTableRecord
  2
HIDDENX2
 70
              64
  3
AutoCAD HIDDENX2
 72
              65
 73
               2
 40
192.0
 49
128.0
 74
               0
 49
-64.0
 74
               0
  0
LTYPE
  5
4D
100
AcDbSymbolTableRecord
100
AcDbLinetypeTableRecord
  2
PHANTOM
 70
              64
  3
AutoCAD PHANTOM
 72
              65
 73
               6
 40
640.0
 49
320.0
 74
               0
 49
-64.0
 74
               0
 49
64.0
 74
               0
 49
-64.0
 74
               0
 49
64.0
 74
               0
 49
-64.0
 74
               0
  0
LTYPE
  5
4E
100
AcDbSymbolTableRecord
100
AcDbLinetypeTableRecord
  2
PHANTOM2
 70
              64
  3
AutoCAD PHANTOM2
 72
              65
 73
               6
 40
320.0
 49
160.0
 74
               0
 49
-32.0
 74
               0
 49
32.0
 74
               0
 49
-32.0
 74
               0
 49
32.0
 74
               0
 49
-32.0
 74
               0
  0
LTYPE
  5
4F
100
AcDbSymbolTableRecord
100
AcDbLinetypeTableRecord
  2
PHANTOMX2
 70
              64
  3
AutoCAD PHANTOMX2
 72
              65
 73
               6
 40
1280.0
 49
640.0
 74
               0
 49
-128.0
 74
               0
 49
128.0
 74
               0
 49
-128.0
 74
               0
 49
128.0
 74
               0
 49
-128.0
 74
               0
  0
ENDTAB
  0
TABLE
  2
LAYER
  5
2
100
AcDbSymbolTable
 70
               5
  0
LAYER
  5
14
100
AcDbSymbolTableRecord
100
AcDbLayerTableRecord
  2
0
 70
               0
 62
               7
  6
Continuous
290
               1
370
              -3
390
1D
  0
LAYER
  5
50
100
AcDbSymbolTableRecord
100
AcDbLayerTableRecord
  2
SENZA_NOME
 70
               0
 62
               7
  6
Continuous
290
               1
370
              -3
390
1D
  0
LAYER
  5
51
100
AcDbSymbolTableRecord
100
AcDbLayerTableRecord
  2
SENZA_NOME_2
 70
               0
 62
               7
  6
Continuous
290
               1
370
              -3
390
1D
  0
LAYER
  5
52
100
AcDbSymbolTableRecord
100
AcDbLayerTableRecord
  2
SENZA_NOME_3
 70
               0
 62
               7
  6
Continuous
290
               1
370
              -3
390
1D
  0
LAYER
  5
53
100
AcDbSymbolTableRecord
100
AcDbLayerTableRecord
  2
SENZA_NOME_4
 70
               0
 62
               7
  6
Continuous
290
               1
370
              -3
390
1D
  0
ENDTAB
  0
TABLE
  2
STYLE
  5
3
100
AcDbSymbolTable
 70
              10
  0
STYLE
  5
17
100
AcDbSymbolTableRecord
100
AcDbTextStyleTableRecord
  2
Standard
 70
               0
 40
0.0
 41
1.0
 50
0.0
 71
               0
 42
0.0
  3
txt
  4

  0
STYLE
  5
54
100
AcDbSymbolTableRecord
100
AcDbTextStyleTableRecord
  2
SIMPLEX
 70
               0
 40
10.0
 41
0.8
 50
0.0
 71
               0
 42
10.0
  3
simplex
  4

  0
STYLE
  5
55
100
AcDbSymbolTableRecord
100
AcDbTextStyleTableRecord
  2
EUROSTYLE
 70
               0
 40
10.0
 41
0.88
 50
0.0
 71
               0
 42
10.0
  3
isocp
  4

  0
STYLE
  5
56
100
AcDbSymbolTableRecord
100
AcDbTextStyleTableRecord
  2
SANSERIF
 70
               0
 40
10.0
 41
0.9
 50
0.0
 71
               0
 42
10.0
  3
romand
  4

  0
STYLE
  5
57
100
AcDbSymbolTableRecord
100
AcDbTextStyleTableRecord
  2
TRIPLEX
 70
               0
 40
10.0
 41
0.86
 50
0.0
 71
               0
 42
10.0
  3
romant
  4

  0
STYLE
  5
58
100
AcDbSymbolTableRecord
100
AcDbTextStyleTableRecord
  2
COMPLEX
 70
               0
 40
10.0
 41
1.0
 50
0.0
 71
               0
 42
10.0
  3
complex
  4

  0
STYLE
  5
59
100
AcDbSymbolTableRecord
100
AcDbTextStyleTableRecord
  2
SCRIPT
 70
               0
 40
10.0
 41
0.98
 50
0.0
 71
               0
 42
10.0
  3
scripts
  4

  0
STYLE
  5
5A
100
AcDbSymbolTableRecord
100
AcDbTextStyleTableRecord
  2
TRISCRIPT
 70
               0
 40
10.0
 41
0.89
 50
0.0
 71
               0
 42
10.0
  3
italict
  4

  0
STYLE
  5
5B
100
AcDbSymbolTableRecord
100
AcDbTextStyleTableRecord
  2
BOLD
 70
               0
 40
10.0
 41
0.77
 50
0.0
 71
               0
 42
10.0
  3
romand
  4

  0
STYLE
  5
5C
100
AcDbSymbolTableRecord
100
AcDbTextStyleTableRecord
  2
GOTHIC
 70
               0
 40
10.0
 41
0.86
 50
0.0
 71
               0
 42
10.0
  3
gothice
  4

  0
ENDTAB
  0
TABLE
  2
VIEW
  5
5
100
AcDbSymbolTable
 70
               0
  0
ENDTAB
  0
TABLE
  2
UCS
  5
6
100
AcDbSymbolTable
 70
               0
  0
ENDTAB
  0
TABLE
  2
APPID
  5
8
100
AcDbSymbolTable
 70
               1
  0
APPID
  5
16
100
AcDbSymbolTableRecord
100
AcDbRegAppTableRecord
  2
ACAD
 70
               0
  0
ENDTAB
  0
TABLE
  2
DIMSTYLE
  5
9
100
AcDbSymbolTable
 70
               1
100
AcDbDimStyleTable
 71
               0
  0
DIMSTYLE
105
18
100
AcDbSymbolTableRecord
100
AcDbDimStyleTableRecord
  2
Standard
 70
               0
  3

  4

 40
1.0
 41
0.18
 42
0.0625
 43
0.38
 44
0.18
 45
0.0
 46
0.0
 47
0.0
 48
0.0
 71
               0
 72
               0
 73
               1
 74
               1
 75
               0
 76
               0
 77
               0
 78
               0
 79
               0
140
0.18
141
0.09
142
0.0
143
25.399999999999999
144
1.0
145
0.0
146
1.0
147
0.09
148
0.0
170
               0
171
               2
172
               0
173
               0
174
               0
175
               0
176
               0
177
               0
178
               0
179
               0
271
               4
272
               4
273
               2
274
               2
275
               0
276
               0
277
               2
278
              46
279
               0
280
               0
281
               0
282
               0
283
               1
284
               0
285
               0
286
               0
288
               0
289
               3
340
17
341
0
342
0
343
0
344
0
371
              -2
372
              -2
  0
ENDTAB
  0
TABLE
  2
BLOCK_RECORD
  5
1
100
AcDbSymbolTable
 70
              42
  0
BLOCK_RECORD
  5
A
100
AcDbSymbolTableRecord
100
AcDbBlockTableRecord
  2
*MODEL_SPACE
340
20
  0
BLOCK_RECORD
  5
B
100
AcDbSymbolTableRecord
100
AcDbBlockTableRecord
  2
*PAPER_SPACE
340
21
  0
BLOCK_RECORD
  5
61
100
AcDbSymbolTableRecord
100
AcDbBlockTableRecord
  2
B02DA6F2C
340
0
102
{BLKREFS
331
73
102
}
  0
BLOCK_RECORD
  5
8E
100
AcDbSymbolTableRecord
100
AcDbBlockTableRecord
  2
B02D12E40
340
0
102
{BLKREFS
331
95
102
}
  0
BLOCK_RECORD
  5
96
100
AcDbSymbolTableRecord
100
AcDbBlockTableRecord
  2
B02D70F70
340
0
102
{BLKREFS
331
BA
102
}
  0
BLOCK_RECORD
  5
9D
100
AcDbSymbolTableRecord
100
AcDbBlockTableRecord
  2
B03080F34
340
0
102
{BLKREFS
331
A9
102
}
  0
BLOCK_RECORD
  5
ED
100
AcDbSymbolTableRecord
100
AcDbBlockTableRecord
  2
B02DA7D08
340
0
102
{BLKREFS
331
F4
102
}
  0
BLOCK_RECORD
  5
F5
100
AcDbSymbolTableRecord
100
AcDbBlockTableRecord
  2
B02DAA134
340
0
102
{BLKREFS
331
14D
102
}
  0
BLOCK_RECORD
  5
F7
100
AcDbSymbolTableRecord
100
AcDbBlockTableRecord
  2
B02DAA180
340
0
102
{BLKREFS
331
132
102
}
  0
BLOCK_RECORD
  5
FA
100
AcDbSymbolTableRecord
100
AcDbBlockTableRecord
  2
B02DAA220
340
0
102
{BLKREFS
331
130
102
}
  0
BLOCK_RECORD
  5
FC
100
AcDbSymbolTableRecord
100
AcDbBlockTableRecord
  2
B02DAA26C
340
0
102
{BLKREFS
331
102
102
}
  0
BLOCK_RECORD
  5
103
100
AcDbSymbolTableRecord
100
AcDbBlockTableRecord
  2
B02DAA3B4
340
0
102
{BLKREFS
331
12E
102
}
  0
BLOCK_RECORD
  5
105
100
AcDbSymbolTableRecord
100
AcDbBlockTableRecord
  2
B02DAA400
340
0
102
{BLKREFS
331
11C
102
}
  0
BLOCK_RECORD
  5
108
100
AcDbSymbolTableRecord
100
AcDbBlockTableRecord
  2
B02DAA4A0
340
0
102
{BLKREFS
331
117
102
}
  0
BLOCK_RECORD
  5
10C
100
AcDbSymbolTableRecord
100
AcDbBlockTableRecord
  2
B02DAA594
340
0
102
{BLKREFS
331
113
102
}
  0
BLOCK_RECORD
  5
11D
100
AcDbSymbolTableRecord
100
AcDbBlockTableRecord
  2
B02DAA8D4
340
0
102
{BLKREFS
331
124
102
}
  0
BLOCK_RECORD
  5
125
100
AcDbSymbolTableRecord
100
AcDbBlockTableRecord
  2
B02DAAA70
340
0
102
{BLKREFS
331
12C
102
}
  0
BLOCK_RECORD
  5
133
100
AcDbSymbolTableRecord
100
AcDbBlockTableRecord
  2
B02DAAC0C
340
0
102
{BLKREFS
331
13F
102
}
  0
BLOCK_RECORD
  5
140
100
AcDbSymbolTableRecord
100
AcDbBlockTableRecord
  2
B02DAAF44
340
0
102
{BLKREFS
331
14B
102
}
  0
BLOCK_RECORD
  5
17D
100
AcDbSymbolTableRecord
100
AcDbBlockTableRecord
  2
B02DAD008
340
0
102
{BLKREFS
331
1AB
102
}
  0
BLOCK_RECORD
  5
1AC
100
AcDbSymbolTableRecord
100
AcDbBlockTableRecord
  2
B02DAECD8
340
0
102
{BLKREFS
331
1DA
102
}
  0
BLOCK_RECORD
  5
227
100
AcDbSymbolTableRecord
100
AcDbBlockTableRecord
  2
B02D57054
340
0
102
{BLKREFS
331
22E
102
}
  0
BLOCK_RECORD
  5
246
100
AcDbSymbolTableRecord
100
AcDbBlockTableRecord
  2
B02D58240
340
0
102
{BLKREFS
331
24F
102
}
  0
BLOCK_RECORD
  5
2DA
100
AcDbSymbolTableRecord
100
AcDbBlockTableRecord
  2
B02D574C0
340
0
102
{BLKREFS
331
2F5
102
}
  0
BLOCK_RECORD
  5
2F6
100
AcDbSymbolTableRecord
100
AcDbBlockTableRecord
  2
B02D5C98C
340
0
102
{BLKREFS
331
306
102
}
  0
BLOCK_RECORD
  5
307
100
AcDbSymbolTableRecord
100
AcDbBlockTableRecord
  2
B02D5D710
340
0
102
{BLKREFS
331
324
102
}
  0
BLOCK_RECORD
  5
325
100
AcDbSymbolTableRecord
100
AcDbBlockTableRecord
  2
B02D5E918
340
0
102
{BLKREFS
331
342
102
}
  0
BLOCK_RECORD
  5
343
100
AcDbSymbolTableRecord
100
AcDbBlockTableRecord
  2
B02D5FB20
340
0
102
{BLKREFS
331
360
102
}
  0
BLOCK_RECORD
  5
361
100
AcDbSymbolTableRecord
100
AcDbBlockTableRecord
  2
B02D605C0
340
0
102
{BLKREFS
331
368
102
}
  0
BLOCK_RECORD
  5
369
100
AcDbSymbolTableRecord
100
AcDbBlockTableRecord
  2
B02D608F8
340
0
102
{BLKREFS
331
370
102
}
  0
BLOCK_RECORD
  5
371
100
AcDbSymbolTableRecord
100
AcDbBlockTableRecord
  2
B02D60C30
340
0
102
{BLKREFS
331
378
102
}
  0
BLOCK_RECORD
  5
379
100
AcDbSymbolTableRecord
100
AcDbBlockTableRecord
  2
B02D60F68
340
0
102
{BLKREFS
331
380
102
}
  0
BLOCK_RECORD
  5
381
100
AcDbSymbolTableRecord
100
AcDbBlockTableRecord
  2
B02D61360
340
0
102
{BLKREFS
331
38A
102
}
  0
BLOCK_RECORD
  5
38B
100
AcDbSymbolTableRecord
100
AcDbBlockTableRecord
  2
B02D61818
340
0
102
{BLKREFS
331
394
102
}
  0
BLOCK_RECORD
  5
395
100
AcDbSymbolTableRecord
100
AcDbBlockTableRecord
  2
B02D61CD0
340
0
102
{BLKREFS
331
39E
102
}
  0
BLOCK_RECORD
  5
39F
100
AcDbSymbolTableRecord
100
AcDbBlockTableRecord
  2
B02D62188
340
0
102
{BLKREFS
331
3A8
102
}
  0
BLOCK_RECORD
  5
3A9
100
AcDbSymbolTableRecord
100
AcDbBlockTableRecord
  2
B02D62BD4
340
0
102
{BLKREFS
331
3C3
102
}
  0
BLOCK_RECORD
  5
4BD
100
AcDbSymbolTableRecord
100
AcDbBlockTableRecord
  2
B02D6A208
340
0
102
{BLKREFS
331
4C4
102
}
  0
BLOCK_RECORD
  5
4DF
100
AcDbSymbolTableRecord
100
AcDbBlockTableRecord
  2
B02D6ADC8
340
0
102
{BLKREFS
331
4E6
102
}
  0
BLOCK_RECORD
  5
505
100
AcDbSymbolTableRecord
100
AcDbBlockTableRecord
  2
B02D6BA88
340
0
102
{BLKREFS
331
50D
102
}
  0
BLOCK_RECORD
  5
51B
100
AcDbSymbolTableRecord
100
AcDbBlockTableRecord
  2
B02D6BF94
340
0
102
{BLKREFS
331
523
102
}
  0
BLOCK_RECORD
  5
524
100
AcDbSymbolTableRecord
100
AcDbBlockTableRecord
  2
B02D68028
340
0
102
{BLKREFS
331
52F
102
}
  0
BLOCK_RECORD
  5
56D
100
AcDbSymbolTableRecord
100
AcDbBlockTableRecord
  2
B02D6D458
340
0
102
{BLKREFS
331
574
102
}
  0
BLOCK_RECORD
  5
57D
100
AcDbSymbolTableRecord
100
AcDbBlockTableRecord
  2
B02D6DA30
340
0
102
{BLKREFS
331
584
102
}
  0
ENDTAB
  0
ENDSEC
  0
SECTION
  2
BLOCKS
  0
BLOCK
  5
D
100
AcDbEntity
  8
0
390
0
100
AcDbBlockBegin
  2
*MODEL_SPACE
 70
               0
 10
0.0
 20
0.0
 30
0.0
  3
*MODEL_SPACE
  1

  0
ENDBLK
  5
E
100
AcDbEntity
  8
0
390
0
100
AcDbBlockEnd
  0
BLOCK
  5
F
100
AcDbEntity
 67
               1
  8
0
390
0
100
AcDbBlockBegin
  2
*PAPER_SPACE
 70
               0
 10
0.0
 20
0.0
 30
0.0
  3
*PAPER_SPACE
  1

  0
ENDBLK
  5
10
100
AcDbEntity
 67
               1
  8
0
390
0
100
AcDbBlockEnd
  0
BLOCK
  5
62
100
AcDbEntity
  8
0
390
0
100
AcDbBlockBegin
  2
B02DA6F2C
 70
               0
 10
0.0
 20
0.0
 30
0.0
  3

  1

  0
ARC
  5
63
100
AcDbEntity
  8
SENZA_NOME
370
              -3
390
0
  6
Continuous
 62
               1
100
AcDbCircle
 10
240.46388400659006
 20
-226.41528312322112
 30
0.0
 40
167.68401767151767
100
AcDbArc
 50
81.943472667029724
 51
98.05652733297029
  0
LINE
  5
64
100
AcDbEntity
  8
SENZA_NOME
370
              -3
390
0
  6
Continuous
 62
               1
100
AcDbLine
 10
300.76190228022313
 20
-79.840142179944905
 30
0.0
 11
300.76190228022313
 21
-83.17347551327822
 31
0.0
  0
LINE
  5
65
100
AcDbEntity
  8
SENZA_NOME
370
              -3
390
0
  6
Continuous
 62
               1
100
AcDbLine
 10
300.76190228022313
 20
-83.17347551327822
 30
0.0
 11
285.76190228022313
 21
-83.17347551327822
 31
0.0
  0
LINE
  5
66
100
AcDbEntity
  8
SENZA_NOME
370
              -3
390
0
  6
Continuous
 62
               1
100
AcDbLine
 10
285.76190228022313
 20
-79.840142179944905
 30
0.0
 11
300.76190228022313
 21
-79.840142179944905
 31
0.0
  0
LINE
  5
67
100
AcDbEntity
  8
SENZA_NOME
370
              -3
390
0
  6
Continuous
 62
               1
100
AcDbLine
 10
174.66559080481323
 20
-101.33194545863347
 30
0.0
 11
264.07645146055097
 21
-101.33194545863347
 31
0.0
  0
LINE
  5
68
100
AcDbEntity
  8
SENZA_NOME
370
              -3
390
0
  6
Continuous
 62
               1
100
AcDbLine
 10
163.54537222557826
 20
-68.214288354808275
 30
0.0
 11
163.54537222557826
 21
-94.100558846611591
 31
0.0
  0
LINE
  5
69
100
AcDbEntity
  8
SENZA_NOME
370
              -3
390
0
  6
Continuous
 62
               1
100
AcDbLine
 10
174.66559080481323
 20
-60.665278791966784
 30
0.0
 11
263.7588285097313
 21
-60.591337535136176
 31
0.0
  0
LINE
  5
6A
100
AcDbEntity
  8
SENZA_NOME
370
              -3
390
0
  6
Continuous
 62
               1
100
AcDbLine
 10
274.87870555891163
 20
-68.373099830218109
 30
0.0
 11
274.87870555891163
 21
-94.259370322021425
 31
0.0
  0
LINE
  5
6B
100
AcDbEntity
  8
SENZA_NOME
370
              -3
390
0
  6
Continuous
 62
               1
100
AcDbLine
 10
163.87870555891161
 20
-94.165278791966784
 30
0.0
 11
175.21203889224495
 21
-101.83194545863347
 31
0.0
  0
LINE
  5
6C
100
AcDbEntity
  8
SENZA_NOME
370
              -3
390
0
  6
Continuous
 62
               1
100
AcDbLine
 10
163.54537222557826
 20
-68.33194545863347
 30
0.0
 11
174.87870555891161
 21
-60.665278791966784
 31
0.0
  0
LINE
  5
6D
100
AcDbEntity
  8
SENZA_NOME
370
              -3
390
0
  6
Continuous
 62
               1
100
AcDbLine
 10
274.87870555891163
 20
-94.165278791966784
 30
0.0
 11
263.54537222557826
 21
-101.83194545863347
 31
0.0
  0
LINE
  5
6E
100
AcDbEntity
  8
SENZA_NOME
370
              -3
390
0
  6
Continuous
 62
               1
100
AcDbLine
 10
274.87870555891163
 20
-68.33194545863347
 30
0.0
 11
263.54537222557826
 21
-60.665278791966784
 31
0.0
  0
LINE
  5
6F
100
AcDbEntity
  8
SENZA_NOME
370
              -3
390
0
  6
Continuous
 62
               1
100
AcDbLine
 10
285.87870555891163
 20
-94.33194545863347
 30
0.0
 11
274.87870555891163
 21
-94.33194545863347
 31
0.0
  0
LINE
  5
70
100
AcDbEntity
  8
SENZA_NOME
370
              -3
390
0
  6
Continuous
 62
               1
100
AcDbLine
 10
285.87870555891163
 20
-68.33194545863347
 30
0.0
 11
285.87870555891163
 21
-94.33194545863347
 31
0.0
  0
LINE
  5
71
100
AcDbEntity
  8
SENZA_NOME
370
              -3
390
0
  6
Continuous
 62
               1
100
AcDbLine
 10
274.87870555891163
 20
-68.33194545863347
 30
0.0
 11
285.87870555891163
 21
-68.33194545863347
 31
0.0
  0
ENDBLK
  5
72
100
AcDbEntity
  8
0
390
0
100
AcDbBlockEnd
  0
BLOCK
  5
8F
100
AcDbEntity
  8
0
390
0
100
AcDbBlockBegin
  2
B02D12E40
 70
               0
 10
0.0
 20
0.0
 30
0.0
  3

  1

  0
LINE
  5
90
100
AcDbEntity
  8
SENZA_NOME_3
390
0
100
AcDbLine
 10
248.47204398965104
 20
97.299584581556587
 30
0.0
 11
268.47204398965107
 21
97.299584581556587
 31
0.0
  0
LINE
  5
91
100
AcDbEntity
  8
SENZA_NOME_3
390
0
100
AcDbLine
 10
268.47204398965107
 20
92.299584581556587
 30
0.0
 11
268.47204398965107
 21
97.299584581556587
 31
0.0
  0
LINE
  5
92
100
AcDbEntity
  8
SENZA_NOME_3
390
0
100
AcDbLine
 10
248.47204398965104
 20
92.299584581556587
 30
0.0
 11
248.47204398965104
 21
97.299584581556587
 31
0.0
  0
LINE
  5
93
100
AcDbEntity
  8
SENZA_NOME_3
390
0
100
AcDbLine
 10
248.47204398965104
 20
92.299584581556587
 30
0.0
 11
268.47204398965107
 21
92.299584581556587
 31
0.0
  0
ENDBLK
  5
94
100
AcDbEntity
  8
0
390
0
100
AcDbBlockEnd
  0
BLOCK
  5
97
100
AcDbEntity
  8
0
390
0
100
AcDbBlockBegin
  2
B02D70F70
 70
               0
 10
0.0
 20
0.0
 30
0.0
  3

  1

  0
LINE
  5
98
100
AcDbEntity
  8
SENZA_NOME
370
              -3
390
0
  6
Continuous
 62
               1
100
AcDbLine
 10
235.97816028120897
 20
123.9994501998529
 30
0.0
 11
246.97816028120897
 21
123.9994501998529
 31
0.0
  0
LINE
  5
99
100
AcDbEntity
  8
SENZA_NOME
370
              -3
390
0
  6
Continuous
 62
               1
100
AcDbLine
 10
246.97816028120897
 20
123.9994501998529
 30
0.0
 11
246.97816028120897
 21
97.999450199852902
 31
0.0
  0
LINE
  5
9A
100
AcDbEntity
  8
SENZA_NOME
370
              -3
390
0
  6
Continuous
 62
               1
100
AcDbLine
 10
246.97816028120897
 20
97.999450199852902
 30
0.0
 11
235.97816028120897
 21
97.999450199852902
 31
0.0
  0
LINE
  5
9B
100
AcDbEntity
  8
SENZA_NOME
370
              -3
390
0
  6
Continuous
 62
               1
100
AcDbLine
 10
207.6448269478756
 20
110.9994501998529
 30
0.0
 11
248.97816028120897
 21
110.9994501998529
 31
0.0
  0
LINE
  5
9C
100
AcDbEntity
  8
SENZA_NOME
370
              -3
390
0
  6
Continuous
 62
               1
100
AcDbLine
 10
235.97816028120897
 20
124.9994501998529
 30
0.0
 11
225.97816028120897
 21
134.33278353318624
 31
0.0
  0
INSERT
  5
A9
100
AcDbEntity
  8
SENZA_NOME
390
0
100
AcDbBlockReference
  2
B03080F34
 10
0.0
 20
0.0
 30
0.0
  0
ARC
  5
AA
100
AcDbEntity
  8
SENZA_NOME
370
              -3
390
0
  6
Continuous
 62
               1
100
AcDbCircle
 10
231.97816028120897
 20
91.332783533186245
 30
0.0
 40
4.0
100
AcDbArc
 50
270.0
 51
360.0
  0
ARC
  5
AB
100
AcDbEntity
  8
SENZA_NOME
370
              -3
390
0
  6
Continuous
 62
               1
100
AcDbCircle
 10
229.47816028120897
 20
93.249450199852902
 30
0.0
 40
4.0
100
AcDbArc
 50
90.0
 51
180.0
  0
LINE
  5
AC
100
AcDbEntity
  8
SENZA_NOME
370
              -3
390
0
  6
Continuous
 62
               1
100
AcDbLine
 10
225.47816028120897
 20
87.332783533186245
 30
0.0
 11
225.47816028120897
 21
93.249450199852902
 31
0.0
  0
LINE
  5
AD
100
AcDbEntity
  8
SENZA_NOME
370
              -3
390
0
  6
Continuous
 62
               1
100
AcDbLine
 10
235.97816028120897
 20
97.249450199852902
 30
0.0
 11
229.47816028120897
 21
97.249450199852902
 31
0.0
  0
LINE
  5
AE
100
AcDbEntity
  8
SENZA_NOME
370
              -3
390
0
  6
Continuous
 62
               1
100
AcDbLine
 10
235.81149361454229
 20
125.08278353318624
 30
0.0
 11
235.97816028120897
 21
91.332783533186245
 31
0.0
  0
LINE
  5
AF
100
AcDbEntity
  8
SENZA_NOME
370
              -3
390
0
  6
Continuous
 62
               1
100
AcDbLine
 10
246.97816028120897
 20
108.9994501998529
 30
0.0
 11
261.97816028120894
 21
108.9994501998529
 31
0.0
  0
LINE
  5
B0
100
AcDbEntity
  8
SENZA_NOME
370
              -3
390
0
  6
Continuous
 62
               1
100
AcDbLine
 10
261.97816028120894
 20
108.9994501998529
 30
0.0
 11
261.97816028120894
 21
105.66611686651956
 31
0.0
  0
LINE
  5
B1
100
AcDbEntity
  8
SENZA_NOME
370
              -3
390
0
  6
Continuous
 62
               1
100
AcDbLine
 10
261.97816028120894
 20
105.66611686651956
 30
0.0
 11
246.97816028120897
 21
105.66611686651956
 31
0.0
  0
LINE
  5
B2
100
AcDbEntity
  8
SENZA_NOME
370
              -3
390
0
  6
Continuous
 62
               1
100
AcDbLine
 10
124.6448269478756
 20
124.9994501998529
 30
0.0
 11
134.64482694787557
 21
134.33278353318624
 31
0.0
  0
LINE
  5
B3
100
AcDbEntity
  8
SENZA_NOME
370
              -3
390
0
  6
Continuous
 62
               1
100
AcDbLine
 10
134.31149361454226
 20
134.33278353318624
 30
0.0
 11
226.1448269478756
 21
134.33278353318624
 31
0.0
  0
LINE
  5
B4
100
AcDbEntity
  8
SENZA_NOME
370
              -3
390
0
  6
Continuous
 62
               1
100
AcDbLine
 10
124.6448269478756
 20
125.33278353318624
 30
0.0
 11
124.6448269478756
 21
96.999450199852902
 31
0.0
  0
LINE
  5
B5
100
AcDbEntity
  8
SENZA_NOME
370
              -3
390
0
  6
Continuous
 62
               1
100
AcDbLine
 10
124.6448269478756
 20
96.666116866519559
 30
0.0
 11
124.6448269478756
 21
125.33278353318624
 31
0.0
  0
LINE
  5
B6
100
AcDbEntity
  8
SENZA_NOME
370
              -3
390
0
  6
Continuous
 62
               1
100
AcDbLine
 10
133.97816028120891
 20
87.332783533186245
 30
0.0
 11
231.97816028120897
 21
87.332783533186245
 31
0.0
  0
LINE
  5
B7
100
AcDbEntity
  8
SENZA_NOME
370
              -3
390
0
  6
Continuous
 62
               1
100
AcDbLine
 10
124.6448269478756
 20
96.666116866519559
 30
0.0
 11
134.64482694787557
 21
87.332783533186245
 31
0.0
  0
ARC
  5
B8
100
AcDbEntity
  8
SENZA_NOME
370
              -3
390
0
  6
Continuous
 62
               1
100
AcDbCircle
 10
201.31149361454229
 20
-32.867216466813773
 30
0.0
 40
168.86666666666667
100
AcDbArc
 50
81.943472667029724
 51
98.05652733297029
  0
ENDBLK
  5
B9
100
AcDbEntity
  8
0
390
0
100
AcDbBlockEnd
  0
BLOCK
  5
9E
100
AcDbEntity
  8
0
390
0
100
AcDbBlockBegin
  2
B03080F34
 70
               0
 10
0.0
 20
0.0
 30
0.0
  3

  1

  0
CIRCLE
  5
9F
100
AcDbEntity
  8
SENZA_NOME
370
              -3
390
0
  6
Continuous
 62
               1
100
AcDbCircle
 10
230.6448269478756
 20
91.999450199852902
 30
0.0
 40
1.621
  0
ARC
  5
A0
100
AcDbEntity
  8
SENZA_NOME
370
              -3
390
0
  6
Continuous
 62
               1
100
AcDbCircle
 10
230.6448269478756
 20
91.999450199852902
 30
0.0
 40
2.0
100
AcDbArc
 50
351.0
 51
278.99999999999994
  0
CIRCLE
  5
A1
100
AcDbEntity
  8
SENZA_NOME
370
              -3
390
0
  6
Continuous
 62
               1
100
AcDbCircle
 10
230.6448269478756
 20
91.999450199852902
 30
0.0
 40
3.5
  0
LINE
  5
A2
100
AcDbEntity
  8
SENZA_NOME
370
              -3
390
0
  6
Continuous
 62
               1
100
AcDbLine
 10
234.1448269478756
 20
89.978724257689208
 30
0.0
 11
234.1448269478756
 21
94.020176142016595
 31
0.0
  0
LINE
  5
A3
100
AcDbEntity
  8
SENZA_NOME
370
              -3
390
0
  6
Continuous
 62
               1
100
AcDbLine
 10
234.1448269478756
 20
94.020176142016595
 30
0.0
 11
230.6448269478756
 21
96.040902084180289
 31
0.0
  0
LINE
  5
A4
100
AcDbEntity
  8
SENZA_NOME
370
              -3
390
0
  6
Continuous
 62
               1
100
AcDbLine
 10
230.6448269478756
 20
96.040902084180289
 30
0.0
 11
227.1448269478756
 21
94.020176142016595
 31
0.0
  0
LINE
  5
A5
100
AcDbEntity
  8
SENZA_NOME
370
              -3
390
0
  6
Continuous
 62
               1
100
AcDbLine
 10
227.1448269478756
 20
94.020176142016595
 30
0.0
 11
227.1448269478756
 21
89.978724257689208
 31
0.0
  0
LINE
  5
A6
100
AcDbEntity
  8
SENZA_NOME
370
              -3
390
0
  6
Continuous
 62
               1
100
AcDbLine
 10
227.1448269478756
 20
89.978724257689208
 30
0.0
 11
230.6448269478756
 21
87.957998315525515
 31
0.0
  0
LINE
  5
A7
100
AcDbEntity
  8
SENZA_NOME
370
              -3
390
0
  6
Continuous
 62
               1
100
AcDbLine
 10
230.6448269478756
 20
87.957998315525515
 30
0.0
 11
234.1448269478756
 21
89.978724257689208
 31
0.0
  0
ENDBLK
  5
A8
100
AcDbEntity
  8
0
390
0
100
AcDbBlockEnd
  0
BLOCK
  5
EE
100
AcDbEntity
  8
0
390
0
100
AcDbBlockBegin
  2
B02DA7D08
 70
               0
 10
0.0
 20
0.0
 30
0.0
  3

  1

  0
LINE
  5
EF
100
AcDbEntity
  8
SENZA_NOME_3
390
0
100
AcDbLine
 10
372.10273396876096
 20
88.28741537654885
 30
0.0
 11
392.10273396876096
 21
88.28741537654885
 31
0.0
  0
LINE
  5
F0
100
AcDbEntity
  8
SENZA_NOME_3
390
0
100
AcDbLine
 10
392.10273396876096
 20
83.28741537654885
 30
0.0
 11
392.10273396876096
 21
88.28741537654885
 31
0.0
  0
LINE
  5
F1
100
AcDbEntity
  8
SENZA_NOME_3
390
0
100
AcDbLine
 10
372.10273396876096
 20
83.28741537654885
 30
0.0
 11
372.10273396876096
 21
88.28741537654885
 31
0.0
  0
LINE
  5
F2
100
AcDbEntity
  8
SENZA_NOME_3
390
0
100
AcDbLine
 10
372.10273396876096
 20
83.28741537654885
 30
0.0
 11
392.10273396876096
 21
83.28741537654885
 31
0.0
  0
ENDBLK
  5
F3
100
AcDbEntity
  8
0
390
0
100
AcDbBlockEnd
  0
BLOCK
  5
F6
100
AcDbEntity
  8
0
390
0
100
AcDbBlockBegin
  2
B02DAA134
 70
               0
 10
0.0
 20
0.0
 30
0.0
  3

  1

  0
INSERT
  5
132
100
AcDbEntity
  8
SENZA_NOME
390
0
100
AcDbBlockReference
  2
B02DAA180
 10
0.0
 20
0.0
 30
0.0
  0
INSERT
  5
13F
100
AcDbEntity
  8
SENZA_NOME
390
0
100
AcDbBlockReference
  2
B02DAAC0C
 10
0.0
 20
0.0
 30
0.0
  0
INSERT
  5
14B
100
AcDbEntity
  8
SENZA_NOME
390
0
100
AcDbBlockReference
  2
B02DAAF44
 10
0.0
 20
0.0
 30
0.0
  0
ENDBLK
  5
14C
100
AcDbEntity
  8
0
390
0
100
AcDbBlockEnd
  0
BLOCK
  5
F8
100
AcDbEntity
  8
0
390
0
100
AcDbBlockBegin
  2
B02DAA180
 70
               0
 10
0.0
 20
0.0
 30
0.0
  3

  1

  0
LINE
  5
F9
100
AcDbEntity
  8
SENZA_NOME
370
              -3
390
0
  6
Continuous
100
AcDbLine
 10
478.2283345827376
 20
85.039953983495053
 30
0.0
 11
478.2283345827376
 21
103.03995398349505
 31
0.0
  0
INSERT
  5
130
100
AcDbEntity
  8
SENZA_NOME
390
0
100
AcDbBlockReference
  2
B02DAA220
 10
0.0
 20
0.0
 30
0.0
  0
ENDBLK
  5
131
100
AcDbEntity
  8
0
390
0
100
AcDbBlockEnd
  0
BLOCK
  5
FB
100
AcDbEntity
  8
0
390
0
100
AcDbBlockBegin
  2
B02DAA220
 70
               0
 10
0.0
 20
0.0
 30
0.0
  3

  1

  0
INSERT
  5
102
100
AcDbEntity
  8
SENZA_NOME
390
0
100
AcDbBlockReference
  2
B02DAA26C
 10
0.0
 20
0.0
 30
0.0
  0
INSERT
  5
12E
100
AcDbEntity
  8
SENZA_NOME
390
0
100
AcDbBlockReference
  2
B02DAA3B4
 10
0.0
 20
0.0
 30
0.0
  0
ENDBLK
  5
12F
100
AcDbEntity
  8
0
390
0
100
AcDbBlockEnd
  0
BLOCK
  5
FD
100
AcDbEntity
  8
0
390
0
100
AcDbBlockBegin
  2
B02DAA26C
 70
               0
 10
0.0
 20
0.0
 30
0.0
  3

  1

  0
LINE
  5
FE
100
AcDbEntity
  8
SENZA_NOME
370
              -3
390
0
  6
Continuous
 62
               1
100
AcDbLine
 10
480.56166791607092
 20
88.106620650161716
 30
0.0
 11
480.56166791607092
 21
91.551366314381596
 31
0.0
  0
LINE
  5
FF
100
AcDbEntity
  8
SENZA_NOME
370
              -3
390
0
  6
Continuous
 62
               1
100
AcDbLine
 10
480.56166791607092
 20
88.106620650161716
 30
0.0
 11
476.2283345827376
 21
88.106620650161716
 31
0.0
  0
LINE
  5
100
100
AcDbEntity
  8
SENZA_NOME
370
              -3
390
0
  6
Continuous
 62
               1
100
AcDbLine
 10
476.2283345827376
 20
88.106620650161716
 30
0.0
 11
476.2283345827376
 21
91.551366314381596
 31
0.0
  0
ENDBLK
  5
101
100
AcDbEntity
  8
0
390
0
100
AcDbBlockEnd
  0
BLOCK
  5
104
100
AcDbEntity
  8
0
390
0
100
AcDbBlockBegin
  2
B02DAA3B4
 70
               0
 10
0.0
 20
0.0
 30
0.0
  3

  1

  0
INSERT
  5
11C
100
AcDbEntity
  8
SENZA_NOME
390
0
100
AcDbBlockReference
  2
B02DAA400
 10
0.0
 20
0.0
 30
0.0
  0
INSERT
  5
124
100
AcDbEntity
  8
SENZA_NOME
390
0
100
AcDbBlockReference
  2
B02DAA8D4
 10
0.0
 20
0.0
 30
0.0
  0
INSERT
  5
12C
100
AcDbEntity
  8
SENZA_NOME
390
0
100
AcDbBlockReference
  2
B02DAAA70
 10
0.0
 20
0.0
 30
0.0
  0
ENDBLK
  5
12D
100
AcDbEntity
  8
0
390
0
100
AcDbBlockEnd
  0
BLOCK
  5
106
100
AcDbEntity
  8
0
390
0
100
AcDbBlockBegin
  2
B02DAA400
 70
               0
 10
0.0
 20
0.0
 30
0.0
  3

  1

  0
LINE
  5
107
100
AcDbEntity
  8
SENZA_NOME
370
              -3
390
0
  6
Continuous
 62
               1
100
AcDbLine
 10
499.22000124940422
 20
108.49520831927516
 30
0.0
 11
507.23666791607093
 21
108.49520831927516
 31
0.0
  0
INSERT
  5
117
100
AcDbEntity
  8
SENZA_NOME
390
0
100
AcDbBlockReference
  2
B02DAA4A0
 10
0.0
 20
0.0
 30
0.0
  0
LINE
  5
118
100
AcDbEntity
  8
SENZA_NOME
370
              -3
390
0
  6
Continuous
 62
               1
100
AcDbLine
 10
507.23666791607093
 20
103.49520831927516
 30
0.0
 11
507.23666791607093
 21
108.49520831927516
 31
0.0
  0
LINE
  5
119
100
AcDbEntity
  8
SENZA_NOME
370
              -3
390
0
  6
Continuous
 62
               1
100
AcDbLine
 10
499.22000124940422
 20
103.49520831927516
 30
0.0
 11
507.23666791607093
 21
103.49520831927516
 31
0.0
  0
LINE
  5
11A
100
AcDbEntity
  8
SENZA_NOME
370
              -3
390
0
  6
Continuous
 62
               1
100
AcDbLine
 10
502.72000124940422
 20
112.0285416526085
 30
0.0
 11
502.63666791607091
 21
99.995208319275164
 31
0.0
  0
ENDBLK
  5
11B
100
AcDbEntity
  8
0
390
0
100
AcDbBlockEnd
  0
BLOCK
  5
109
100
AcDbEntity
  8
0
390
0
100
AcDbBlockBegin
  2
B02DAA4A0
 70
               0
 10
0.0
 20
0.0
 30
0.0
  3

  1

  0
LINE
  5
10A
100
AcDbEntity
  8
SENZA_NOME
370
              -3
390
0
  6
Continuous
 62
               1
100
AcDbLine
 10
462.22000124940422
 20
103.5285416526085
 30
0.0
 11
470.22000124940422
 21
103.5285416526085
 31
0.0
  0
LINE
  5
10B
100
AcDbEntity
  8
SENZA_NOME
370
              -3
390
0
  6
Continuous
 62
               1
100
AcDbLine
 10
462.22000124940422
 20
103.5285416526085
 30
0.0
 11
462.22000124940422
 21
108.49520831927516
 31
0.0
  0
INSERT
  5
113
100
AcDbEntity
  8
SENZA_NOME
390
0
100
AcDbBlockReference
  2
B02DAA594
 10
0.0
 20
0.0
 30
0.0
  0
LINE
  5
114
100
AcDbEntity
  8
SENZA_NOME
370
              -3
390
0
  6
Continuous
 62
               1
100
AcDbLine
 10
462.22000124940422
 20
108.49520831927516
 30
0.0
 11
470.22000124940422
 21
108.49520831927516
 31
0.0
  0
LINE
  5
115
100
AcDbEntity
  8
SENZA_NOME
370
              -3
390
0
  6
Continuous
 62
               1
100
AcDbLine
 10
466.63666791607091
 20
110.07854165260849
 30
0.0
 11
466.63666791607091
 21
100.57854165260849
 31
0.0
  0
ENDBLK
  5
116
100
AcDbEntity
  8
0
390
0
100
AcDbBlockEnd
  0
BLOCK
  5
10D
100
AcDbEntity
  8
0
390
0
100
AcDbBlockBegin
  2
B02DAA594
 70
               0
 10
0.0
 20
0.0
 30
0.0
  3

  1

  0
LINE
  5
10E
100
AcDbEntity
  8
SENZA_NOME
370
              -3
390
0
  6
Continuous
 62
               1
100
AcDbLine
 10
499.22000124940422
 20
97.528541652608496
 30
0.0
 11
499.22000124940422
 21
127.5285416526085
 31
0.0
  0
LINE
  5
10F
100
AcDbEntity
  8
SENZA_NOME
370
              -3
390
0
  6
Continuous
 62
               1
100
AcDbLine
 10
470.22000124940422
 20
97.528541652608496
 30
0.0
 11
499.22000124940422
 21
97.528541652608496
 31
0.0
  0
LINE
  5
110
100
AcDbEntity
  8
SENZA_NOME
370
              -3
390
0
  6
Continuous
 62
               1
100
AcDbLine
 10
470.22000124940422
 20
97.528541652608496
 30
0.0
 11
470.22000124940422
 21
127.5285416526085
 31
0.0
  0
LINE
  5
111
100
AcDbEntity
  8
SENZA_NOME
370
              -3
390
0
  6
Continuous
 62
               1
100
AcDbLine
 10
470.22000124940422
 20
127.5285416526085
 30
0.0
 11
499.22000124940422
 21
127.5285416526085
 31
0.0
  0
ENDBLK
  5
112
100
AcDbEntity
  8
0
390
0
100
AcDbBlockEnd
  0
BLOCK
  5
11E
100
AcDbEntity
  8
0
390
0
100
AcDbBlockBegin
  2
B02DAA8D4
 70
               0
 10
0.0
 20
0.0
 30
0.0
  3

  1

  0
LINE
  5
11F
100
AcDbEntity
  8
SENZA_NOME
370
              -3
390
0
  6
Continuous
 62
               1
100
AcDbLine
 10
481.22000124940422
 20
97.528541652608496
 30
0.0
 11
481.22000124940422
 21
93.028541652608496
 31
0.0
  0
LINE
  5
120
100
AcDbEntity
  8
SENZA_NOME
370
              -3
390
0
  6
Continuous
 62
               1
100
AcDbLine
 10
475.22000124940422
 20
97.528541652608496
 30
0.0
 11
475.22000124940422
 21
93.028541652608496
 31
0.0
  0
LINE
  5
121
100
AcDbEntity
  8
SENZA_NOME
370
              -3
390
0
  6
Continuous
 62
               1
100
AcDbLine
 10
475.22000124940422
 20
97.528541652608496
 30
0.0
 11
481.22000124940422
 21
97.528541652608496
 31
0.0
  0
LINE
  5
122
100
AcDbEntity
  8
SENZA_NOME
370
              -3
390
0
  6
Continuous
 62
               1
100
AcDbLine
 10
475.22000124940422
 20
93.028541652608496
 30
0.0
 11
481.22000124940422
 21
93.028541652608496
 31
0.0
  0
ENDBLK
  5
123
100
AcDbEntity
  8
0
390
0
100
AcDbBlockEnd
  0
BLOCK
  5
126
100
AcDbEntity
  8
0
390
0
100
AcDbBlockBegin
  2
B02DAAA70
 70
               0
 10
0.0
 20
0.0
 30
0.0
  3

  1

  0
LINE
  5
127
100
AcDbEntity
  8
SENZA_NOME
370
              -3
390
0
  6
Continuous
 62
               1
100
AcDbLine
 10
486.59066149935671
 20
91.551366314381596
 30
0.0
 11
486.59066149935671
 21
93.028541652608496
 31
0.0
  0
LINE
  5
128
100
AcDbEntity
  8
SENZA_NOME
370
              -3
390
0
  6
Continuous
 62
               1
100
AcDbLine
 10
469.72000124940422
 20
91.551366314381596
 30
0.0
 11
469.72000124940422
 21
93.028541652608496
 31
0.0
  0
LINE
  5
129
100
AcDbEntity
  8
SENZA_NOME
370
              -3
390
0
  6
Continuous
 62
               1
100
AcDbLine
 10
469.72000124940422
 20
91.551366314381596
 30
0.0
 11
486.59066149935671
 21
91.551366314381596
 31
0.0
  0
LINE
  5
12A
100
AcDbEntity
  8
SENZA_NOME
370
              -3
390
0
  6
Continuous
 62
               1
100
AcDbLine
 10
469.72000124940422
 20
93.028541652608496
 30
0.0
 11
486.59066149935671
 21
93.028541652608496
 31
0.0
  0
ENDBLK
  5
12B
100
AcDbEntity
  8
0
390
0
100
AcDbBlockEnd
  0
BLOCK
  5
134
100
AcDbEntity
  8
0
390
0
100
AcDbBlockBegin
  2
B02DAAC0C
 70
               0
 10
0.0
 20
0.0
 30
0.0
  3

  1

  0
LINE
  5
135
100
AcDbEntity
  8
SENZA_NOME
390
0
100
AcDbLine
 10
469.21781634465572
 20
114.50219241537697
 30
0.0
 11
469.19599283309327
 21
111.34345416710119
 31
0.0
  0
LINE
  5
136
100
AcDbEntity
  8
SENZA_NOME
390
0
100
AcDbLine
 10
469.19599283309327
 20
111.34345416710119
 30
0.0
 11
458.86467668055241
 21
111.34345416710119
 31
0.0
  0
LINE
  5
137
100
AcDbEntity
  8
SENZA_NOME
390
0
100
AcDbLine
 10
458.86691700067485
 20
114.35544854491626
 30
0.0
 11
469.19599283309327
 21
114.35544854491626
 31
0.0
  0
LINE
  5
138
100
AcDbEntity
  8
SENZA_NOME
390
0
100
AcDbLine
 10
458.86691700067485
 20
111.34345500065034
 30
0.0
 11
458.86691700067485
 21
114.35544854491626
 31
0.0
  0
LINE
  5
139
100
AcDbEntity
  8
SENZA_NOME
390
0
100
AcDbLine
 10
500.38720433030653
 20
111.34345500065034
 30
0.0
 11
500.37958993840004
 21
114.33517013290617
 31
0.0
  0
LINE
  5
13A
100
AcDbEntity
  8
SENZA_NOME
390
0
100
AcDbLine
 10
500.37573259980672
 20
114.3848763214209
 30
0.0
 11
519.65980284709292
 21
114.3848763214209
 31
0.0
  0
LINE
  5
13B
100
AcDbEntity
  8
SENZA_NOME
390
0
100
AcDbLine
 10
519.74048917854748
 20
111.34345500065034
 30
0.0
 11
500.38720433030653
 21
111.34345500065034
 31
0.0
  0
LINE
  5
13C
100
AcDbEntity
  8
SENZA_NOME
390
0
100
AcDbLine
 10
519.65968079015386
 20
114.3848763214209
 30
0.0
 11
519.65968079015386
 21
111.32059877318659
 31
0.0
  0
CIRCLE
  5
13D
100
AcDbEntity
  8
SENZA_NOME
390
0
100
AcDbCircle
 10
512.88564639614447
 20
109.47608346490587
 30
0.0
 40
1.0
  0
ENDBLK
  5
13E
100
AcDbEntity
  8
0
390
0
100
AcDbBlockEnd
  0
BLOCK
  5
141
100
AcDbEntity
  8
0
390
0
100
AcDbBlockBegin
  2
B02DAAF44
 70
               0
 10
0.0
 20
0.0
 30
0.0
  3

  1

  0
LINE
  5
142
100
AcDbEntity
  8
SENZA_NOME
390
0
100
AcDbLine
 10
519.49794596847028
 20
114.31900792909144
 30
0.0
 11
458.85091713214871
 21
114.31900792909144
 31
0.0
  0
LINE
  5
143
100
AcDbEntity
  8
SENZA_NOME
390
0
100
AcDbLine
 10
458.85676201748197
 20
111.30701438482552
 30
0.0
 11
519.49700692568877
 21
111.30701438482552
 31
0.0
  0
LINE
  5
144
100
AcDbEntity
  8
SENZA_NOME
390
0
100
AcDbLine
 10
468.97860961356758
 20
111.30701438482552
 30
0.0
 11
468.97860961356758
 21
114.10386553307244
 31
0.0
  0
LINE
  5
145
100
AcDbEntity
  8
SENZA_NOME
390
0
100
AcDbLine
 10
458.85091713214871
 20
114.31900792909144
 30
0.0
 11
458.85091713214871
 21
111.30697188905266
 31
0.0
  0
LINE
  5
146
100
AcDbEntity
  8
SENZA_NOME
390
0
100
AcDbLine
 10
500.60454182835974
 20
111.30701438482552
 30
0.0
 11
500.60454182835974
 21
114.31900792909144
 31
0.0
  0
CIRCLE
  5
147
100
AcDbEntity
  8
SENZA_NOME
390
0
100
AcDbCircle
 10
512.88896342326268
 20
109.43940896230872
 30
0.0
 40
1.75
  0
LINE
  5
148
100
AcDbEntity
  8
SENZA_NOME
390
0
100
AcDbLine
 10
512.88896342326268
 20
104.50258258152886
 30
0.0
 11
512.88896342326268
 21
113.32176757243657
 31
0.0
  0
LINE
  5
149
100
AcDbEntity
  8
SENZA_NOME
390
0
100
AcDbLine
 10
519.58514492929271
 20
111.25944310276084
 30
0.0
 11
519.58514492929271
 21
114.27143664702676
 31
0.0
  0
ENDBLK
  5
14A
100
AcDbEntity
  8
0
390
0
100
AcDbBlockEnd
  0
BLOCK
  5
17E
100
AcDbEntity
  8
0
390
0
100
AcDbBlockBegin
  2
B02DAD008
 70
               0
 10
0.0
 20
0.0
 30
0.0
  3

  1

  0
LINE
  5
17F
100
AcDbEntity
  8
SENZA_NOME
390
0
  6
Continuous
 62
               4
100
AcDbLine
 10
67.418127173690564
 20
-108.50051203378962
 30
0.0
 11
60.391065731137402
 21
-107.92547077232534
 31
0.0
  0
LINE
  5
180
100
AcDbEntity
  8
SENZA_NOME
390
0
  6
Continuous
 62
               4
100
AcDbLine
 10
67.214227759620286
 20
-110.99218316556882
 30
0.0
 11
60.187166317067124
 21
-110.41714190410454
 31
0.0
  0
LINE
  5
181
100
AcDbEntity
  8
SENZA_NOME
390
0
  6
Continuous
 62
               4
100
AcDbLine
 10
92.036561074286709
 20
-110.11455673771135
 30
0.0
 11
67.426197386190168
 21
-108.50110673771135
 31
0.0
  0
LINE
  5
182
100
AcDbEntity
  8
SENZA_NOME
390
0
  6
Continuous
 62
               4
100
AcDbLine
 10
91.873012722714464
 20
-112.6092013890992
 30
0.0
 11
67.262649034617922
 21
-110.9957513890992
 31
0.0
  0
LINE
  5
183
100
AcDbEntity
  8
SENZA_NOME
390
0
  6
Continuous
 62
               4
100
AcDbLine
 10
118.315190244666
 20
-111.46559835996182
 30
0.0
 11
92.043599503863788
 21
-110.11496835996182
 31
0.0
  0
LINE
  5
184
100
AcDbEntity
  8
SENZA_NOME
390
0
  6
Continuous
 62
               4
100
AcDbLine
 10
118.18683404097912
 20
-113.96230112260199
 30
0.0
 11
91.915243300176911
 21
-112.61167112260199
 31
0.0
  0
LINE
  5
185
100
AcDbEntity
  8
SENZA_NOME
390
0
  6
Continuous
 62
               4
100
AcDbLine
 10
146.04646150563917
 20
-115.05176751961694
 30
0.0
 11
118.22365874873431
 21
-113.96396751961694
 31
0.0
  0
LINE
  5
186
100
AcDbEntity
  8
SENZA_NOME
390
0
  6
Continuous
 62
               4
100
AcDbLine
 10
146.14413045286338
 20
-112.55367609279764
 30
0.0
 11
118.32132769595853
 21
-111.46587609279764
 31
0.0
  0
LINE
  5
187
100
AcDbEntity
  8
SENZA_NOME
390
0
  6
Continuous
 62
               4
100
AcDbLine
 10
175.40256730223794
 20
-113.37883909405011
 30
0.0
 11
146.14956906949374
 21
-112.5538590940501
 31
0.0
  0
LINE
  5
188
100
AcDbEntity
  8
SENZA_NOME
390
0
  6
Continuous
 62
               4
100
AcDbLine
 10
175.33209143816543
 20
-115.87784552713171
 30
0.0
 11
146.07909320542123
 21
-115.0528655271317
 31
0.0
  0
LINE
  5
189
100
AcDbEntity
  8
SENZA_NOME
390
0
  6
Continuous
 62
               4
100
AcDbLine
 10
205.98076834745484
 20
-113.93381548496461
 30
0.0
 11
175.40758967547438
 21
-113.37895548496461
 31
0.0
  0
LINE
  5
18A
100
AcDbEntity
  8
SENZA_NOME
390
0
  6
Continuous
 62
               4
100
AcDbLine
 10
205.93540434956458
 20
-116.43340387261874
 30
0.0
 11
175.36222567758412
 21
-115.87854387261875
 31
0.0
  0
LINE
  5
18B
100
AcDbEntity
  8
SENZA_NOME
390
0
  6
Continuous
 62
               4
100
AcDbLine
 10
237.73535216858022
 20
-114.24050449207151
 30
0.0
 11
205.98501260494743
 21
-113.93387449207151
 31
0.0
  0
LINE
  5
18C
100
AcDbEntity
  8
SENZA_NOME
390
0
  6
Continuous
 62
               4
100
AcDbLine
 10
237.71120945815295
 20
-116.74038791526011
 30
0.0
 11
205.96086989452016
 21
-116.43375791526012
 31
0.0
  0
LINE
  5
18D
100
AcDbEntity
  8
SENZA_NOME
390
0
  6
Continuous
 62
               4
100
AcDbLine
 10
270.5239936199772
 20
-114.28432736121174
 30
0.0
 11
237.73951271227594
 21
-114.24052736121173
 31
0.0
  0
LINE
  5
18E
100
AcDbEntity
  8
SENZA_NOME
390
0
  6
Continuous
 62
               4
100
AcDbLine
 10
270.52065362802841
 20
-116.78432513010149
 30
0.0
 11
237.73617272032712
 21
-116.74052513010149
 31
0.0
  0
LINE
  5
18F
100
AcDbEntity
  8
SENZA_NOME
390
0
  6
Continuous
 62
               4
100
AcDbLine
 10
304.21429991411117
 20
-114.07989860165966
 30
0.0
 11
270.52769570626509
 21
-114.28431860165966
 31
0.0
  0
LINE
  5
190
100
AcDbEntity
  8
SENZA_NOME
390
0
  6
Continuous
 62
               4
100
AcDbLine
 10
304.22947035360176
 20
-116.57985257278906
 30
0.0
 11
270.54286614575568
 21
-116.78427257278906
 31
0.0
  0
LINE
  5
191
100
AcDbEntity
  8
SENZA_NOME
390
0
  6
Continuous
 62
               4
100
AcDbLine
 10
338.66322574588457
 20
-113.64912871891123
 30
0.0
 11
304.2175177854777
 21
-114.07986871891121
 31
0.0
  0
LINE
  5
192
100
AcDbEntity
  8
SENZA_NOME
390
0
  6
Continuous
 62
               4
100
AcDbLine
 10
338.6944855422077
 20
-116.14893327629842
 30
0.0
 11
304.24877758180082
 21
-116.57967327629842
 31
0.0
  0
LINE
  5
193
100
AcDbEntity
  8
SENZA_NOME
390
0
  6
Continuous
 62
               4
100
AcDbLine
 10
409.24211725781078
 20
-112.167017597984
 30
0.0
 11
338.66747127697062
 21
-113.649057597984
 31
0.0
  0
LINE
  5
194
100
AcDbEntity
  8
SENZA_NOME
390
0
  6
Continuous
 62
               4
100
AcDbLine
 10
409.29460470956417
 20
-114.66646655073507
 30
0.0
 11
338.71995872872407
 21
-116.14850655073506
 31
0.0
  0
LINE
  5
195
100
AcDbEntity
  8
SENZA_NOME
390
0
  6
Continuous
 62
               4
100
AcDbLine
 10
481.04262784243912
 20
-109.98398686036357
 30
0.0
 11
409.24681495530541
 21
-112.16689686036358
 31
0.0
  0
LINE
  5
196
100
AcDbEntity
  8
SENZA_NOME
390
0
  6
Continuous
 62
               4
100
AcDbLine
 10
481.11860378166597
 20
-112.48283212501255
 30
0.0
 11
409.32279089453226
 21
-114.66574212501254
 31
0.0
  0
LINE
  5
197
100
AcDbEntity
  8
SENZA_NOME
390
0
  6
Continuous
 62
               4
100
AcDbLine
 10
552.84239951184634
 20
-107.23148079816666
 30
0.0
 11
481.04658662471269
 21
-109.98385079816666
 31
0.0
  0
LINE
  5
198
100
AcDbEntity
  8
SENZA_NOME
390
0
100
AcDbLine
 10
490.60646675970963
 20
-112.0725337480675
 30
0.0
 11
509.50314701370536
 21
-111.43556699793282
 31
0.0
  0
LINE
  5
199
100
AcDbEntity
  8
SENZA_NOME
390
0
  6
Continuous
 62
               4
100
AcDbLine
 10
552.93816936244093
 20
-109.72964575183107
 30
0.0
 11
481.14235647530722
 21
-112.48201575183107
 31
0.0
  0
LINE
  5
19A
100
AcDbEntity
  8
SENZA_NOME
390
0
  6
Continuous
 62
               4
100
AcDbLine
 10
623.42031679668219
 20
-104.0628446613587
 30
0.0
 11
552.84567081584203
 21
-107.23134466135869
 31
0.0
  0
LINE
  5
19B
100
AcDbEntity
  8
SENZA_NOME
390
0
  6
Continuous
 62
               4
100
AcDbLine
 10
623.53244316725511
 20
-106.56032893098326
 30
0.0
 11
552.95779718641495
 21
-109.72882893098325
 31
0.0
  0
LINE
  5
19C
100
AcDbEntity
  8
SENZA_NOME
390
0
  6
Continuous
 62
               4
100
AcDbLine
 10
691.55535318691955
 20
-100.63138490972024
 30
0.0
 11
623.42304101866648
 21
-104.06271490972024
 31
0.0
  0
LINE
  5
19D
100
AcDbEntity
  8
SENZA_NOME
390
0
  6
Continuous
 62
               4
100
AcDbLine
 10
691.6811006674144
 20
-103.12822042115249
 30
0.0
 11
623.54878849916133
 21
-106.55955042115249
 31
0.0
  0
LINE
  5
19E
100
AcDbEntity
  8
SENZA_NOME
390
0
  6
Continuous
 62
               4
100
AcDbLine
 10
756.09247282781223
 20
-97.083123809674774
 30
0.0
 11
691.55765235647823
 21
-100.63126380967478
 31
0.0
  0
LINE
  5
19F
100
AcDbEntity
  8
SENZA_NOME
390
0
  6
Continuous
 62
               4
100
AcDbLine
 10
756.22971615610027
 20
-99.57935382087976
 30
0.0
 11
691.69489568476627
 21
-103.12749382087976
 31
0.0
  0
LINE
  5
1A0
100
AcDbEntity
  8
SENZA_NOME
390
0
  6
Continuous
 62
               4
100
AcDbLine
 10
816.0691755638835
 20
-96.023154000734252
 30
0.0
 11
756.24299865915896
 21
-99.578594000734256
 31
0.0
  0
LINE
  5
1A1
100
AcDbEntity
  8
SENZA_NOME
390
0
  6
Continuous
 62
               4
100
AcDbLine
 10
815.92086348304667
 20
-93.527557172983862
 30
0.0
 11
756.09468657832201
 21
-97.082997172983852
 31
0.0
  0
LINE
  5
1A2
100
AcDbEntity
  8
SENZA_NOME
390
0
  6
Continuous
 62
               4
100
AcDbLine
 10
870.17510725051943
 20
-92.598415980747674
 30
0.0
 11
816.08071375281236
 21
-96.022445980747676
 31
0.0
  0
LINE
  5
1A3
100
AcDbEntity
  8
SENZA_NOME
390
0
  6
Continuous
 62
               4
100
AcDbLine
 10
870.01718001224185
 20
-90.103409169652764
 30
0.0
 11
815.92278651453478
 21
-93.527439169652766
 31
0.0
  0
LINE
  5
1A4
100
AcDbEntity
  8
SENZA_NOME
390
0
  6
Continuous
 62
               4
100
AcDbLine
 10
917.63679731321372
 20
-89.399918469186133
 30
0.0
 11
870.18731202632944
 21
-92.597618469186131
 31
0.0
  0
LINE
  5
1A5
100
AcDbEntity
  8
SENZA_NOME
390
0
  6
Continuous
 62
               4
100
AcDbLine
 10
917.46869942842784
 20
-86.905576251059173
 30
0.0
 11
870.01921414154344
 21
-90.103276251059171
 31
0.0
  0
LINE
  5
1A6
100
AcDbEntity
  8
SENZA_NOME
390
0
  6
Continuous
 62
               4
100
AcDbLine
 10
957.61997925793128
 20
-86.507810153893558
 30
0.0
 11
917.65151646005256
 21
-89.398890153893561
 31
0.0
  0
LINE
  5
1A7
100
AcDbEntity
  8
SENZA_NOME
390
0
  6
Continuous
 62
               4
100
AcDbLine
 10
957.43961541744636
 20
-84.014324865177073
 30
0.0
 11
917.47115261956765
 21
-86.905404865177076
 31
0.0
  0
LINE
  5
1A8
100
AcDbEntity
  8
SENZA_NOME
390
0
  6
Continuous
 62
               4
100
AcDbLine
 10
1011.8917713045084
 20
-82.735783403417273
 30
0.0
 11
957.6115490971664
 21
-86.508408006123048
 31
0.0
  0
LINE
  5
1A9
100
AcDbEntity
  8
SENZA_NOME
390
0
  6
Continuous
 62
               4
100
AcDbLine
 10
1011.8917713045084
 20
-80.229752388080854
 30
0.0
 11
957.43821039065222
 21
-84.014424507215324
 31
0.0
  0
ENDBLK
  5
1AA
100
AcDbEntity
  8
0
390
0
100
AcDbBlockEnd
  0
BLOCK
  5
1AD
100
AcDbEntity
  8
0
390
0
100
AcDbBlockBegin
  2
B02DAECD8
 70
               0
 10
0.0
 20
0.0
 30
0.0
  3

  1

  0
LINE
  5
1AE
100
AcDbEntity
  8
SENZA_NOME
390
0
  6
Continuous
 62
               4
100
AcDbLine
 10
67.418127173690564
 20
-52.062698876547294
 30
0.0
 11
60.391065731137402
 21
-52.637740138011573
 31
0.0
  0
LINE
  5
1AF
100
AcDbEntity
  8
SENZA_NOME
390
0
  6
Continuous
 62
               4
100
AcDbLine
 10
67.214227759620286
 20
-49.571027744768102
 30
0.0
 11
60.187166317067124
 21
-50.146069006232381
 31
0.0
  0
LINE
  5
1B0
100
AcDbEntity
  8
SENZA_NOME
390
0
  6
Continuous
 62
               4
100
AcDbLine
 10
92.036561074286709
 20
-50.44865417262556
 30
0.0
 11
67.426197386190168
 21
-52.06210417262556
 31
0.0
  0
LINE
  5
1B1
100
AcDbEntity
  8
SENZA_NOME
390
0
  6
Continuous
 62
               4
100
AcDbLine
 10
91.873012722714464
 20
-47.954009521237715
 30
0.0
 11
67.262649034617922
 21
-49.567459521237716
 31
0.0
  0
LINE
  5
1B2
100
AcDbEntity
  8
SENZA_NOME
390
0
  6
Continuous
 62
               4
100
AcDbLine
 10
118.315190244666
 20
-49.097612550375104
 30
0.0
 11
92.043599503863788
 21
-50.448242550375099
 31
0.0
  0
LINE
  5
1B3
100
AcDbEntity
  8
SENZA_NOME
390
0
  6
Continuous
 62
               4
100
AcDbLine
 10
118.18683404097912
 20
-46.600909787734928
 30
0.0
 11
91.915243300176911
 21
-47.951539787734923
 31
0.0
  0
LINE
  5
1B4
100
AcDbEntity
  8
SENZA_NOME
390
0
  6
Continuous
 62
               4
100
AcDbLine
 10
146.04646150563917
 20
-45.511443390719968
 30
0.0
 11
118.22365874873431
 21
-46.59924339071997
 31
0.0
  0
LINE
  5
1B5
100
AcDbEntity
  8
SENZA_NOME
390
0
  6
Continuous
 62
               4
100
AcDbLine
 10
146.14413045286338
 20
-48.009534817539276
 30
0.0
 11
118.32132769595853
 21
-49.097334817539277
 31
0.0
  0
LINE
  5
1B6
100
AcDbEntity
  8
SENZA_NOME
390
0
  6
Continuous
 62
               4
100
AcDbLine
 10
175.40256730223794
 20
-47.184371816286813
 30
0.0
 11
146.14956906949374
 21
-48.009351816286816
 31
0.0
  0
LINE
  5
1B7
100
AcDbEntity
  8
SENZA_NOME
390
0
  6
Continuous
 62
               4
100
AcDbLine
 10
175.33209143816543
 20
-44.685365383205209
 30
0.0
 11
146.07909320542123
 21
-45.510345383205212
 31
0.0
  0
LINE
  5
1B8
100
AcDbEntity
  8
SENZA_NOME
390
0
  6
Continuous
 62
               4
100
AcDbLine
 10
205.98076834745484
 20
-46.629395425372309
 30
0.0
 11
175.40758967547438
 21
-47.184255425372307
 31
0.0
  0
LINE
  5
1B9
100
AcDbEntity
  8
SENZA_NOME
390
0
  6
Continuous
 62
               4
100
AcDbLine
 10
205.93540434956458
 20
-44.129807037718166
 30
0.0
 11
175.36222567758412
 21
-44.684667037718164
 31
0.0
  0
LINE
  5
1BA
100
AcDbEntity
  8
SENZA_NOME
390
0
  6
Continuous
 62
               4
100
AcDbLine
 10
237.73535216858022
 20
-46.322706418265412
 30
0.0
 11
205.98501260494743
 21
-46.62933641826541
 31
0.0
  0
LINE
  5
1BB
100
AcDbEntity
  8
SENZA_NOME
390
0
  6
Continuous
 62
               4
100
AcDbLine
 10
237.71120945815295
 20
-43.822822995076798
 30
0.0
 11
205.96086989452016
 21
-44.129452995076797
 31
0.0
  0
LINE
  5
1BC
100
AcDbEntity
  8
SENZA_NOME
390
0
  6
Continuous
 62
               4
100
AcDbLine
 10
270.5239936199772
 20
-46.278883549125176
 30
0.0
 11
237.73951271227594
 21
-46.32268354912518
 31
0.0
  0
LINE
  5
1BD
100
AcDbEntity
  8
SENZA_NOME
390
0
  6
Continuous
 62
               4
100
AcDbLine
 10
270.52065362802841
 20
-43.77888578023542
 30
0.0
 11
237.73617272032712
 21
-43.822685780235425
 31
0.0
  0
LINE
  5
1BE
100
AcDbEntity
  8
SENZA_NOME
390
0
  6
Continuous
 62
               4
100
AcDbLine
 10
304.21429991411117
 20
-46.483312308677256
 30
0.0
 11
270.52769570626509
 21
-46.27889230867725
 31
0.0
  0
LINE
  5
1BF
100
AcDbEntity
  8
SENZA_NOME
390
0
  6
Continuous
 62
               4
100
AcDbLine
 10
304.22947035360176
 20
-43.983358337547855
 30
0.0
 11
270.54286614575568
 21
-43.778938337547849
 31
0.0
  0
LINE
  5
1C0
100
AcDbEntity
  8
SENZA_NOME
390
0
  6
Continuous
 62
               4
100
AcDbLine
 10
338.66322574588457
 20
-46.914082191425692
 30
0.0
 11
304.2175177854777
 21
-46.483342191425699
 31
0.0
  0
LINE
  5
1C1
100
AcDbEntity
  8
SENZA_NOME
390
0
  6
Continuous
 62
               4
100
AcDbLine
 10
338.6944855422077
 20
-44.414277634038484
 30
0.0
 11
304.24877758180082
 21
-43.983537634038491
 31
0.0
  0
LINE
  5
1C2
100
AcDbEntity
  8
SENZA_NOME
390
0
  6
Continuous
 62
               4
100
AcDbLine
 10
409.24211725781078
 20
-48.396193312352921
 30
0.0
 11
338.66747127697062
 21
-46.914153312352916
 31
0.0
  0
LINE
  5
1C3
100
AcDbEntity
  8
SENZA_NOME
390
0
  6
Continuous
 62
               4
100
AcDbLine
 10
409.29460470956417
 20
-45.896744359601847
 30
0.0
 11
338.71995872872407
 21
-44.414704359601842
 31
0.0
  0
LINE
  5
1C4
100
AcDbEntity
  8
SENZA_NOME
390
0
  6
Continuous
 62
               4
100
AcDbLine
 10
481.04262784243912
 20
-50.579224049973341
 30
0.0
 11
409.24681495530541
 21
-48.396314049973341
 31
0.0
  0
LINE
  5
1C5
100
AcDbEntity
  8
SENZA_NOME
390
0
  6
Continuous
 62
               4
100
AcDbLine
 10
481.11860378166597
 20
-48.080378785324363
 30
0.0
 11
409.32279089453226
 21
-45.897468785324364
 31
0.0
  0
LINE
  5
1C6
100
AcDbEntity
  8
SENZA_NOME
390
0
  6
Continuous
 62
               4
100
AcDbLine
 10
552.84239951184634
 20
-53.331730112170256
 30
0.0
 11
481.04658662471269
 21
-50.579360112170257
 31
0.0
  0
LINE
  5
1C7
100
AcDbEntity
  8
SENZA_NOME
390
0
100
AcDbLine
 10
490.60646675970963
 20
-48.490677162269407
 30
0.0
 11
509.50314701370536
 21
-49.127643912404096
 31
0.0
  0
LINE
  5
1C8
100
AcDbEntity
  8
SENZA_NOME
390
0
  6
Continuous
 62
               4
100
AcDbLine
 10
552.93816936244093
 20
-50.833565158505841
 30
0.0
 11
481.14235647530722
 21
-48.081195158505842
 31
0.0
  0
LINE
  5
1C9
100
AcDbEntity
  8
SENZA_NOME
390
0
  6
Continuous
 62
               4
100
AcDbLine
 10
623.42031679668219
 20
-56.500366248978217
 30
0.0
 11
552.84567081584203
 21
-53.331866248978223
 31
0.0
  0
LINE
  5
1CA
100
AcDbEntity
  8
SENZA_NOME
390
0
  6
Continuous
 62
               4
100
AcDbLine
 10
623.53244316725511
 20
-54.00288197935366
 30
0.0
 11
552.95779718641495
 21
-50.834381979353658
 31
0.0
  0
LINE
  5
1CB
100
AcDbEntity
  8
SENZA_NOME
390
0
  6
Continuous
 62
               4
100
AcDbLine
 10
691.55535318691955
 20
-59.931826000616681
 30
0.0
 11
623.42304101866648
 21
-56.500496000616678
 31
0.0
  0
LINE
  5
1CC
100
AcDbEntity
  8
SENZA_NOME
390
0
  6
Continuous
 62
               4
100
AcDbLine
 10
691.6811006674144
 20
-57.434990489184422
 30
0.0
 11
623.54878849916133
 21
-54.003660489184419
 31
0.0
  0
LINE
  5
1CD
100
AcDbEntity
  8
SENZA_NOME
390
0
  6
Continuous
 62
               4
100
AcDbLine
 10
756.09247282781223
 20
-63.480087100662139
 30
0.0
 11
691.55765235647823
 21
-59.931947100662136
 31
0.0
  0
LINE
  5
1CE
100
AcDbEntity
  8
SENZA_NOME
390
0
  6
Continuous
 62
               4
100
AcDbLine
 10
756.22971615610027
 20
-60.98385708945716
 30
0.0
 11
691.69489568476627
 21
-57.435717089457157
 31
0.0
  0
LINE
  5
1CF
100
AcDbEntity
  8
SENZA_NOME
390
0
  6
Continuous
 62
               4
100
AcDbLine
 10
816.0691755638835
 20
-64.540056909602669
 30
0.0
 11
756.24299865915896
 21
-60.984616909602664
 31
0.0
  0
LINE
  5
1D0
100
AcDbEntity
  8
SENZA_NOME
390
0
  6
Continuous
 62
               4
100
AcDbLine
 10
815.92086348304667
 20
-67.035653737353059
 30
0.0
 11
756.09468657832201
 21
-63.480213737353054
 31
0.0
  0
LINE
  5
1D1
100
AcDbEntity
  8
SENZA_NOME
390
0
  6
Continuous
 62
               4
100
AcDbLine
 10
870.17510725051943
 20
-67.964794929589232
 30
0.0
 11
816.08071375281236
 21
-64.54076492958923
 31
0.0
  0
LINE
  5
1D2
100
AcDbEntity
  8
SENZA_NOME
390
0
  6
Continuous
 62
               4
100
AcDbLine
 10
870.01718001224185
 20
-70.459801740684156
 30
0.0
 11
815.92278651453478
 21
-67.035771740684154
 31
0.0
  0
LINE
  5
1D3
100
AcDbEntity
  8
SENZA_NOME
390
0
  6
Continuous
 62
               4
100
AcDbLine
 10
917.63679731321372
 20
-71.163292441150787
 30
0.0
 11
870.18731202632944
 21
-67.96559244115079
 31
0.0
  0
LINE
  5
1D4
100
AcDbEntity
  8
SENZA_NOME
390
0
  6
Continuous
 62
               4
100
AcDbLine
 10
917.46869942842784
 20
-73.657634659277747
 30
0.0
 11
870.01921414154344
 21
-70.459934659277749
 31
0.0
  0
LINE
  5
1D5
100
AcDbEntity
  8
SENZA_NOME
390
0
  6
Continuous
 62
               4
100
AcDbLine
 10
957.61997925793128
 20
-74.055400756443348
 30
0.0
 11
917.65151646005256
 21
-71.164320756443345
 31
0.0
  0
LINE
  5
1D6
100
AcDbEntity
  8
SENZA_NOME
390
0
  6
Continuous
 62
               4
100
AcDbLine
 10
957.43961541744636
 20
-76.548886045159833
 30
0.0
 11
917.47115261956765
 21
-73.65780604515983
 31
0.0
  0
LINE
  5
1D7
100
AcDbEntity
  8
SENZA_NOME
390
0
  6
Continuous
 62
               4
100
AcDbLine
 10
1011.8917713045084
 20
-77.827427506919648
 30
0.0
 11
957.6115490971664
 21
-74.054802904213872
 31
0.0
  0
LINE
  5
1D8
100
AcDbEntity
  8
SENZA_NOME
390
0
  6
Continuous
 62
               4
100
AcDbLine
 10
1011.8917713045084
 20
-80.333458522256066
 30
0.0
 11
957.43821039065222
 21
-76.548786403121596
 31
0.0
  0
ENDBLK
  5
1D9
100
AcDbEntity
  8
0
390
0
100
AcDbBlockEnd
  0
BLOCK
  5
228
100
AcDbEntity
  8
0
390
0
100
AcDbBlockBegin
  2
B02D57054
 70
               0
 10
0.0
 20
0.0
 30
0.0
  3

  1

  0
TEXT
  5
229
100
AcDbEntity
  8
SENZA_NOME
390
0
100
AcDbText
 10
1225.5941861615415
 20
221.03137277562837
 30
0.0
 40
3.3500000000000001
  1
110.0%%d
 41
1.05
100
AcDbText
  0
ARC
  5
22A
100
AcDbEntity
  8
SENZA_NOME
390
0
  6
Continuous
100
AcDbCircle
 10
1235.3164083837637
 20
141.5738749281806
 30
0.0
 40
74.457497847447783
100
AcDbArc
 50
34.999999999999993
 51
145.0
  0
SOLID
  5
22B
100
AcDbEntity
  8
SENZA_NOME
390
0
100
AcDbTrace
 10
1296.3084199581438
 20
184.28094120313537
 30
0.0
 11
1292.3430821342315
 21
187.60825470867343
 31
0.0
 12
1294.5379934208174
 22
189.14514813724247
 32
0.0
 13
1294.5379934208174
 23
189.14514813724247
 33
0.0
  0
SOLID
  5
22C
100
AcDbEntity
  8
SENZA_NOME
390
0
100
AcDbTrace
 10
1174.3243968093836
 20
184.28094120313537
 30
0.0
 11
1176.09482334671
 21
189.14514813724247
 31
0.0
 12
1178.2897346332959
 22
187.60825470867343
 32
0.0
 13
1178.2897346332959
 23
187.60825470867343
 33
0.0
  0
ENDBLK
  5
22D
100
AcDbEntity
  8
0
390
0
100
AcDbBlockEnd
  0
BLOCK
  5
247
100
AcDbEntity
  8
0
390
0
100
AcDbBlockBegin
  2
B02D58240
 70
               0
 10
0.0
 20
0.0
 30
0.0
  3

  1

  0
ARC
  5
248
100
AcDbEntity
  8
0
390
0
100
AcDbCircle
 10
254.13737354742037
 20
161.39226603460878
 30
0.0
 40
5.0
100
AcDbArc
 50
0.1580478386953848
 51
89.898551101853002
  0
ARC
  5
249
100
AcDbEntity
  8
0
390
0
100
AcDbCircle
 10
254.13737354742037
 20
161.39226603460878
 30
0.0
 40
5.0
100
AcDbArc
 50
270.10148367657899
 51
0.1580478386953888
  0
LWPOLYLINE
  5
24A
100
AcDbEntity
  8
0
390
0
100
AcDbPolyline
 90
       23
 70
               1
 10
249.12639870259986
 20
161.40599551646
 10
254.14624050444928
 20
161.40599551646
 10
254.14624050444928
 20
156.38585592340053
 10
254.14622966425642
 20
156.39227387769546
 10
253.73212009917751
 20
156.40871613090687
 10
253.320794740049
 20
156.45939678321443
 10
252.91507950856854
 20
156.54396764418485
 10
252.51776178326816
 20
156.66184768805425
 10
252.13157124943439
 20
156.81222704553957
 10
251.75916114539734
 20
156.99407256786998
 10
251.40309003403203
 20
157.20613492481149
 10
251.06580422470691
 20
157.44695718791939
 10
250.74962096644572
 20
157.71488484004931
 10
250.45671252777052
 20
158.00807714235853
 10
250.18909127260176
 20
158.32451978070299
 10
249.94859583474826
 20
158.66203870454606
 10
249.73687848597243
 20
159.0183150633012
 10
249.55539378441506
 20
159.39090113749234
 10
249.40538858136935
 20
159.77723715527961
 10
249.28789345505916
 20
160.17466887881696
 10
249.20371563027487
 20
160.58046583961769
 10
249.15343343251052
 20
160.99184009764619
 10
249.13739231470382
 20
161.40596539525552
  0
ARC
  5
24B
100
AcDbEntity
  8
0
390
0
100
AcDbCircle
 10
254.13737354742037
 20
161.39226603460878
 30
0.0
 40
5.0
100
AcDbArc
 50
89.898551101853002
 51
179.84301669417269
  0
LINE
  5
24C
100
AcDbEntity
  8
0
390
0
100
AcDbLine
 10
254.14624050444928
 20
161.40599551646
 30
0.0
 11
259.16621431967934
 21
161.40599551646
 31
0.0
  0
LINE
  5
24D
100
AcDbEntity
  8
0
390
0
100
AcDbLine
 10
254.14624050444928
 20
166.40009453983839
 30
0.0
 11
254.14624050444928
 21
161.40599551646
 31
0.0
  0
ENDBLK
  5
24E
100
AcDbEntity
  8
0
390
0
100
AcDbBlockEnd
  0
BLOCK
  5
2DB
100
AcDbEntity
  8
0
390
0
100
AcDbBlockBegin
  2
B02D574C0
 70
               0
 10
0.0
 20
0.0
 30
0.0
  3

  1

  0
LINE
  5
2DC
100
AcDbEntity
  8
0
390
0
 62
               7
100
AcDbLine
 10
30.981525610505145
 20
264.32015640578845
 30
0.0
 11
41.081525610482174
 21
264.32013934497604
 31
0.0
  0
LINE
  5
2DD
100
AcDbEntity
  8
0
390
0
 62
               7
100
AcDbLine
 10
41.081505340209958
 20
207.32013934501029
 30
0.0
 11
30.981505340232928
 21
207.32015640582273
 31
0.0
  0
LINE
  5
2DE
100
AcDbEntity
  8
0
390
0
 62
               7
100
AcDbLine
 10
75.981505340151585
 20
207.32008039230197
 30
0.0
 11
65.881507103848151
 21
207.32009745311143
 31
0.0
  0
LINE
  5
2DF
100
AcDbEntity
  8
0
390
0
 62
               7
100
AcDbLine
 10
65.881525092975039
 20
264.32009745308108
 30
0.0
 11
75.981525610423802
 21
264.32008039226776
 31
0.0
  0
LINE
  5
2E0
100
AcDbEntity
  8
0
390
0
 62
               7
100
AcDbLine
 10
65.881505340174556
 20
210.32009745311441
 30
0.0
 11
65.881507103848151
 21
207.32009745311143
 31
0.0
  0
LINE
  5
2E1
100
AcDbEntity
  8
0
390
0
 62
               7
100
AcDbLine
 10
41.081505340209958
 20
210.32013934501029
 30
0.0
 11
65.881505340174556
 21
210.32009745311441
 31
0.0
  0
LINE
  5
2E2
100
AcDbEntity
  8
0
390
0
 62
               7
100
AcDbLine
 10
41.081505340209958
 20
207.32013934501029
 30
0.0
 11
41.081505340209958
 21
210.32013934501029
 31
0.0
  0
LINE
  5
2E3
100
AcDbEntity
  8
0
390
0
 62
               7
100
AcDbLine
 10
65.881525610446772
 20
261.32009745308017
 30
0.0
 11
65.881525092975068
 21
264.32009745308108
 31
0.0
  0
LINE
  5
2E4
100
AcDbEntity
  8
0
390
0
 62
               7
100
AcDbLine
 10
41.081525610482174
 20
261.32013934497604
 30
0.0
 11
65.881525610446772
 21
261.32009745308017
 31
0.0
  0
LINE
  5
2E5
100
AcDbEntity
  8
0
390
0
 62
               7
100
AcDbLine
 10
41.081525610482174
 20
264.32013934497604
 30
0.0
 11
41.081525610482174
 21
261.32013934497604
 31
0.0
  0
LINE
  5
2E6
100
AcDbEntity
  8
0
390
0
 62
               7
100
AcDbLine
 10
81.981515475287722
 20
258.32008039227628
 30
0.0
 11
81.981515475287694
 21
248.32007025714876
 31
0.0
  0
LINE
  5
2E7
100
AcDbEntity
  8
0
390
0
 62
               7
100
AcDbLine
 10
24.981515475369036
 20
248.32015640580562
 30
0.0
 11
24.981515475369036
 21
258.32015640579709
 31
0.0
  0
LINE
  5
2E8
100
AcDbEntity
  8
0
390
0
 62
               7
100
AcDbLine
 10
24.981515475369036
 20
213.32015640581417
 30
0.0
 11
24.981515475369036
 21
223.32015640580562
 31
0.0
  0
LINE
  5
2E9
100
AcDbEntity
  8
0
390
0
 62
               7
100
AcDbLine
 10
81.981515475287665
 20
223.32007025714876
 30
0.0
 11
81.981515475287665
 21
213.32008039229339
 31
0.0
  0
LINE
  5
2EA
100
AcDbEntity
  8
0
390
0
 62
               7
100
AcDbLine
 10
27.481515475369036
 20
223.32015640580562
 30
0.0
 11
24.981515475369036
 21
223.32015640580562
 31
0.0
  0
LINE
  5
2EB
100
AcDbEntity
  8
0
390
0
 62
               7
100
AcDbLine
 10
27.481515475369036
 20
248.32015640580562
 30
0.0
 11
27.481515475369036
 21
223.32015640580562
 31
0.0
  0
LINE
  5
2EC
100
AcDbEntity
  8
0
390
0
 62
               7
100
AcDbLine
 10
24.981515475369036
 20
248.32015640580562
 30
0.0
 11
27.481515475369036
 21
248.32015640580562
 31
0.0
  0
LINE
  5
2ED
100
AcDbEntity
  8
0
390
0
 62
               7
100
AcDbLine
 10
79.481515475287694
 20
223.32007025714876
 30
0.0
 11
81.981515475287665
 21
223.32007025714876
 31
0.0
  0
LINE
  5
2EE
100
AcDbEntity
  8
0
390
0
 62
               7
100
AcDbLine
 10
79.481515475287694
 20
248.32007025714876
 30
0.0
 11
79.481515475287694
 21
223.32007025714876
 31
0.0
  0
LINE
  5
2EF
100
AcDbEntity
  8
0
390
0
 62
               7
100
AcDbLine
 10
81.981515475287694
 20
248.32007025714876
 30
0.0
 11
79.481515475287694
 21
248.32007025714876
 31
0.0
  0
ARC
  5
2F0
100
AcDbEntity
  8
0
390
0
 62
               7
100
AcDbCircle
 10
30.981515475369036
 20
258.32015640579704
 30
0.0
 40
6.0
100
AcDbArc
 50
89.999903216579369
 51
179.99999999999943
  0
ARC
  5
2F1
100
AcDbEntity
  8
0
390
0
 62
               7
100
AcDbCircle
 10
30.981515475369036
 20
213.32015640581417
 30
0.0
 40
6.0
100
AcDbArc
 50
180.0
 51
269.99990321657941
  0
ARC
  5
2F2
100
AcDbEntity
  8
0
390
0
 62
               7
100
AcDbCircle
 10
75.981515475287665
 20
213.32008039229339
 30
0.0
 40
6.0
100
AcDbArc
 50
269.99990321657941
 51
359.99999999999994
  0
ARC
  5
2F3
100
AcDbEntity
  8
0
390
0
 62
               7
100
AcDbCircle
 10
75.981515475287722
 20
258.32008039227628
 30
0.0
 40
6.0
100
AcDbArc
 50
359.99999999999994
 51
89.999903216579426
  0
ENDBLK
  5
2F4
100
AcDbEntity
  8
0
390
0
100
AcDbBlockEnd
  0
BLOCK
  5
2F7
100
AcDbEntity
  8
0
390
0
100
AcDbBlockBegin
  2
B02D5C98C
 70
               0
 10
0.0
 20
0.0
 30
0.0
  3

  1

  0
CIRCLE
  5
2F8
100
AcDbEntity
  8
0
390
0
 62
               7
100
AcDbCircle
 10
841.0708152951097
 20
246.54016817249251
 30
0.0
 40
5.0
  0
CIRCLE
  5
2F9
100
AcDbEntity
  8
0
390
0
 62
               7
100
AcDbCircle
 10
862.08752352032639
 20
246.54022547473738
 30
0.0
 40
5.0
  0
CIRCLE
  5
2FA
100
AcDbEntity
  8
0
390
0
 62
               7
100
AcDbCircle
 10
819.72050916999967
 20
246.54010996068993
 30
0.0
 40
5.0
  0
CIRCLE
  5
2FB
100
AcDbEntity
  8
0
390
0
 62
               7
100
AcDbCircle
 10
883.27103101716682
 20
246.54028323176198
 30
0.0
 40
5.0
  0
CIRCLE
  5
2FC
100
AcDbEntity
  8
0
390
0
 62
               7
100
AcDbCircle
 10
915.29649181251432
 20
246.5403705494702
 30
0.0
 40
5.0
  0
ARC
  5
2FD
100
AcDbEntity
  8
0
390
0
 62
               7
100
AcDbCircle
 10
899.76373367622375
 20
257.83507853307577
 30
0.0
 40
6.0
100
AcDbArc
 50
175.65089484580227
 51
355.9860127819436
  0
ARC
  5
2FE
100
AcDbEntity
  8
0
390
0
 62
               7
100
AcDbCircle
 10
899.76373367622352
 20
235.2450785330758
 30
0.0
 40
6.0
100
AcDbArc
 50
4.0139872180563048
 51
184.34910515419818
  0
LINE
  5
2FF
100
AcDbEntity
  8
0
390
0
 62
               7
100
AcDbLine
 10
893.78101063399606
 20
234.79007853307576
 30
0.0
 11
808.19382293039257
 21
234.79007853307576
 31
0.0
  0
LINE
  5
300
100
AcDbEntity
  8
0
390
0
 62
               7
100
AcDbLine
 10
808.19382293039257
 20
258.29007853307576
 30
0.0
 11
893.78101063399606
 21
258.29007853307576
 31
0.0
  0
LINE
  5
301
100
AcDbEntity
  8
0
390
0
 62
               7
100
AcDbLine
 10
928.19382293039246
 20
255.84007853307577
 30
0.0
 11
905.74901562446973
 21
257.41507853307576
 31
0.0
  0
LINE
  5
302
100
AcDbEntity
  8
0
390
0
 62
               7
100
AcDbLine
 10
928.19382293039246
 20
237.24007853307575
 30
0.0
 11
905.74901562446951
 21
235.66507853307579
 31
0.0
  0
LINE
  5
303
100
AcDbEntity
  8
0
390
0
 62
               7
100
AcDbLine
 10
928.19382293039246
 20
255.84007853307577
 30
0.0
 11
928.20314839290825
 21
237.24073292067027
 31
0.0
  0
LINE
  5
304
100
AcDbEntity
  8
0
390
0
 62
               7
100
AcDbLine
 10
808.19382293039257
 20
234.79007853307576
 30
0.0
 11
808.19382293039257
 21
258.29007853307576
 31
0.0
  0
ENDBLK
  5
305
100
AcDbEntity
  8
0
390
0
100
AcDbBlockEnd
  0
BLOCK
  5
308
100
AcDbEntity
  8
0
390
0
100
AcDbBlockBegin
  2
B02D5D710
 70
               0
 10
0.0
 20
0.0
 30
0.0
  3

  1

  0
LINE
  5
309
100
AcDbEntity
  8
0
390
0
 62
               7
100
AcDbLine
 10
230.60097728474085
 20
197.21256373697651
 30
0.0
 11
165.80097728474087
 21
197.18765312812917
 31
0.0
  0
LINE
  5
30A
100
AcDbEntity
  8
0
390
0
 62
               7
100
AcDbLine
 10
162.30097728474084
 20
247.5325637369765
 30
0.0
 11
165.80097728474087
 21
247.5325637369765
 31
0.0
  0
LINE
  5
30B
100
AcDbEntity
  8
0
390
0
 62
               7
100
AcDbLine
 10
162.30097728474084
 20
232.5325637369765
 30
0.0
 11
165.80097728474087
 21
232.5325637369765
 31
0.0
  0
LINE
  5
30C
100
AcDbEntity
  8
0
390
0
 62
               7
100
AcDbLine
 10
234.10097728474085
 20
247.5325637369765
 30
0.0
 11
230.60097728474085
 21
247.5325637369765
 31
0.0
  0
LINE
  5
30D
100
AcDbEntity
  8
0
390
0
 62
               7
100
AcDbLine
 10
234.10097728474085
 20
232.5325637369765
 30
0.0
 11
230.60097728474085
 21
232.5325637369765
 31
0.0
  0
LINE
  5
30E
100
AcDbEntity
  8
0
390
0
 62
               7
100
AcDbLine
 10
162.30097728474084
 20
247.5325637369765
 30
0.0
 11
162.30097728474084
 21
232.5325637369765
 31
0.0
  0
LINE
  5
30F
100
AcDbEntity
  8
0
390
0
 62
               7
100
AcDbLine
 10
234.10097728474085
 20
247.5325637369765
 30
0.0
 11
234.10097728474085
 21
232.5325637369765
 31
0.0
  0
LINE
  5
310
100
AcDbEntity
  8
0
390
0
 62
               7
100
AcDbLine
 10
165.80097728474087
 20
197.21256373697651
 30
0.0
 11
165.80097728474087
 21
232.5325637369765
 31
0.0
  0
LINE
  5
311
100
AcDbEntity
  8
0
390
0
 62
               7
100
AcDbLine
 10
230.60097728474085
 20
232.5325637369765
 30
0.0
 11
230.60097728474085
 21
197.21256373697651
 31
0.0
  0
LINE
  5
312
100
AcDbEntity
  8
0
390
0
 62
               7
100
AcDbLine
 10
205.70097728474084
 20
276.81256373697647
 30
0.0
 11
205.70097728474084
 21
279.81256373697647
 31
0.0
  0
LINE
  5
313
100
AcDbEntity
  8
0
390
0
 62
               7
100
AcDbLine
 10
190.70097728474084
 20
276.81256373697653
 30
0.0
 11
190.70097728474084
 21
279.81256373697653
 31
0.0
  0
LINE
  5
314
100
AcDbEntity
  8
0
390
0
 62
               7
100
AcDbLine
 10
190.70097728474084
 20
279.81256373697647
 30
0.0
 11
205.70097728474084
 21
279.81256373697647
 31
0.0
  0
ARC
  5
315
100
AcDbEntity
  8
0
390
0
 62
               7
100
AcDbCircle
 10
214.60091278233688
 20
260.81256373697647
 30
0.0
 40
6.0
100
AcDbArc
 50
359.99999999999983
 51
89.999999999999986
  0
ARC
  5
316
100
AcDbEntity
  8
0
390
0
 62
               7
100
AcDbCircle
 10
181.80097728474081
 20
260.81256373697647
 30
0.0
 40
6.0
100
AcDbArc
 50
90.000000000000327
 51
180.00000000000003
  0
LINE
  5
317
100
AcDbEntity
  8
0
390
0
 62
               7
100
AcDbLine
 10
214.60091278233688
 20
266.81256373697647
 30
0.0
 11
181.80097728474078
 21
266.81256373697647
 31
0.0
  0
ARC
  5
318
100
AcDbEntity
  8
0
390
0
 62
               7
100
AcDbCircle
 10
214.60091278233688
 20
213.20871948241989
 30
0.0
 40
6.0
100
AcDbArc
 50
270.00000000000011
 51
360.0
  0
LINE
  5
319
100
AcDbEntity
  8
0
390
0
 62
               7
100
AcDbLine
 10
220.60091278233688
 20
260.81256373697647
 30
0.0
 11
220.60091278233688
 21
213.20871948241989
 31
0.0
  0
ARC
  5
31A
100
AcDbEntity
  8
0
390
0
 62
               7
100
AcDbCircle
 10
181.80097728474081
 20
213.20871948241989
 30
0.0
 40
6.0
100
AcDbArc
 50
179.99999999999991
 51
270.0
  0
LINE
  5
31B
100
AcDbEntity
  8
0
390
0
 62
               7
100
AcDbLine
 10
214.60091278233688
 20
207.20871948241989
 30
0.0
 11
181.80097728474081
 21
207.20871948241989
 31
0.0
  0
LINE
  5
31C
100
AcDbEntity
  8
0
390
0
 62
               7
100
AcDbLine
 10
175.80097728474081
 20
213.20871948241992
 30
0.0
 11
175.80097728474081
 21
260.81256373697647
 31
0.0
  0
LINE
  5
31D
100
AcDbEntity
  8
0
390
0
 62
               7
100
AcDbLine
 10
220.60097728474091
 20
276.81256373697647
 30
0.0
 11
230.60097728474085
 21
266.81256373697659
 31
0.0
  0
LINE
  5
31E
100
AcDbEntity
  8
0
390
0
 62
               7
100
AcDbLine
 10
205.70097728474084
 20
276.81256373697647
 30
0.0
 11
220.60097728474091
 21
276.81256373697647
 31
0.0
  0
LINE
  5
31F
100
AcDbEntity
  8
0
390
0
 62
               7
100
AcDbLine
 10
230.60097728474085
 20
266.81256373697659
 30
0.0
 11
230.60097728474085
 21
247.5325637369765
 31
0.0
  0
LINE
  5
320
100
AcDbEntity
  8
0
390
0
 62
               7
100
AcDbLine
 10
165.80097728474087
 20
266.81256373697647
 30
0.0
 11
175.80097728474098
 21
276.81256373697647
 31
0.0
  0
LINE
  5
321
100
AcDbEntity
  8
0
390
0
 62
               7
100
AcDbLine
 10
165.80097728474087
 20
247.5325637369765
 30
0.0
 11
165.80097728474087
 21
266.81256373697647
 31
0.0
  0
LINE
  5
322
100
AcDbEntity
  8
0
390
0
 62
               7
100
AcDbLine
 10
175.80097728474098
 20
276.81256373697647
 30
0.0
 11
190.70097728474084
 21
276.81256373697653
 31
0.0
  0
ENDBLK
  5
323
100
AcDbEntity
  8
0
390
0
100
AcDbBlockEnd
  0
BLOCK
  5
326
100
AcDbEntity
  8
0
390
0
100
AcDbBlockBegin
  2
B02D5E918
 70
               0
 10
0.0
 20
0.0
 30
0.0
  3

  1

  0
LINE
  5
327
100
AcDbEntity
  8
0
390
0
 62
               7
100
AcDbLine
 10
307.51050885959978
 20
256.83009846606052
 30
0.0
 11
340.81050885960002
 21
256.83009846606052
 31
0.0
  0
LINE
  5
328
100
AcDbEntity
  8
0
390
0
 62
               7
100
AcDbLine
 10
360.31050885959985
 20
237.03009846606051
 30
0.0
 11
360.31050885959985
 21
222.03009846606051
 31
0.0
  0
LINE
  5
329
100
AcDbEntity
  8
0
390
0
 62
               7
100
AcDbLine
 10
288.01050885959984
 20
237.03009846606051
 30
0.0
 11
288.01050885959984
 21
222.03009846606051
 31
0.0
  0
LINE
  5
32A
100
AcDbEntity
  8
0
390
0
 62
               7
100
AcDbLine
 10
360.31050885959985
 20
237.03009846606051
 30
0.0
 11
356.81050885959985
 21
237.03009846606051
 31
0.0
  0
LINE
  5
32B
100
AcDbEntity
  8
0
390
0
 62
               7
100
AcDbLine
 10
360.31050885959985
 20
222.03009846606051
 30
0.0
 11
356.81050885959985
 21
222.03009846606051
 31
0.0
  0
LINE
  5
32C
100
AcDbEntity
  8
0
390
0
 62
               7
100
AcDbLine
 10
291.51050885959984
 20
222.03009846606051
 30
0.0
 11
288.01050885959984
 21
222.03009846606051
 31
0.0
  0
LINE
  5
32D
100
AcDbEntity
  8
0
390
0
 62
               7
100
AcDbLine
 10
291.51050885959984
 20
237.03009846606051
 30
0.0
 11
288.01050885959984
 21
237.03009846606051
 31
0.0
  0
LINE
  5
32E
100
AcDbEntity
  8
0
390
0
 62
               7
100
AcDbLine
 10
316.66050885959987
 20
266.83009846606052
 30
0.0
 11
316.66050885959987
 21
269.83009846606052
 31
0.0
  0
LINE
  5
32F
100
AcDbEntity
  8
0
390
0
 62
               7
100
AcDbLine
 10
316.66050885959987
 20
269.83009846606052
 30
0.0
 11
331.66050885959987
 21
269.83009846606052
 31
0.0
  0
LINE
  5
330
100
AcDbEntity
  8
0
390
0
 62
               7
100
AcDbLine
 10
331.66050885959987
 20
269.83009846606052
 30
0.0
 11
331.66050885959987
 21
266.83009846606052
 31
0.0
  0
LINE
  5
331
100
AcDbEntity
  8
0
390
0
 62
               7
100
AcDbLine
 10
356.81050885959985
 20
222.03009846606051
 30
0.0
 11
356.81050885959985
 21
212.53009846606051
 31
0.0
  0
LINE
  5
332
100
AcDbEntity
  8
0
390
0
 62
               7
100
AcDbLine
 10
291.51050885959984
 20
222.03009846606051
 30
0.0
 11
291.51050885959984
 21
212.53009846606051
 31
0.0
  0
ARC
  5
333
100
AcDbEntity
  8
0
390
0
 62
               7
100
AcDbCircle
 10
352.81050885959979
 20
218.53009846606051
 30
0.0
 40
6.0
100
AcDbArc
 50
179.99999999999932
 51
270.00000000000216
  0
LINE
  5
334
100
AcDbEntity
  8
0
390
0
 62
               7
100
AcDbLine
 10
352.81050885960002
 20
212.53009846606051
 30
0.0
 11
356.81050885959985
 21
212.53009846606051
 31
0.0
  0
ARC
  5
335
100
AcDbEntity
  8
0
390
0
 62
               7
100
AcDbCircle
 10
340.81050885959991
 20
250.83009846606052
 30
0.0
 40
6.0
100
AcDbArc
 50
0.0000000000006984
 51
89.999999999998678
  0
LINE
  5
336
100
AcDbEntity
  8
0
390
0
 62
               7
100
AcDbLine
 10
346.81050885959985
 20
250.83009846606058
 30
0.0
 11
346.81050885959979
 21
218.53009846606059
 31
0.0
  0
ARC
  5
337
100
AcDbEntity
  8
0
390
0
 62
               7
100
AcDbCircle
 10
307.51050885959984
 20
250.83009846606052
 30
0.0
 40
6.0
100
AcDbArc
 50
90.00000000000027
 51
179.99999999999889
  0
ARC
  5
338
100
AcDbEntity
  8
0
390
0
 62
               7
100
AcDbCircle
 10
295.51050885959984
 20
218.53009846606045
 30
0.0
 40
6.0
100
AcDbArc
 50
270.00000000000176
 51
360.0
  0
LINE
  5
339
100
AcDbEntity
  8
0
390
0
 62
               7
100
AcDbLine
 10
301.51050885959984
 20
250.83009846606063
 30
0.0
 11
301.51050885959984
 21
218.53009846606045
 31
0.0
  0
LINE
  5
33A
100
AcDbEntity
  8
0
390
0
 62
               7
100
AcDbLine
 10
295.51050885960001
 20
212.53009846606045
 30
0.0
 11
291.51050885959984
 21
212.53009846606051
 31
0.0
  0
LINE
  5
33B
100
AcDbEntity
  8
0
390
0
 62
               7
100
AcDbLine
 10
346.81050885959968
 20
266.83009846606058
 30
0.0
 11
356.81050885959985
 21
256.83009846606035
 31
0.0
  0
LINE
  5
33C
100
AcDbEntity
  8
0
390
0
 62
               7
100
AcDbLine
 10
331.66050885959987
 20
266.83009846606052
 30
0.0
 11
346.81050885959968
 21
266.83009846606058
 31
0.0
  0
LINE
  5
33D
100
AcDbEntity
  8
0
390
0
 62
               7
100
AcDbLine
 10
356.81050885959985
 20
237.03009846606051
 30
0.0
 11
356.81050885959985
 21
256.83009846606035
 31
0.0
  0
LINE
  5
33E
100
AcDbEntity
  8
0
390
0
 62
               7
100
AcDbLine
 10
291.51050885959984
 20
256.83009846606058
 30
0.0
 11
301.51050885959972
 21
266.83009846606052
 31
0.0
  0
LINE
  5
33F
100
AcDbEntity
  8
0
390
0
 62
               7
100
AcDbLine
 10
291.51050885959984
 20
237.03009846606051
 30
0.0
 11
291.51050885959984
 21
256.83009846606058
 31
0.0
  0
LINE
  5
340
100
AcDbEntity
  8
0
390
0
 62
               7
100
AcDbLine
 10
301.51050885959972
 20
266.83009846606052
 30
0.0
 11
316.66050885959987
 21
266.83009846606052
 31
0.0
  0
ENDBLK
  5
341
100
AcDbEntity
  8
0
390
0
100
AcDbBlockEnd
  0
BLOCK
  5
344
100
AcDbEntity
  8
0
390
0
100
AcDbBlockBegin
  2
B02D5FB20
 70
               0
 10
0.0
 20
0.0
 30
0.0
  3

  1

  0
LINE
  5
345
100
AcDbEntity
  8
0
390
0
 62
               7
100
AcDbLine
 10
421.9500288717577
 20
197.26311839904787
 30
0.0
 11
483.65002887175768
 21
197.26311839904787
 31
0.0
  0
LINE
  5
346
100
AcDbEntity
  8
0
390
0
 62
               7
100
AcDbLine
 10
445.30003201614835
 20
271.37711839904256
 30
0.0
 11
445.30003201614835
 21
274.37711839904256
 31
0.0
  0
LINE
  5
347
100
AcDbEntity
  8
0
390
0
 62
               7
100
AcDbLine
 10
445.30003201614835
 20
274.37711839904256
 30
0.0
 11
460.30003201614835
 21
274.37711839904256
 31
0.0
  0
LINE
  5
348
100
AcDbEntity
  8
0
390
0
 62
               7
100
AcDbLine
 10
460.30003201614835
 20
274.37711839904256
 30
0.0
 11
460.30003201614835
 21
271.37711839904256
 31
0.0
  0
LINE
  5
349
100
AcDbEntity
  8
0
390
0
 62
               7
100
AcDbLine
 10
483.65003078616445
 20
242.38611839904257
 30
0.0
 11
487.15003078616445
 21
242.38611839904257
 31
0.0
  0
LINE
  5
34A
100
AcDbEntity
  8
0
390
0
 62
               7
100
AcDbLine
 10
487.15003078616445
 20
242.38611839904257
 30
0.0
 11
487.15003014976833
 21
227.3861183990426
 31
0.0
  0
LINE
  5
34B
100
AcDbEntity
  8
0
390
0
 62
               7
100
AcDbLine
 10
487.15003014976833
 20
227.3861183990426
 30
0.0
 11
483.65003014976833
 21
227.38611839571541
 31
0.0
  0
LINE
  5
34C
100
AcDbEntity
  8
0
390
0
 62
               7
100
AcDbLine
 10
421.95003078616446
 20
242.38611839904257
 30
0.0
 11
418.45003078616446
 21
242.38611839904257
 31
0.0
  0
LINE
  5
34D
100
AcDbEntity
  8
0
390
0
 62
               7
100
AcDbLine
 10
418.45003078616446
 20
242.38611839904257
 30
0.0
 11
418.45003014976834
 21
227.3861183990426
 31
0.0
  0
LINE
  5
34E
100
AcDbEntity
  8
0
390
0
 62
               7
100
AcDbLine
 10
418.45003014976834
 20
227.3861183990426
 30
0.0
 11
421.95003014976834
 21
227.38611840216572
 31
0.0
  0
LINE
  5
34F
100
AcDbEntity
  8
0
390
0
 62
               7
100
AcDbLine
 10
421.95003014976834
 20
227.38611840216572
 30
0.0
 11
421.9500288717577
 21
197.26311839904787
 31
0.0
  0
LINE
  5
350
100
AcDbEntity
  8
0
390
0
 62
               7
100
AcDbLine
 10
483.65003014976833
 20
227.38611839571541
 30
0.0
 11
483.65002887175768
 21
197.26311839904787
 31
0.0
  0
ARC
  5
351
100
AcDbEntity
  8
0
390
0
 62
               7
100
AcDbCircle
 10
467.65003133732591
 20
255.37711839904256
 30
0.0
 40
6.0
100
AcDbArc
 50
359.99999756914627
 51
89.999999999999687
  0
ARC
  5
352
100
AcDbEntity
  8
0
390
0
 62
               7
100
AcDbCircle
 10
467.6500295505802
 20
213.26311839904787
 30
0.0
 40
6.0
100
AcDbArc
 50
270.00000000000023
 51
359.99999756914679
  0
LINE
  5
353
100
AcDbEntity
  8
0
390
0
 62
               7
100
AcDbLine
 10
473.65003133732591
 20
255.37711814448414
 30
0.0
 11
473.6500295505802
 21
213.26311814448951
 31
0.0
  0
ARC
  5
354
100
AcDbEntity
  8
0
390
0
 62
               7
100
AcDbCircle
 10
437.95002955058021
 20
213.26311839904787
 30
0.0
 40
6.0
100
AcDbArc
 50
179.99999756914579
 51
269.99999999999972
  0
LINE
  5
355
100
AcDbEntity
  8
0
390
0
 62
               7
100
AcDbLine
 10
437.95002955058015
 20
207.26311839904787
 30
0.0
 11
467.6500295505802
 21
207.26311839904787
 31
0.0
  0
ARC
  5
356
100
AcDbEntity
  8
0
390
0
 62
               7
100
AcDbCircle
 10
437.95003133732598
 20
255.3771183990425
 30
0.0
 40
6.0
100
AcDbArc
 50
90.000000000000668
 51
179.99999756914585
  0
LINE
  5
357
100
AcDbEntity
  8
0
390
0
 62
               7
100
AcDbLine
 10
431.95003133732598
 20
255.37711865360097
 30
0.0
 11
431.95002955058021
 21
213.26311865360634
 31
0.0
  0
LINE
  5
358
100
AcDbEntity
  8
0
390
0
 62
               7
100
AcDbLine
 10
437.95003133732587
 20
261.3771183990425
 30
0.0
 11
467.65003133732597
 21
261.37711839904256
 31
0.0
  0
LINE
  5
359
100
AcDbEntity
  8
0
390
0
 62
               7
100
AcDbLine
 10
473.65003201614832
 20
271.37711839904262
 30
0.0
 11
483.65003159188433
 21
261.37711839904239
 31
0.0
  0
LINE
  5
35A
100
AcDbEntity
  8
0
390
0
 62
               7
100
AcDbLine
 10
473.65003201614832
 20
271.37711839904262
 30
0.0
 11
460.30003201614835
 21
271.37711839904256
 31
0.0
  0
LINE
  5
35B
100
AcDbEntity
  8
0
390
0
 62
               7
100
AcDbLine
 10
483.65003159188433
 20
261.37711839904239
 30
0.0
 11
483.65003078616445
 21
242.38611839904257
 31
0.0
  0
LINE
  5
35C
100
AcDbEntity
  8
0
390
0
 62
               7
100
AcDbLine
 10
421.95003159188434
 20
261.37711839904267
 30
0.0
 11
431.9500320161485
 21
271.37711839904256
 31
0.0
  0
LINE
  5
35D
100
AcDbEntity
  8
0
390
0
 62
               7
100
AcDbLine
 10
421.95003159188434
 20
261.37711839904267
 30
0.0
 11
421.95003078616446
 21
242.38611839904257
 31
0.0
  0
LINE
  5
35E
100
AcDbEntity
  8
0
390
0
 62
               7
100
AcDbLine
 10
445.30003201614835
 20
271.37711839904256
 30
0.0
 11
431.9500320161485
 21
271.37711839904256
 31
0.0
  0
ENDBLK
  5
35F
100
AcDbEntity
  8
0
390
0
100
AcDbBlockEnd
  0
BLOCK
  5
362
100
AcDbEntity
  8
0
390
0
100
AcDbBlockBegin
  2
B02D605C0
 70
               0
 10
0.0
 20
0.0
 30
0.0
  3

  1

  0
LINE
  5
363
100
AcDbEntity
  8
0
390
0
 62
               7
100
AcDbLine
 10
510.43980123864191
 20
52.220915718434171
 30
0.0
 11
518.43980123864185
 21
52.220915718434171
 31
0.0
  0
LINE
  5
364
100
AcDbEntity
  8
0
390
0
 62
               7
100
AcDbLine
 10
510.43980123864191
 20
-9.3790842815658237
 30
0.0
 11
518.43980123864185
 21
-9.3790842815658237
 31
0.0
  0
LINE
  5
365
100
AcDbEntity
  8
0
390
0
 62
               7
100
AcDbLine
 10
510.43980123864191
 20
52.220915718434171
 30
0.0
 11
510.43980123864191
 21
-9.3790842815658237
 31
0.0
  0
LINE
  5
366
100
AcDbEntity
  8
0
390
0
 62
               7
100
AcDbLine
 10
518.43980123864185
 20
52.220915718434171
 30
0.0
 11
518.43980123864185
 21
-9.3790842815658237
 31
0.0
  0
ENDBLK
  5
367
100
AcDbEntity
  8
0
390
0
100
AcDbBlockEnd
  0
BLOCK
  5
36A
100
AcDbEntity
  8
0
390
0
100
AcDbBlockBegin
  2
B02D608F8
 70
               0
 10
0.0
 20
0.0
 30
0.0
  3

  1

  0
LINE
  5
36B
100
AcDbEntity
  8
0
390
0
 62
               7
100
AcDbLine
 10
451.48002050147409
 20
-8.8990942480581907
 30
0.0
 11
459.48002050147409
 21
-8.8990942480581907
 31
0.0
  0
LINE
  5
36C
100
AcDbEntity
  8
0
390
0
 62
               7
100
AcDbLine
 10
451.48002050147409
 20
57.100905751941809
 30
0.0
 11
459.48002050147409
 21
57.100905751941809
 31
0.0
  0
LINE
  5
36D
100
AcDbEntity
  8
0
390
0
 62
               7
100
AcDbLine
 10
451.48002050147409
 20
57.100905751941809
 30
0.0
 11
451.48002050147409
 21
-8.8990942480581907
 31
0.0
  0
LINE
  5
36E
100
AcDbEntity
  8
0
390
0
 62
               7
100
AcDbLine
 10
459.48002050147409
 20
57.100905751941809
 30
0.0
 11
459.48002050147409
 21
-8.8990942480581907
 31
0.0
  0
ENDBLK
  5
36F
100
AcDbEntity
  8
0
390
0
100
AcDbBlockEnd
  0
BLOCK
  5
372
100
AcDbEntity
  8
0
390
0
100
AcDbBlockBegin
  2
B02D60C30
 70
               0
 10
0.0
 20
0.0
 30
0.0
  3

  1

  0
LINE
  5
373
100
AcDbEntity
  8
0
390
0
 62
               7
100
AcDbLine
 10
877.86849562814268
 20
70.980746288063983
 30
0.0
 11
877.86849562814268
 21
62.980746288063983
 31
0.0
  0
LINE
  5
374
100
AcDbEntity
  8
0
390
0
 62
               7
100
AcDbLine
 10
853.16849562814264
 20
70.980746288063983
 30
0.0
 11
853.16849562814264
 21
62.980746288063983
 31
0.0
  0
LINE
  5
375
100
AcDbEntity
  8
0
390
0
 62
               7
100
AcDbLine
 10
877.86849562814268
 20
70.980746288063983
 30
0.0
 11
853.16849562814264
 21
70.980746288063983
 31
0.0
  0
LINE
  5
376
100
AcDbEntity
  8
0
390
0
 62
               7
100
AcDbLine
 10
877.86849562814268
 20
62.980746288063983
 30
0.0
 11
853.16849562814264
 21
62.980746288063983
 31
0.0
  0
ENDBLK
  5
377
100
AcDbEntity
  8
0
390
0
100
AcDbBlockEnd
  0
BLOCK
  5
37A
100
AcDbEntity
  8
0
390
0
100
AcDbBlockBegin
  2
B02D60F68
 70
               0
 10
0.0
 20
0.0
 30
0.0
  3

  1

  0
LINE
  5
37B
100
AcDbEntity
  8
0
390
0
 62
               7
100
AcDbLine
 10
923.60831623128024
 20
76.340726355079283
 30
0.0
 11
923.60831623128024
 21
68.340726355079283
 31
0.0
  0
LINE
  5
37C
100
AcDbEntity
  8
0
390
0
 62
               7
100
AcDbLine
 10
903.9083162312802
 20
76.340726355079283
 30
0.0
 11
903.9083162312802
 21
68.340726355079283
 31
0.0
  0
LINE
  5
37D
100
AcDbEntity
  8
0
390
0
 62
               7
100
AcDbLine
 10
923.60831623128024
 20
76.340726355079283
 30
0.0
 11
903.9083162312802
 21
76.340726355079283
 31
0.0
  0
LINE
  5
37E
100
AcDbEntity
  8
0
390
0
 62
               7
100
AcDbLine
 10
923.60831623128024
 20
68.340726355079283
 30
0.0
 11
903.9083162312802
 21
68.340726355079283
 31
0.0
  0
ENDBLK
  5
37F
100
AcDbEntity
  8
0
390
0
100
AcDbBlockEnd
  0
BLOCK
  5
382
100
AcDbEntity
  8
0
390
0
100
AcDbBlockBegin
  2
B02D61360
 70
               0
 10
0.0
 20
0.0
 30
0.0
  3

  1

  0
LINE
  5
383
100
AcDbEntity
  8
0
390
0
 62
               7
100
AcDbLine
 10
371.80226171143613
 20
-129.49604627313701
 30
0.0
 11
371.80226171143642
 21
-140.70799488911078
 31
0.0
  0
ARC
  5
384
100
AcDbEntity
  8
0
390
0
 62
               7
100
AcDbCircle
 10
374.80226171143642
 20
-140.70799488911044
 30
0.0
 40
3.0
100
AcDbArc
 50
180.00000000000637
 51
269.99999999999358
  0
LINE
  5
385
100
AcDbEntity
  8
0
390
0
 62
               7
100
AcDbLine
 10
374.80226171143607
 20
-143.70799488911044
 30
0.0
 11
388.80226171143659
 21
-143.70799488911027
 31
0.0
  0
ARC
  5
386
100
AcDbEntity
  8
0
390
0
 62
               7
100
AcDbCircle
 10
388.80226171143602
 20
-140.70799488911027
 30
0.0
 40
3.0
100
AcDbArc
 50
270.00000000000961
 51
359.9999999999975
  0
LINE
  5
387
100
AcDbEntity
  8
0
390
0
 62
               7
100
AcDbLine
 10
391.80226171143613
 20
-129.46932631370052
 30
0.0
 11
391.80226171143602
 21
-140.70799488911038
 31
0.0
  0
LINE
  5
388
100
AcDbEntity
  8
0
390
0
 62
               7
100
AcDbLine
 10
371.80226171143613
 20
-129.49604627313701
 30
0.0
 11
391.80226171143613
 21
-129.46932631370052
 31
0.0
  0
ENDBLK
  5
389
100
AcDbEntity
  8
0
390
0
100
AcDbBlockEnd
  0
BLOCK
  5
38C
100
AcDbEntity
  8
0
390
0
100
AcDbBlockBegin
  2
B02D61818
 70
               0
 10
0.0
 20
0.0
 30
0.0
  3

  1

  0
LINE
  5
38D
100
AcDbEntity
  8
0
390
0
 62
               7
100
AcDbLine
 10
371.80226171143613
 20
-151.27408066423516
 30
0.0
 11
371.80226171143613
 21
-162.48602928020819
 31
0.0
  0
ARC
  5
38E
100
AcDbEntity
  8
0
390
0
 62
               7
100
AcDbCircle
 10
374.80226171143613
 20
-162.48602928020819
 30
0.0
 40
3.0
100
AcDbArc
 50
180.0
 51
269.99999999999676
  0
LINE
  5
38F
100
AcDbEntity
  8
0
390
0
 62
               7
100
AcDbLine
 10
374.80226171143602
 20
-165.48602928020819
 30
0.0
 11
388.80226171143636
 21
-165.48602928020819
 31
0.0
  0
ARC
  5
390
100
AcDbEntity
  8
0
390
0
 62
               7
100
AcDbCircle
 10
388.80226171143613
 20
-162.48602928020819
 30
0.0
 40
3.0
100
AcDbArc
 50
270.00000000000597
 51
359.99999999998374
  0
LINE
  5
391
100
AcDbEntity
  8
0
390
0
 62
               7
100
AcDbLine
 10
391.80226171143613
 20
-151.6940728524786
 30
0.0
 11
391.80226171143613
 21
-162.48602928020904
 31
0.0
  0
LINE
  5
392
100
AcDbEntity
  8
0
390
0
 62
               7
100
AcDbLine
 10
371.80226171143613
 20
-151.27408066423516
 30
0.0
 11
391.80226171143613
 21
-151.6940728524786
 31
0.0
  0
ENDBLK
  5
393
100
AcDbEntity
  8
0
390
0
100
AcDbBlockEnd
  0
BLOCK
  5
396
100
AcDbEntity
  8
0
390
0
100
AcDbBlockBegin
  2
B02D61CD0
 70
               0
 10
0.0
 20
0.0
 30
0.0
  3

  1

  0
LINE
  5
397
100
AcDbEntity
  8
0
390
0
 62
               7
100
AcDbLine
 10
249.48927395266131
 20
-128.77973808790875
 30
0.0
 11
249.48927395266131
 21
-139.99168670388178
 31
0.0
  0
ARC
  5
398
100
AcDbEntity
  8
0
390
0
 62
               7
100
AcDbCircle
 10
252.48927395266131
 20
-139.99168670388178
 30
0.0
 40
3.0
100
AcDbArc
 50
180.0
 51
269.99999999999676
  0
LINE
  5
399
100
AcDbEntity
  8
0
390
0
 62
               7
100
AcDbLine
 10
252.48927395266119
 20
-142.99168670388178
 30
0.0
 11
266.48927395266151
 21
-142.99168670388178
 31
0.0
  0
ARC
  5
39A
100
AcDbEntity
  8
0
390
0
 62
               7
100
AcDbCircle
 10
266.48927395266128
 20
-139.99168670388178
 30
0.0
 40
3.0
100
AcDbArc
 50
270.00000000000597
 51
359.99999999998374
  0
LINE
  5
39B
100
AcDbEntity
  8
0
390
0
 62
               7
100
AcDbLine
 10
269.48927395266128
 20
-129.1997302761522
 30
0.0
 11
269.48927395266128
 21
-139.99168670388264
 31
0.0
  0
LINE
  5
39C
100
AcDbEntity
  8
0
390
0
 62
               7
100
AcDbLine
 10
249.48927395266131
 20
-128.77973808790875
 30
0.0
 11
269.48927395266128
 21
-129.1997302761522
 31
0.0
  0
ENDBLK
  5
39D
100
AcDbEntity
  8
0
390
0
100
AcDbBlockEnd
  0
BLOCK
  5
3A0
100
AcDbEntity
  8
0
390
0
100
AcDbBlockBegin
  2
B02D62188
 70
               0
 10
0.0
 20
0.0
 30
0.0
  3

  1

  0
LINE
  5
3A1
100
AcDbEntity
  8
0
390
0
 62
               7
100
AcDbLine
 10
247.38042933613067
 20
-150.58449243844302
 30
0.0
 11
247.38042933613096
 21
-161.79644105441679
 31
0.0
  0
ARC
  5
3A2
100
AcDbEntity
  8
0
390
0
 62
               7
100
AcDbCircle
 10
250.38042933613096
 20
-161.79644105441645
 30
0.0
 40
3.0
100
AcDbArc
 50
180.00000000000637
 51
269.99999999999358
  0
LINE
  5
3A3
100
AcDbEntity
  8
0
390
0
 62
               7
100
AcDbLine
 10
250.38042933613062
 20
-164.79644105441645
 30
0.0
 11
264.38042933613116
 21
-164.79644105441628
 31
0.0
  0
ARC
  5
3A4
100
AcDbEntity
  8
0
390
0
 62
               7
100
AcDbCircle
 10
264.38042933613059
 20
-161.79644105441628
 30
0.0
 40
3.0
100
AcDbArc
 50
270.00000000000961
 51
359.9999999999975
  0
LINE
  5
3A5
100
AcDbEntity
  8
0
390
0
 62
               7
100
AcDbLine
 10
267.3804293361307
 20
-150.55777247900653
 30
0.0
 11
267.38042933613059
 21
-161.79644105441639
 31
0.0
  0
LINE
  5
3A6
100
AcDbEntity
  8
0
390
0
 62
               7
100
AcDbLine
 10
247.38042933613067
 20
-150.58449243844302
 30
0.0
 11
267.3804293361307
 21
-150.55777247900653
 31
0.0
  0
ENDBLK
  5
3A7
100
AcDbEntity
  8
0
390
0
100
AcDbBlockEnd
  0
BLOCK
  5
3AA
100
AcDbEntity
  8
0
390
0
100
AcDbBlockBegin
  2
B02D62BD4
 70
               0
 10
0.0
 20
0.0
 30
0.0
  3

  1

  0
LINE
  5
3AB
100
AcDbEntity
  8
0
390
0
100
AcDbLine
 10
-10.341178943530622
 20
-107.41663893042573
 30
0.0
 11
-3.8411789435306218
 21
-113.91663893042573
 31
0.0
  0
LINE
  5
3AC
100
AcDbEntity
  8
0
390
0
100
AcDbLine
 10
-54.341178943530622
 20
-107.41663893042573
 30
0.0
 11
-60.841178943530622
 21
-113.91663893042573
 31
0.0
  0
LINE
  5
3AD
100
AcDbEntity
  8
0
390
0
100
AcDbLine
 10
-54.341178943530622
 20
-63.416638930425734
 30
0.0
 11
-60.841178943530622
 21
-56.916638930425734
 31
0.0
  0
LINE
  5
3AE
100
AcDbEntity
  8
0
390
0
100
AcDbLine
 10
-10.341178943530622
 20
-63.416638930425734
 30
0.0
 11
-3.8411789435306218
 21
-56.916638930425734
 31
0.0
  0
LINE
  5
3AF
100
AcDbEntity
  8
0
390
0
100
AcDbLine
 10
-59.841178943530622
 20
-112.91663893042573
 30
0.0
 11
-59.841178943530622
 21
-57.916638930425734
 31
0.0
  0
LINE
  5
3B0
100
AcDbEntity
  8
0
390
0
100
AcDbLine
 10
-4.8411789435306218
 20
-112.91663893042573
 30
0.0
 11
-59.841178943530622
 21
-112.91663893042573
 31
0.0
  0
LINE
  5
3B1
100
AcDbEntity
  8
0
390
0
100
AcDbLine
 10
-4.8411789435306218
 20
-57.916638930425734
 30
0.0
 11
-4.8411789435306218
 21
-112.91663893042573
 31
0.0
  0
LINE
  5
3B2
100
AcDbEntity
  8
0
390
0
100
AcDbLine
 10
-59.841178943530622
 20
-57.916638930425734
 30
0.0
 11
-4.8411789435306218
 21
-57.916638930425734
 31
0.0
  0
LINE
  5
3B3
100
AcDbEntity
  8
0
390
0
100
AcDbLine
 10
-54.341178943530622
 20
-107.41663893042573
 30
0.0
 11
-10.341178943530622
 21
-107.41663893042573
 31
0.0
  0
LINE
  5
3B4
100
AcDbEntity
  8
0
390
0
100
AcDbLine
 10
-54.341178943530622
 20
-107.41663893042573
 30
0.0
 11
-54.341178943530622
 21
-63.416638930425734
 31
0.0
  0
LINE
  5
3B5
100
AcDbEntity
  8
0
390
0
100
AcDbLine
 10
-10.341178943530622
 20
-63.416638930425734
 30
0.0
 11
-10.341178943530622
 21
-107.41663893042573
 31
0.0
  0
LINE
  5
3B6
100
AcDbEntity
  8
0
390
0
100
AcDbLine
 10
-54.341178943530622
 20
-63.416638930425734
 30
0.0
 11
-10.341178943530622
 21
-63.416638930425734
 31
0.0
  0
LINE
  5
3B7
100
AcDbEntity
  8
0
390
0
100
AcDbLine
 10
-90.438075113993364
 20
-57.939413355374143
 30
0.0
 11
-90.358679437000205
 21
-112.9437960717986
 31
0.0
  0
LINE
  5
3B8
100
AcDbEntity
  8
0
390
0
100
AcDbLine
 10
-93.438075113993307
 20
-63.416638930425677
 30
0.0
 11
-93.438075113993364
 21
-107.4166389304259
 31
0.0
  0
LINE
  5
3B9
100
AcDbEntity
  8
0
390
0
100
AcDbLine
 10
-85.438075113993364
 20
-113.91663893042573
 30
0.0
 11
-86.938075113993989
 21
-113.91663893042596
 31
0.0
  0
ARC
  5
3BA
100
AcDbEntity
  8
0
390
0
100
AcDbCircle
 10
-86.938075113993364
 20
-107.41663893042596
 30
0.0
 40
6.5
100
AcDbArc
 50
179.99999999999966
 51
269.99999999999449
  0
LINE
  5
3BB
100
AcDbEntity
  8
0
390
0
100
AcDbLine
 10
-85.438075113993364
 20
-56.916638930425734
 30
0.0
 11
-86.938075113992852
 21
-56.91663893042579
 31
0.0
  0
ARC
  5
3BC
100
AcDbEntity
  8
0
390
0
100
AcDbCircle
 10
-86.938075113993307
 20
-63.41663893042579
 30
0.0
 40
6.5
100
AcDbArc
 50
89.999999999995993
 51
179.99999999999923
  0
LINE
  5
3BD
100
AcDbEntity
  8
0
390
0
100
AcDbLine
 10
-85.438075113993364
 20
-56.916638930425734
 30
0.0
 11
-85.438075113993364
 21
-113.91663893042573
 31
0.0
  0
LINE
  5
3BE
100
AcDbEntity
  8
0
390
0
100
AcDbLine
 10
-60.841178943530622
 20
-113.91663893042573
 30
0.0
 11
-60.841178943530622
 21
-56.916638930425734
 31
0.0
  0
LINE
  5
3BF
100
AcDbEntity
  8
0
390
0
100
AcDbLine
 10
-3.8411789435306218
 20
-113.91663893042573
 30
0.0
 11
-60.841178943530622
 21
-113.91663893042573
 31
0.0
  0
LINE
  5
3C0
100
AcDbEntity
  8
0
390
0
100
AcDbLine
 10
-3.8411789435306218
 20
-56.916638930425734
 30
0.0
 11
-3.8411789435306218
 21
-113.91663893042573
 31
0.0
  0
LINE
  5
3C1
100
AcDbEntity
  8
0
390
0
100
AcDbLine
 10
-60.841178943530622
 20
-56.916638930425734
 30
0.0
 11
-3.8411789435306218
 21
-56.916638930425734
 31
0.0
  0
ENDBLK
  5
3C2
100
AcDbEntity
  8
0
390
0
100
AcDbBlockEnd
  0
BLOCK
  5
4BE
100
AcDbEntity
  8
0
390
0
100
AcDbBlockBegin
  2
B02D6A208
 70
               0
 10
0.0
 20
0.0
 30
0.0
  3

  1

  0
LINE
  5
4BF
100
AcDbEntity
  8
SENZA_NOME_3
390
0
 62
               7
100
AcDbLine
 10
367.59925139279591
 20
-396.30799477385341
 30
0.0
 11
387.59925139279591
 21
-396.30799477385341
 31
0.0
  0
LINE
  5
4C0
100
AcDbEntity
  8
SENZA_NOME_3
390
0
 62
               7
100
AcDbLine
 10
387.59925139279591
 20
-401.30799477385341
 30
0.0
 11
387.59925139279591
 21
-396.30799477385341
 31
0.0
  0
LINE
  5
4C1
100
AcDbEntity
  8
SENZA_NOME_3
390
0
 62
               7
100
AcDbLine
 10
367.59925139279591
 20
-401.30799477385341
 30
0.0
 11
367.59925139279591
 21
-396.30799477385341
 31
0.0
  0
LINE
  5
4C2
100
AcDbEntity
  8
SENZA_NOME_3
390
0
 62
               7
100
AcDbLine
 10
367.59925139279591
 20
-401.30799477385341
 30
0.0
 11
387.59925139279591
 21
-401.30799477385341
 31
0.0
  0
ENDBLK
  5
4C3
100
AcDbEntity
  8
0
390
0
100
AcDbBlockEnd
  0
BLOCK
  5
4E0
100
AcDbEntity
  8
0
390
0
100
AcDbBlockBegin
  2
B02D6ADC8
 70
               0
 10
0.0
 20
0.0
 30
0.0
  3

  1

  0
LINE
  5
4E1
100
AcDbEntity
  8
SENZA_NOME_3
390
0
 62
               7
100
AcDbLine
 10
243.96856141368599
 20
-387.29582556884549
 30
0.0
 11
263.96856141368602
 21
-387.29582556884549
 31
0.0
  0
LINE
  5
4E2
100
AcDbEntity
  8
SENZA_NOME_3
390
0
 62
               7
100
AcDbLine
 10
263.96856141368602
 20
-392.29582556884549
 30
0.0
 11
263.96856141368602
 21
-387.29582556884549
 31
0.0
  0
LINE
  5
4E3
100
AcDbEntity
  8
SENZA_NOME_3
390
0
 62
               7
100
AcDbLine
 10
243.96856141368599
 20
-392.29582556884549
 30
0.0
 11
243.96856141368599
 21
-387.29582556884549
 31
0.0
  0
LINE
  5
4E4
100
AcDbEntity
  8
SENZA_NOME_3
390
0
 62
               7
100
AcDbLine
 10
243.96856141368599
 20
-392.29582556884549
 30
0.0
 11
263.96856141368602
 21
-392.29582556884549
 31
0.0
  0
ENDBLK
  5
4E5
100
AcDbEntity
  8
0
390
0
100
AcDbBlockEnd
  0
BLOCK
  5
506
100
AcDbEntity
  8
0
390
0
100
AcDbBlockBegin
  2
B02D6BA88
 70
               0
 10
0.0
 20
0.0
 30
0.0
  3

  1

  0
CIRCLE
  5
507
100
AcDbEntity
  8
SENZA_NOME
390
0
 62
               7
100
AcDbCircle
 10
557.78366231947552
 20
-493.29725826372083
 30
0.0
 40
6.5
  0
CIRCLE
  5
508
100
AcDbEntity
  8
SENZA_NOME
390
0
 62
               7
100
AcDbCircle
 10
532.78366231947552
 20
-493.29725826372083
 30
0.0
 40
6.5
  0
CIRCLE
  5
509
100
AcDbEntity
  8
SENZA_NOME
390
0
 62
               7
100
AcDbCircle
 10
507.78366231947558
 20
-493.29725826372083
 30
0.0
 40
6.5
  0
CIRCLE
  5
50A
100
AcDbEntity
  8
SENZA_NOME
390
0
 62
               7
100
AcDbCircle
 10
482.78366231947558
 20
-493.29725826372083
 30
0.0
 40
6.5
  0
CIRCLE
  5
50B
100
AcDbEntity
  8
SENZA_NOME
390
0
 62
               7
100
AcDbCircle
 10
457.78366231947558
 20
-493.29725826372083
 30
0.0
 40
6.5
  0
ENDBLK
  5
50C
100
AcDbEntity
  8
0
390
0
100
AcDbBlockEnd
  0
BLOCK
  5
51C
100
AcDbEntity
  8
0
390
0
100
AcDbBlockBegin
  2
B02D6BF94
 70
               0
 10
0.0
 20
0.0
 30
0.0
  3

  1

  0
CIRCLE
  5
51D
100
AcDbEntity
  8
SENZA_NOME
390
0
 62
               7
100
AcDbCircle
 10
559.41400919924104
 20
-529.93142393066546
 30
0.0
 40
6.5
  0
CIRCLE
  5
51E
100
AcDbEntity
  8
SENZA_NOME
390
0
 62
               7
100
AcDbCircle
 10
534.50914174694753
 20
-532.11031749935682
 30
0.0
 40
6.5
  0
CIRCLE
  5
51F
100
AcDbEntity
  8
SENZA_NOME
390
0
 62
               7
100
AcDbCircle
 10
509.60427429465375
 20
-534.28921106804842
 30
0.0
 40
6.5
  0
CIRCLE
  5
520
100
AcDbEntity
  8
SENZA_NOME
390
0
 62
               7
100
AcDbCircle
 10
484.69940684236013
 20
-536.46810463673978
 30
0.0
 40
6.5
  0
CIRCLE
  5
521
100
AcDbEntity
  8
SENZA_NOME
390
0
 62
               7
100
AcDbCircle
 10
459.79453939006652
 20
-538.64699820543115
 30
0.0
 40
6.5
  0
ENDBLK
  5
522
100
AcDbEntity
  8
0
390
0
100
AcDbBlockEnd
  0
BLOCK
  5
525
100
AcDbEntity
  8
0
390
0
100
AcDbBlockBegin
  2
B02D68028
 70
               0
 10
0.0
 20
0.0
 30
0.0
  3

  1

  0
CIRCLE
  5
526
100
AcDbEntity
  8
SENZA_NOME
390
0
 62
               7
100
AcDbCircle
 10
179.06005696412839
 20
-494.49490860740326
 30
0.0
 40
6.5
  0
CIRCLE
  5
527
100
AcDbEntity
  8
SENZA_NOME
390
0
 62
               7
100
AcDbCircle
 10
204.06005696412839
 20
-494.49490860740326
 30
0.0
 40
6.5
  0
CIRCLE
  5
528
100
AcDbEntity
  8
SENZA_NOME
390
0
 62
               7
100
AcDbCircle
 10
229.06005696412839
 20
-494.49490860740326
 30
0.0
 40
6.5
  0
CIRCLE
  5
529
100
AcDbEntity
  8
SENZA_NOME
390
0
 62
               7
100
AcDbCircle
 10
254.06005696412836
 20
-494.49490860740326
 30
0.0
 40
6.5
  0
CIRCLE
  5
52A
100
AcDbEntity
  8
SENZA_NOME
390
0
 62
               7
100
AcDbCircle
 10
279.06005696412836
 20
-494.49490860740326
 30
0.0
 40
6.5
  0
CIRCLE
  5
52B
100
AcDbEntity
  8
SENZA_NOME
390
0
 62
               7
100
AcDbCircle
 10
304.06005696412836
 20
-494.49490860740326
 30
0.0
 40
6.5
  0
CIRCLE
  5
52C
100
AcDbEntity
  8
SENZA_NOME
390
0
 62
               7
100
AcDbCircle
 10
329.06005696412836
 20
-494.49490860740326
 30
0.0
 40
6.5
  0
CIRCLE
  5
52D
100
AcDbEntity
  8
SENZA_NOME
390
0
 62
               7
100
AcDbCircle
 10
379.06005696412836
 20
-494.49490860740326
 30
0.0
 40
6.5
  0
ENDBLK
  5
52E
100
AcDbEntity
  8
0
390
0
100
AcDbBlockEnd
  0
BLOCK
  5
56E
100
AcDbEntity
  8
0
390
0
100
AcDbBlockBegin
  2
B02D6D458
 70
               0
 10
0.0
 20
0.0
 30
0.0
  3

  1

  0
LINE
  5
56F
100
AcDbEntity
  8
SENZA_NOME_3
390
0
 62
               7
100
AcDbLine
 10
368.08434240638343
 20
-534.42930679724304
 30
0.0
 11
388.08434240638343
 21
-534.42930679724304
 31
0.0
  0
LINE
  5
570
100
AcDbEntity
  8
SENZA_NOME_3
390
0
 62
               7
100
AcDbLine
 10
388.08434240638343
 20
-539.42930679724304
 30
0.0
 11
388.08434240638343
 21
-534.42930679724304
 31
0.0
  0
LINE
  5
571
100
AcDbEntity
  8
SENZA_NOME_3
390
0
 62
               7
100
AcDbLine
 10
368.08434240638343
 20
-539.42930679724304
 30
0.0
 11
368.08434240638343
 21
-534.42930679724304
 31
0.0
  0
LINE
  5
572
100
AcDbEntity
  8
SENZA_NOME_3
390
0
 62
               7
100
AcDbLine
 10
368.08434240638343
 20
-539.42930679724304
 30
0.0
 11
388.08434240638343
 21
-539.42930679724304
 31
0.0
  0
ENDBLK
  5
573
100
AcDbEntity
  8
0
390
0
100
AcDbBlockEnd
  0
BLOCK
  5
57E
100
AcDbEntity
  8
0
390
0
100
AcDbBlockBegin
  2
B02D6DA30
 70
               0
 10
0.0
 20
0.0
 30
0.0
  3

  1

  0
LINE
  5
57F
100
AcDbEntity
  8
SENZA_NOME_3
390
0
 62
               7
100
AcDbLine
 10
244.45365242727351
 20
-525.41713759223512
 30
0.0
 11
264.45365242727354
 21
-525.41713759223512
 31
0.0
  0
LINE
  5
580
100
AcDbEntity
  8
SENZA_NOME_3
390
0
 62
               7
100
AcDbLine
 10
264.45365242727354
 20
-530.41713759223512
 30
0.0
 11
264.45365242727354
 21
-525.41713759223512
 31
0.0
  0
LINE
  5
581
100
AcDbEntity
  8
SENZA_NOME_3
390
0
 62
               7
100
AcDbLine
 10
244.45365242727351
 20
-530.41713759223512
 30
0.0
 11
244.45365242727351
 21
-525.41713759223512
 31
0.0
  0
LINE
  5
582
100
AcDbEntity
  8
SENZA_NOME_3
390
0
 62
               7
100
AcDbLine
 10
244.45365242727351
 20
-530.41713759223512
 30
0.0
 11
264.45365242727354
 21
-530.41713759223512
 31
0.0
  0
ENDBLK
  5
583
100
AcDbEntity
  8
0
390
0
100
AcDbBlockEnd
  0
ENDSEC
  0
SECTION
  2
ENTITIES
  0
LINE
  5
5D
100
AcDbEntity
  8
SENZA_NOME
390
0
 62
               1
100
AcDbLine
 10
319.5062720910521
 20
-87.78160545516846
 30
0.0
 11
319.5062720910521
 21
-72.781605455168403
 31
0.0
  0
LINE
  5
5E
100
AcDbEntity
  8
SENZA_NOME
390
0
 62
               1
100
AcDbLine
 10
316.5062720910521
 20
-87.78160545516846
 30
0.0
 11
319.5062720910521
 21
-87.78160545516846
 31
0.0
  0
LINE
  5
5F
100
AcDbEntity
  8
SENZA_NOME
390
0
 62
               1
100
AcDbLine
 10
316.5062720910521
 20
-72.78160545516846
 30
0.0
 11
316.5062720910521
 21
-87.78160545516846
 31
0.0
  0
LINE
  5
60
100
AcDbEntity
  8
SENZA_NOME
390
0
 62
               1
100
AcDbLine
 10
319.5062720910521
 20
-72.78160545516846
 30
0.0
 11
316.5062720910521
 21
-72.78160545516846
 31
0.0
  0
INSERT
  5
73
100
AcDbEntity
  8
SENZA_NOME
390
0
100
AcDbBlockReference
  2
B02DA6F2C
 10
0.0
 20
0.0
 30
0.0
  0
ARC
  5
74
100
AcDbEntity
  8
SENZA_NOME
390
0
 62
               1
100
AcDbCircle
 10
375.10273396876096
 20
-104.2355326936152
 30
0.0
 40
3.0
100
AcDbArc
 50
90.000000000003254
 51
180.0
  0
LINE
  5
75
100
AcDbEntity
  8
SENZA_NOME
390
0
 62
               1
100
AcDbLine
 10
375.10273396876084
 20
-101.2355326936152
 30
0.0
 11
389.10273396876119
 21
-101.2355326936152
 31
0.0
  0
ARC
  5
76
100
AcDbEntity
  8
SENZA_NOME
390
0
 62
               1
100
AcDbCircle
 10
389.10273396876096
 20
-104.2355326936152
 30
0.0
 40
3.0
100
AcDbArc
 50
0.0000000000162336
 51
89.999999999994046
  0
LINE
  5
77
100
AcDbEntity
  8
SENZA_NOME
390
0
 62
               1
100
AcDbLine
 10
392.10273396876096
 20
-115.02748912134479
 30
0.0
 11
392.10273396876096
 21
-104.23553269361435
 31
0.0
  0
CIRCLE
  5
78
100
AcDbEntity
  8
SENZA_NOME
390
0
 62
               1
100
AcDbCircle
 10
382.10273396876096
 20
-106.59818587590456
 30
0.0
 40
2.0
  0
LINE
  5
79
100
AcDbEntity
  8
SENZA_NOME
390
0
 62
               1
100
AcDbLine
 10
372.10273396876096
 20
-115.44748130958823
 30
0.0
 11
372.10273396876096
 21
-104.2355326936152
 31
0.0
  0
LINE
  5
7A
100
AcDbEntity
  8
SENZA_NOME
390
0
 62
               1
100
AcDbLine
 10
251.47204398965076
 20
-102.54291961638808
 30
0.0
 11
265.4720439896513
 21
-102.54291961638796
 31
0.0
  0
LINE
  5
7B
100
AcDbEntity
  8
SENZA_NOME
390
0
 62
               1
100
AcDbLine
 10
248.47204398965104
 20
-116.75486823236139
 30
0.0
 11
248.47204398965081
 21
-105.54291961638825
 31
0.0
  0
ARC
  5
7C
100
AcDbEntity
  8
SENZA_NOME
390
0
 62
               1
100
AcDbCircle
 10
251.47204398965081
 20
-105.54291961638808
 30
0.0
 40
3.0
100
AcDbArc
 50
90.00000000000108
 51
180.00000000000338
  0
LINE
  5
7D
100
AcDbEntity
  8
SENZA_NOME
390
0
 62
               1
100
AcDbLine
 10
268.47204398965107
 20
-116.78158819179788
 30
0.0
 11
268.47204398965152
 21
-105.54291961638836
 31
0.0
  0
ARC
  5
7E
100
AcDbEntity
  8
SENZA_NOME
390
0
 62
               1
100
AcDbCircle
 10
265.47204398965152
 20
-105.54291961638796
 30
0.0
 40
3.0
100
AcDbArc
 50
359.99999999999221
 51
90.000000000003453
  0
LINE
  5
7F
100
AcDbEntity
  8
SENZA_NOME
390
0
 62
               1
100
AcDbLine
 10
248.47204398965104
 20
-43.808342677993835
 30
0.0
 11
248.47204398965133
 21
-55.020291293967603
 31
0.0
  0
LINE
  5
80
100
AcDbEntity
  8
SENZA_NOME
390
0
 62
               1
100
AcDbLine
 10
251.47204398965098
 20
-58.020291293967261
 30
0.0
 11
265.47204398965152
 21
-58.020291293967091
 31
0.0
  0
ARC
  5
81
100
AcDbEntity
  8
SENZA_NOME
390
0
 62
               1
100
AcDbCircle
 10
251.47204398965133
 20
-55.020291293967261
 30
0.0
 40
3.0
100
AcDbArc
 50
180.00000000000637
 51
269.99999999999358
  0
LINE
  5
82
100
AcDbEntity
  8
SENZA_NOME
390
0
 62
               1
100
AcDbLine
 10
268.47204398965107
 20
-43.781622718557344
 30
0.0
 11
268.47204398965096
 21
-55.020291293967205
 31
0.0
  0
ARC
  5
83
100
AcDbEntity
  8
SENZA_NOME
390
0
 62
               1
100
AcDbCircle
 10
265.47204398965096
 20
-55.020291293967091
 30
0.0
 40
3.0
100
AcDbArc
 50
270.00000000000961
 51
359.9999999999975
  0
LINE
  5
84
100
AcDbEntity
  8
SENZA_NOME
390
0
 62
               1
100
AcDbLine
 10
372.10273396876096
 20
-45.115729600736984
 30
0.0
 11
372.10273396876096
 21
-56.327678216710012
 31
0.0
  0
LINE
  5
85
100
AcDbEntity
  8
SENZA_NOME
390
0
 62
               1
100
AcDbLine
 10
375.10273396876084
 20
-59.327678216710012
 30
0.0
 11
389.10273396876119
 21
-59.327678216710012
 31
0.0
  0
ARC
  5
86
100
AcDbEntity
  8
SENZA_NOME
390
0
 62
               1
100
AcDbCircle
 10
375.10273396876096
 20
-56.327678216710012
 30
0.0
 40
3.0
100
AcDbArc
 50
180.0
 51
269.99999999999676
  0
LINE
  5
87
100
AcDbEntity
  8
SENZA_NOME
390
0
 62
               1
100
AcDbLine
 10
392.10273396876096
 20
-45.535721788980425
 30
0.0
 11
392.10273396876096
 21
-56.327678216710865
 31
0.0
  0
ARC
  5
88
100
AcDbEntity
  8
SENZA_NOME
390
0
 62
               1
100
AcDbCircle
 10
389.10273396876096
 20
-56.327678216710012
 30
0.0
 40
3.0
100
AcDbArc
 50
270.00000000000597
 51
359.99999999998374
  0
CIRCLE
  5
89
100
AcDbEntity
  8
SENZA_NOME
390
0
 62
               1
100
AcDbCircle
 10
382.10273396876096
 20
-53.965025034420648
 30
0.0
 40
2.0
  0
LINE
  5
8A
100
AcDbEntity
  8
SENZA_NOME
390
0
 62
               1
100
AcDbLine
 10
372.10273396876096
 20
-45.115729600736984
 30
0.0
 11
392.10273396876096
 21
-45.535721788980425
 31
0.0
  0
LINE
  5
8B
100
AcDbEntity
  8
SENZA_NOME
390
0
 62
               1
100
AcDbLine
 10
248.47204398965104
 20
-43.808342677993835
 30
0.0
 11
268.47204398965107
 21
-43.781622718557344
 31
0.0
  0
CIRCLE
  5
8C
100
AcDbEntity
  8
SENZA_NOME
390
0
 62
               1
100
AcDbCircle
 10
258.47204398965107
 20
-107.90557279867772
 30
0.0
 40
2.0
  0
CIRCLE
  5
8D
100
AcDbEntity
  8
SENZA_NOME
390
0
 62
               1
100
AcDbCircle
 10
258.47204398965107
 20
-52.6576381116775
 30
0.0
 40
2.0
  0
INSERT
  5
95
100
AcDbEntity
  8
SENZA_NOME_3
390
0
100
AcDbBlockReference
  2
B02D12E40
 10
0.0
 20
0.0
 30
0.0
  0
INSERT
  5
BA
100
AcDbEntity
  8
SENZA_NOME
390
0
100
AcDbBlockReference
  2
B02D70F70
 10
0.0
 20
0.0
 30
0.0
  0
LINE
  5
BB
100
AcDbEntity
  8
SENZA_NOME
390
0
 62
               1
100
AcDbLine
 10
170.13793428249573
 20
-47.332842647011489
 30
0.0
 11
170.13361066562271
 21
-56.916998948900698
 31
0.0
  0
LINE
  5
BC
100
AcDbEntity
  8
SENZA_NOME
390
0
 62
               1
100
AcDbLine
 10
170.13361066562271
 20
-56.916998948900698
 30
0.0
 11
190.11788029636017
 21
-56.918367231245952
 31
0.0
  0
LINE
  5
BD
100
AcDbEntity
  8
SENZA_NOME
390
0
 62
               1
100
AcDbLine
 10
170.13361066562271
 20
-103.64621196144225
 30
0.0
 11
190.11788029636017
 21
-103.64484367909699
 31
0.0
  0
LINE
  5
BE
100
AcDbEntity
  8
SENZA_NOME
390
0
 62
               1
100
AcDbLine
 10
170.13793428249573
 20
-113.23036826333146
 30
0.0
 11
170.13361066562271
 21
-103.64621196144225
 31
0.0
  0
LINE
  5
BF
100
AcDbEntity
  8
SENZA_NOME
390
0
 62
               1
100
AcDbLine
 10
190.13361066562271
 20
-113.64621196144225
 30
0.0
 11
190.02866050579811
 21
-46.918903646025001
 31
0.0
  0
LINE
  5
C0
100
AcDbEntity
  8
SENZA_NOME
390
0
 62
               1
100
AcDbLine
 10
442.70105056756199
 20
-72.78160545516846
 30
0.0
 11
442.70105056756199
 21
-87.78160545516846
 31
0.0
  0
LINE
  5
C1
100
AcDbEntity
  8
SENZA_NOME
390
0
 62
               1
100
AcDbLine
 10
445.70105056756199
 20
-72.78160545516846
 30
0.0
 11
445.70105056756199
 21
-87.78160545516846
 31
0.0
  0
LINE
  5
C2
100
AcDbEntity
  8
SENZA_NOME
390
0
 62
               1
100
AcDbLine
 10
442.70105056756199
 20
-87.78160545516846
 30
0.0
 11
445.70105056756199
 21
-87.78160545516846
 31
0.0
  0
LINE
  5
C3
100
AcDbEntity
  8
SENZA_NOME
390
0
 62
               1
100
AcDbLine
 10
442.70105056756199
 20
-72.78160545516846
 30
0.0
 11
445.70105056756199
 21
-72.78160545516846
 31
0.0
  0
LINE
  5
C4
100
AcDbEntity
  8
SENZA_NOME
390
0
 62
               1
100
AcDbLine
 10
190.14435648965102
 20
-72.78160545516846
 30
0.0
 11
190.14435648965102
 21
-87.78160545516846
 31
0.0
  0
LINE
  5
C5
100
AcDbEntity
  8
SENZA_NOME
390
0
 62
               1
100
AcDbLine
 10
193.3114936145424
 20
-72.78160545516846
 30
0.0
 11
193.3114936145424
 21
-87.78160545516846
 31
0.0
  0
LINE
  5
C6
100
AcDbEntity
  8
SENZA_NOME
390
0
 62
               1
100
AcDbLine
 10
190.14435648965102
 20
-87.78160545516846
 30
0.0
 11
193.3114936145424
 21
-87.78160545516846
 31
0.0
  0
LINE
  5
C7
100
AcDbEntity
  8
SENZA_NOME
390
0
 62
               1
100
AcDbLine
 10
190.14435648965102
 20
-72.78160545516846
 30
0.0
 11
193.3114936145424
 21
-72.78160545516846
 31
0.0
  0
LINE
  5
C8
100
AcDbEntity
  8
SENZA_NOME
390
0
 62
               1
100
AcDbLine
 10
597.2971114358578
 20
111.56929885928525
 30
0.0
 11
653.37269150345446
 21
86.79410040232446
 31
0.0
  0
LINE
  5
C9
100
AcDbEntity
  8
SENZA_NOME
390
0
 62
               1
100
AcDbLine
 10
653.46047652548975
 20
141.46920350399867
 30
0.0
 11
597.2971114358578
 21
111.56929885928525
 31
0.0
  0
LINE
  5
CA
100
AcDbEntity
  8
SENZA_NOME
390
0
 62
               1
100
AcDbLine
 10
64.737000251977719
 20
77.791536303449732
 30
0.0
 11
64.737000251977719
 21
130.29862030318222
 31
0.0
  0
ARC
  5
CB
100
AcDbEntity
  8
SENZA_NOME
390
0
100
AcDbCircle
 10
264.5023075059334
 20
1103.2816654672449
 30
0.0
 40
1044.7660900865058
100
AcDbArc
 50
258.97683994066875
 51
270.74507269015118
  0
ARC
  5
CC
100
AcDbEntity
  8
SENZA_NOME
390
0
100
AcDbCircle
 10
229.36350347885298
 20
-1065.2236390516346
 30
0.0
 40
1206.8037778270145
100
AcDbArc
 50
89.224077571100665
 51
97.840467977387974
  0
LINE
  5
CD
100
AcDbEntity
  8
SENZA_NOME
390
0
100
AcDbLine
 10
620.92824506412978
 20
83.94722184706805
 30
0.0
 11
653.37269150345446
 21
86.79410040232446
 31
0.0
  0
LINE
  5
CE
100
AcDbEntity
  8
SENZA_NOME
390
0
100
AcDbLine
 10
554.88426343218532
 20
141.46920350399867
 30
0.0
 11
653.46047652548975
 21
141.46920350399867
 31
0.0
  0
LINE
  5
CF
100
AcDbEntity
  8
SENZA_NOME
390
0
100
AcDbLine
 10
310.66159257422339
 20
141.46920350399867
 30
0.0
 11
534.88426343218532
 21
141.46920350399867
 31
0.0
  0
LINE
  5
D0
100
AcDbEntity
  8
SENZA_NOME
390
0
100
AcDbLine
 10
245.74665074024935
 20
141.46920350399867
 30
0.0
 11
290.66159257422339
 21
141.46920350399867
 31
0.0
  0
LINE
  5
D1
100
AcDbEntity
  8
SENZA_NOME
390
0
100
AcDbLine
 10
906.23019326078338
 20
111.99292529308121
 30
0.0
 11
914.19957235127504
 21
112.69220843461542
 31
0.0
  0
LINE
  5
D2
100
AcDbEntity
  8
SENZA_NOME
390
0
100
AcDbLine
 10
872.3603321261935
 20
109.02097194156079
 30
0.0
 11
880.32971121668527
 21
109.720255083095
 31
0.0
  0
LINE
  5
D3
100
AcDbEntity
  8
SENZA_NOME
390
0
100
AcDbLine
 10
880.59194239476062
 20
106.73173792416063
 30
0.0
 11
906.49242443885862
 21
109.00440813414684
 31
0.0
  0
LINE
  5
D4
100
AcDbEntity
  8
SENZA_NOME
390
0
100
AcDbLine
 10
867.50809514269497
 20
102.5721524114914
 30
0.0
 11
872.88479448234432
 21
103.04393762369205
 31
0.0
  0
LINE
  5
D5
100
AcDbEntity
  8
SENZA_NOME
390
0
100
AcDbLine
 10
621.19047624220514
 20
80.958704688133679
 30
0.0
 11
867.50809514269497
 21
102.5721524114914
 31
0.0
  0
LINE
  5
D6
100
AcDbEntity
  8
SENZA_NOME
390
0
100
AcDbLine
 10
914.72403470742563
 20
106.71517411674668
 30
0.0
 11
1011.8917713045086
 21
115.24127876452863
 31
0.0
  0
LINE
  5
D7
100
AcDbEntity
  8
SENZA_NOME
390
0
 62
               5
100
AcDbLine
 10
880.32971121668527
 20
109.72025508309503
 30
0.0
 11
880.59194239476062
 21
106.73173792416065
 31
0.0
  0
LINE
  5
D8
100
AcDbEntity
  8
SENZA_NOME
390
0
 62
               5
100
AcDbLine
 10
906.23019326078327
 20
111.99292529308121
 30
0.0
 11
906.49242443885862
 21
109.00440813414684
 31
0.0
  0
LINE
  5
D9
100
AcDbEntity
  8
SENZA_NOME
390
0
 62
               5
100
AcDbLine
 10
872.88479448234432
 20
103.04393762369205
 30
0.0
 11
872.36033212619361
 21
109.02097194156082
 31
0.0
  0
LINE
  5
DA
100
AcDbEntity
  8
SENZA_NOME
390
0
 62
               5
100
AcDbLine
 10
914.72403470742563
 20
106.71517411674668
 30
0.0
 11
914.19957235127504
 21
112.69220843461545
 31
0.0
  0
LINE
  5
DB
100
AcDbEntity
  8
SENZA_NOME
390
0
100
AcDbLine
 10
1011.8917713045086
 20
115.24127876452863
 30
0.0
 11
1011.8917713045084
 21
144.46920350399867
 31
0.0
  0
LINE
  5
DC
100
AcDbEntity
  8
0
390
0
  6
Continuous
100
AcDbLine
 10
442.68352081204546
 20
68.369213672943232
 30
0.0
 11
440.18620033985405
 21
68.662989978273714
 31
0.0
  0
LINE
  5
DD
100
AcDbEntity
  8
0
390
0
  6
Continuous
100
AcDbLine
 10
443.52958799814894
 20
68.286456095653421
 30
0.0
 11
442.68352081204546
 21
68.369213672943232
 31
0.0
  0
LINE
  5
DE
100
AcDbEntity
  8
0
390
0
  6
Continuous
100
AcDbLine
 10
442.70105056756199
 20
65.296926662626078
 30
0.0
 11
440.19778618325472
 21
65.281140027169471
 31
0.0
  0
LINE
  5
DF
100
AcDbEntity
  8
0
390
0
  6
Continuous
100
AcDbLine
 10
442.70105056756199
 20
65.296926662626078
 30
0.0
 11
440.19778618325472
 21
65.281140027169471
 31
0.0
  0
LINE
  5
E0
100
AcDbEntity
  8
SENZA_NOME
390
0
 62
               3
100
AcDbLine
 10
442.70105056756199
 20
65.296926662626078
 30
0.0
 11
445.70049770392689
 21
65.239334335427003
 31
0.0
  0
LINE
  5
E1
100
AcDbEntity
  8
SENZA_NOME
390
0
 62
               5
100
AcDbLine
 10
620.92923090526381
 20
83.93598671032089
 30
0.0
 11
621.19047624220514
 21
80.958704688133679
 31
0.0
  0
LINE
  5
E2
100
AcDbEntity
  8
SENZA_NOME
390
0
 62
               5
100
AcDbLine
 10
620.92923090526381
 20
83.93598671032089
 30
0.0
 11
601.09983975925957
 21
82.202801862247753
 31
0.0
  0
LINE
  5
E3
100
AcDbEntity
  8
SENZA_NOME
390
0
 62
               5
100
AcDbLine
 10
601.09983975925957
 20
82.202801862247753
 30
0.0
 11
601.36167459021863
 21
79.218801672526894
 31
0.0
  0
LINE
  5
E4
100
AcDbEntity
  8
SENZA_NOME
390
0
100
AcDbLine
 10
517.63762488361078
 20
71.872330154983445
 30
0.0
 11
601.36167459021863
 21
79.218801672526894
 31
0.0
  0
LINE
  5
E5
100
AcDbEntity
  8
SENZA_NOME
390
0
 62
               5
100
AcDbLine
 10
517.11316252746019
 20
77.849364472852216
 30
0.0
 11
517.63762488361078
 21
71.872330154983445
 31
0.0
  0
LINE
  5
E6
100
AcDbEntity
  8
SENZA_NOME
390
0
100
AcDbLine
 10
509.14378343696853
 20
77.150081331318006
 30
0.0
 11
517.11316252746019
 21
77.849364472852216
 31
0.0
  0
LINE
  5
E7
100
AcDbEntity
  8
SENZA_NOME
390
0
 62
               5
100
AcDbLine
 10
509.14378343696853
 20
77.150081331318006
 30
0.0
 11
509.40601461504377
 21
74.161564172383606
 31
0.0
  0
LINE
  5
E8
100
AcDbEntity
  8
SENZA_NOME
390
0
100
AcDbLine
 10
460.21989646989221
 20
69.845666682019328
 30
0.0
 11
509.40601461504377
 21
74.161564172383606
 31
0.0
  0
LINE
  5
E9
100
AcDbEntity
  8
SENZA_NOME
390
0
 62
               5
100
AcDbLine
 10
459.95766529181685
 20
72.834183840953699
 30
0.0
 11
460.21989646989221
 21
69.845666682019328
 31
0.0
  0
LINE
  5
EA
100
AcDbEntity
  8
SENZA_NOME
390
0
100
AcDbLine
 10
451.9882862013252
 20
72.134900699419489
 30
0.0
 11
459.95766529181685
 21
72.834183840953699
 31
0.0
  0
LINE
  5
EB
100
AcDbEntity
  8
SENZA_NOME
390
0
 62
               5
100
AcDbLine
 10
451.9882862013252
 20
72.134900699419489
 30
0.0
 11
452.51274855747579
 21
66.157866381550718
 31
0.0
  0
LINE
  5
EC
100
AcDbEntity
  8
SENZA_NOME
390
0
100
AcDbLine
 10
442.70105056756199
 20
65.296926662626078
 30
0.0
 11
452.51274855747579
 21
66.157866381550718
 31
0.0
  0
INSERT
  5
F4
100
AcDbEntity
  8
SENZA_NOME_3
390
0
100
AcDbBlockReference
  2
B02DA7D08
 10
0.0
 20
0.0
 30
0.0
  0
INSERT
  5
14D
100
AcDbEntity
  8
SENZA_NOME
390
0
100
AcDbBlockReference
  2
B02DAA134
 10
0.0
 20
0.0
 30
0.0
  0
LINE
  5
14E
100
AcDbEntity
  8
SENZA_NOME
390
0
100
AcDbLine
 10
554.88426343218532
 20
144.46920350399867
 30
0.0
 11
666.18433370542618
 21
144.46920350399867
 31
0.0
  0
LINE
  5
14F
100
AcDbEntity
  8
SENZA_NOME
390
0
100
AcDbLine
 10
310.66159257422333
 20
144.46920350399867
 30
0.0
 11
534.88426343218532
 21
144.46920350399867
 31
0.0
  0
LINE
  5
150
100
AcDbEntity
  8
SENZA_NOME
390
0
100
AcDbLine
 10
686.18433370542618
 20
144.46920350399867
 30
0.0
 11
794.64300873752063
 21
144.46920350399867
 31
0.0
  0
LINE
  5
151
100
AcDbEntity
  8
SENZA_NOME
390
0
 62
               5
100
AcDbLine
 10
686.18433370542618
 20
141.46920350399867
 30
0.0
 11
686.18433370542618
 21
144.46920350399867
 31
0.0
  0
LINE
  5
152
100
AcDbEntity
  8
SENZA_NOME
390
0
 62
               5
100
AcDbLine
 10
666.18433370542618
 20
141.46920350399867
 30
0.0
 11
686.18433370542618
 21
141.46920350399867
 31
0.0
  0
LINE
  5
153
100
AcDbEntity
  8
SENZA_NOME
390
0
 62
               5
100
AcDbLine
 10
666.18433370542618
 20
144.46920350399867
 30
0.0
 11
666.18433370542618
 21
141.46920350399867
 31
0.0
  0
LINE
  5
154
100
AcDbEntity
  8
SENZA_NOME
390
0
 62
               5
100
AcDbLine
 10
554.88426343218532
 20
141.46920350399867
 30
0.0
 11
554.88426343218532
 21
144.46920350399867
 31
0.0
  0
LINE
  5
155
100
AcDbEntity
  8
SENZA_NOME
390
0
 62
               5
100
AcDbLine
 10
534.88426343218532
 20
141.46920350399867
 30
0.0
 11
554.88426343218532
 21
141.46920350399867
 31
0.0
  0
LINE
  5
156
100
AcDbEntity
  8
SENZA_NOME
390
0
 62
               5
100
AcDbLine
 10
534.88426343218532
 20
144.46920350399867
 30
0.0
 11
534.88426343218532
 21
141.46920350399867
 31
0.0
  0
LINE
  5
157
100
AcDbEntity
  8
SENZA_NOME
390
0
 62
               5
100
AcDbLine
 10
290.66159257422333
 20
141.46920350399867
 30
0.0
 11
310.66159257422333
 21
141.46920350399867
 31
0.0
  0
LINE
  5
158
100
AcDbEntity
  8
SENZA_NOME
390
0
100
AcDbLine
 10
245.74665074024935
 20
144.46920350399867
 30
0.0
 11
290.66159257422333
 21
144.46920350399867
 31
0.0
  0
LINE
  5
159
100
AcDbEntity
  8
SENZA_NOME
390
0
 62
               5
100
AcDbLine
 10
310.66159257422333
 20
141.46920350399867
 30
0.0
 11
310.66159257422333
 21
144.46920350399867
 31
0.0
  0
LINE
  5
15A
100
AcDbEntity
  8
SENZA_NOME
390
0
 62
               5
100
AcDbLine
 10
290.66159257422333
 20
144.46920350399867
 30
0.0
 11
290.66159257422333
 21
141.46920350399867
 31
0.0
  0
LINE
  5
15B
100
AcDbEntity
  8
SENZA_NOME
390
0
 62
               3
100
AcDbLine
 10
184.14506719613811
 20
59.772824072233362
 30
0.0
 11
190.14447191502845
 21
59.772807772737693
 31
0.0
  0
LINE
  5
15C
100
AcDbEntity
  8
SENZA_NOME
390
0
 62
               3
100
AcDbLine
 10
170.14566247969668
 20
59.772871505949865
 30
0.0
 11
176.14506719613811
 21
59.772843046849488
 31
0.0
  0
LINE
  5
15D
100
AcDbEntity
  8
SENZA_NOME
390
0
 62
               3
100
AcDbLine
 10
170.14566247969668
 20
100.77287150594987
 30
0.0
 11
190.14769685274325
 21
100.77287150594987
 31
0.0
  0
LINE
  5
15E
100
AcDbEntity
  8
SENZA_NOME
390
0
 62
               3
100
AcDbLine
 10
170.14566247969668
 20
70.772871505949865
 30
0.0
 11
170.14566247969668
 21
100.77287150594987
 31
0.0
  0
LINE
  5
15F
100
AcDbEntity
  8
SENZA_NOME
390
0
 62
               3
100
AcDbLine
 10
184.14506719613811
 20
64.772824072233362
 30
0.0
 11
184.14506719613811
 21
59.772824072233362
 31
0.0
  0
LINE
  5
160
100
AcDbEntity
  8
SENZA_NOME
390
0
 62
               3
100
AcDbLine
 10
176.14506719613811
 20
64.772824072233362
 30
0.0
 11
184.14506719613811
 21
64.772824072233362
 31
0.0
  0
LINE
  5
161
100
AcDbEntity
  8
SENZA_NOME
390
0
 62
               3
100
AcDbLine
 10
176.14506719613811
 20
59.772824072233362
 30
0.0
 11
176.14506719613811
 21
64.772824072233362
 31
0.0
  0
LINE
  5
162
100
AcDbEntity
  8
SENZA_NOME
390
0
 62
               3
100
AcDbLine
 10
170.14566247969668
 20
70.772871505949865
 30
0.0
 11
170.14566247969668
 21
59.772871505949865
 31
0.0
  0
LINE
  5
163
100
AcDbEntity
  8
SENZA_NOME
390
0
 62
               3
100
AcDbLine
 10
170.14566247969668
 20
70.772871505949865
 30
0.0
 11
190.14533713846109
 21
70.772777080205074
 31
0.0
  0
LINE
  5
164
100
AcDbEntity
  8
SENZA_NOME
390
0
 62
               5
100
AcDbLine
 10
190.14855368262596
 20
111.6661298902746
 30
0.0
 11
193.31149361454226
 21
111.66611686651957
 31
0.0
  0
LINE
  5
165
100
AcDbEntity
  8
SENZA_NOME
390
0
 62
               5
100
AcDbLine
 10
190.14737382920217
 20
96.666129936676398
 30
0.0
 11
190.14855368262596
 21
111.6661298902746
 31
0.0
  0
LINE
  5
166
100
AcDbEntity
  8
SENZA_NOME
390
0
 62
               5
100
AcDbLine
 10
193.31149361454226
 20
96.666116866519573
 30
0.0
 11
190.14737382920217
 21
96.666129936676398
 31
0.0
  0
LINE
  5
167
100
AcDbEntity
  8
SENZA_NOME
390
0
 62
               5
100
AcDbLine
 10
193.31149361454226
 20
111.66611686651957
 30
0.0
 11
193.31149361454226
 21
96.666116866519573
 31
0.0
  0
LINE
  5
168
100
AcDbEntity
  8
SENZA_NOME
390
0
 62
               3
100
AcDbLine
 10
193.31149361454226
 20
143.94579111983668
 30
0.0
 11
193.31149361454226
 21
58.305353747424455
 31
0.0
  0
LINE
  5
169
100
AcDbEntity
  8
SENZA_NOME
390
0
 62
               3
100
AcDbLine
 10
190.15109259832258
 20
143.94449139071756
 30
0.0
 11
193.31149361454226
 21
143.94579111983668
 31
0.0
  0
LINE
  5
16A
100
AcDbEntity
  8
SENZA_NOME
390
0
 62
               3
100
AcDbLine
 10
190.14435648965102
 20
58.305353747424455
 30
0.0
 11
190.15109259832258
 21
143.94449139071756
 31
0.0
  0
LINE
  5
16B
100
AcDbEntity
  8
SENZA_NOME
390
0
 62
               3
100
AcDbLine
 10
193.31149361454226
 20
58.305353747424455
 30
0.0
 11
190.14435648965102
 21
58.305353747424455
 31
0.0
  0
LINE
  5
16C
100
AcDbEntity
  8
SENZA_NOME
390
0
 62
               5
100
AcDbLine
 10
442.70105056756199
 20
97.383065083312374
 30
0.0
 11
442.70105056756199
 21
112.47855147741625
 31
0.0
  0
LINE
  5
16D
100
AcDbEntity
  8
SENZA_NOME
390
0
 62
               5
100
AcDbLine
 10
445.70105056756199
 20
97.383065083312374
 30
0.0
 11
442.70105056756199
 21
97.383065083312374
 31
0.0
  0
LINE
  5
16E
100
AcDbEntity
  8
SENZA_NOME
390
0
 62
               5
100
AcDbLine
 10
445.70105056756199
 20
112.47855147741625
 30
0.0
 11
442.70105056756199
 21
112.47855147741625
 31
0.0
  0
LINE
  5
16F
100
AcDbEntity
  8
SENZA_NOME
390
0
 62
               5
100
AcDbLine
 10
445.70105056756199
 20
112.38306508331237
 30
0.0
 11
445.70105056756199
 21
97.383065083312374
 31
0.0
  0
LINE
  5
170
100
AcDbEntity
  8
SENZA_NOME
390
0
 62
               3
100
AcDbLine
 10
445.70105056756199
 20
144.46920350399867
 30
0.0
 11
442.70105056756199
 21
144.46920350399867
 31
0.0
  0
LINE
  5
171
100
AcDbEntity
  8
SENZA_NOME
390
0
 62
               3
100
AcDbLine
 10
445.70105056756199
 20
65.296926662626078
 30
0.0
 11
445.70105056756199
 21
144.46920350399867
 31
0.0
  0
LINE
  5
172
100
AcDbEntity
  8
SENZA_NOME
390
0
100
AcDbLine
 10
914.83420056441412
 20
144.46920350399867
 30
0.0
 11
1011.8917713045084
 21
144.46920350399867
 31
0.0
  0
LINE
  5
173
100
AcDbEntity
  8
SENZA_NOME
390
0
100
AcDbLine
 10
914.83420056441412
 20
139.46920350399867
 30
0.0
 11
914.83420056441412
 21
144.46920350399867
 31
0.0
  0
LINE
  5
174
100
AcDbEntity
  8
SENZA_NOME
390
0
100
AcDbLine
 10
794.64300873752063
 20
139.46920350399867
 30
0.0
 11
914.83420056441412
 21
139.46920350399867
 31
0.0
  0
LINE
  5
175
100
AcDbEntity
  8
SENZA_NOME
390
0
100
AcDbLine
 10
794.64300873752063
 20
144.46920350399867
 30
0.0
 11
794.64300873752063
 21
139.46920350399867
 31
0.0
  0
LINE
  5
176
100
AcDbEntity
  8
SENZA_NOME
390
0
100
AcDbLine
 10
59.985294876556466
 20
91.63429734679768
 30
0.0
 11
60.0
 21
75.666666666666671
 31
0.0
  0
LINE
  5
177
100
AcDbEntity
  8
SENZA_NOME
390
0
100
AcDbLine
 10
60.0
 20
132.66666666666669
 30
0.0
 11
59.987491602487694
 21
116.71896151504882
 31
0.0
  0
ARC
  5
178
100
AcDbEntity
  8
SENZA_NOME
390
0
100
AcDbCircle
 10
229.36350347885298
 20
-1065.2236390516346
 30
0.0
 40
1209.8037778270145
100
AcDbArc
 50
89.224077571100665
 51
98.04741455621982
  0
LINE
  5
179
100
AcDbEntity
  8
SENZA_NOME_2
390
0
  6
Continuous
 62
               4
100
AcDbLine
 10
65.330702688682806
 20
-67.882994441183968
 30
0.0
 11
65.330693387241595
 21
-92.657500099026194
 31
0.0
  0
LINE
  5
17A
100
AcDbEntity
  8
SENZA_NOME_2
390
0
  6
Continuous
 62
               4
100
AcDbLine
 10
65.330702688682806
 20
-67.882994441183968
 30
0.0
 11
65.330702688682806
 21
-92.657498121679353
 31
0.0
  0
LINE
  5
17B
100
AcDbEntity
  8
SENZA_NOME_2
390
0
  6
Continuous
 62
               4
100
AcDbLine
 10
60.430509666262644
 20
-92.657500099026194
 30
0.0
 11
60.430509666262644
 21
-107.9286985639701
 31
0.0
  0
LINE
  5
17C
100
AcDbEntity
  8
SENZA_NOME_2
390
0
  6
Continuous
 62
               4
100
AcDbLine
 10
60.432757970280853
 20
-52.634328362266288
 30
0.0
 11
60.432757970280853
 21
-67.882994441183968
 31
0.0
  0
INSERT
  5
1AB
100
AcDbEntity
  8
SENZA_NOME
390
0
100
AcDbBlockReference
  2
B02DAD008
 10
0.0
 20
0.0
 30
0.0
  0
INSERT
  5
1DA
100
AcDbEntity
  8
SENZA_NOME
390
0
100
AcDbBlockReference
  2
B02DAECD8
 10
0.0
 20
0.0
 30
0.0
  0
LINE
  5
1DB
100
AcDbEntity
  8
SENZA_NOME
390
0
100
AcDbLine
 10
1011.8917713045084
 20
-69.07267966890366
 30
0.0
 11
1011.8917713045084
 21
-99.742130757801192
 31
0.0
  0
LINE
  5
1DC
100
AcDbEntity
  8
SENZA_NOME
390
0
100
AcDbLine
 10
60.399197389945925
 20
-80.281605455168446
 30
0.0
 11
1082.1557773245038
 21
-80.281605455168446
 31
0.0
  0
LINE
  5
1DD
100
AcDbEntity
  8
0
390
0
  6
Continuous
100
AcDbLine
 10
440.26273965105213
 20
65.235411988870027
 30
0.0
 11
436.19523965105213
 21
65.044441988870034
 31
0.0
  0
LINE
  5
1DE
100
AcDbEntity
  8
0
390
0
  6
Continuous
100
AcDbLine
 10
440.26273965105213
 20
65.235411988870027
 30
0.0
 11
436.19523965105213
 21
65.044441988870034
 31
0.0
  0
LINE
  5
1DF
100
AcDbEntity
  8
0
390
0
  6
Continuous
100
AcDbLine
 10
436.24866805816248
 20
65.04742824186215
 30
0.0
 11
430.73866805816249
 21
64.690138241862144
 31
0.0
  0
LINE
  5
1E0
100
AcDbEntity
  8
0
390
0
  6
Continuous
100
AcDbLine
 10
430.77755433865332
 20
64.692913620305234
 30
0.0
 11
423.95505433865333
 21
64.161403620305236
 31
0.0
  0
LINE
  5
1E1
100
AcDbEntity
  8
0
390
0
  6
Continuous
100
AcDbLine
 10
430.77755433865332
 20
64.692913620305234
 30
0.0
 11
423.95505433865333
 21
64.161403620305236
 31
0.0
  0
LINE
  5
1E2
100
AcDbEntity
  8
0
390
0
  6
Continuous
100
AcDbLine
 10
423.97780427620808
 20
64.163263063967975
 30
0.0
 11
415.99030427620812
 21
63.479813063967981
 31
0.0
  0
LINE
  5
1E3
100
AcDbEntity
  8
0
390
0
  6
Continuous
100
AcDbLine
 10
416.00278599257751
 20
63.480907322060261
 30
0.0
 11
406.99278599257752
 21
62.672047322060251
 31
0.0
  0
LINE
  5
1E4
100
AcDbEntity
  8
0
390
0
  6
Continuous
100
AcDbLine
 10
406.99344959403857
 20
62.672106970227361
 30
0.0
 11
397.10594959403863
 21
61.782256970227365
 31
0.0
  0
LINE
  5
1E5
100
AcDbEntity
  8
0
390
0
  6
Continuous
100
AcDbLine
 10
397.10042958405597
 20
61.781765322678353
 30
0.0
 11
386.47542958405597
 21
60.845325322678349
 31
0.0
  0
LINE
  5
1E6
100
AcDbEntity
  8
0
390
0
  6
Continuous
100
AcDbLine
 10
386.46539206991474
 20
60.844457644060668
 30
0.0
 11
375.23039206991473
 21
59.892267644060666
 31
0.0
  0
LINE
  5
1E7
100
AcDbEntity
  8
0
390
0
  6
Continuous
100
AcDbLine
 10
375.21150162803394
 20
59.890726724354124
 30
0.0
 11
363.49900162803397
 21
58.972556724354149
 31
0.0
  0
LINE
  5
1E8
100
AcDbEntity
  8
0
390
0
  6
Continuous
100
AcDbLine
 10
375.21150162803394
 20
59.890726724354124
 30
0.0
 11
363.49900162803397
 21
58.972556724354149
 31
0.0
  0
LINE
  5
1E9
100
AcDbEntity
  8
0
390
0
  6
Continuous
100
AcDbLine
 10
363.47302918073399
 20
58.97063407497663
 30
0.0
 11
351.40802918073393
 21
58.130144074976613
 31
0.0
  0
LINE
  5
1EA
100
AcDbEntity
  8
0
390
0
  6
Continuous
100
AcDbLine
 10
351.3788179097545
 20
58.128252274902223
 30
0.0
 11
339.08631790975448
 21
57.39236227490224
 31
0.0
  0
LINE
  5
1EB
100
AcDbEntity
  8
0
390
0
  6
Continuous
100
AcDbLine
 10
339.055084736156
 20
57.390655864707497
 30
0.0
 11
326.67508473615601
 21
56.778995864707497
 31
0.0
  0
LINE
  5
1EC
100
AcDbEntity
  8
0
390
0
  6
Continuous
100
AcDbLine
 10
326.64508169229771
 20
56.777664010517299
 30
0.0
 11
314.29758169229774
 21
56.291464010517302
 31
0.0
  0
LINE
  5
1ED
100
AcDbEntity
  8
0
390
0
  6
Continuous
100
AcDbLine
 10
289.91110444028561
 20
55.698677446982316
 30
0.0
 11
278.15110444028562
 21
55.604357446982306
 31
0.0
  0
LINE
  5
1EE
100
AcDbEntity
  8
0
390
0
  6
Continuous
100
AcDbLine
 10
301.99502402961753
 20
55.932071294384542
 30
0.0
 11
289.94502402961746
 21
55.69914129438456
 31
0.0
  0
LINE
  5
1EF
100
AcDbEntity
  8
0
390
0
  6
Continuous
100
AcDbLine
 10
314.26714313336686
 20
56.290420168941978
 30
0.0
 11
302.02464313336691
 21
55.932790168941949
 31
0.0
  0
LWPOLYLINE
  5
1F0
100
AcDbEntity
  8
0
390
0
100
AcDbPolyline
 90
       29
 70
               0
 10
443.47204398965107
 20
68.301810961216603
 10
442.6245439896511
 20
68.29595096121659
 10
440.12204398965105
 20
68.232110961216591
 10
436.05454398965105
 20
68.041140961216598
 10
430.54454398965106
 20
67.683850961216592
 10
423.72204398965107
 20
67.152340961216595
 10
415.734543989651
 20
66.468890961216601
 10
406.72454398965101
 20
65.660030961216592
 10
396.83704398965108
 20
64.770180961216596
 10
386.21204398965108
 20
63.833740961216591
 10
374.97704398965107
 20
62.88155096121659
 10
363.26454398965109
 20
61.963380961216615
 10
351.19954398965103
 20
61.122890961216598
 10
338.90704398965102
 20
60.387000961216614
 10
326.52704398965102
 20
59.775340961216614
 10
314.17954398965105
 20
59.289140961216617
 10
301.9370439896511
 20
58.931510961216588
 10
289.88704398965103
 20
58.698580961216607
 10
278.12704398965104
 20
58.604260961216596
 10
266.76204398965103
 20
58.612970961216604
 10
255.91204398965104
 20
58.750970961216609
 10
245.67954398965102
 20
59.018430961216609
 10
236.16204398965104
 20
59.410510961216602
 10
227.44454398965101
 20
59.934940961216597
 10
219.61204398965103
 20
60.59457096121659
 10
212.72204398965104
 20
61.391540961216606
 10
206.83204398965105
 20
62.330710961216596
 10
201.96954398965104
 20
63.409620961216604
 10
199.47204398965104
 20
64.201160961216601
  0
LWPOLYLINE
  5
1F1
100
AcDbEntity
  8
0
390
0
100
AcDbPolyline
 90
        9
 70
               0
 10
199.47204398965104
 20
74.625250961216608
 10
198.16954398965103
 20
73.835160961216616
 10
195.44704398965106
 20
71.576300961216589
 10
193.84204398965105
 20
69.490450961216595
 10
193.47204398965104
 20
68.301810961216603
 10
193.84204398965105
 20
67.741650961216607
 10
195.44704398965106
 20
65.880970961216605
 10
198.16954398965103
 20
64.613960961216605
 10
199.47204398965104
 20
64.201160961216601
  0
LINE
  5
1F2
100
AcDbEntity
  8
0
390
0
100
AcDbLine
 10
278.12704398965104
 20
91.144260961216617
 30
0.0
 11
278.12704398965104
 21
56.064260961216604
 31
0.0
  0
LINE
  5
1F3
100
AcDbEntity
  8
0
390
0
100
AcDbLine
 10
193.47204398965104
 20
68.301810961216603
 30
0.0
 11
443.47204398965107
 21
68.301810961216603
 31
0.0
  0
LINE
  5
1F4
100
AcDbEntity
  8
0
370
               0
390
0
  6
Continuous
100
AcDbLine
 10
278.12704398965104
 20
91.144260961216617
 30
0.0
 11
278.12704398965104
 21
56.064260961216604
 31
0.0
  0
LINE
  5
1F5
100
AcDbEntity
  8
0
370
               0
390
0
  6
Continuous
100
AcDbLine
 10
193.14435648965102
 20
68.301810961216603
 30
0.0
 11
443.47204398965107
 21
68.301810961216603
 31
0.0
  0
LINE
  5
1F6
100
AcDbEntity
  8
0
390
0
  6
Continuous
100
AcDbLine
 10
440.12204398965105
 20
68.61409096121659
 30
0.0
 11
436.05454398965105
 21
69.120170961216616
 31
0.0
  0
LINE
  5
1F7
100
AcDbEntity
  8
0
390
0
  6
Continuous
100
AcDbLine
 10
436.05454398965105
 20
69.120170961216616
 30
0.0
 11
430.54454398965106
 21
69.918370961216596
 31
0.0
  0
LINE
  5
1F8
100
AcDbEntity
  8
0
390
0
  6
Continuous
100
AcDbLine
 10
430.54454398965106
 20
69.918370961216596
 30
0.0
 11
423.72204398965107
 21
71.023150961216601
 31
0.0
  0
LINE
  5
1F9
100
AcDbEntity
  8
0
390
0
  6
Continuous
100
AcDbLine
 10
423.72204398965107
 20
71.023150961216601
 30
0.0
 11
415.734543989651
 21
72.4055809612166
 31
0.0
  0
LINE
  5
1FA
100
AcDbEntity
  8
0
390
0
  6
Continuous
100
AcDbLine
 10
415.734543989651
 20
72.4055809612166
 30
0.0
 11
406.72454398965101
 21
74.019400961216604
 31
0.0
  0
LINE
  5
1FB
100
AcDbEntity
  8
0
390
0
  6
Continuous
100
AcDbLine
 10
406.72454398965101
 20
74.019400961216604
 30
0.0
 11
396.83704398965108
 21
75.806740961216605
 31
0.0
  0
LINE
  5
1FC
100
AcDbEntity
  8
0
390
0
  6
Continuous
100
AcDbLine
 10
396.83704398965108
 20
75.806740961216605
 30
0.0
 11
386.21204398965108
 21
77.695300961216617
 31
0.0
  0
LINE
  5
1FD
100
AcDbEntity
  8
0
390
0
  6
Continuous
100
AcDbLine
 10
386.21204398965108
 20
77.695300961216617
 30
0.0
 11
374.97704398965107
 21
79.615670961216608
 31
0.0
  0
LINE
  5
1FE
100
AcDbEntity
  8
0
390
0
  6
Continuous
100
AcDbLine
 10
374.97704398965107
 20
79.615670961216608
 30
0.0
 11
363.26454398965109
 21
81.498430961216599
 31
0.0
  0
LINE
  5
1FF
100
AcDbEntity
  8
0
390
0
  6
Continuous
100
AcDbLine
 10
363.26454398965109
 20
81.498430961216599
 30
0.0
 11
351.19954398965103
 21
83.274170961216612
 31
0.0
  0
LINE
  5
200
100
AcDbEntity
  8
0
390
0
  6
Continuous
100
AcDbLine
 10
351.19954398965103
 20
83.274170961216612
 30
0.0
 11
338.90704398965102
 21
84.896600961216592
 31
0.0
  0
LINE
  5
201
100
AcDbEntity
  8
0
390
0
  6
Continuous
100
AcDbLine
 10
338.90704398965102
 20
84.896600961216592
 30
0.0
 11
326.52704398965102
 21
86.305000961216592
 31
0.0
  0
LINE
  5
202
100
AcDbEntity
  8
0
390
0
  6
Continuous
100
AcDbLine
 10
326.52704398965102
 20
86.305000961216592
 30
0.0
 11
314.17954398965105
 21
87.406850961216605
 31
0.0
  0
LINE
  5
203
100
AcDbEntity
  8
0
390
0
  6
Continuous
100
AcDbLine
 10
314.17954398965105
 20
87.406850961216605
 30
0.0
 11
301.9370439896511
 21
88.158800961216599
 31
0.0
  0
LINE
  5
204
100
AcDbEntity
  8
0
390
0
  6
Continuous
100
AcDbLine
 10
301.9370439896511
 20
88.158800961216599
 30
0.0
 11
289.88704398965103
 21
88.555040961216605
 31
0.0
  0
LINE
  5
205
100
AcDbEntity
  8
0
390
0
  6
Continuous
100
AcDbLine
 10
289.88704398965103
 20
88.555040961216605
 30
0.0
 11
278.12704398965104
 21
88.604260961216596
 31
0.0
  0
LINE
  5
206
100
AcDbEntity
  8
0
390
0
  6
Continuous
100
AcDbLine
 10
278.12704398965104
 20
88.604260961216596
 30
0.0
 11
266.76204398965103
 21
88.320930961216618
 31
0.0
  0
LINE
  5
207
100
AcDbEntity
  8
0
390
0
  6
Continuous
100
AcDbLine
 10
266.76204398965103
 20
88.320930961216618
 30
0.0
 11
255.91204398965104
 21
87.722380961216601
 31
0.0
  0
LINE
  5
208
100
AcDbEntity
  8
0
390
0
  6
Continuous
100
AcDbLine
 10
255.91204398965104
 20
87.722380961216601
 30
0.0
 11
245.67954398965102
 21
86.817280961216596
 31
0.0
  0
LINE
  5
209
100
AcDbEntity
  8
0
390
0
  6
Continuous
100
AcDbLine
 10
245.67954398965102
 20
86.817280961216596
 30
0.0
 11
236.16204398965104
 21
85.62009096121659
 31
0.0
  0
LINE
  5
20A
100
AcDbEntity
  8
0
390
0
  6
Continuous
100
AcDbLine
 10
236.16204398965104
 20
85.62009096121659
 30
0.0
 11
227.44454398965101
 21
84.151050961216612
 31
0.0
  0
LINE
  5
20B
100
AcDbEntity
  8
0
390
0
  6
Continuous
100
AcDbLine
 10
227.44454398965101
 20
84.151050961216612
 30
0.0
 11
219.61204398965103
 21
82.436160961216615
 31
0.0
  0
LINE
  5
20C
100
AcDbEntity
  8
0
390
0
  6
Continuous
100
AcDbLine
 10
219.61204398965103
 20
82.436160961216615
 30
0.0
 11
212.72204398965104
 21
80.501450961216591
 31
0.0
  0
LINE
  5
20D
100
AcDbEntity
  8
0
390
0
  6
Continuous
100
AcDbLine
 10
212.72204398965104
 20
80.501450961216591
 30
0.0
 11
206.83204398965105
 21
78.384500961216588
 31
0.0
  0
LINE
  5
20E
100
AcDbEntity
  8
0
390
0
  6
Continuous
100
AcDbLine
 10
206.83204398965105
 20
78.384500961216588
 30
0.0
 11
201.96954398965104
 21
76.140230961216616
 31
0.0
  0
LINE
  5
20F
100
AcDbEntity
  8
0
390
0
  6
Continuous
100
AcDbLine
 10
201.96954398965104
 20
76.140230961216616
 30
0.0
 11
199.47204398965104
 21
74.625250961216608
 31
0.0
  0
LINE
  5
210
100
AcDbEntity
  8
0
370
               0
390
0
  6
Continuous
100
AcDbLine
 10
278.12704398965104
 20
88.450637221530656
 30
0.0
 11
278.12704398965104
 21
53.370637221530671
 31
0.0
  0
LINE
  5
211
100
AcDbEntity
  8
SENZA_NOME_2
390
0
  6
Continuous
 62
               4
100
AcDbLine
 10
65.330688016005581
 20
-92.657500099026194
 30
0.0
 11
60.430509666262644
 21
-92.657500099026194
 31
0.0
  0
LINE
  5
212
100
AcDbEntity
  8
SENZA_NOME_2
390
0
  6
Continuous
 62
               4
100
AcDbLine
 10
60.432757970280853
 20
-67.882994441183968
 30
0.0
 11
65.330702688682806
 21
-67.882994441183968
 31
0.0
  0
LINE
  5
213
100
AcDbEntity
  8
SENZA_NOME_2
390
0
  6
Continuous
 62
               4
100
AcDbLine
 10
794.49722000579209
 20
-66.345956805509417
 30
0.0
 11
794.49722000579209
 21
-94.480364068596515
 31
0.0
  0
LINE
  5
214
100
AcDbEntity
  8
0
390
0
100
AcDbLine
 10
59.987491602487694
 20
116.71896151504882
 30
0.0
 11
64.737000251977719
 21
116.71896151504882
 31
0.0
  0
LINE
  5
215
100
AcDbEntity
  8
0
390
0
100
AcDbLine
 10
64.737000251977719
 20
116.71896151504882
 30
0.0
 11
64.737000251977719
 21
91.63429734679768
 31
0.0
  0
LINE
  5
216
100
AcDbEntity
  8
0
390
0
100
AcDbLine
 10
64.737000251977719
 20
91.63429734679768
 30
0.0
 11
59.985294876556466
 21
91.63429734679768
 31
0.0
  0
LINE
  5
217
100
AcDbEntity
  8
SENZA_NOME
390
0
100
AcDbLine
 10
1230.3646674048503
 20
143.82034670011623
 30
0.0
 11
1227.6369495838903
 21
145.73031528046133
 31
0.0
  0
LINE
  5
218
100
AcDbEntity
  8
SENZA_NOME
390
0
100
AcDbLine
 10
1240.0822984316662
 20
143.69021247723907
 30
0.0
 11
1242.9958671836368
 21
145.73031528046116
 31
0.0
  0
LINE
  5
219
100
AcDbEntity
  8
SENZA_NOME
390
0
100
AcDbLine
 10
1230.5312559048912
 20
119.74401806297135
 30
0.0
 11
1230.3646674048503
 21
143.82034670011629
 31
0.0
  0
LINE
  5
21A
100
AcDbEntity
  8
SENZA_NOME
390
0
100
AcDbLine
 10
1239.8312559048911
 20
119.74401806297135
 30
0.0
 11
1240.0822984316662
 21
143.69021247723916
 31
0.0
  0
CIRCLE
  5
21B
100
AcDbEntity
  8
SENZA_NOME
390
0
100
AcDbCircle
 10
1230.5312559048912
 20
119.74401806297135
 30
0.0
 40
2.0
  0
CIRCLE
  5
21C
100
AcDbEntity
  8
SENZA_NOME
390
0
100
AcDbCircle
 10
1239.8312559048911
 20
119.74401806297135
 30
0.0
 40
2.0
  0
LINE
  5
21D
100
AcDbEntity
  8
SENZA_NOME
390
0
100
AcDbLine
 10
1235.3164083837637
 20
146.54946732475022
 30
0.0
 11
1235.3164083837637
 21
101.09665978710458
 31
0.0
  0
LINE
  5
21E
100
AcDbEntity
  8
SENZA_NOME
390
0
100
AcDbLine
 10
1227.3312559048911
 20
112.27926286704681
 30
0.0
 11
1243.3312559048911
 21
112.27926286704681
 31
0.0
  0
LINE
  5
21F
100
AcDbEntity
  8
SENZA_NOME
390
0
100
AcDbLine
 10
1243.3312559048911
 20
109.27926286704681
 30
0.0
 11
1243.3312559048911
 21
141.52826286704681
 31
0.0
  0
LINE
  5
220
100
AcDbEntity
  8
SENZA_NOME
390
0
100
AcDbLine
 10
1227.3312559048911
 20
141.52826286704681
 30
0.0
 11
1227.3312559048911
 21
109.27926286704681
 31
0.0
  0
LINE
  5
221
100
AcDbEntity
  8
SENZA_NOME
390
0
100
AcDbLine
 10
1246.3312559048911
 20
109.27926286704681
 30
0.0
 11
1246.3312559048911
 21
141.52826286704681
 31
0.0
  0
LINE
  5
222
100
AcDbEntity
  8
SENZA_NOME
390
0
100
AcDbLine
 10
1224.3312559048911
 20
109.27926286704681
 30
0.0
 11
1246.3312559048911
 21
109.27926286704681
 31
0.0
  0
LINE
  5
223
100
AcDbEntity
  8
SENZA_NOME
390
0
100
AcDbLine
 10
1224.3312559048911
 20
141.52826286704681
 30
0.0
 11
1224.3312559048911
 21
109.27926286704681
 31
0.0
  0
LINE
  5
224
100
AcDbEntity
  8
SENZA_NOME
390
0
100
AcDbLine
 10
1224.7094883291932
 20
141.54946732475022
 30
0.0
 11
1245.9530234805893
 21
141.50705840934341
 31
0.0
  0
LINE
  5
225
100
AcDbEntity
  8
SENZA_NOME
390
0
100
AcDbLine
 10
1228.2105260202416
 20
146.54946732475022
 30
0.0
 11
1224.7094883291932
 21
141.54946732475022
 31
0.0
  0
LINE
  5
226
100
AcDbEntity
  8
SENZA_NOME
390
0
100
AcDbLine
 10
1242.4222907472858
 20
146.54946732475022
 30
0.0
 11
1245.9233284383342
 21
141.54946732475022
 31
0.0
  0
INSERT
  5
22E
100
AcDbEntity
  8
SENZA_NOME
390
0
100
AcDbBlockReference
  2
B02D57054
 10
0.0
 20
0.0
 30
0.0
  0
LINE
  5
22F
100
AcDbEntity
  8
SENZA_NOME
390
0
100
AcDbLine
 10
1034.275854521451
 20
279.29204975652362
 30
0.0
 11
1052.0928364981082
 21
269.86840114022516
 31
0.0
  0
LINE
  5
230
100
AcDbEntity
  8
SENZA_NOME
390
0
100
AcDbLine
 10
1034.275854521451
 20
279.29204975652362
 30
0.0
 11
1049.224954316353
 21
265.77264091878027
 31
0.0
  0
LINE
  5
231
100
AcDbEntity
  8
SENZA_NOME
390
0
100
AcDbLine
 10
1225.3426438384865
 20
142.45370710330533
 30
0.0
 11
1049.224954316353
 21
265.77264091878027
 31
0.0
  0
LINE
  5
232
100
AcDbEntity
  8
SENZA_NOME
390
0
100
AcDbLine
 10
1228.2105260202416
 20
146.54946732475022
 30
0.0
 11
1052.0928364981082
 21
269.86840114022516
 31
0.0
  0
LINE
  5
233
100
AcDbEntity
  8
SENZA_NOME
390
0
100
AcDbLine
 10
1436.3569622460764
 20
279.29204975652362
 30
0.0
 11
1418.5399802694192
 21
269.86840114022516
 31
0.0
  0
LINE
  5
234
100
AcDbEntity
  8
SENZA_NOME
390
0
100
AcDbLine
 10
1436.3569622460764
 20
279.29204975652362
 30
0.0
 11
1421.4078624511744
 21
265.77264091878027
 31
0.0
  0
LINE
  5
235
100
AcDbEntity
  8
SENZA_NOME
390
0
100
AcDbLine
 10
1245.2901729290409
 20
142.45370710330533
 30
0.0
 11
1421.4078624511744
 21
265.77264091878027
 31
0.0
  0
LINE
  5
236
100
AcDbEntity
  8
SENZA_NOME
390
0
100
AcDbLine
 10
1242.4222907472858
 20
146.54946732475022
 30
0.0
 11
1418.5399802694192
 21
269.86840114022516
 31
0.0
  0
LINE
  5
237
100
AcDbEntity
  8
SENZA_NOME
390
0
100
AcDbLine
 10
1235.3164083837637
 20
146.54946732475022
 30
0.0
 11
1228.21052602023
 21
146.54946732475022
 31
0.0
  0
LINE
  5
238
100
AcDbEntity
  8
SENZA_NOME
390
0
100
AcDbLine
 10
1235.3164083837637
 20
146.54946732475022
 30
0.0
 11
1242.4222907472974
 21
146.54946732475022
 31
0.0
  0
LINE
  5
239
100
AcDbEntity
  8
SENZA_NOME
390
0
100
AcDbLine
 10
1244.4701708580083
 20
177.22583143040345
 30
0.0
 11
1244.4701708580083
 21
177.8204667118207
 31
0.0
  0
LINE
  5
23A
100
AcDbEntity
  8
SENZA_NOME_4
390
0
100
AcDbLine
 10
794.41830630829008
 20
-70.844571080600517
 30
0.0
 11
913.91684104490776
 21
-70.844571080600517
 31
0.0
  0
LINE
  5
23B
100
AcDbEntity
  8
SENZA_NOME_4
390
0
100
AcDbLine
 10
794.69037773575189
 20
-63.474935041632229
 30
0.0
 11
824.69569002042408
 21
-63.474935041632229
 31
0.0
  0
LINE
  5
23C
100
AcDbEntity
  8
SENZA_NOME_3
390
0
100
AcDbLine
 10
439.76294167156766
 20
118.70194758368167
 30
0.0
 11
439.56384059455007
 21
118.5028465066641
 31
0.0
  0
LINE
  5
23D
100
AcDbEntity
  8
SENZA_NOME_3
390
0
100
AcDbLine
 10
458.91038491305187
 20
-47.399334914701541
 30
0.0
 11
458.91038491305187
 21
-51.45305779799304
 31
0.0
  0
LINE
  5
23E
100
AcDbEntity
  8
SENZA_NOME_3
390
0
100
AcDbLine
 10
490.61862324842627
 20
-48.49108693155199
 30
0.0
 11
490.61862324842627
 21
-52.486482418392399
 31
0.0
  0
LINE
  5
23F
100
AcDbEntity
  8
0
390
0
100
AcDbLine
 10
204.13354022113978
 20
1.9580461846185384
 30
0.0
 11
204.13354022113978
 21
-7.5733281232229519
 31
0.0
  0
LINE
  5
240
100
AcDbEntity
  8
0
390
0
100
AcDbLine
 10
208.89922737506052
 20
-3.4033518635422997
 30
0.0
 11
198.17229519523062
 21
-3.4033518635422997
 31
0.0
  0
CIRCLE
  5
241
100
AcDbEntity
  8
0
390
0
100
AcDbCircle
 10
204.19857971135713
 20
-3.14743841301692
 30
0.0
 40
28.5
  0
LINE
  5
242
100
AcDbEntity
  8
0
390
0
100
AcDbLine
 10
208.46040855924704
 20
-31.640331922377115
 30
0.0
 11
280.84061804151276
 21
-31.640331922377115
 31
0.0
  0
LINE
  5
243
100
AcDbEntity
  8
0
390
0
100
AcDbLine
 10
171.46021603134267
 20
-31.640331922377115
 30
0.0
 11
208.46040855924704
 21
-31.640331922377115
 31
0.0
  0
LINE
  5
244
100
AcDbEntity
  8
SENZA_NOME_3
390
0
100
AcDbLine
 10
490.61862324842627
 20
-48.380002079713122
 30
0.0
 11
490.61862324842627
 21
-48.572920210535074
 31
0.0
  0
LINE
  5
245
100
AcDbEntity
  8
SENZA_NOME_3
390
0
100
AcDbLine
 10
448.67634601479574
 20
-47.077302305699277
 30
0.0
 11
459.05755773840792
 21
-47.427230790764852
 31
0.0
  0
INSERT
  5
24F
100
AcDbEntity
  8
0
390
0
100
AcDbBlockReference
  2
B02D58240
 10
0.0
 20
0.0
 30
0.0
  0
LINE
  5
250
100
AcDbEntity
  8
SENZA_NOME_3
390
0
100
AcDbLine
 10
188.09362030608432
 20
-44.513204275183561
 30
0.0
 11
193.14435648965102
 21
-44.513204275183561
 31
0.0
  0
LINE
  5
251
100
AcDbEntity
  8
0
390
0
  6
Continuous
100
AcDbLine
 10
1031.0359593584801
 20
-80.300134132669442
 30
0.0
 11
1026.32795935848
 21
-80.760074132669445
 31
0.0
  0
LINE
  5
252
100
AcDbEntity
  8
0
390
0
  6
Continuous
100
AcDbLine
 10
1031.0359593584801
 20
-80.300134132669442
 30
0.0
 11
1026.32795935848
 21
-79.840194132669453
 31
0.0
  0
LINE
  5
253
100
AcDbEntity
  8
SENZA_NOME_3
390
0
100
AcDbLine
 10
188.09362030608432
 20
58.305353747424455
 30
0.0
 11
193.14435648965102
 21
58.305353747424455
 31
0.0
  0
LINE
  5
254
100
AcDbEntity
  8
SENZA_NOME_3
390
0
100
AcDbLine
 10
198.18286242999991
 20
147.8628830610767
 30
0.0
 11
198.19625419498314
 21
148.01595163526147
 31
0.0
  0
LINE
  5
255
100
AcDbEntity
  8
SENZA_NOME_3
390
0
100
AcDbLine
 10
440.98760675035254
 20
-46.881377997152896
 30
0.0
 11
437.60540426975575
 21
-46.881377997152896
 31
0.0
  0
LINE
  5
256
100
AcDbEntity
  8
SENZA_NOME
390
0
 62
               1
100
AcDbLine
 10
319.5062720910521
 20
111.66559641696277
 30
0.0
 11
319.5062720910521
 21
96.665596416962771
 31
0.0
  0
LINE
  5
257
100
AcDbEntity
  8
0
390
0
100
AcDbLine
 10
319.5062720910521
 20
111.66559641696277
 30
0.0
 11
316.5062720910521
 21
111.66559641696277
 31
0.0
  0
LINE
  5
258
100
AcDbEntity
  8
0
390
0
100
AcDbLine
 10
316.5062720910521
 20
111.66559641696277
 30
0.0
 11
316.5062720910521
 21
96.665596416962771
 31
0.0
  0
LINE
  5
259
100
AcDbEntity
  8
0
390
0
100
AcDbLine
 10
316.5062720910521
 20
96.665596416962771
 30
0.0
 11
319.5062720910521
 21
96.665596416962771
 31
0.0
  0
ARC
  5
25A
100
AcDbEntity
  8
SENZA_NOME
390
0
100
AcDbCircle
 10
264.5023075059334
 20
1103.2816654672449
 30
0.0
 40
1047.7660900865058
100
AcDbArc
 50
258.74479891989148
 51
270.74507269015118
  0
LINE
  5
25B
100
AcDbEntity
  8
0
390
0
100
AcDbLine
 10
621.19047624220514
 20
-104.16295497291136
 30
0.0
 11
621.19047624220514
 21
-106.66547323739658
 31
0.0
  0
LINE
  5
25C
100
AcDbEntity
  8
0
390
0
100
AcDbLine
 10
601.36167459021863
 20
-105.05318342763681
 30
0.0
 11
601.36167459021863
 21
-107.55570169212203
 31
0.0
  0
LINE
  5
25D
100
AcDbEntity
  8
0
390
0
100
AcDbLine
 10
601.36167459021863
 20
-53.007509218214892
 30
0.0
 11
601.36167459021863
 21
-55.51002748270011
 31
0.0
  0
LINE
  5
25E
100
AcDbEntity
  8
0
390
0
100
AcDbLine
 10
621.19047624220514
 20
-53.897737672940337
 30
0.0
 11
621.19047624220514
 21
-56.400255937425555
 31
0.0
  0
LINE
  5
25F
100
AcDbEntity
  8
SENZA_NOME
390
0
 62
               1
100
AcDbLine
 10
193.3114936145424
 20
-116.20429772747153
 30
0.0
 11
193.3114936145424
 21
-44.358913182865379
 31
0.0
  0
LINE
  5
260
100
AcDbEntity
  8
0
390
0
 62
               3
100
AcDbLine
 10
442.7743293538025
 20
-49.415698656296797
 30
0.0
 11
442.78430239322023
 21
-111.14720902956783
 31
0.0
  0
LINE
  5
261
100
AcDbEntity
  8
0
390
0
 62
               3
100
AcDbLine
 10
452.51274855747579
 20
-47.206619245340178
 30
0.0
 11
452.51274855747579
 21
-113.35257654208044
 31
0.0
  0
LINE
  5
262
100
AcDbEntity
  8
0
390
0
100
AcDbLine
 10
517.63762488361078
 20
-49.480280674354418
 30
0.0
 11
517.63762488361078
 21
-111.0829302359825
 31
0.0
  0
LINE
  5
263
100
AcDbEntity
  8
0
390
0
 62
               3
100
AcDbLine
 10
872.88479448234432
 20
-68.147380285580454
 30
0.0
 11
872.88479448234432
 21
-92.415830624756467
 31
0.0
  0
LINE
  5
264
100
AcDbEntity
  8
0
390
0
 62
               3
100
AcDbLine
 10
906.49242443885862
 20
-70.412254554757197
 30
0.0
 11
906.49242443885862
 21
-90.150956355579723
 31
0.0
  0
LINE
  5
265
100
AcDbEntity
  8
0
390
0
100
AcDbLine
 10
802.48435371006622
 20
-281.03435748711161
 30
0.0
 11
794.41830630829008
 21
-89.414625805308958
 31
0.0
  0
LINE
  5
266
100
AcDbEntity
  8
0
390
0
100
AcDbLine
 10
887.66466913583292
 20
-323.96733558010698
 30
0.0
 11
825.41536240000266
 21
-308.9343397357398
 31
0.0
  0
ARC
  5
267
100
AcDbEntity
  8
0
390
0
100
AcDbCircle
 10
832.45781036430503
 20
-279.77265379905066
 30
0.0
 40
30.0
100
AcDbArc
 50
182.41038747209655
 51
256.42321564484206
  0
LINE
  5
268
100
AcDbEntity
  8
0
390
0
100
AcDbLine
 10
890.53740402199162
 20
-296.96362765021502
 30
0.0
 11
876.17372959119803
 21
-293.51634578682456
 31
0.0
  0
LINE
  5
269
100
AcDbEntity
  8
0
390
0
100
AcDbLine
 10
913.91684104490776
 20
-89.414625805308958
 30
0.0
 11
887.32544117549799
 21
-323.96691558038498
 31
0.0
  0
LINE
  5
26A
100
AcDbEntity
  8
0
390
0
100
AcDbLine
 10
794.41830630829008
 20
-89.414625805308958
 30
0.0
 11
913.91684104490776
 21
-89.414625805308958
 31
0.0
  0
LINE
  5
26B
100
AcDbEntity
  8
0
390
0
100
AcDbLine
 10
876.03009284689006
 20
-293.05670820503912
 30
0.0
 11
885.95166874941242
 21
-89.414625805308958
 31
0.0
  0
CIRCLE
  5
26C
100
AcDbEntity
  8
0
390
0
 62
               3
100
AcDbCircle
 10
885.95166874941242
 20
-89.414625805308958
 30
0.0
 40
6.5
  0
LINE
  5
26D
100
AcDbEntity
  8
0
390
0
 62
               3
100
AcDbLine
 10
469.72000124940422
 20
92.289953983495053
 30
0.0
 11
445.70105056756199
 21
92.289953983495053
 31
0.0
  0
CIRCLE
  5
26E
100
AcDbEntity
  8
0
390
0
100
AcDbCircle
 10
-171.64739403118853
 20
90.643915824802804
 30
0.0
 40
1.25
  0
CIRCLE
  5
26F
100
AcDbEntity
  8
0
390
0
100
AcDbCircle
 10
-225.82995029321023
 20
90.992734065357268
 30
0.0
 40
1.25
  0
CIRCLE
  5
270
100
AcDbEntity
  8
0
390
0
100
AcDbCircle
 10
-261.7302391020246
 20
91.131608734698702
 30
0.0
 40
1.25
  0
CIRCLE
  5
271
100
AcDbEntity
  8
0
390
0
100
AcDbCircle
 10
-317.03023910202461
 20
91.131608734698702
 30
0.0
 40
1.25
  0
CIRCLE
  5
272
100
AcDbEntity
  8
0
390
0
100
AcDbCircle
 10
-346.07607813949335
 20
91.14838323568118
 30
0.0
 40
1.25
  0
CIRCLE
  5
273
100
AcDbEntity
  8
0
390
0
100
AcDbCircle
 10
-398.14616112711633
 20
91.131608734698702
 30
0.0
 40
1.25
  0
CIRCLE
  5
274
100
AcDbEntity
  8
0
390
0
 62
               7
100
AcDbCircle
 10
1232.0850523587117
 20
-312.19633884051262
 30
0.0
 40
5.0
  0
CIRCLE
  5
275
100
AcDbEntity
  8
0
390
0
 62
               7
100
AcDbCircle
 10
1231.3523058117776
 20
-297.21424678039114
 30
0.0
 40
5.0
  0
CIRCLE
  5
276
100
AcDbEntity
  8
0
390
0
 62
               7
100
AcDbCircle
 10
1230.6195592648432
 20
-282.23215472026965
 30
0.0
 40
5.0
  0
CIRCLE
  5
277
100
AcDbEntity
  8
0
390
0
 62
               7
100
AcDbCircle
 10
1229.8868127179092
 20
-267.2500626601481
 30
0.0
 40
5.0
  0
CIRCLE
  5
278
100
AcDbEntity
  8
0
390
0
 62
               7
100
AcDbCircle
 10
1229.1540661709748
 20
-252.26797060002656
 30
0.0
 40
5.0
  0
CIRCLE
  5
279
100
AcDbEntity
  8
0
390
0
 62
               7
100
AcDbCircle
 10
1228.421319624041
 20
-237.28587853990507
 30
0.0
 40
5.0
  0
CIRCLE
  5
27A
100
AcDbEntity
  8
0
390
0
 62
               7
100
AcDbCircle
 10
1242.5306715958191
 20
-201.52837068958013
 30
0.0
 40
5.0
  0
CIRCLE
  5
27B
100
AcDbEntity
  8
0
390
0
 62
               7
100
AcDbCircle
 10
1243.2634181427536
 20
-216.5104627497017
 30
0.0
 40
5.0
  0
CIRCLE
  5
27C
100
AcDbEntity
  8
0
390
0
 62
               7
100
AcDbCircle
 10
1244.3233704499262
 20
-230.41752024224562
 30
0.0
 40
5.0
  0
CIRCLE
  5
27D
100
AcDbEntity
  8
0
390
0
 62
               7
100
AcDbCircle
 10
1245.0561169968607
 20
-245.39961230236713
 30
0.0
 40
5.0
  0
CIRCLE
  5
27E
100
AcDbEntity
  8
0
390
0
 62
               7
100
AcDbCircle
 10
1245.7888635437946
 20
-260.38170436248862
 30
0.0
 40
5.0
  0
CIRCLE
  5
27F
100
AcDbEntity
  8
0
390
0
 62
               7
100
AcDbCircle
 10
1246.5216100907289
 20
-275.36379642261016
 30
0.0
 40
5.0
  0
CIRCLE
  5
280
100
AcDbEntity
  8
0
390
0
 62
               7
100
AcDbCircle
 10
1247.254356637663
 20
-290.34588848273171
 30
0.0
 40
5.0
  0
CIRCLE
  5
281
100
AcDbEntity
  8
0
390
0
 62
               7
100
AcDbCircle
 10
1247.9871031845973
 20
-305.3279805428532
 30
0.0
 40
5.0
  0
CIRCLE
  5
282
100
AcDbEntity
  8
0
390
0
 62
               7
100
AcDbCircle
 10
1248.7198497315314
 20
-320.31007260297469
 30
0.0
 40
5.0
  0
CIRCLE
  5
283
100
AcDbEntity
  8
0
390
0
 62
               7
100
AcDbCircle
 10
1241.3923052181747
 20
-185.38738295831439
 30
0.0
 40
5.0
  0
CIRCLE
  5
284
100
AcDbEntity
  8
0
390
0
 62
               7
100
AcDbCircle
 10
1240.6595586712408
 20
-170.4052908981929
 30
0.0
 40
5.0
  0
CIRCLE
  5
285
100
AcDbEntity
  8
0
390
0
 62
               7
100
AcDbCircle
 10
1239.9268121243063
 20
-155.42319883807139
 30
0.0
 40
5.0
  0
CIRCLE
  5
286
100
AcDbEntity
  8
0
390
0
 62
               7
100
AcDbCircle
 10
1238.8668598171337
 20
-141.51614134552747
 30
0.0
 40
5.0
  0
CIRCLE
  5
287
100
AcDbEntity
  8
0
390
0
 62
               7
100
AcDbCircle
 10
1286.6408476525294
 20
-156.5124288053309
 30
0.0
 40
5.0
  0
CIRCLE
  5
288
100
AcDbEntity
  8
0
390
0
 62
               7
100
AcDbCircle
 10
1285.9081011055953
 20
-141.53033674520938
 30
0.0
 40
5.0
  0
CIRCLE
  5
289
100
AcDbEntity
  8
0
390
0
 62
               7
100
AcDbCircle
 10
1285.175354558661
 20
-126.54824468508787
 30
0.0
 40
5.0
  0
CIRCLE
  5
28A
100
AcDbEntity
  8
0
390
0
 62
               7
100
AcDbCircle
 10
1284.1154022514881
 20
-112.64118719254392
 30
0.0
 40
5.0
  0
CIRCLE
  5
28B
100
AcDbEntity
  8
0
390
0
 62
               7
100
AcDbCircle
 10
1268.3149864510724
 20
-123.17479772615445
 30
0.0
 40
5.0
  0
CIRCLE
  5
28C
100
AcDbEntity
  8
0
390
0
 62
               7
100
AcDbCircle
 10
1269.3749387582452
 20
-137.08185521869839
 30
0.0
 40
5.0
  0
CIRCLE
  5
28D
100
AcDbEntity
  8
0
390
0
 62
               7
100
AcDbCircle
 10
1270.1076853051795
 20
-152.06394727881991
 30
0.0
 40
5.0
  0
CIRCLE
  5
28E
100
AcDbEntity
  8
0
390
0
 62
               7
100
AcDbCircle
 10
1270.8404318521136
 20
-167.04603933894143
 30
0.0
 40
5.0
  0
CIRCLE
  5
28F
100
AcDbEntity
  8
0
390
0
 62
               7
100
AcDbCircle
 10
1254.8251904002896
 20
-130.87680840053508
 30
0.0
 40
5.0
  0
CIRCLE
  5
290
100
AcDbEntity
  8
0
390
0
 62
               7
100
AcDbCircle
 10
1255.8851427074621
 20
-144.783865893079
 30
0.0
 40
5.0
  0
CIRCLE
  5
291
100
AcDbEntity
  8
0
390
0
 62
               7
100
AcDbCircle
 10
1256.6178892543967
 20
-159.76595795320051
 30
0.0
 40
5.0
  0
CIRCLE
  5
292
100
AcDbEntity
  8
0
390
0
 62
               7
100
AcDbCircle
 10
1257.3506358013306
 20
-174.748050013322
 30
0.0
 40
5.0
  0
CIRCLE
  5
293
100
AcDbEntity
  8
0
390
0
 62
               7
100
AcDbCircle
 10
1288.9700754777859
 20
-191.69987209516989
 30
0.0
 40
5.0
  0
CIRCLE
  5
294
100
AcDbEntity
  8
0
390
0
 62
               7
100
AcDbCircle
 10
1289.7028220247198
 20
-206.68196415529144
 30
0.0
 40
5.0
  0
CIRCLE
  5
295
100
AcDbEntity
  8
0
390
0
 62
               7
100
AcDbCircle
 10
1290.7627743318926
 20
-220.58902164783538
 30
0.0
 40
5.0
  0
CIRCLE
  5
296
100
AcDbEntity
  8
0
390
0
 62
               7
100
AcDbCircle
 10
1291.4955208788269
 20
-235.5711137079569
 30
0.0
 40
5.0
  0
CIRCLE
  5
297
100
AcDbEntity
  8
0
390
0
 62
               7
100
AcDbCircle
 10
1292.2282674257613
 20
-250.55320576807841
 30
0.0
 40
5.0
  0
CIRCLE
  5
298
100
AcDbEntity
  8
0
390
0
 62
               7
100
AcDbCircle
 10
1292.9610139726956
 20
-265.53529782819987
 30
0.0
 40
5.0
  0
CIRCLE
  5
299
100
AcDbEntity
  8
0
390
0
 62
               7
100
AcDbCircle
 10
1265.4109268616216
 20
-324.65283171810381
 30
0.0
 40
5.0
  0
CIRCLE
  5
29A
100
AcDbEntity
  8
0
390
0
 62
               7
100
AcDbCircle
 10
1264.6781803146873
 20
-309.67073965798227
 30
0.0
 40
5.0
  0
CIRCLE
  5
29B
100
AcDbEntity
  8
0
390
0
 62
               7
100
AcDbCircle
 10
1263.945433767753
 20
-294.68864759786084
 30
0.0
 40
5.0
  0
CIRCLE
  5
29C
100
AcDbEntity
  8
0
390
0
 62
               7
100
AcDbCircle
 10
1263.2126872208187
 20
-279.70655553773929
 30
0.0
 40
5.0
  0
CIRCLE
  5
29D
100
AcDbEntity
  8
0
390
0
 62
               7
100
AcDbCircle
 10
1262.4799406738848
 20
-264.72446347761775
 30
0.0
 40
5.0
  0
CIRCLE
  5
29E
100
AcDbEntity
  8
0
390
0
 62
               7
100
AcDbCircle
 10
1261.7471941269505
 20
-249.74237141749623
 30
0.0
 40
5.0
  0
CIRCLE
  5
29F
100
AcDbEntity
  8
0
390
0
 62
               7
100
AcDbCircle
 10
1261.0144475800166
 20
-234.76027935737474
 30
0.0
 40
5.0
  0
CIRCLE
  5
2A0
100
AcDbEntity
  8
0
390
0
 62
               7
100
AcDbCircle
 10
1260.2817010330818
 20
-219.77818729725323
 30
0.0
 40
5.0
  0
CIRCLE
  5
2A1
100
AcDbEntity
  8
0
390
0
 62
               7
100
AcDbCircle
 10
1259.2217487259095
 20
-205.87112980470931
 30
0.0
 40
5.0
  0
CIRCLE
  5
2A2
100
AcDbEntity
  8
0
390
0
 62
               7
100
AcDbCircle
 10
1258.4890021789747
 20
-190.88903774458774
 30
0.0
 40
5.0
  0
CIRCLE
  5
2A3
100
AcDbEntity
  8
0
390
0
 62
               7
100
AcDbCircle
 10
1278.9007229124045
 20
-316.95082104372318
 30
0.0
 40
5.0
  0
CIRCLE
  5
2A4
100
AcDbEntity
  8
0
390
0
 62
               7
100
AcDbCircle
 10
1278.1679763654702
 20
-301.96872898360175
 30
0.0
 40
5.0
  0
CIRCLE
  5
2A5
100
AcDbEntity
  8
0
390
0
 62
               7
100
AcDbCircle
 10
1277.4352298185363
 20
-286.98663692348009
 30
0.0
 40
5.0
  0
CIRCLE
  5
2A6
100
AcDbEntity
  8
0
390
0
 62
               7
100
AcDbCircle
 10
1276.702483271602
 20
-272.00454486335866
 30
0.0
 40
5.0
  0
CIRCLE
  5
2A7
100
AcDbEntity
  8
0
390
0
 62
               7
100
AcDbCircle
 10
1275.9697367246681
 20
-257.02245280323712
 30
0.0
 40
5.0
  0
CIRCLE
  5
2A8
100
AcDbEntity
  8
0
390
0
 62
               7
100
AcDbCircle
 10
1275.2369901777333
 20
-242.04036074311566
 30
0.0
 40
5.0
  0
CIRCLE
  5
2A9
100
AcDbEntity
  8
0
390
0
 62
               7
100
AcDbCircle
 10
1274.5042436307995
 20
-227.05826868299414
 30
0.0
 40
5.0
  0
CIRCLE
  5
2AA
100
AcDbEntity
  8
0
390
0
 62
               7
100
AcDbCircle
 10
1273.7714970838651
 20
-212.07617662287262
 30
0.0
 40
5.0
  0
CIRCLE
  5
2AB
100
AcDbEntity
  8
0
390
0
 62
               7
100
AcDbCircle
 10
1272.7115447766923
 20
-198.16911913032868
 30
0.0
 40
5.0
  0
CIRCLE
  5
2AC
100
AcDbEntity
  8
0
390
0
 62
               7
100
AcDbCircle
 10
1271.978798229758
 20
-183.18702707020714
 30
0.0
 40
5.0
  0
LINE
  5
2AD
100
AcDbEntity
  8
0
390
0
 62
               7
100
AcDbLine
 10
1301.63949837272
 20
-162.02571105222495
 30
0.0
 11
1301.7309576975263
 21
-163.89573286244971
 31
0.0
  0
LINE
  5
2AE
100
AcDbEntity
  8
0
390
0
 62
               7
100
AcDbLine
 10
1299.148612555377
 20
-162.14538640000811
 30
0.0
 11
1299.2369534740021
 21
-164.01771001859885
 31
0.0
  0
LINE
  5
2AF
100
AcDbEntity
  8
0
390
0
 62
               7
100
AcDbLine
 10
1283.0059837439369
 20
-164.81153687437518
 30
0.0
 11
1299.2369534740021
 21
-164.01771001859885
 31
0.0
  0
LINE
  5
2B0
100
AcDbEntity
  8
0
390
0
 62
               7
100
AcDbLine
 10
1300.0380896986458
 20
-180.39813067166187
 30
0.0
 11
1283.8071199685846
 21
-181.19195752677459
 31
0.0
  0
LINE
  5
2B1
100
AcDbEntity
  8
0
390
0
 62
               7
100
AcDbLine
 10
1283.0059837439369
 20
-164.81153687437518
 30
0.0
 11
1283.8071199685846
 21
-181.19195752677459
 31
0.0
  0
LINE
  5
2B2
100
AcDbEntity
  8
0
390
0
 62
               7
100
AcDbLine
 10
1300.1328771638719
 20
-182.27013900152369
 30
0.0
 11
1300.0380896986458
 21
-180.39813067166187
 31
0.0
  0
LINE
  5
2B3
100
AcDbEntity
  8
0
390
0
 62
               7
100
AcDbLine
 10
1302.6235532469843
 20
-182.14617532572586
 30
0.0
 11
1302.5320939221695
 21
-180.27615351550148
 31
0.0
  0
LINE
  5
2B4
100
AcDbEntity
  8
0
390
0
 62
               7
100
AcDbLine
 10
1301.2756967442567
 20
-162.04319000935226
 30
0.0
 11
1301.63949837272
 21
-162.02571105222495
 31
0.0
  0
LINE
  5
2B5
100
AcDbEntity
  8
0
390
0
 62
               7
100
AcDbLine
 10
1299.4777680052132
 20
-162.12957202880744
 30
0.0
 11
1299.148612555377
 21
-162.14538640000811
 31
0.0
  0
LINE
  5
2B6
100
AcDbEntity
  8
0
390
0
 62
               7
100
AcDbLine
 10
1302.6235532469843
 20
-182.14617532572586
 30
0.0
 11
1302.2771025494339
 21
-182.16341855628488
 31
0.0
  0
LINE
  5
2B7
100
AcDbEntity
  8
0
390
0
 62
               7
100
AcDbLine
 10
1300.1328771641158
 20
-182.2701390015045
 30
0.0
 11
1300.4793278616442
 21
-182.25289577094679
 31
0.0
  0
LINE
  5
2B8
100
AcDbEntity
  8
0
390
0
 62
               7
100
AcDbLine
 10
1307.1340365881895
 20
-276.15549984524614
 30
0.0
 11
1323.6113762822697
 21
-275.34962348930867
 31
0.0
  0
LINE
  5
2B9
100
AcDbEntity
  8
0
390
0
 62
               7
100
AcDbLine
 10
1305.8824067523074
 20
-294.5126627537432
 30
0.0
 11
1307.7156300735369
 21
-331.34575480297013
 31
0.0
  0
LINE
  5
2BA
100
AcDbEntity
  8
0
390
0
 62
               7
100
AcDbLine
 10
1307.6801814400967
 20
-294.42318553908126
 30
0.0
 11
1309.5134047613262
 21
-331.25627758830768
 31
0.0
  0
LINE
  5
2BB
100
AcDbEntity
  8
0
390
0
 62
               7
100
AcDbLine
 10
1308.0266321376473
 20
-294.4059423085223
 30
0.0
 11
1307.9351728128324
 21
-292.53592049829791
 31
0.0
  0
LINE
  5
2BC
100
AcDbEntity
  8
0
390
0
 62
               7
100
AcDbLine
 10
1305.5359560545346
 20
-294.52990598432018
 30
0.0
 11
1305.4411685893087
 21
-292.65789765445828
 31
0.0
  0
LINE
  5
2BD
100
AcDbEntity
  8
0
390
0
 62
               7
100
AcDbLine
 10
1307.042577263383
 20
-274.28547803502136
 30
0.0
 11
1307.1340365881895
 21
-276.15549984524614
 31
0.0
  0
LINE
  5
2BE
100
AcDbEntity
  8
0
390
0
 62
               7
100
AcDbLine
 10
1304.5516914460402
 20
-274.40515338280449
 30
0.0
 11
1304.6400323646651
 21
-276.27747700139531
 31
0.0
  0
LINE
  5
2BF
100
AcDbEntity
  8
0
390
0
 62
               7
100
AcDbLine
 10
1308.0266321376473
 20
-294.4059423085223
 30
0.0
 11
1307.6801814400969
 21
-294.42318553908126
 31
0.0
  0
LINE
  5
2C0
100
AcDbEntity
  8
0
390
0
 62
               7
100
AcDbLine
 10
1305.5359560547788
 20
-294.52990598430091
 30
0.0
 11
1305.8824067523074
 21
-294.5126627537432
 31
0.0
  0
LINE
  5
2C1
100
AcDbEntity
  8
0
390
0
 62
               7
100
AcDbLine
 10
1323.6113762822697
 20
-275.34962348930867
 30
0.0
 11
1324.4125125069179
 21
-291.73004414170816
 31
0.0
  0
LINE
  5
2C2
100
AcDbEntity
  8
0
390
0
 62
               7
100
AcDbLine
 10
1288.4090626346001
 20
-277.07130385717159
 30
0.0
 11
1289.2101988592478
 21
-293.45172450957108
 31
0.0
  0
LINE
  5
2C3
100
AcDbEntity
  8
0
390
0
 62
               7
100
AcDbLine
 10
1288.4090626346001
 20
-277.07130385717159
 30
0.0
 11
1304.6400323646651
 21
-276.27747700139531
 31
0.0
  0
LINE
  5
2C4
100
AcDbEntity
  8
0
390
0
 62
               7
100
AcDbLine
 10
1306.6787756349199
 20
-274.30295699214872
 30
0.0
 11
1307.042577263383
 21
-274.28547803502136
 31
0.0
  0
LINE
  5
2C5
100
AcDbEntity
  8
0
390
0
 62
               7
100
AcDbLine
 10
1304.8808468958759
 20
-274.38933901160391
 30
0.0
 11
1304.5516914460402
 21
-274.40515338280449
 31
0.0
  0
LINE
  5
2C6
100
AcDbEntity
  8
0
390
0
 62
               7
100
AcDbLine
 10
1305.4411685893087
 20
-292.65789765445828
 30
0.0
 11
1289.2101988592478
 21
-293.45172450957108
 31
0.0
  0
LINE
  5
2C7
100
AcDbEntity
  8
0
390
0
 62
               7
100
AcDbLine
 10
1307.9351728128324
 20
-292.53592049829791
 30
0.0
 11
1324.4125125069179
 21
-291.73004414170816
 31
0.0
  0
LINE
  5
2C8
100
AcDbEntity
  8
0
390
0
 62
               7
100
AcDbLine
 10
1307.7156300735369
 20
-331.34575480297013
 30
0.0
 11
1309.5134047613262
 21
-331.25627758830768
 31
0.0
  0
LINE
  5
2C9
100
AcDbEntity
  8
0
390
0
 62
               7
100
AcDbLine
 10
1300.4793278616442
 20
-182.25289577094679
 30
0.0
 11
1304.8808468958759
 21
-274.38933901160391
 31
0.0
  0
LINE
  5
2CA
100
AcDbEntity
  8
0
390
0
 62
               7
100
AcDbLine
 10
1302.2771025494337
 20
-182.16341855628488
 30
0.0
 11
1306.6787756349199
 21
-274.30295699214872
 31
0.0
  0
LINE
  5
2CB
100
AcDbEntity
  8
0
390
0
 62
               7
100
AcDbLine
 10
1313.2142667048997
 20
-163.33410535549021
 30
0.0
 11
1314.0154029295475
 21
-179.7145260078897
 31
0.0
  0
LINE
  5
2CC
100
AcDbEntity
  8
0
390
0
 62
               7
100
AcDbLine
 10
1301.7309576975263
 20
-163.89573286244971
 30
0.0
 11
1313.2142667048902
 21
-163.33410535529313
 31
0.0
  0
LINE
  5
2CD
100
AcDbEntity
  8
0
390
0
 62
               7
100
AcDbLine
 10
1302.5320939221695
 20
-180.27615351550148
 30
0.0
 11
1314.0154029295475
 21
-179.7145260078897
 31
0.0
  0
LINE
  5
2CE
100
AcDbEntity
  8
0
390
0
100
AcDbLine
 10
1217.2181579649784
 20
-334.11302652360672
 30
0.0
 11
1336.7166927015962
 21
-334.11302652360672
 31
0.0
  0
LINE
  5
2CF
100
AcDbEntity
  8
0
390
0
100
AcDbLine
 10
1225.2842053667546
 20
-142.49329484180407
 30
0.0
 11
1217.2181579649784
 21
-334.11302652360672
 31
0.0
  0
LINE
  5
2D0
100
AcDbEntity
  8
0
390
0
100
AcDbLine
 10
1310.4645207925214
 20
-99.560316748808702
 30
0.0
 11
1248.2152140566911
 21
-114.59331259317588
 31
0.0
  0
ARC
  5
2D1
100
AcDbEntity
  8
0
390
0
100
AcDbCircle
 10
1255.2576620209934
 20
-143.75499852986502
 30
0.0
 40
30.0
100
AcDbArc
 50
103.57678435515798
 51
177.58961252790345
  0
LINE
  5
2D2
100
AcDbEntity
  8
0
390
0
 62
               7
100
AcDbLine
 10
1298.1073834512317
 20
-134.13481073520899
 30
0.0
 11
1299.9051581390208
 21
-134.04533352054654
 31
0.0
  0
LINE
  5
2D3
100
AcDbEntity
  8
0
390
0
 62
               7
100
AcDbLine
 10
1299.9051581390208
 20
-134.04533352054654
 30
0.0
 11
1301.2756967442567
 21
-162.04319000935226
 31
0.0
  0
LINE
  5
2D4
100
AcDbEntity
  8
0
390
0
 62
               7
100
AcDbLine
 10
1298.1073834512317
 20
-134.13481073520899
 30
0.0
 11
1299.4777680052132
 21
-162.12957202880744
 31
0.0
  0
LINE
  5
2D5
100
AcDbEntity
  8
0
390
0
 62
               7
100
AcDbLine
 10
1297.643038021778
 20
-130.15005972894801
 30
0.0
 11
1298.0288492518396
 21
-131.90822630090824
 31
0.0
  0
LINE
  5
2D6
100
AcDbEntity
  8
0
390
0
 62
               7
100
AcDbLine
 10
1313.1903345031383
 20
-126.59626499105894
 30
0.0
 11
1297.6132875067033
 21
-130.01448471964918
 31
0.0
  0
LINE
  5
2D7
100
AcDbEntity
  8
0
390
0
 62
               7
100
AcDbLine
 10
1313.3941861961844
 20
-128.39436067662928
 30
0.0
 11
1297.9990987367648
 21
-131.77265129160941
 31
0.0
  0
LINE
  5
2D8
100
AcDbEntity
  8
0
390
0
100
AcDbLine
 10
1336.7166927015962
 20
-334.11302652360672
 30
0.0
 11
1313.3941861961844
 21
-128.39436067662933
 31
0.0
  0
LINE
  5
2D9
100
AcDbEntity
  8
0
390
0
100
AcDbLine
 10
1313.1903345031383
 20
-126.59626499105894
 30
0.0
 11
1310.1252928321865
 21
-99.560736748530701
 31
0.0
  0
INSERT
  5
2F5
100
AcDbEntity
  8
0
390
0
100
AcDbBlockReference
  2
B02D574C0
 10
0.0
 20
0.0
 30
0.0
  0
INSERT
  5
306
100
AcDbEntity
  8
0
390
0
100
AcDbBlockReference
  2
B02D5C98C
 10
0.0
 20
0.0
 30
0.0
  0
INSERT
  5
324
100
AcDbEntity
  8
0
390
0
100
AcDbBlockReference
  2
B02D5D710
 10
0.0
 20
0.0
 30
0.0
  0
INSERT
  5
342
100
AcDbEntity
  8
0
390
0
100
AcDbBlockReference
  2
B02D5E918
 10
0.0
 20
0.0
 30
0.0
  0
INSERT
  5
360
100
AcDbEntity
  8
0
390
0
100
AcDbBlockReference
  2
B02D5FB20
 10
0.0
 20
0.0
 30
0.0
  0
INSERT
  5
368
100
AcDbEntity
  8
0
390
0
100
AcDbBlockReference
  2
B02D605C0
 10
0.0
 20
0.0
 30
0.0
  0
INSERT
  5
370
100
AcDbEntity
  8
0
390
0
100
AcDbBlockReference
  2
B02D608F8
 10
0.0
 20
0.0
 30
0.0
  0
INSERT
  5
378
100
AcDbEntity
  8
0
390
0
100
AcDbBlockReference
  2
B02D60C30
 10
0.0
 20
0.0
 30
0.0
  0
INSERT
  5
380
100
AcDbEntity
  8
0
390
0
100
AcDbBlockReference
  2
B02D60F68
 10
0.0
 20
0.0
 30
0.0
  0
INSERT
  5
38A
100
AcDbEntity
  8
0
390
0
100
AcDbBlockReference
  2
B02D61360
 10
0.0
 20
0.0
 30
0.0
  0
INSERT
  5
394
100
AcDbEntity
  8
0
390
0
100
AcDbBlockReference
  2
B02D61818
 10
0.0
 20
0.0
 30
0.0
  0
INSERT
  5
39E
100
AcDbEntity
  8
0
390
0
100
AcDbBlockReference
  2
B02D61CD0
 10
0.0
 20
0.0
 30
0.0
  0
INSERT
  5
3A8
100
AcDbEntity
  8
0
390
0
100
AcDbBlockReference
  2
B02D62188
 10
0.0
 20
0.0
 30
0.0
  0
INSERT
  5
3C3
100
AcDbEntity
  8
0
390
0
100
AcDbBlockReference
  2
B02D62BD4
 10
0.0
 20
0.0
 30
0.0
  0
LINE
  5
3C4
100
AcDbEntity
  8
0
390
0
100
AcDbLine
 10
633.95427990622716
 20
-774.44766645051959
 30
0.0
 11
633.95427990622716
 21
-776.88365942118639
 31
0.0
  0
LINE
  5
3C5
100
AcDbEntity
  8
0
390
0
100
AcDbLine
 10
614.12547825424053
 20
-775.33789490524487
 30
0.0
 11
614.12547825424053
 21
-777.7738878759119
 31
0.0
  0
LINE
  5
3C6
100
AcDbEntity
  8
0
390
0
100
AcDbLine
 10
614.12547825424053
 20
-723.2256954020047
 30
0.0
 11
614.12547825424053
 21
-725.72297068964849
 31
0.0
  0
LINE
  5
3C7
100
AcDbEntity
  8
0
390
0
100
AcDbLine
 10
633.95427990622716
 20
-724.11592385673021
 30
0.0
 11
633.95427990622716
 21
-726.61319914437399
 31
0.0
  0
LINE
  5
3C8
100
AcDbEntity
  8
0
390
0
  6
Continuous
 62
               7
100
AcDbLine
 10
614.12547825424053
 20
-775.33789490524487
 30
0.0
 11
566.40875178686611
 21
-777.48017200363688
 31
0.0
  0
LINE
  5
3C9
100
AcDbEntity
  8
SENZA_NOME
390
0
  6
Continuous
 62
               7
100
AcDbLine
 10
614.12547825424053
 20
-725.72297068964849
 30
0.0
 11
566.40875178686611
 21
-723.58069359125648
 31
0.0
  0
LINE
  5
3CA
100
AcDbEntity
  8
0
390
0
  6
Continuous
 62
               7
100
AcDbLine
 10
636.98339776770626
 20
-774.31167200363689
 30
0.0
 11
633.95427990622716
 21
-774.44766645051959
 31
0.0
  0
LINE
  5
3CB
100
AcDbEntity
  8
SENZA_NOME
390
0
  6
Continuous
 62
               7
100
AcDbLine
 10
636.98339776770626
 20
-726.74919359125647
 30
0.0
 11
633.95427990622716
 21
-726.61319914437399
 31
0.0
  0
LINE
  5
3CC
100
AcDbEntity
  8
0
390
0
100
AcDbLine
 10
614.12547825424053
 20
-777.7738878759119
 30
0.0
 11
633.95427990622716
 21
-776.88365942118639
 31
0.0
  0
LINE
  5
3CD
100
AcDbEntity
  8
0
390
0
100
AcDbLine
 10
614.12547825424053
 20
-723.2256954020047
 30
0.0
 11
633.95427990622716
 21
-724.11592385673021
 31
0.0
  0
LINE
  5
3CE
100
AcDbEntity
  8
SENZA_NOME_2
390
0
  6
Continuous
 62
               7
100
AcDbLine
 10
54.857129963306548
 20
-762.5384264604827
 30
0.0
 11
54.857129963306548
 21
-776.150985565263
 31
0.0
  0
LINE
  5
3CF
100
AcDbEntity
  8
SENZA_NOME_2
390
0
  6
Continuous
 62
               7
100
AcDbLine
 10
54.859378267324757
 20
-724.15117363156151
 30
0.0
 11
54.859378267324757
 21
-737.76392080264054
 31
0.0
  0
ARC
  5
3D0
100
AcDbEntity
  8
0
390
0
100
AcDbCircle
 10
245.80559534575144
 20
1506.5953424241593
 30
0.0
 40
2290.7186894905062
100
AcDbArc
 50
265.21847805782465
 51
270.06181077409644
  0
ARC
  5
3D1
100
AcDbEntity
  8
0
390
0
100
AcDbCircle
 10
245.80559534575144
 20
-3006.8976896872846
 30
0.0
 40
2290.7186894905062
100
AcDbArc
 50
89.938189225903557
 51
94.781521942175345
  0
LINE
  5
3D2
100
AcDbEntity
  8
0
390
0
  6
Continuous
 62
               7
100
AcDbLine
 10
266.19230615616453
 20
-784.16184194692278
 30
0.0
 11
248.27682567324931
 21
-784.13790690133351
 31
0.0
  0
LINE
  5
3D3
100
AcDbEntity
  8
SENZA_NOME
390
0
  6
Continuous
 62
               7
100
AcDbLine
 10
266.19230615616453
 20
-716.15639813483631
 30
0.0
 11
248.27682567324936
 21
-716.18033318042581
 31
0.0
  0
LINE
  5
3D4
100
AcDbEntity
  8
SENZA_NOME_2
390
0
  6
Continuous
 62
               7
100
AcDbLine
 10
55.860163725089066
 20
-653.50304017491112
 30
0.0
 11
55.860163725089066
 21
-667.11559783638063
 31
0.0
  0
LINE
  5
3D5
100
AcDbEntity
  8
SENZA_NOME_2
390
0
  6
Continuous
 62
               7
100
AcDbLine
 10
55.86241202910729
 20
-615.11578635731712
 30
0.0
 11
55.86241202910729
 21
-628.72853451706897
 31
0.0
  0
ARC
  5
3D6
100
AcDbEntity
  8
0
390
0
100
AcDbCircle
 10
247.55648477214694
 20
1619.0445891746715
 30
0.0
 40
2294.183052892115
100
AcDbArc
 50
265.20697272181019
 51
270.33066065307457
  0
ARC
  5
3D7
100
AcDbEntity
  8
0
390
0
100
AcDbCircle
 10
247.55648477214694
 20
-2901.2761618893073
 30
0.0
 40
2294.183052892115
100
AcDbArc
 50
89.669339346925454
 51
94.79302727818984
  0
LINE
  5
3D8
100
AcDbEntity
  8
SENZA_NOME
390
0
  6
Continuous
 62
               7
100
AcDbLine
 10
265.95364767880363
 20
-675.12986743709666
 30
0.0
 11
260.79641033132651
 21
-675.12297737846029
 31
0.0
  0
LINE
  5
3D9
100
AcDbEntity
  8
SENZA_NOME
390
0
  6
Continuous
 62
               7
100
AcDbLine
 10
265.95364767880363
 20
-607.12442362501019
 30
0.0
 11
260.79641033132651
 21
-607.13131368364679
 31
0.0
  0
LINE
  5
3DA
100
AcDbEntity
  8
SENZA_NOME
390
0
  6
Continuous
 62
               7
100
AcDbLine
 10
299.8826124502985
 20
-716.36082689438831
 30
0.0
 11
266.19600824245248
 21
-716.15640689438828
 31
0.0
  0
LINE
  5
3DB
100
AcDbEntity
  8
SENZA_NOME
390
0
  6
Continuous
 62
               7
100
AcDbLine
 10
334.3315382820719
 20
-716.79159677713687
 30
0.0
 11
299.88583032166508
 21
-716.36085677713686
 31
0.0
  0
LINE
  5
3DC
100
AcDbEntity
  8
SENZA_NOME
390
0
  6
Continuous
 62
               7
100
AcDbLine
 10
404.91042979399816
 20
-718.273707898064
 30
0.0
 11
334.335783813158
 21
-716.79166789806413
 31
0.0
  0
LINE
  5
3DD
100
AcDbEntity
  8
0
390
0
  6
Continuous
 62
               7
100
AcDbLine
 10
334.3315382820719
 20
-783.52664330462244
 30
0.0
 11
299.88583032166508
 21
-783.95738330462245
 31
0.0
  0
LINE
  5
3DE
100
AcDbEntity
  8
0
390
0
  6
Continuous
 62
               7
100
AcDbLine
 10
404.91042979399816
 20
-782.04453218369508
 30
0.0
 11
334.335783813158
 21
-783.52657218369518
 31
0.0
  0
LINE
  5
3DF
100
AcDbEntity
  8
0
390
0
 62
               7
100
AcDbLine
 10
166.25408554788666
 20
-723.1977274847543
 30
0.0
 11
186.26420294847168
 21
-723.19686441116573
 31
0.0
  0
LINE
  5
3E0
100
AcDbEntity
  8
SENZA_NOME
390
0
 62
               7
100
AcDbLine
 10
186.26420294847168
 20
-723.19686441116573
 30
0.0
 11
186.35204035561932
 21
-777.11816160641365
 31
0.0
  0
LINE
  5
3E1
100
AcDbEntity
  8
0
390
0
 62
               7
100
AcDbLine
 10
186.35204035561932
 20
-777.11816160641365
 30
0.0
 11
166.25408554788666
 21
-777.11816160641365
 31
0.0
  0
LINE
  5
3E2
100
AcDbEntity
  8
0
390
0
 62
               7
100
AcDbLine
 10
166.25408554788666
 20
-723.1977274847543
 30
0.0
 11
166.25408554788666
 21
-777.11816160641365
 31
0.0
  0
LINE
  5
3E3
100
AcDbEntity
  8
0
390
0
  6
Continuous
 62
               7
100
AcDbLine
 10
299.8826124502985
 20
-783.95741318737078
 30
0.0
 11
274.23321875382277
 21
-784.11306108310669
 31
0.0
  0
LINE
  5
3E4
100
AcDbEntity
  8
0
390
0
  6
Continuous
 62
               7
100
AcDbLine
 10
274.23321875382277
 20
-784.11306108310669
 30
0.0
 11
266.19600824245248
 21
-784.1618331873708
 31
0.0
  0
LINE
  5
3E5
100
AcDbEntity
  8
SENZA_NOME_2
390
0
  6
Continuous
 62
               7
100
AcDbLine
 10
54.859378267324757
 20
-737.76392080264054
 30
0.0
 11
59.757322985726717
 21
-737.76392080264054
 31
0.0
  0
LINE
  5
3E6
100
AcDbEntity
  8
SENZA_NOME_2
390
0
  6
Continuous
 62
               7
100
AcDbLine
 10
59.757322985726717
 20
-737.76392080264054
 30
0.0
 11
59.757313684285492
 21
-762.5384264604827
 31
0.0
  0
LINE
  5
3E7
100
AcDbEntity
  8
SENZA_NOME_2
390
0
  6
Continuous
 62
               7
100
AcDbLine
 10
59.757308313049492
 20
-762.5384264604827
 30
0.0
 11
54.857129963306548
 21
-762.5384264604827
 31
0.0
  0
LINE
  5
3E8
100
AcDbEntity
  8
SENZA_NOME
390
0
  6
Continuous
 62
               7
100
AcDbLine
 10
447.36770469401006
 20
-719.5645745939039
 30
0.0
 11
404.9151274914928
 21
-718.27382863568437
 31
0.0
  0
LINE
  5
3E9
100
AcDbEntity
  8
0
390
0
  6
Continuous
 62
               7
100
AcDbLine
 10
447.3871460179688
 20
-780.75307438568962
 30
0.0
 11
404.9151274914928
 21
-782.04441144607472
 31
0.0
  0
LINE
  5
3EA
100
AcDbEntity
  8
0
390
0
  6
Continuous
 62
               7
100
AcDbLine
 10
482.71100677818004
 20
-780.47002859264876
 30
0.0
 11
453.38721241752233
 21
-781.36160153226388
 31
0.0
  0
LINE
  5
3EB
100
AcDbEntity
  8
0
390
0
  6
Continuous
 62
               7
100
AcDbLine
 10
518.50672651234981
 20
-779.09777673247299
 30
0.0
 11
482.71496556045361
 21
-780.46989253045194
 31
0.0
  0
LINE
  5
3EC
100
AcDbEntity
  8
SENZA_NOME
390
0
  6
Continuous
 62
               7
100
AcDbLine
 10
482.71100677818004
 20
-721.06526578225862
 30
0.0
 11
453.36777109356359
 21
-720.17310174047816
 31
0.0
  0
LINE
  5
3ED
100
AcDbEntity
  8
SENZA_NOME
390
0
  6
Continuous
 62
               7
100
AcDbLine
 10
518.50672651234959
 20
-722.43751764243439
 30
0.0
 11
482.71496556045361
 21
-721.06540184445544
 31
0.0
  0
LINE
  5
3EE
100
AcDbEntity
  8
0
390
0
 62
               7
100
AcDbLine
 10
453.36777109356353
 20
-720.17310174047816
 30
0.0
 11
453.38721241752228
 21
-781.36160153226388
 31
0.0
  0
LINE
  5
3EF
100
AcDbEntity
  8
SENZA_NOME
390
0
  6
Continuous
 62
               7
100
AcDbLine
 10
705.11843415794374
 20
-730.18065334289486
 30
0.0
 11
636.98612198969067
 21
-726.74932334289497
 31
0.0
  0
LINE
  5
3F0
100
AcDbEntity
  8
SENZA_NOME
390
0
  6
Continuous
 62
               7
100
AcDbLine
 10
769.65555379883631
 20
-733.72891444294032
 30
0.0
 11
705.12073332750242
 21
-730.18077444294045
 31
0.0
  0
LINE
  5
3F1
100
AcDbEntity
  8
SENZA_NOME
390
0
  6
Continuous
 62
               7
100
AcDbLine
 10
829.48394445407075
 20
-737.28448107963141
 30
0.0
 11
769.65776754934609
 21
-733.72904107963132
 31
0.0
  0
LINE
  5
3F2
100
AcDbEntity
  8
SENZA_NOME
390
0
  6
Continuous
 62
               7
100
AcDbLine
 10
883.58026098326604
 20
-740.70862908296249
 30
0.0
 11
829.48586748555886
 21
-737.28459908296236
 31
0.0
  0
LINE
  5
3F3
100
AcDbEntity
  8
0
390
0
  6
Continuous
 62
               7
100
AcDbLine
 10
705.11843415794374
 20
-770.8802122519985
 30
0.0
 11
636.98612198969067
 21
-774.31154225199862
 31
0.0
  0
LINE
  5
3F4
100
AcDbEntity
  8
0
390
0
  6
Continuous
 62
               7
100
AcDbLine
 10
769.65555379883631
 20
-767.33195115195304
 30
0.0
 11
705.12073332750242
 21
-770.88009115195314
 31
0.0
  0
LINE
  5
3F5
100
AcDbEntity
  8
0
390
0
  6
Continuous
 62
               7
100
AcDbLine
 10
829.48394445407075
 20
-763.77638451526218
 30
0.0
 11
769.65776754934609
 21
-767.33182451526204
 31
0.0
  0
LINE
  5
3F6
100
AcDbEntity
  8
0
390
0
  6
Continuous
 62
               7
100
AcDbLine
 10
883.58026098326604
 20
-760.3522365119311
 30
0.0
 11
829.48586748555886
 21
-763.776266511931
 31
0.0
  0
LINE
  5
3F7
100
AcDbEntity
  8
0
390
0
 62
               7
100
AcDbLine
 10
530.4014285476328
 20
-722.20030325242737
 30
0.0
 11
530.4014285476328
 21
-778.86056234246598
 31
0.0
  0
LINE
  5
3F8
100
AcDbEntity
  8
SENZA_NOME
390
0
  6
Continuous
 62
               7
100
AcDbLine
 10
566.40548048287042
 20
-723.58055745444858
 30
0.0
 11
530.4014285476328
 21
-722.20030325242737
 31
0.0
  0
LINE
  5
3F9
100
AcDbEntity
  8
0
390
0
  6
Continuous
 62
               7
100
AcDbLine
 10
566.40548048287042
 20
-777.480308140445
 30
0.0
 11
530.40142854763303
 21
-778.86056234246598
 31
0.0
  0
LINE
  5
3FA
100
AcDbEntity
  8
0
390
0
  6
Continuous
 62
               7
100
AcDbLine
 10
885.64859814636657
 20
-760.21285198352052
 30
0.0
 11
883.58229511256764
 21
-760.35210359333746
 31
0.0
  0
LINE
  5
3FB
100
AcDbEntity
  8
SENZA_NOME
390
0
  6
Continuous
 62
               7
100
AcDbLine
 10
885.64859814636657
 20
-740.84801361137283
 30
0.0
 11
883.58229511256764
 21
-740.70876200155612
 31
0.0
  0
LINE
  5
3FC
100
AcDbEntity
  8
0
390
0
 62
               7
100
AcDbLine
 10
889.26208787422365
 20
-741.28255952277709
 30
0.0
 11
889.26208787422365
 21
-760.64739789492478
 31
0.0
  0
LINE
  5
3FD
100
AcDbEntity
  8
SENZA_NOME
390
0
  6
Continuous
 62
               7
100
AcDbLine
 10
931.10132809930496
 20
-744.10217574535227
 30
0.0
 11
889.26208787422388
 21
-741.28255952277709
 31
0.0
  0
LINE
  5
3FE
100
AcDbEntity
  8
0
390
0
  6
Continuous
 62
               7
100
AcDbLine
 10
931.10132809930496
 20
-757.8277816723496
 30
0.0
 11
889.26208787422388
 21
-760.64739789492478
 31
0.0
  0
LINE
  5
3FF
100
AcDbEntity
  8
0
390
0
  6
Continuous
 62
               7
100
AcDbLine
 10
940.05206089348553
 20
-758.10434723449043
 30
0.0
 11
936.50811886548126
 21
-758.34317940209849
 31
0.0
  0
LINE
  5
400
100
AcDbEntity
  8
SENZA_NOME
390
0
  6
Continuous
 62
               7
100
AcDbLine
 10
940.05206089348553
 20
-744.85640564270898
 30
0.0
 11
936.50811886548126
 21
-744.61757347510115
 31
0.0
  0
LINE
  5
401
100
AcDbEntity
  8
0
390
0
 62
               7
100
AcDbLine
 10
936.50811886548126
 20
-744.61757347510115
 30
0.0
 11
936.50811886548126
 21
-758.34317940209849
 31
0.0
  0
LINE
  5
402
100
AcDbEntity
  8
0
390
0
  6
Continuous
 62
               7
100
AcDbLine
 10
1034.4751327695662
 20
-751.42852337151226
 30
0.0
 11
980.02157185570991
 21
-755.21319549064651
 31
0.0
  0
LINE
  5
403
100
AcDbEntity
  8
0
390
0
  6
Continuous
 62
               7
100
AcDbLine
 10
980.02297688250405
 20
-755.21309584860842
 30
0.0
 11
940.05451408462545
 21
-758.10417584860829
 31
0.0
  0
LINE
  5
404
100
AcDbEntity
  8
SENZA_NOME
390
0
  6
Continuous
 62
               7
100
AcDbLine
 10
1034.4751327695662
 20
-751.53222950568738
 30
0.0
 11
980.02157185570991
 21
-747.7475573865529
 31
0.0
  0
LINE
  5
405
100
AcDbEntity
  8
SENZA_NOME
390
0
  6
Continuous
 62
               7
100
AcDbLine
 10
980.02297688250405
 20
-747.74765702859122
 30
0.0
 11
940.05451408462545
 21
-744.85657702859112
 31
0.0
  0
LINE
  5
406
100
AcDbEntity
  8
0
390
0
 62
               7
100
AcDbLine
 10
931.10132809930496
 20
-744.10217574535227
 30
0.0
 11
931.10132809930496
 21
-757.8277816723496
 31
0.0
  0
LINE
  5
407
100
AcDbEntity
  8
0
390
0
 62
               7
100
AcDbLine
 10
885.64859814636657
 20
-740.84801361137283
 30
0.0
 11
885.64859814636657
 21
-760.21285198352052
 31
0.0
  0
LINE
  5
408
100
AcDbEntity
  8
0
390
0
 62
               7
100
AcDbLine
 10
518.50672651234959
 20
-722.43751764243439
 30
0.0
 11
518.50672651234981
 21
-779.09777673247299
 31
0.0
  0
LINE
  5
409
100
AcDbEntity
  8
0
390
0
 62
               7
100
AcDbLine
 10
447.36770469401006
 20
-719.5645745939039
 30
0.0
 11
447.3871460179688
 21
-780.75307438568962
 31
0.0
  0
LINE
  5
40A
100
AcDbEntity
  8
0
390
0
  6
Continuous
 62
               7
100
AcDbLine
 10
347.1811524272735
 20
-539.44255121257515
 30
0.0
 11
334.88865242727348
 21
-537.82012121257526
 31
0.0
  0
LINE
  5
40B
100
AcDbEntity
  8
0
390
0
  6
Continuous
 62
               7
100
AcDbLine
 10
334.88865242727348
 20
-537.82012121257526
 30
0.0
 11
322.50865242727349
 21
-536.41172121257523
 31
0.0
  0
LINE
  5
40C
100
AcDbEntity
  8
0
390
0
  6
Continuous
 62
               7
100
AcDbLine
 10
322.50865242727349
 20
-536.41172121257523
 30
0.0
 11
310.16115242727352
 21
-535.30987121257522
 31
0.0
  0
LINE
  5
40D
100
AcDbEntity
  8
0
390
0
  6
Continuous
 62
               7
100
AcDbLine
 10
310.16115242727352
 20
-535.30987121257522
 30
0.0
 11
297.91865242727357
 21
-534.55792121257514
 31
0.0
  0
LINE
  5
40E
100
AcDbEntity
  8
0
390
0
  6
Continuous
 62
               7
100
AcDbLine
 10
346.87533533378945
 20
-426.46715787549994
 30
0.0
 11
334.58283533378943
 21
-427.20304787549986
 31
0.0
  0
LINE
  5
40F
100
AcDbEntity
  8
0
390
0
  6
Continuous
 62
               7
100
AcDbLine
 10
334.55160216019095
 20
-427.20475428569472
 30
0.0
 11
322.17160216019096
 21
-427.81641428569475
 31
0.0
  0
LINE
  5
410
100
AcDbEntity
  8
0
390
0
  6
Continuous
 62
               7
100
AcDbLine
 10
322.14159911633266
 20
-427.81774613988483
 30
0.0
 11
309.79409911633269
 21
-428.30394613988489
 31
0.0
  0
LINE
  5
411
100
AcDbEntity
  8
0
390
0
  6
Continuous
 62
               7
100
AcDbLine
 10
309.76366055740181
 20
-428.3049899814601
 30
0.0
 11
297.52116055740186
 21
-428.6626199814603
 31
0.0
  0
LINE
  5
412
100
AcDbEntity
  8
0
390
0
  6
Continuous
 62
               7
100
AcDbLine
 10
346.69606141368598
 20
-401.32123918918552
 30
0.0
 11
334.40356141368596
 21
-399.69880918918562
 31
0.0
  0
LINE
  5
413
100
AcDbEntity
  8
0
390
0
  6
Continuous
 62
               7
100
AcDbLine
 10
334.40356141368596
 20
-399.69880918918562
 30
0.0
 11
322.02356141368597
 21
-398.2904091891856
 31
0.0
  0
LINE
  5
414
100
AcDbEntity
  8
0
390
0
  6
Continuous
 62
               7
100
AcDbLine
 10
322.02356141368597
 20
-398.2904091891856
 30
0.0
 11
309.676061413686
 21
-397.18855918918558
 31
0.0
  0
LINE
  5
415
100
AcDbEntity
  8
0
390
0
  6
Continuous
 62
               7
100
AcDbLine
 10
309.676061413686
 20
-397.18855918918558
 30
0.0
 11
297.43356141368605
 21
-396.4366091891855
 31
0.0
  0
LINE
  5
416
100
AcDbEntity
  8
0
390
0
 62
               7
100
AcDbLine
 10
312.00278951508704
 20
-387.9298137334394
 30
0.0
 11
315.00278951508704
 21
-387.9298137334394
 31
0.0
  0
LINE
  5
417
100
AcDbEntity
  8
0
390
0
 62
               7
100
AcDbLine
 10
312.00278951508704
 20
-372.9298137334394
 30
0.0
 11
312.00278951508704
 21
-387.9298137334394
 31
0.0
  0
LINE
  5
418
100
AcDbEntity
  8
0
390
0
 62
               7
100
AcDbLine
 10
315.00278951508704
 20
-372.9298137334394
 30
0.0
 11
312.00278951508704
 21
-372.9298137334394
 31
0.0
  0
LINE
  5
419
100
AcDbEntity
  8
SENZA_NOME
390
0
 62
               7
100
AcDbLine
 10
315.00278951508704
 20
-372.9298137334394
 30
0.0
 11
315.00278951508704
 21
-387.9298137334394
 31
0.0
  0
LINE
  5
41A
100
AcDbEntity
  8
0
390
0
 62
               7
100
AcDbLine
 10
312.48788052867457
 20
-526.05112575682915
 30
0.0
 11
315.48788052867457
 21
-526.05112575682915
 31
0.0
  0
LINE
  5
41B
100
AcDbEntity
  8
0
390
0
 62
               7
100
AcDbLine
 10
312.48788052867457
 20
-511.05112575682909
 30
0.0
 11
312.48788052867457
 21
-526.05112575682915
 31
0.0
  0
LINE
  5
41C
100
AcDbEntity
  8
0
390
0
 62
               7
100
AcDbLine
 10
315.48788052867457
 20
-511.05112575682909
 30
0.0
 11
312.48788052867457
 21
-511.05112575682909
 31
0.0
  0
LINE
  5
41D
100
AcDbEntity
  8
SENZA_NOME
390
0
 62
               7
100
AcDbLine
 10
315.48788052867457
 20
-511.05112575682909
 30
0.0
 11
315.48788052867457
 21
-526.05112575682915
 31
0.0
  0
CIRCLE
  5
41E
100
AcDbEntity
  8
SENZA_NOME
390
0
 62
               7
100
AcDbCircle
 10
303.72851468584992
 20
-512.21452995655886
 30
0.0
 40
6.5
  0
CIRCLE
  5
41F
100
AcDbEntity
  8
SENZA_NOME
390
0
 62
               7
100
AcDbCircle
 10
331.87675761147602
 20
-527.92517717086184
 30
0.0
 40
6.5
  0
CIRCLE
  5
420
100
AcDbEntity
  8
SENZA_NOME
390
0
 62
               7
100
AcDbCircle
 10
328.93101125879417
 20
-512.59829123709983
 30
0.0
 40
6.5
  0
LINE
  5
421
100
AcDbEntity
  8
SENZA_NOME
390
0
  6
Continuous
 62
               7
100
AcDbLine
 10
314.93592614987853
 20
-633.62714553105343
 30
0.0
 11
311.93592614987853
 21
-633.62714553105343
 31
0.0
  0
LINE
  5
422
100
AcDbEntity
  8
SENZA_NOME
390
0
  6
Continuous
 62
               7
100
AcDbLine
 10
311.93592614987853
 20
-633.62714553105343
 30
0.0
 11
311.93592614987853
 21
-648.62714553105343
 31
0.0
  0
LINE
  5
423
100
AcDbEntity
  8
SENZA_NOME
390
0
  6
Continuous
 62
               7
100
AcDbLine
 10
311.93592614987853
 20
-648.62714553105343
 30
0.0
 11
314.93592614987853
 21
-648.62714553105343
 31
0.0
  0
LINE
  5
424
100
AcDbEntity
  8
SENZA_NOME
390
0
  6
Continuous
 62
               7
100
AcDbLine
 10
314.93592614987853
 20
-648.62714553105343
 30
0.0
 11
314.93592614987853
 21
-633.62714553105343
 31
0.0
  0
LINE
  5
425
100
AcDbEntity
  8
SENZA_NOME
390
0
  6
Continuous
 62
               7
100
AcDbLine
 10
438.13070462638842
 20
-633.62714553105343
 30
0.0
 11
441.13070462638842
 21
-633.62714553105343
 31
0.0
  0
LINE
  5
426
100
AcDbEntity
  8
SENZA_NOME
390
0
  6
Continuous
 62
               7
100
AcDbLine
 10
438.13070462638842
 20
-648.62714553105343
 30
0.0
 11
441.13070462638842
 21
-648.62714553105343
 31
0.0
  0
LINE
  5
427
100
AcDbEntity
  8
SENZA_NOME
390
0
  6
Continuous
 62
               7
100
AcDbLine
 10
441.13070462638842
 20
-633.62714553105343
 30
0.0
 11
441.13070462638842
 21
-648.62714553105343
 31
0.0
  0
LINE
  5
428
100
AcDbEntity
  8
SENZA_NOME
390
0
  6
Continuous
 62
               7
100
AcDbLine
 10
438.13070462638842
 20
-633.62714553105343
 30
0.0
 11
438.13070462638842
 21
-648.62714553105343
 31
0.0
  0
LINE
  5
429
100
AcDbEntity
  8
SENZA_NOME
390
0
  6
Continuous
 62
               7
100
AcDbLine
 10
185.57401054847745
 20
-633.62714553105343
 30
0.0
 11
185.57401054847745
 21
-648.62714553105343
 31
0.0
  0
LINE
  5
42A
100
AcDbEntity
  8
SENZA_NOME
390
0
  6
Continuous
 62
               7
100
AcDbLine
 10
185.57401054847745
 20
-648.62714553105343
 30
0.0
 11
188.74114767336883
 21
-648.62714553105343
 31
0.0
  0
LINE
  5
42B
100
AcDbEntity
  8
SENZA_NOME
390
0
  6
Continuous
 62
               7
100
AcDbLine
 10
188.74114767336883
 20
-633.62714553105343
 30
0.0
 11
188.74114767336883
 21
-648.62714553105343
 31
0.0
  0
LINE
  5
42C
100
AcDbEntity
  8
SENZA_NOME
390
0
  6
Continuous
 62
               7
100
AcDbLine
 10
185.57401054847745
 20
-633.62714553105343
 30
0.0
 11
188.74114767336883
 21
-633.62714553105343
 31
0.0
  0
LINE
  5
42D
100
AcDbEntity
  8
SENZA_NOME
390
0
  6
Continuous
 62
               7
100
AcDbLine
 10
334.092879804711
 20
-607.75962226731076
 30
0.0
 11
306.09124663304982
 21
-607.40946475316628
 31
0.0
  0
LINE
  5
42E
100
AcDbEntity
  8
SENZA_NOME
390
0
  6
Continuous
 62
               7
100
AcDbLine
 10
286.09124663304982
 20
-607.24661065971145
 30
0.0
 11
265.95734976509146
 21
-607.1244323845624
 31
0.0
  0
LINE
  5
42F
100
AcDbEntity
  8
SENZA_NOME
390
0
  6
Continuous
 62
               7
100
AcDbLine
 10
286.09124663304982
 20
-604.74656462999337
 30
0.0
 11
286.09124663304982
 21
-607.24661065971145
 31
0.0
  0
LINE
  5
430
100
AcDbEntity
  8
SENZA_NOME
390
0
  6
Continuous
 62
               7
100
AcDbLine
 10
306.09124663304982
 20
-604.90926929527313
 30
0.0
 11
306.09124663304982
 21
-607.40946475316628
 31
0.0
  0
LINE
  5
431
100
AcDbEntity
  8
SENZA_NOME
390
0
  6
Continuous
 62
               7
100
AcDbLine
 10
286.09124663304982
 20
-675.00768040239541
 30
0.0
 11
286.09124663304982
 21
-677.50772643211349
 31
0.0
  0
LINE
  5
432
100
AcDbEntity
  8
SENZA_NOME
390
0
  6
Continuous
 62
               7
100
AcDbLine
 10
306.09124663304982
 20
-674.84482630894081
 30
0.0
 11
306.09124663304982
 21
-677.34502176683372
 31
0.0
  0
LINE
  5
433
100
AcDbEntity
  8
SENZA_NOME
390
0
  6
Continuous
 62
               7
100
AcDbLine
 10
286.09124663304982
 20
-675.00768040239541
 30
0.0
 11
265.95734976509146
 21
-675.12985867754469
 31
0.0
  0
LINE
  5
434
100
AcDbEntity
  8
SENZA_NOME
390
0
  6
Continuous
 62
               7
100
AcDbLine
 10
334.092879804711
 20
-674.49466879479633
 30
0.0
 11
306.09124663304982
 21
-674.84482630894081
 31
0.0
  0
LINE
  5
435
100
AcDbEntity
  8
SENZA_NOME
390
0
  6
Continuous
 62
               7
100
AcDbLine
 10
286.09124663304982
 20
-677.50772643211349
 30
0.0
 11
306.09124663304982
 21
-677.34502176683372
 31
0.0
  0
LINE
  5
436
100
AcDbEntity
  8
SENZA_NOME
390
0
  6
Continuous
 62
               7
100
AcDbLine
 10
286.09124663304982
 20
-604.74656462999337
 30
0.0
 11
306.09124663304982
 21
-604.90926929527313
 31
0.0
  0
LINE
  5
437
100
AcDbEntity
  8
SENZA_NOME
390
0
  6
Continuous
 62
               7
100
AcDbLine
 10
618.84997085550867
 20
-617.34590632486334
 30
0.0
 11
550.31391749101181
 21
-614.26893042130223
 31
0.0
  0
LINE
  5
438
100
AcDbEntity
  8
SENZA_NOME
390
0
  6
Continuous
 62
               7
100
AcDbLine
 10
530.31391749101181
 20
-613.48882565328449
 30
0.0
 11
476.47624068353917
 21
-611.42490018805529
 31
0.0
  0
LINE
  5
439
100
AcDbEntity
  8
SENZA_NOME
390
0
  6
Continuous
 62
               7
100
AcDbLine
 10
530.31391749101181
 20
-610.98698925900135
 30
0.0
 11
530.31391749101181
 21
-613.48882565328449
 31
0.0
  0
LINE
  5
43A
100
AcDbEntity
  8
SENZA_NOME
390
0
  6
Continuous
 62
               7
100
AcDbLine
 10
550.31391749101181
 20
-611.76641215681684
 30
0.0
 11
550.31391749101181
 21
-614.26893042130223
 31
0.0
  0
LINE
  5
43B
100
AcDbEntity
  8
SENZA_NOME
390
0
  6
Continuous
 62
               7
100
AcDbLine
 10
530.31391749101181
 20
-668.76546540882259
 30
0.0
 11
530.31391749101181
 21
-671.26730180310551
 31
0.0
  0
LINE
  5
43C
100
AcDbEntity
  8
SENZA_NOME
390
0
  6
Continuous
 62
               7
100
AcDbLine
 10
550.31391749101181
 20
-667.98536064080486
 30
0.0
 11
550.31391749101181
 21
-670.50058021048926
 31
0.0
  0
LINE
  5
43D
100
AcDbEntity
  8
SENZA_NOME
390
0
  6
Continuous
 62
               7
100
AcDbLine
 10
530.31391749101181
 20
-668.76546540882259
 30
0.0
 11
476.47624068353917
 21
-670.8293908740518
 31
0.0
  0
LINE
  5
43E
100
AcDbEntity
  8
SENZA_NOME
390
0
  6
Continuous
 62
               7
100
AcDbLine
 10
618.84997085550867
 20
-664.90838473724375
 30
0.0
 11
550.31391749101181
 21
-667.98536064080486
 31
0.0
  0
LINE
  5
43F
100
AcDbEntity
  8
SENZA_NOME
390
0
  6
Continuous
 62
               7
100
AcDbLine
 10
530.31391749101181
 20
-671.26730180310551
 30
0.0
 11
550.31391749101181
 21
-670.50058021048926
 31
0.0
  0
LINE
  5
440
100
AcDbEntity
  8
SENZA_NOME
390
0
  6
Continuous
 62
               7
100
AcDbLine
 10
530.31391749101181
 20
-610.98698925900135
 30
0.0
 11
550.31391749101181
 21
-611.76641215681684
 31
0.0
  0
LINE
  5
441
100
AcDbEntity
  8
SENZA_NOME
390
0
  6
Continuous
 62
               7
100
AcDbLine
 10
661.61398776425267
 20
-616.99644349102982
 30
0.0
 11
661.61398776425267
 21
-619.49961199026939
 31
0.0
  0
LINE
  5
442
100
AcDbEntity
  8
SENZA_NOME
390
0
  6
Continuous
 62
               7
100
AcDbLine
 10
681.61398776425267
 20
-618.00369831353646
 30
0.0
 11
681.61398776425267
 21
-620.50686681277602
 31
0.0
  0
LINE
  5
443
100
AcDbEntity
  8
SENZA_NOME
390
0
  6
Continuous
 62
               7
100
AcDbLine
 10
661.61398776425267
 20
-662.75467907183747
 30
0.0
 11
661.61398776425267
 21
-665.25784757107704
 31
0.0
  0
LINE
  5
444
100
AcDbEntity
  8
SENZA_NOME
390
0
  6
Continuous
 62
               7
100
AcDbLine
 10
681.61398776425267
 20
-661.74742424933083
 30
0.0
 11
681.61398776425267
 21
-664.2505927485704
 31
0.0
  0
LINE
  5
445
100
AcDbEntity
  8
SENZA_NOME
390
0
  6
Continuous
 62
               7
100
AcDbLine
 10
661.61398776425267
 20
-662.75467907183747
 30
0.0
 11
618.85269507749308
 21
-664.90825498560525
 31
0.0
  0
LINE
  5
446
100
AcDbEntity
  8
SENZA_NOME
390
0
  6
Continuous
 62
               7
100
AcDbLine
 10
686.98500724574592
 20
-661.47692498560536
 30
0.0
 11
681.61398776425244
 21
-661.74742424933083
 31
0.0
  0
LINE
  5
447
100
AcDbEntity
  8
SENZA_NOME
390
0
  6
Continuous
 62
               7
100
AcDbLine
 10
681.61398776425267
 20
-664.2505927485704
 30
0.0
 11
661.61398776425267
 21
-665.25784757107704
 31
0.0
  0
LINE
  5
448
100
AcDbEntity
  8
SENZA_NOME
390
0
  6
Continuous
 62
               7
100
AcDbLine
 10
686.98500724574592
 20
-620.77736607650172
 30
0.0
 11
681.61398776425267
 21
-620.50686681277602
 31
0.0
  0
LINE
  5
449
100
AcDbEntity
  8
SENZA_NOME
390
0
  6
Continuous
 62
               7
100
AcDbLine
 10
661.61398776425267
 20
-619.49961199026939
 30
0.0
 11
618.85269507749308
 21
-617.3460360765016
 31
0.0
  0
LINE
  5
44A
100
AcDbEntity
  8
SENZA_NOME
390
0
  6
Continuous
 62
               7
100
AcDbLine
 10
681.61398776425267
 20
-618.00369831353669
 30
0.0
 11
661.61398776425267
 21
-616.99644349102982
 31
0.0
  0
LINE
  5
44B
100
AcDbEntity
  8
SENZA_NOME
390
0
  6
Continuous
 62
               7
100
AcDbLine
 10
789.92687406461869
 20
-626.60799731455359
 30
0.0
 11
751.5243406371485
 21
-624.32575381323818
 31
0.0
  0
LINE
  5
44C
100
AcDbEntity
  8
SENZA_NOME
390
0
  6
Continuous
 62
               7
100
AcDbLine
 10
912.89835348725433
 20
-634.5031747351627
 30
0.0
 11
910.2638546232406
 21
-634.32563146010875
 31
0.0
  0
LINE
  5
44D
100
AcDbEntity
  8
SENZA_NOME
390
0
  6
Continuous
 62
               7
100
AcDbLine
 10
912.89835348725433
 20
-647.75111632694416
 30
0.0
 11
910.26385462324038
 21
-647.92865960199811
 31
0.0
  0
LINE
  5
44E
100
AcDbEntity
  8
SENZA_NOME
390
0
  6
Continuous
 62
               7
100
AcDbLine
 10
789.92687406461846
 20
-655.64629374755327
 30
0.0
 11
751.5243406371485
 21
-657.92853724886891
 31
0.0
  0
LINE
  5
44F
100
AcDbEntity
  8
SENZA_NOME_2
390
0
  6
Continuous
 62
               7
100
AcDbLine
 10
789.92687406461846
 20
-626.60799731455359
 30
0.0
 11
789.92687406461846
 21
-655.64629374755327
 31
0.0
  0
LINE
  5
450
100
AcDbEntity
  8
SENZA_NOME
390
0
  6
Continuous
 62
               7
100
AcDbLine
 10
952.86926947627285
 20
-644.85986494106214
 30
0.0
 11
912.90080667839425
 21
-647.75094494106202
 31
0.0
  0
LINE
  5
451
100
AcDbEntity
  8
SENZA_NOME
390
0
  6
Continuous
 62
               7
100
AcDbLine
 10
952.86926947627285
 20
-637.39442612104494
 30
0.0
 11
912.90080667839425
 21
-634.50334612104484
 31
0.0
  0
LINE
  5
452
100
AcDbEntity
  8
SENZA_NOME
390
0
  6
Continuous
 62
               7
100
AcDbLine
 10
910.2638546232406
 20
-634.32563146010875
 30
0.0
 11
910.2638546232406
 21
-647.92865960199811
 31
0.0
  0
LINE
  5
453
100
AcDbEntity
  8
SENZA_NOME
390
0
  6
Continuous
 62
               7
100
AcDbLine
 10
1007.3214253633348
 20
-641.07529246396598
 30
0.0
 11
952.8678644494787
 21
-644.85996458310046
 31
0.0
  0
LINE
  5
454
100
AcDbEntity
  8
SENZA_NOME
390
0
  6
Continuous
 62
               7
100
AcDbLine
 10
751.52212688663872
 20
-657.9286638855599
 30
0.0
 11
686.9873064153046
 21
-661.47680388555978
 31
0.0
  0
LINE
  5
455
100
AcDbEntity
  8
SENZA_NOME
390
0
  6
Continuous
 62
               7
100
AcDbLine
 10
476.4722819012656
 20
-670.82952693624861
 30
0.0
 11
404.6764690141319
 21
-673.0124369362486
 31
0.0
  0
LINE
  5
456
100
AcDbEntity
  8
SENZA_NOME
390
0
  6
Continuous
 62
               7
100
AcDbLine
 10
404.67177131663715
 20
-673.01255767386897
 30
0.0
 11
334.0971253357971
 21
-674.49459767386907
 31
0.0
  0
LINE
  5
457
100
AcDbEntity
  8
SENZA_NOME
390
0
  6
Continuous
 62
               7
100
AcDbLine
 10
1007.3214253633348
 20
-641.17899859814111
 30
0.0
 11
952.8678644494787
 21
-637.39432647900662
 31
0.0
  0
LINE
  5
458
100
AcDbEntity
  8
SENZA_NOME
390
0
  6
Continuous
 62
               7
100
AcDbLine
 10
751.52212688663872
 20
-624.32562717654719
 30
0.0
 11
686.9873064153046
 21
-620.77748717654708
 31
0.0
  0
LINE
  5
459
100
AcDbEntity
  8
SENZA_NOME
390
0
  6
Continuous
 62
               7
100
AcDbLine
 10
476.4722819012656
 20
-611.42476412585847
 30
0.0
 11
404.6764690141319
 21
-609.24185412585848
 31
0.0
  0
LINE
  5
45A
100
AcDbEntity
  8
SENZA_NOME
390
0
  6
Continuous
 62
               7
100
AcDbLine
 10
404.67177131663715
 20
-609.24173338823812
 30
0.0
 11
334.0971253357971
 21
-607.75969338823802
 31
0.0
  0
LINE
  5
45B
100
AcDbEntity
  8
SENZA_NOME_3
390
0
  6
Continuous
 62
               7
100
AcDbLine
 10
486.0482773072527
 20
-609.2255421555983
 30
0.0
 11
486.0482773072527
 21
-609.41846028641999
 31
0.0
  0
LINE
  5
45C
100
AcDbEntity
  8
SENZA_NOME_2
390
0
  6
Continuous
 62
               7
100
AcDbLine
 10
55.86241202910729
 20
-628.72853451706897
 30
0.0
 11
60.760356747509235
 21
-628.72853451706897
 31
0.0
  0
LINE
  5
45D
100
AcDbEntity
  8
SENZA_NOME_2
390
0
  6
Continuous
 62
               7
100
AcDbLine
 10
60.76034207483201
 20
-653.50304017491112
 30
0.0
 11
55.860163725089066
 21
-653.50304017491112
 31
0.0
  0
LINE
  5
45E
100
AcDbEntity
  8
SENZA_NOME_2
390
0
  6
Continuous
 62
               7
100
AcDbLine
 10
60.760356747509235
 20
-628.72853451706897
 30
0.0
 11
60.760356747509235
 21
-653.50303819756436
 31
0.0
  0
LINE
  5
45F
100
AcDbEntity
  8
SENZA_NOME_2
390
0
  6
Continuous
 62
               7
100
AcDbLine
 10
60.760356747509235
 20
-628.72853451706897
 30
0.0
 11
60.76034744606801
 21
-653.50304017491112
 31
0.0
  0
CIRCLE
  5
460
100
AcDbEntity
  8
SENZA_NOME
390
0
 62
               7
100
AcDbCircle
 10
357.07925418442028
 20
-531.19822867384164
 30
0.0
 40
6.5
  0
CIRCLE
  5
461
100
AcDbEntity
  8
SENZA_NOME
390
0
 62
               7
100
AcDbCircle
 10
279.50793356379955
 20
-512.21452995655886
 30
0.0
 40
6.5
  0
CIRCLE
  5
462
100
AcDbEntity
  8
SENZA_NOME
390
0
 62
               7
100
AcDbCircle
 10
291.61822412482479
 20
-524.32482051758393
 30
0.0
 40
6.5
  0
LINE
  5
463
100
AcDbEntity
  8
SENZA_NOME
390
0
 62
               7
100
AcDbLine
 10
515.87225002384162
 20
-370.21053382898128
 30
0.0
 11
515.87225002384162
 21
-373.25195514975189
 31
0.0
  0
LINE
  5
464
100
AcDbEntity
  8
SENZA_NOME
390
0
 62
               7
100
AcDbLine
 10
515.87225002384162
 20
-373.25195514975189
 30
0.0
 11
495.88372175434148
 21
-373.25195514975189
 31
0.0
  0
LINE
  5
465
100
AcDbEntity
  8
SENZA_NOME
390
0
 62
               7
100
AcDbLine
 10
495.87225002384167
 20
-370.21053382898128
 30
0.0
 11
515.87225002384162
 21
-370.21053382898128
 31
0.0
  0
LINE
  5
466
100
AcDbEntity
  8
SENZA_NOME
390
0
 62
               7
100
AcDbLine
 10
495.88372175434148
 20
-373.25195514975189
 30
0.0
 11
495.87225002384167
 21
-370.21053382898128
 31
0.0
  0
LINE
  5
467
100
AcDbEntity
  8
SENZA_NOME
390
0
 62
               7
100
AcDbLine
 10
464.36343442470985
 20
-370.23996160548597
 30
0.0
 11
464.36343442470985
 21
-373.25195598330095
 31
0.0
  0
LINE
  5
468
100
AcDbEntity
  8
SENZA_NOME
390
0
 62
               7
100
AcDbLine
 10
464.36343442470985
 20
-373.25195598330095
 30
0.0
 11
454.36119410458736
 21
-373.25195598330095
 31
0.0
  0
LINE
  5
469
100
AcDbEntity
  8
SENZA_NOME
390
0
 62
               7
100
AcDbLine
 10
454.36343442470985
 20
-370.23996160548597
 30
0.0
 11
464.36343442470985
 21
-370.23996160548597
 31
0.0
  0
CIRCLE
  5
46A
100
AcDbEntity
  8
SENZA_NOME
390
0
 62
               7
100
AcDbCircle
 10
508.38216382017953
 20
-375.11932668549628
 30
0.0
 40
1.0
  0
LINE
  5
46B
100
AcDbEntity
  8
SENZA_NOME
390
0
 62
               7
100
AcDbLine
 10
454.36343442470985
 20
-373.25195514975189
 30
0.0
 11
454.36343442470985
 21
-370.23996160548597
 31
0.0
  0
CIRCLE
  5
46C
100
AcDbEntity
  8
SENZA_NOME
390
0
 62
               7
100
AcDbCircle
 10
508.38548084729774
 20
-375.15600118809346
 30
0.0
 40
1.75
  0
LINE
  5
46D
100
AcDbEntity
  8
SENZA_NOME
390
0
 62
               7
100
AcDbLine
 10
454.34743455618371
 20
-370.27640222131072
 30
0.0
 11
454.34743455618371
 21
-373.28843826134948
 31
0.0
  0
LINE
  5
46E
100
AcDbEntity
  8
SENZA_NOME
390
0
 62
               7
100
AcDbLine
 10
185.64185456249604
 20
-413.82263307019713
 30
0.0
 11
185.64185456249604
 21
-426.43805331487903
 31
0.0
  0
ARC
  5
46F
100
AcDbEntity
  8
SENZA_NOME
390
0
 62
               7
100
AcDbCircle
 10
259.99882492996829
 20
618.68625531684279
 30
0.0
 40
1047.7660900865058
100
AcDbArc
 50
265.93046116566501
 51
270.74507269015118
  0
ARC
  5
470
100
AcDbEntity
  8
SENZA_NOME
390
0
 62
               7
100
AcDbCircle
 10
259.99882492996829
 20
618.68625531684279
 30
0.0
 40
1047.7660900865058
100
AcDbArc
 50
258.74479891989148
 51
264.83322496109679
  0
LINE
  5
471
100
AcDbEntity
  8
SENZA_NOME_3
390
0
 62
               7
100
AcDbLine
 10
193.67937985403486
 20
-336.73252708932546
 30
0.0
 11
193.69277161901809
 21
-336.57945851514069
 31
0.0
  0
LINE
  5
472
100
AcDbEntity
  8
SENZA_NOME_3
390
0
 62
               7
100
AcDbLine
 10
435.25945909560261
 20
-365.89346256672047
 30
0.0
 11
435.06035801858496
 21
-366.09256364373812
 31
0.0
  0
LINE
  5
473
100
AcDbEntity
  8
0
390
0
 62
               7
100
AcDbLine
 10
60.233517676012667
 20
-392.96111280360452
 30
0.0
 11
55.481812300591415
 21
-392.96111280360452
 31
0.0
  0
LINE
  5
474
100
AcDbEntity
  8
0
390
0
 62
               7
100
AcDbLine
 10
60.233517676012667
 20
-367.87644863535343
 30
0.0
 11
60.233517676012667
 21
-392.96111280360452
 31
0.0
  0
LINE
  5
475
100
AcDbEntity
  8
0
390
0
 62
               7
100
AcDbLine
 10
55.484009026522642
 20
-367.87644863535343
 30
0.0
 11
60.233517676012667
 21
-367.87644863535343
 31
0.0
  0
LINE
  5
476
100
AcDbEntity
  8
0
390
0
  6
Continuous
 62
               7
100
AcDbLine
 10
197.46606141368599
 20
-408.45517918918546
 30
0.0
 11
194.96856141368599
 21
-409.97015918918561
 31
0.0
  0
LINE
  5
477
100
AcDbEntity
  8
0
390
0
  6
Continuous
 62
               7
100
AcDbLine
 10
202.328561413686
 20
-406.21090918918554
 30
0.0
 11
197.46606141368599
 21
-408.45517918918546
 31
0.0
  0
LINE
  5
478
100
AcDbEntity
  8
0
390
0
  6
Continuous
 62
               7
100
AcDbLine
 10
208.21856141368599
 20
-404.09395918918568
 30
0.0
 11
202.328561413686
 21
-406.21090918918554
 31
0.0
  0
LINE
  5
479
100
AcDbEntity
  8
0
390
0
  6
Continuous
 62
               7
100
AcDbLine
 10
215.10856141368598
 20
-402.15924918918546
 30
0.0
 11
208.21856141368599
 21
-404.09395918918568
 31
0.0
  0
LINE
  5
47A
100
AcDbEntity
  8
0
390
0
  6
Continuous
 62
               7
100
AcDbLine
 10
222.94106141368596
 20
-400.44435918918549
 30
0.0
 11
215.10856141368598
 21
-402.15924918918546
 31
0.0
  0
LINE
  5
47B
100
AcDbEntity
  8
0
390
0
  6
Continuous
 62
               7
100
AcDbLine
 10
231.65856141368599
 20
-398.97531918918554
 30
0.0
 11
222.94106141368596
 21
-400.44435918918549
 31
0.0
  0
LINE
  5
47C
100
AcDbEntity
  8
0
390
0
  6
Continuous
 62
               7
100
AcDbLine
 10
241.17606141368597
 20
-397.77812918918568
 30
0.0
 11
231.65856141368599
 21
-398.97531918918554
 31
0.0
  0
LINE
  5
47D
100
AcDbEntity
  8
0
390
0
  6
Continuous
 62
               7
100
AcDbLine
 10
251.40856141368596
 20
-396.8730291891855
 30
0.0
 11
241.17606141368597
 21
-397.77812918918568
 31
0.0
  0
LINE
  5
47E
100
AcDbEntity
  8
0
390
0
  6
Continuous
 62
               7
100
AcDbLine
 10
262.25856141368598
 20
-396.27447918918557
 30
0.0
 11
251.40856141368596
 21
-396.8730291891855
 31
0.0
  0
LINE
  5
47F
100
AcDbEntity
  8
0
390
0
  6
Continuous
 62
               7
100
AcDbLine
 10
273.62356141368599
 20
-395.99114918918559
 30
0.0
 11
262.25856141368598
 21
-396.27447918918557
 31
0.0
  0
LINE
  5
480
100
AcDbEntity
  8
0
390
0
  6
Continuous
 62
               7
100
AcDbLine
 10
285.38356141368598
 20
-396.04036918918547
 30
0.0
 11
273.62356141368599
 21
-395.99114918918559
 31
0.0
  0
LINE
  5
481
100
AcDbEntity
  8
0
390
0
  6
Continuous
 62
               7
100
AcDbLine
 10
297.43356141368605
 20
-396.4366091891855
 30
0.0
 11
285.38356141368598
 21
-396.04036918918547
 31
0.0
  0
LINE
  5
482
100
AcDbEntity
  8
0
390
0
  6
Continuous
 62
               7
100
AcDbLine
 10
358.76106141368604
 20
-403.09697918918556
 30
0.0
 11
346.69606141368598
 21
-401.32123918918552
 31
0.0
  0
LINE
  5
483
100
AcDbEntity
  8
0
390
0
  6
Continuous
 62
               7
100
AcDbLine
 10
370.47356141368601
 20
-404.97973918918552
 30
0.0
 11
358.76106141368604
 21
-403.09697918918556
 31
0.0
  0
LINE
  5
484
100
AcDbEntity
  8
0
390
0
  6
Continuous
 62
               7
100
AcDbLine
 10
381.70856141368603
 20
-406.90010918918557
 30
0.0
 11
370.47356141368601
 21
-404.97973918918552
 31
0.0
  0
LINE
  5
485
100
AcDbEntity
  8
0
390
0
  6
Continuous
 62
               7
100
AcDbLine
 10
392.33356141368603
 20
-408.78866918918567
 30
0.0
 11
381.70856141368603
 21
-406.90010918918557
 31
0.0
  0
LINE
  5
486
100
AcDbEntity
  8
0
390
0
  6
Continuous
 62
               7
100
AcDbLine
 10
402.22106141368596
 20
-410.57600918918553
 30
0.0
 11
392.33356141368603
 21
-408.78866918918567
 31
0.0
  0
LINE
  5
487
100
AcDbEntity
  8
0
390
0
  6
Continuous
 62
               7
100
AcDbLine
 10
411.23106141368595
 20
-412.18982918918556
 30
0.0
 11
402.22106141368596
 21
-410.57600918918553
 31
0.0
  0
LINE
  5
488
100
AcDbEntity
  8
0
390
0
  6
Continuous
 62
               7
100
AcDbLine
 10
419.21856141368602
 20
-413.57225918918567
 30
0.0
 11
411.23106141368595
 21
-412.18982918918556
 31
0.0
  0
LINE
  5
489
100
AcDbEntity
  8
0
390
0
  6
Continuous
 62
               7
100
AcDbLine
 10
426.04106141368601
 20
-414.67703918918556
 30
0.0
 11
419.21856141368602
 21
-413.57225918918567
 31
0.0
  0
LINE
  5
48A
100
AcDbEntity
  8
0
390
0
  6
Continuous
 62
               7
100
AcDbLine
 10
431.551061413686
 20
-415.47523918918552
 30
0.0
 11
426.04106141368601
 21
-414.67703918918556
 31
0.0
  0
LINE
  5
48B
100
AcDbEntity
  8
0
390
0
  6
Continuous
 62
               7
100
AcDbLine
 10
435.618561413686
 20
-415.98131918918563
 30
0.0
 11
431.551061413686
 21
-415.47523918918552
 31
0.0
  0
LWPOLYLINE
  5
48C
100
AcDbEntity
  8
0
390
0
 62
               7
100
AcDbPolyline
 90
        9
 70
               0
 10
194.96856141368599
 20
-409.97015918918561
 10
193.66606141368598
 20
-410.76024918918557
 10
190.94356141368601
 20
-413.01910918918549
 10
189.33856141368599
 20
-415.10495918918565
 10
188.96856141368599
 20
-416.2935991891855
 10
189.33856141368599
 20
-416.8537591891855
 10
190.94356141368601
 20
-418.7144391891855
 10
193.66606141368598
 20
-419.98144918918553
 10
194.96856141368599
 20
-420.39424918918559
  0
LWPOLYLINE
  5
48D
100
AcDbEntity
  8
0
390
0
 62
               7
100
AcDbPolyline
 90
       29
 70
               0
 10
438.96856141368602
 20
-416.2935991891855
 10
438.12106141368605
 20
-416.29945918918548
 10
435.618561413686
 20
-416.36329918918551
 10
431.551061413686
 20
-416.55426918918562
 10
426.04106141368601
 20
-416.91155918918554
 10
419.21856141368602
 20
-417.44306918918556
 10
411.23106141368595
 20
-418.12651918918556
 10
402.22106141368596
 20
-418.93537918918565
 10
392.33356141368603
 20
-419.82522918918568
 10
381.70856141368603
 20
-420.76166918918562
 10
370.47356141368601
 20
-421.7138591891856
 10
358.76106141368604
 20
-422.63202918918552
 10
346.69606141368598
 20
-423.47251918918556
 10
334.40356141368596
 20
-424.20840918918549
 10
322.02356141368597
 20
-424.82006918918552
 10
309.676061413686
 20
-425.30626918918557
 10
297.43356141368605
 20
-425.66389918918554
 10
285.38356141368598
 20
-425.89682918918567
 10
273.62356141368599
 20
-425.99114918918559
 10
262.25856141368598
 20
-425.98243918918553
 10
251.40856141368596
 20
-425.84443918918561
 10
241.17606141368597
 20
-425.57697918918558
 10
231.65856141368599
 20
-425.1848991891855
 10
222.94106141368596
 20
-424.66046918918556
 10
215.10856141368598
 20
-424.00083918918568
 10
208.21856141368599
 20
-423.20386918918558
 10
202.328561413686
 20
-422.26469918918548
 10
197.46606141368599
 20
-421.18578918918553
 10
194.96856141368599
 20
-420.39424918918559
  0
LINE
  5
48E
100
AcDbEntity
  8
0
390
0
  6
Continuous
 62
               7
100
AcDbLine
 10
297.49154145365247
 20
-428.66333885601767
 30
0.0
 11
285.44154145365241
 21
-428.89626885601757
 31
0.0
  0
LINE
  5
48F
100
AcDbEntity
  8
0
390
0
  6
Continuous
 62
               7
100
AcDbLine
 10
285.40762186432056
 20
-428.89673270341979
 30
0.0
 11
273.64762186432057
 21
-428.99105270341994
 31
0.0
  0
LINE
  5
490
100
AcDbEntity
  8
0
390
0
  6
Continuous
 62
               7
100
AcDbLine
 10
358.96954660476894
 20
-425.62477607542547
 30
0.0
 11
346.90454660476888
 21
-426.46526607542552
 31
0.0
  0
LINE
  5
491
100
AcDbEntity
  8
0
390
0
  6
Continuous
 62
               7
100
AcDbLine
 10
370.70801905206889
 20
-424.70468342604801
 30
0.0
 11
358.99551905206891
 21
-425.62285342604793
 31
0.0
  0
LINE
  5
492
100
AcDbEntity
  8
0
390
0
  6
Continuous
 62
               7
100
AcDbLine
 10
370.70801905206889
 20
-424.70468342604801
 30
0.0
 11
358.99551905206891
 21
-425.62285342604793
 31
0.0
  0
LINE
  5
493
100
AcDbEntity
  8
0
390
0
  6
Continuous
 62
               7
100
AcDbLine
 10
381.96190949394969
 20
-423.75095250634155
 30
0.0
 11
370.72690949394968
 21
-424.70314250634152
 31
0.0
  0
LINE
  5
494
100
AcDbEntity
  8
0
390
0
  6
Continuous
 62
               7
100
AcDbLine
 10
392.59694700809092
 20
-422.81364482772375
 30
0.0
 11
381.97194700809092
 21
-423.75008482772392
 31
0.0
  0
LINE
  5
495
100
AcDbEntity
  8
0
390
0
  6
Continuous
 62
               7
100
AcDbLine
 10
402.48996701807351
 20
-421.92330318017486
 30
0.0
 11
392.60246701807358
 21
-422.81315318017488
 31
0.0
  0
LINE
  5
496
100
AcDbEntity
  8
0
390
0
  6
Continuous
 62
               7
100
AcDbLine
 10
411.49930341661246
 20
-421.11450282834181
 30
0.0
 11
402.48930341661247
 21
-421.92336282834191
 31
0.0
  0
LINE
  5
497
100
AcDbEntity
  8
0
390
0
  6
Continuous
 62
               7
100
AcDbLine
 10
419.47432170024302
 20
-420.4321470864341
 30
0.0
 11
411.48682170024307
 21
-421.11559708643409
 31
0.0
  0
LINE
  5
498
100
AcDbEntity
  8
0
390
0
  6
Continuous
 62
               7
100
AcDbLine
 10
426.27407176268827
 20
-419.90249653009693
 30
0.0
 11
419.45157176268827
 21
-420.43400653009695
 31
0.0
  0
LINE
  5
499
100
AcDbEntity
  8
0
390
0
  6
Continuous
 62
               7
100
AcDbLine
 10
426.27407176268827
 20
-419.90249653009693
 30
0.0
 11
419.45157176268827
 21
-420.43400653009695
 31
0.0
  0
LINE
  5
49A
100
AcDbEntity
  8
0
390
0
  6
Continuous
 62
               7
100
AcDbLine
 10
431.74518548219743
 20
-419.54798190853995
 30
0.0
 11
426.23518548219744
 21
-419.9052719085401
 31
0.0
  0
LINE
  5
49B
100
AcDbEntity
  8
0
390
0
  6
Continuous
 62
               7
100
AcDbLine
 10
435.75925707508708
 20
-419.35999816153213
 30
0.0
 11
431.69175707508708
 21
-419.55096816153224
 31
0.0
  0
LINE
  5
49C
100
AcDbEntity
  8
0
390
0
  6
Continuous
 62
               7
100
AcDbLine
 10
435.75925707508708
 20
-419.35999816153213
 30
0.0
 11
431.69175707508708
 21
-419.55096816153224
 31
0.0
  0
ARC
  5
49D
100
AcDbEntity
  8
SENZA_NOME
390
0
 62
               7
100
AcDbCircle
 10
224.8600209028879
 20
-1549.8190492020365
 30
0.0
 40
1209.8037778270145
100
AcDbArc
 50
89.224077571100665
 51
98.04741455621982
  0
LINE
  5
49E
100
AcDbEntity
  8
SENZA_NOME
390
0
 62
               7
100
AcDbLine
 10
55.496517424034948
 20
-351.9287434837355
 30
0.0
 11
55.484009026522642
 21
-367.87644863535343
 31
0.0
  0
LINE
  5
49F
100
AcDbEntity
  8
SENZA_NOME
390
0
 62
               7
100
AcDbLine
 10
55.481812300591415
 20
-392.96111280360452
 30
0.0
 11
55.496517424034948
 21
-408.92874348373545
 31
0.0
  0
LINE
  5
4A0
100
AcDbEntity
  8
SENZA_NOME
390
0
 62
               7
100
AcDbLine
 10
790.13952616155552
 20
-340.12620664640349
 30
0.0
 11
790.13952616155552
 21
-345.12620664640349
 31
0.0
  0
LINE
  5
4A1
100
AcDbEntity
  8
SENZA_NOME
390
0
 62
               7
100
AcDbLine
 10
790.13952616155552
 20
-345.12620664640349
 30
0.0
 11
910.33071798844912
 21
-345.12620664640349
 31
0.0
  0
LINE
  5
4A2
100
AcDbEntity
  8
SENZA_NOME
390
0
 62
               7
100
AcDbLine
 10
910.33071798844912
 20
-345.12620664640349
 30
0.0
 11
910.33071798844912
 21
-340.12620664640349
 31
0.0
  0
LINE
  5
4A3
100
AcDbEntity
  8
SENZA_NOME
390
0
 62
               7
100
AcDbLine
 10
910.33071798844912
 20
-340.12620664640349
 30
0.0
 11
1007.3882887285433
 21
-340.12620664640349
 31
0.0
  0
LINE
  5
4A4
100
AcDbEntity
  8
SENZA_NOME
390
0
 62
               7
100
AcDbLine
 10
441.19756799159694
 20
-340.12620664640349
 30
0.0
 11
438.19756799159694
 21
-340.12620664640349
 31
0.0
  0
LINE
  5
4A5
100
AcDbEntity
  8
SENZA_NOME
390
0
 62
               7
100
AcDbLine
 10
441.19756799159694
 20
-372.21234506708981
 30
0.0
 11
441.19756799159694
 21
-387.21234506708976
 31
0.0
  0
LINE
  5
4A6
100
AcDbEntity
  8
SENZA_NOME
390
0
 62
               7
100
AcDbLine
 10
441.19756799159694
 20
-372.11685867298593
 30
0.0
 11
438.19756799159694
 21
-372.11685867298593
 31
0.0
  0
LINE
  5
4A7
100
AcDbEntity
  8
SENZA_NOME
390
0
 62
               7
100
AcDbLine
 10
441.19756799159694
 20
-387.21234506708976
 30
0.0
 11
438.19756799159694
 21
-387.21234506708976
 31
0.0
  0
LINE
  5
4A8
100
AcDbEntity
  8
SENZA_NOME
390
0
 62
               7
100
AcDbLine
 10
438.19756799159694
 20
-387.21234506708976
 30
0.0
 11
438.19756799159694
 21
-372.11685867298593
 31
0.0
  0
LINE
  5
4A9
100
AcDbEntity
  8
SENZA_NOME
390
0
 62
               7
100
AcDbLine
 10
185.64761002235753
 20
-340.6509187596846
 30
0.0
 11
188.80801103857723
 21
-340.64961903056553
 31
0.0
  0
LINE
  5
4AA
100
AcDbEntity
  8
SENZA_NOME
390
0
 62
               7
100
AcDbLine
 10
188.80801103857723
 20
-372.92929328388266
 30
0.0
 11
188.80801103857723
 21
-387.9292932838826
 31
0.0
  0
LINE
  5
4AB
100
AcDbEntity
  8
SENZA_NOME
390
0
 62
               7
100
AcDbLine
 10
188.80801103857723
 20
-387.9292932838826
 30
0.0
 11
185.64389125323711
 21
-387.92928021372569
 31
0.0
  0
LINE
  5
4AC
100
AcDbEntity
  8
SENZA_NOME
390
0
 62
               7
100
AcDbLine
 10
185.64389125323711
 20
-387.92928021372569
 30
0.0
 11
185.64507110666091
 21
-372.9292802601276
 31
0.0
  0
LINE
  5
4AD
100
AcDbEntity
  8
SENZA_NOME
390
0
 62
               7
100
AcDbLine
 10
185.64507110666091
 20
-372.9292802601276
 30
0.0
 11
188.80801103857723
 21
-372.92929328388266
 31
0.0
  0
LINE
  5
4AE
100
AcDbEntity
  8
SENZA_NOME
390
0
 62
               7
100
AcDbLine
 10
165.64217990373163
 20
-413.82253864445221
 30
0.0
 11
185.64185456249604
 21
-413.82263307019713
 31
0.0
  0
LINE
  5
4AF
100
AcDbEntity
  8
SENZA_NOME
390
0
 62
               7
100
AcDbLine
 10
165.64217990373163
 20
-413.82253864445221
 30
0.0
 11
165.64217990373163
 21
-424.82253864445221
 31
0.0
  0
LINE
  5
4B0
100
AcDbEntity
  8
SENZA_NOME
390
0
 62
               7
100
AcDbLine
 10
286.15810999825834
 20
-340.12620664640349
 30
0.0
 11
286.15810999825834
 21
-343.12620664640349
 31
0.0
  0
LINE
  5
4B1
100
AcDbEntity
  8
SENZA_NOME
390
0
 62
               7
100
AcDbLine
 10
306.15810999825834
 20
-343.12620664640349
 30
0.0
 11
306.15810999825834
 21
-340.12620664640349
 31
0.0
  0
LINE
  5
4B2
100
AcDbEntity
  8
SENZA_NOME
390
0
 62
               7
100
AcDbLine
 10
241.2431681642843
 20
-340.12620664640349
 30
0.0
 11
286.15810999825834
 21
-340.12620664640349
 31
0.0
  0
LINE
  5
4B3
100
AcDbEntity
  8
SENZA_NOME
390
0
 62
               7
100
AcDbLine
 10
286.15810999825834
 20
-343.12620664640349
 30
0.0
 11
306.15810999825834
 21
-343.12620664640349
 31
0.0
  0
LINE
  5
4B4
100
AcDbEntity
  8
SENZA_NOME
390
0
 62
               7
100
AcDbLine
 10
530.38078085622033
 20
-340.12620664640349
 30
0.0
 11
530.38078085622033
 21
-343.12620664640349
 31
0.0
  0
LINE
  5
4B5
100
AcDbEntity
  8
SENZA_NOME
390
0
 62
               7
100
AcDbLine
 10
530.38078085622033
 20
-343.12620664640349
 30
0.0
 11
550.38078085622033
 21
-343.12620664640349
 31
0.0
  0
LINE
  5
4B6
100
AcDbEntity
  8
SENZA_NOME
390
0
 62
               7
100
AcDbLine
 10
550.38078085622033
 20
-343.12620664640349
 30
0.0
 11
550.38078085622033
 21
-340.12620664640349
 31
0.0
  0
LINE
  5
4B7
100
AcDbEntity
  8
SENZA_NOME
390
0
 62
               7
100
AcDbLine
 10
661.68085112946119
 20
-340.12620664640349
 30
0.0
 11
661.68085112946119
 21
-343.12620664640349
 31
0.0
  0
LINE
  5
4B8
100
AcDbEntity
  8
SENZA_NOME
390
0
 62
               7
100
AcDbLine
 10
661.68085112946119
 20
-343.12620664640349
 30
0.0
 11
681.68085112946119
 21
-343.12620664640349
 31
0.0
  0
LINE
  5
4B9
100
AcDbEntity
  8
SENZA_NOME
390
0
 62
               7
100
AcDbLine
 10
681.68085112946119
 20
-343.12620664640349
 30
0.0
 11
681.68085112946119
 21
-340.12620664640349
 31
0.0
  0
LINE
  5
4BA
100
AcDbEntity
  8
SENZA_NOME
390
0
 62
               7
100
AcDbLine
 10
681.68085112946119
 20
-340.12620664640349
 30
0.0
 11
790.13952616155552
 21
-340.12620664640349
 31
0.0
  0
LINE
  5
4BB
100
AcDbEntity
  8
SENZA_NOME
390
0
 62
               7
100
AcDbLine
 10
306.15810999825834
 20
-340.12620664640349
 30
0.0
 11
530.38078085622033
 21
-340.12620664640349
 31
0.0
  0
LINE
  5
4BC
100
AcDbEntity
  8
SENZA_NOME
390
0
 62
               7
100
AcDbLine
 10
550.38078085622033
 20
-340.12620664640349
 30
0.0
 11
661.68085112946119
 21
-340.12620664640349
 31
0.0
  0
INSERT
  5
4C4
100
AcDbEntity
  8
SENZA_NOME_3
390
0
100
AcDbBlockReference
  2
B02D6A208
 10
0.0
 20
0.0
 30
0.0
  0
LINE
  5
4C5
100
AcDbEntity
  8
SENZA_NOME
390
0
 62
               7
100
AcDbLine
 10
438.19756799159694
 20
-419.2984834877762
 30
0.0
 11
448.00926598151074
 21
-418.43754376885141
 31
0.0
  0
LINE
  5
4C6
100
AcDbEntity
  8
SENZA_NOME
390
0
 62
               7
100
AcDbLine
 10
447.48480362536014
 20
-412.46050945098278
 30
0.0
 11
448.00926598151074
 21
-418.43754376885141
 31
0.0
  0
LINE
  5
4C7
100
AcDbEntity
  8
SENZA_NOME
390
0
 62
               7
100
AcDbLine
 10
447.48480362536014
 20
-412.46050945098278
 30
0.0
 11
455.4541827158518
 21
-411.76122630944843
 31
0.0
  0
LINE
  5
4C8
100
AcDbEntity
  8
SENZA_NOME
390
0
 62
               7
100
AcDbLine
 10
455.4541827158518
 20
-411.76122630944843
 30
0.0
 11
455.71641389392715
 21
-414.74974346838286
 31
0.0
  0
LINE
  5
4C9
100
AcDbEntity
  8
SENZA_NOME
390
0
 62
               7
100
AcDbLine
 10
455.71641389392715
 20
-414.74974346838286
 30
0.0
 11
504.90253203907872
 21
-410.43384597801861
 31
0.0
  0
LINE
  5
4CA
100
AcDbEntity
  8
SENZA_NOME
390
0
 62
               7
100
AcDbLine
 10
504.64030086100348
 20
-407.44532881908418
 30
0.0
 11
504.90253203907872
 21
-410.43384597801861
 31
0.0
  0
LINE
  5
4CB
100
AcDbEntity
  8
SENZA_NOME
390
0
 62
               7
100
AcDbLine
 10
504.64030086100348
 20
-407.44532881908418
 30
0.0
 11
512.60967995149508
 21
-406.74604567755006
 31
0.0
  0
LINE
  5
4CC
100
AcDbEntity
  8
SENZA_NOME
390
0
 62
               7
100
AcDbLine
 10
512.60967995149508
 20
-406.74604567755006
 30
0.0
 11
513.13414230764579
 21
-412.72307999541869
 31
0.0
  0
LINE
  5
4CD
100
AcDbEntity
  8
SENZA_NOME
390
0
 62
               7
100
AcDbLine
 10
513.13414230764579
 20
-412.72307999541869
 30
0.0
 11
596.85819201425352
 21
-405.37660847787521
 31
0.0
  0
LINE
  5
4CE
100
AcDbEntity
  8
SENZA_NOME
390
0
 62
               7
100
AcDbLine
 10
596.59635718329446
 20
-402.39260828815446
 30
0.0
 11
596.85819201425352
 21
-405.37660847787521
 31
0.0
  0
LINE
  5
4CF
100
AcDbEntity
  8
SENZA_NOME
390
0
 62
               7
100
AcDbLine
 10
616.42574832929881
 20
-400.65942344008118
 30
0.0
 11
596.59635718329446
 21
-402.39260828815446
 31
0.0
  0
LINE
  5
4D0
100
AcDbEntity
  8
SENZA_NOME
390
0
 62
               7
100
AcDbLine
 10
616.42574832929881
 20
-400.65942344008118
 30
0.0
 11
616.68699366624014
 21
-403.63670546226859
 31
0.0
  0
LINE
  5
4D1
100
AcDbEntity
  8
SENZA_NOME
390
0
 62
               7
100
AcDbLine
 10
438.19756799159694
 20
-419.2984834877762
 30
0.0
 11
441.19701512796183
 21
-419.35607581497521
 31
0.0
  0
LINE
  5
4D2
100
AcDbEntity
  8
0
390
0
  6
Continuous
 62
               7
100
AcDbLine
 10
438.19756799159694
 20
-419.2984834877762
 30
0.0
 11
435.69430360728967
 21
-419.3142701232328
 31
0.0
  0
LINE
  5
4D3
100
AcDbEntity
  8
0
390
0
  6
Continuous
 62
               7
100
AcDbLine
 10
438.19756799159694
 20
-419.2984834877762
 30
0.0
 11
435.69430360728967
 21
-419.3142701232328
 31
0.0
  0
LINE
  5
4D4
100
AcDbEntity
  8
0
390
0
  6
Continuous
 62
               7
100
AcDbLine
 10
439.02610542218389
 20
-416.30895405474877
 30
0.0
 11
438.18003823608041
 21
-416.22619647745893
 31
0.0
  0
LINE
  5
4D5
100
AcDbEntity
  8
0
390
0
  6
Continuous
 62
               7
100
AcDbLine
 10
438.18003823608041
 20
-416.22619647745893
 30
0.0
 11
435.682717763889
 21
-415.93242017212839
 31
0.0
  0
LINE
  5
4D6
100
AcDbEntity
  8
SENZA_NOME
390
0
 62
               7
100
AcDbLine
 10
910.22055213146064
 20
-377.88023603365542
 30
0.0
 11
909.69608977530993
 21
-371.90320171578674
 31
0.0
  0
LINE
  5
4D7
100
AcDbEntity
  8
SENZA_NOME
390
0
 62
               7
100
AcDbLine
 10
868.38131190637932
 20
-381.55147252671014
 30
0.0
 11
867.85684955022862
 21
-375.57443820884134
 31
0.0
  0
LINE
  5
4D8
100
AcDbEntity
  8
SENZA_NOME
390
0
 62
               7
100
AcDbLine
 10
901.72671068481827
 20
-372.60248485732097
 30
0.0
 11
901.98894186289363
 21
-375.5910020162554
 31
0.0
  0
LINE
  5
4D9
100
AcDbEntity
  8
SENZA_NOME
390
0
 62
               7
100
AcDbLine
 10
875.82622864072027
 20
-374.87515506730722
 30
0.0
 11
876.08845981879563
 21
-377.86367222624159
 31
0.0
  0
LINE
  5
4DA
100
AcDbEntity
  8
SENZA_NOME
390
0
 62
               7
100
AcDbLine
 10
616.68699366624014
 20
-403.63670546226859
 30
0.0
 11
863.00461256672997
 21
-382.02325773891067
 31
0.0
  0
LINE
  5
4DB
100
AcDbEntity
  8
SENZA_NOME
390
0
 62
               7
100
AcDbLine
 10
863.00461256672997
 20
-382.02325773891067
 30
0.0
 11
868.38131190637932
 21
-381.55147252671014
 31
0.0
  0
LINE
  5
4DC
100
AcDbEntity
  8
SENZA_NOME
390
0
 62
               7
100
AcDbLine
 10
876.08845981879563
 20
-377.86367222624159
 30
0.0
 11
901.98894186289363
 21
-375.5910020162554
 31
0.0
  0
LINE
  5
4DD
100
AcDbEntity
  8
SENZA_NOME
390
0
 62
               7
100
AcDbLine
 10
867.85684955022839
 20
-375.57443820884134
 30
0.0
 11
875.82622864072027
 21
-374.87515506730722
 31
0.0
  0
LINE
  5
4DE
100
AcDbEntity
  8
SENZA_NOME
390
0
 62
               7
100
AcDbLine
 10
901.72671068481827
 20
-372.60248485732097
 30
0.0
 11
909.69608977530993
 21
-371.90320171578674
 31
0.0
  0
INSERT
  5
4E6
100
AcDbEntity
  8
SENZA_NOME_3
390
0
100
AcDbBlockReference
  2
B02D6ADC8
 10
0.0
 20
0.0
 30
0.0
  0
LINE
  5
4E7
100
AcDbEntity
  8
SENZA_NOME
390
0
 62
               5
100
AcDbLine
 10
977.22125360670907
 20
-368.98964867319944
 30
0.0
 11
977.48348478478442
 21
-371.97816583213375
 31
0.0
  0
LINE
  5
4E8
100
AcDbEntity
  8
SENZA_NOME
390
0
 62
               7
100
AcDbLine
 10
910.22055213146064
 20
-377.88023603365542
 30
0.0
 11
977.48348478478442
 21
-371.97816583213375
 31
0.0
  0
LINE
  5
4E9
100
AcDbEntity
  8
SENZA_NOME
390
0
 62
               7
100
AcDbLine
 10
977.24088569157379
 20
-368.9879260313445
 30
0.0
 11
1007.3882887285433
 21
-366.34260442405105
 31
0.0
  0
LINE
  5
4EA
100
AcDbEntity
  8
SENZA_NOME
390
0
 62
               7
100
AcDbLine
 10
1007.3882887285433
 20
-366.34260442405105
 30
0.0
 11
1007.3882887285433
 21
-340.12620664640349
 31
0.0
  0
LINE
  5
4EB
100
AcDbEntity
  8
SENZA_NOME
390
0
 62
               7
100
AcDbLine
 10
186.12618985940978
 20
-561.55170639900803
 30
0.0
 11
189.45365242727351
 21
-561.78379137237471
 31
0.0
  0
LINE
  5
4EC
100
AcDbEntity
  8
SENZA_NOME
390
0
 62
               7
100
AcDbLine
 10
189.45365242727351
 20
-554.41491121257513
 30
0.0
 11
189.45365242727351
 21
-561.78379137237471
 31
0.0
  0
LINE
  5
4ED
100
AcDbEntity
  8
0
390
0
  6
Continuous
 62
               7
100
AcDbLine
 10
189.82365242727352
 20
-553.22627121257528
 30
0.0
 11
189.45365242727351
 21
-554.41491121257513
 31
0.0
  0
LINE
  5
4EE
100
AcDbEntity
  8
0
390
0
  6
Continuous
 62
               7
100
AcDbLine
 10
191.42865242727353
 20
-551.14042121257512
 30
0.0
 11
189.82365242727352
 21
-553.22627121257528
 31
0.0
  0
LINE
  5
4EF
100
AcDbEntity
  8
0
390
0
  6
Continuous
 62
               7
100
AcDbLine
 10
194.1511524272735
 20
-548.88156121257521
 30
0.0
 11
191.42865242727353
 21
-551.14042121257512
 31
0.0
  0
LINE
  5
4F0
100
AcDbEntity
  8
0
390
0
  6
Continuous
 62
               7
100
AcDbLine
 10
195.45365242727351
 20
-548.09147121257524
 30
0.0
 11
194.1511524272735
 21
-548.88156121257521
 31
0.0
  0
CIRCLE
  5
4F1
100
AcDbEntity
  8
SENZA_NOME
390
0
 62
               7
100
AcDbCircle
 10
220.95241675473781
 20
-527.91884270932724
 30
0.0
 40
6.5
  0
CIRCLE
  5
4F2
100
AcDbEntity
  8
SENZA_NOME
390
0
 62
               7
100
AcDbCircle
 10
200.71697013812766
 20
-533.61006207024889
 30
0.0
 40
6.5
  0
CIRCLE
  5
4F3
100
AcDbEntity
  8
SENZA_NOME
390
0
 62
               7
100
AcDbCircle
 10
172.59739889702053
 20
-513.35881687166943
 30
0.0
 40
6.5
  0
CIRCLE
  5
4F4
100
AcDbEntity
  8
SENZA_NOME
390
0
 62
               7
100
AcDbCircle
 10
70.577754085053272
 20
-518.90774538786809
 30
0.0
 40
6.5
  0
CIRCLE
  5
4F5
100
AcDbEntity
  8
SENZA_NOME
390
0
 62
               7
100
AcDbCircle
 10
95.577754085053272
 20
-518.90774538786809
 30
0.0
 40
6.5
  0
CIRCLE
  5
4F6
100
AcDbEntity
  8
SENZA_NOME
390
0
 62
               7
100
AcDbCircle
 10
120.57775408505327
 20
-518.90774538786809
 30
0.0
 40
6.5
  0
CIRCLE
  5
4F7
100
AcDbEntity
  8
SENZA_NOME
390
0
 62
               7
100
AcDbCircle
 10
145.57775408505327
 20
-518.90774538786809
 30
0.0
 40
6.5
  0
CIRCLE
  5
4F8
100
AcDbEntity
  8
SENZA_NOME
390
0
 62
               7
100
AcDbCircle
 10
427.46380624248235
 20
-518.58554401250331
 30
0.0
 40
6.5
  0
CIRCLE
  5
4F9
100
AcDbEntity
  8
SENZA_NOME
390
0
 62
               7
100
AcDbCircle
 10
405.61487597214517
 20
-516.98129858964171
 30
0.0
 40
6.5
  0
CIRCLE
  5
4FA
100
AcDbEntity
  8
SENZA_NOME
390
0
 62
               7
100
AcDbCircle
 10
356.84208075943155
 20
-512.59829123709983
 30
0.0
 40
6.5
  0
CIRCLE
  5
4FB
100
AcDbEntity
  8
SENZA_NOME
390
0
 62
               7
100
AcDbCircle
 10
256.84208075943155
 20
-512.59829123709983
 30
0.0
 40
6.5
  0
CIRCLE
  5
4FC
100
AcDbEntity
  8
SENZA_NOME
390
0
 62
               7
100
AcDbCircle
 10
231.84208075943158
 20
-512.59829123709983
 30
0.0
 40
6.5
  0
CIRCLE
  5
4FD
100
AcDbEntity
  8
SENZA_NOME
390
0
 62
               7
100
AcDbCircle
 10
206.84208075943158
 20
-512.59829123709983
 30
0.0
 40
6.5
  0
CIRCLE
  5
4FE
100
AcDbEntity
  8
SENZA_NOME
390
0
 62
               7
100
AcDbCircle
 10
404.52585902979848
 20
-537.24611888417121
 30
0.0
 40
6.5
  0
CIRCLE
  5
4FF
100
AcDbEntity
  8
SENZA_NOME
390
0
 62
               7
100
AcDbCircle
 10
426.97455762010048
 20
-541.35644397817009
 30
0.0
 40
6.5
  0
CIRCLE
  5
500
100
AcDbEntity
  8
SENZA_NOME
390
0
 62
               7
100
AcDbCircle
 10
380.81244502595843
 20
-514.48124144048461
 30
0.0
 40
6.5
  0
LINE
  5
501
100
AcDbEntity
  8
SENZA_NOME
390
0
 62
               7
100
AcDbLine
 10
649.44208496311217
 20
-481.24751866979324
 30
0.0
 11
611.43053502590283
 21
-501.4838723267813
 31
0.0
  0
LINE
  5
502
100
AcDbEntity
  8
SENZA_NOME
390
0
 62
               7
100
AcDbLine
 10
612.08850876001202
 20
-519.45792589041571
 30
0.0
 11
649.35429994107699
 21
-535.92262177146745
 31
0.0
  0
ARC
  5
503
100
AcDbEntity
  8
SENZA_NOME
390
0
 62
               7
100
AcDbCircle
 10
616.12982196391658
 20
-510.31091612831602
 30
0.0
 40
10.0
100
AcDbArc
 50
118.02966799537641
 51
246.16329734365297
  0
CIRCLE
  5
504
100
AcDbEntity
  8
SENZA_NOME
390
0
 62
               7
100
AcDbCircle
 10
579.68349406482594
 20
-493.29725826372083
 30
0.0
 40
6.5
  0
INSERT
  5
50D
100
AcDbEntity
  8
SENZA_NOME
390
0
100
AcDbBlockReference
  2
B02D6BA88
 10
0.0
 20
0.0
 30
0.0
  0
CIRCLE
  5
50E
100
AcDbEntity
  8
SENZA_NOME
390
0
 62
               7
100
AcDbCircle
 10
430.83193963139178
 20
-494.24579482387463
 30
0.0
 40
6.5
  0
CIRCLE
  5
50F
100
AcDbEntity
  8
SENZA_NOME
390
0
 62
               7
100
AcDbCircle
 10
404.58909480047538
 20
-494.24579482387463
 30
0.0
 40
6.5
  0
CIRCLE
  5
510
100
AcDbEntity
  8
SENZA_NOME
390
0
 62
               7
100
AcDbCircle
 10
354.31665711233444
 20
-494.8781525306436
 30
0.0
 40
6.5
  0
CIRCLE
  5
511
100
AcDbEntity
  8
SENZA_NOME
390
0
 62
               7
100
AcDbCircle
 10
602.77000010190159
 20
-528.70928984278862
 30
0.0
 40
6.5
  0
CIRCLE
  5
512
100
AcDbEntity
  8
SENZA_NOME
390
0
 62
               7
100
AcDbCircle
 10
581.26983807175316
 20
-529.97400525632679
 30
0.0
 40
6.5
  0
CIRCLE
  5
513
100
AcDbEntity
  8
SENZA_NOME
390
0
 62
               7
100
AcDbCircle
 10
588.85813055298195
 20
-512.90034717356207
 30
0.0
 40
6.5
  0
CIRCLE
  5
514
100
AcDbEntity
  8
SENZA_NOME
390
0
 62
               7
100
AcDbCircle
 10
566.72561081606455
 20
-512.90034717356207
 30
0.0
 40
6.5
  0
CIRCLE
  5
515
100
AcDbEntity
  8
SENZA_NOME
390
0
 62
               7
100
AcDbCircle
 10
543.0121968122246
 20
-512.90034717356207
 30
0.0
 40
6.5
  0
CIRCLE
  5
516
100
AcDbEntity
  8
SENZA_NOME
390
0
 62
               7
100
AcDbCircle
 10
608.14504060943864
 20
-491.08400629002909
 30
0.0
 40
6.5
  0
CIRCLE
  5
517
100
AcDbEntity
  8
SENZA_NOME
390
0
 62
               7
100
AcDbCircle
 10
458.59244295855393
 20
-522.0695339217134
 30
0.0
 40
6.5
  0
CIRCLE
  5
518
100
AcDbEntity
  8
SENZA_NOME
390
0
 62
               7
100
AcDbCircle
 10
522.4357928892648
 20
-519.11965296581684
 30
0.0
 40
6.5
  0
CIRCLE
  5
519
100
AcDbEntity
  8
SENZA_NOME
390
0
 62
               7
100
AcDbCircle
 10
498.17782106337683
 20
-521.99601086807343
 30
0.0
 40
6.5
  0
CIRCLE
  5
51A
100
AcDbEntity
  8
SENZA_NOME
390
0
 62
               7
100
AcDbCircle
 10
479.25721522681403
 20
-513.28163379742728
 30
0.0
 40
6.5
  0
INSERT
  5
523
100
AcDbEntity
  8
SENZA_NOME
390
0
100
AcDbBlockReference
  2
B02D6BF94
 10
0.0
 20
0.0
 30
0.0
  0
INSERT
  5
52F
100
AcDbEntity
  8
SENZA_NOME
390
0
100
AcDbBlockReference
  2
B02D68028
 10
0.0
 20
0.0
 30
0.0
  0
CIRCLE
  5
530
100
AcDbEntity
  8
SENZA_NOME
390
0
 62
               7
100
AcDbCircle
 10
81.791301961211104
 20
-537.59604715574301
 30
0.0
 40
6.5
  0
CIRCLE
  5
531
100
AcDbEntity
  8
SENZA_NOME
390
0
 62
               7
100
AcDbCircle
 10
106.7913019612111
 20
-537.59604715574301
 30
0.0
 40
6.5
  0
CIRCLE
  5
532
100
AcDbEntity
  8
SENZA_NOME
390
0
 62
               7
100
AcDbCircle
 10
131.7913019612111
 20
-537.59604715574301
 30
0.0
 40
6.5
  0
CIRCLE
  5
533
100
AcDbEntity
  8
SENZA_NOME
390
0
 62
               7
100
AcDbCircle
 10
156.7913019612111
 20
-537.59604715574301
 30
0.0
 40
6.5
  0
CIRCLE
  5
534
100
AcDbEntity
  8
SENZA_NOME
390
0
 62
               7
100
AcDbCircle
 10
82.097667563963171
 20
-500.52580922274529
 30
0.0
 40
6.5
  0
CIRCLE
  5
535
100
AcDbEntity
  8
SENZA_NOME
390
0
 62
               7
100
AcDbCircle
 10
107.09766756396317
 20
-500.52580922274529
 30
0.0
 40
6.5
  0
CIRCLE
  5
536
100
AcDbEntity
  8
SENZA_NOME
390
0
 62
               7
100
AcDbCircle
 10
132.09766756396317
 20
-500.52580922274529
 30
0.0
 40
6.5
  0
CIRCLE
  5
537
100
AcDbEntity
  8
SENZA_NOME
390
0
 62
               7
100
AcDbCircle
 10
157.09766756396317
 20
-500.52580922274529
 30
0.0
 40
6.5
  0
LINE
  5
538
100
AcDbEntity
  8
SENZA_NOME
390
0
 62
               7
100
AcDbLine
 10
513.09477096508272
 20
-544.86735770093969
 30
0.0
 11
513.35700214315784
 21
-547.85587485987389
 31
0.0
  0
LINE
  5
539
100
AcDbEntity
  8
SENZA_NOME
390
0
 62
               7
100
AcDbLine
 10
516.35734103742925
 20
-508.23635945826715
 30
0.0
 11
516.35734103742925
 21
-511.27778077903764
 31
0.0
  0
LINE
  5
53A
100
AcDbEntity
  8
SENZA_NOME
390
0
 62
               7
100
AcDbLine
 10
516.35734103742925
 20
-511.27778077903764
 30
0.0
 11
496.368812767929
 21
-511.27778077903764
 31
0.0
  0
LINE
  5
53B
100
AcDbEntity
  8
SENZA_NOME
390
0
 62
               7
100
AcDbLine
 10
496.35734103742919
 20
-508.23635945826715
 30
0.0
 11
516.35734103742925
 21
-508.23635945826715
 31
0.0
  0
LINE
  5
53C
100
AcDbEntity
  8
SENZA_NOME
390
0
 62
               7
100
AcDbLine
 10
496.368812767929
 20
-511.27778077903764
 30
0.0
 11
496.35734103742919
 21
-508.23635945826715
 31
0.0
  0
LINE
  5
53D
100
AcDbEntity
  8
SENZA_NOME
390
0
 62
               7
100
AcDbLine
 10
464.84852543829737
 20
-508.26578723477184
 30
0.0
 11
464.84852543829737
 21
-511.27778161258681
 31
0.0
  0
LINE
  5
53E
100
AcDbEntity
  8
SENZA_NOME
390
0
 62
               7
100
AcDbLine
 10
464.84852543829737
 20
-511.27778161258681
 30
0.0
 11
454.84628511817488
 21
-511.27778161258681
 31
0.0
  0
LINE
  5
53F
100
AcDbEntity
  8
SENZA_NOME
390
0
 62
               7
100
AcDbLine
 10
454.84852543829737
 20
-508.26578723477184
 30
0.0
 11
464.84852543829737
 21
-508.26578723477184
 31
0.0
  0
CIRCLE
  5
540
100
AcDbEntity
  8
SENZA_NOME
390
0
 62
               7
100
AcDbCircle
 10
508.86725483376705
 20
-513.14515231478208
 30
0.0
 40
1.0
  0
LINE
  5
541
100
AcDbEntity
  8
SENZA_NOME
390
0
 62
               7
100
AcDbLine
 10
454.84852543829737
 20
-511.27778077903764
 30
0.0
 11
454.84852543829737
 21
-508.26578723477184
 31
0.0
  0
CIRCLE
  5
542
100
AcDbEntity
  8
SENZA_NOME
390
0
 62
               7
100
AcDbCircle
 10
508.87057186088526
 20
-513.18182681737926
 30
0.0
 40
1.75
  0
LINE
  5
543
100
AcDbEntity
  8
SENZA_NOME
390
0
 62
               7
100
AcDbLine
 10
454.83252556977124
 20
-508.30222785059647
 30
0.0
 11
454.83252556977124
 21
-511.31426389063523
 31
0.0
  0
LINE
  5
544
100
AcDbEntity
  8
SENZA_NOME
390
0
 62
               7
100
AcDbLine
 10
436.10365242727352
 20
-554.10263121257526
 30
0.0
 11
438.697429240438
 21
-554.41491121257513
 31
0.0
  0
LINE
  5
545
100
AcDbEntity
  8
SENZA_NOME
390
0
 62
               7
100
AcDbLine
 10
438.697429240438
 20
-554.41491121257513
 30
0.0
 11
438.68265900518446
 21
-557.41979551116583
 31
0.0
  0
ARC
  5
546
100
AcDbEntity
  8
SENZA_NOME
390
0
 62
               7
100
AcDbCircle
 10
260.48391594355581
 20
480.5649432934531
 30
0.0
 40
1044.7660900865058
100
AcDbArc
 50
258.97683994066875
 51
264.81834827158099
  0
LINE
  5
547
100
AcDbEntity
  8
SENZA_NOME
390
0
 62
               7
100
AcDbLine
 10
186.12930529036572
 20
-521.94385066784184
 30
0.0
 11
186.13016212024843
 21
-511.05059228351735
 31
0.0
  0
LINE
  5
548
100
AcDbEntity
  8
SENZA_NOME
390
0
 62
               7
100
AcDbLine
 10
189.29310205216476
 20
-512.32421961757154
 30
0.0
 11
189.29310205216476
 21
-526.05060530727224
 31
0.0
  0
LINE
  5
549
100
AcDbEntity
  8
SENZA_NOME
390
0
 62
               7
100
AcDbLine
 10
186.12618985940978
 20
-561.55170639900803
 30
0.0
 11
186.12898226682461
 21
-526.05059223711532
 31
0.0
  0
LINE
  5
54A
100
AcDbEntity
  8
SENZA_NOME
390
0
 62
               7
100
AcDbLine
 10
166.12727091731915
 20
-559.93157593860929
 30
0.0
 11
166.12727091731915
 21
-521.94385066784184
 31
0.0
  0
LINE
  5
54B
100
AcDbEntity
  8
SENZA_NOME_3
390
0
 62
               7
100
AcDbLine
 10
194.16447086762238
 20
-474.85383911271521
 30
0.0
 11
194.17786263260561
 21
-474.70077053853043
 31
0.0
  0
LINE
  5
54C
100
AcDbEntity
  8
SENZA_NOME_3
390
0
 62
               7
100
AcDbLine
 10
435.74455010919013
 20
-504.01477459011022
 30
0.0
 11
435.54544903217248
 21
-504.21387566712775
 31
0.0
  0
LINE
  5
54D
100
AcDbEntity
  8
0
390
0
  6
Continuous
 62
               7
100
AcDbLine
 10
197.95115242727351
 20
-546.57649121257509
 30
0.0
 11
195.45365242727351
 21
-548.09147121257524
 31
0.0
  0
LINE
  5
54E
100
AcDbEntity
  8
0
390
0
  6
Continuous
 62
               7
100
AcDbLine
 10
202.81365242727352
 20
-544.33222121257518
 30
0.0
 11
197.95115242727351
 21
-546.57649121257509
 31
0.0
  0
LINE
  5
54F
100
AcDbEntity
  8
0
390
0
  6
Continuous
 62
               7
100
AcDbLine
 10
208.70365242727351
 20
-542.21527121257532
 30
0.0
 11
202.81365242727352
 21
-544.33222121257518
 31
0.0
  0
LINE
  5
550
100
AcDbEntity
  8
0
390
0
  6
Continuous
 62
               7
100
AcDbLine
 10
215.5936524272735
 20
-540.28056121257509
 30
0.0
 11
208.70365242727351
 21
-542.21527121257532
 31
0.0
  0
LINE
  5
551
100
AcDbEntity
  8
0
390
0
  6
Continuous
 62
               7
100
AcDbLine
 10
223.42615242727348
 20
-538.56567121257513
 30
0.0
 11
215.5936524272735
 21
-540.28056121257509
 31
0.0
  0
LINE
  5
552
100
AcDbEntity
  8
0
390
0
  6
Continuous
 62
               7
100
AcDbLine
 10
232.14365242727351
 20
-537.09663121257518
 30
0.0
 11
223.42615242727348
 21
-538.56567121257513
 31
0.0
  0
LINE
  5
553
100
AcDbEntity
  8
0
390
0
  6
Continuous
 62
               7
100
AcDbLine
 10
241.66115242727349
 20
-535.89944121257531
 30
0.0
 11
232.14365242727351
 21
-537.09663121257518
 31
0.0
  0
LINE
  5
554
100
AcDbEntity
  8
0
390
0
  6
Continuous
 62
               7
100
AcDbLine
 10
251.89365242727348
 20
-534.99434121257514
 30
0.0
 11
241.66115242727349
 21
-535.89944121257531
 31
0.0
  0
LINE
  5
555
100
AcDbEntity
  8
0
390
0
  6
Continuous
 62
               7
100
AcDbLine
 10
262.7436524272735
 20
-534.3957912125752
 30
0.0
 11
251.89365242727348
 21
-534.99434121257514
 31
0.0
  0
LINE
  5
556
100
AcDbEntity
  8
0
390
0
  6
Continuous
 62
               7
100
AcDbLine
 10
274.10865242727351
 20
-534.11246121257523
 30
0.0
 11
262.7436524272735
 21
-534.3957912125752
 31
0.0
  0
LINE
  5
557
100
AcDbEntity
  8
0
390
0
  6
Continuous
 62
               7
100
AcDbLine
 10
285.8686524272735
 20
-534.1616812125751
 30
0.0
 11
274.10865242727351
 21
-534.11246121257523
 31
0.0
  0
LINE
  5
558
100
AcDbEntity
  8
0
390
0
  6
Continuous
 62
               7
100
AcDbLine
 10
297.91865242727357
 20
-534.55792121257514
 30
0.0
 11
285.8686524272735
 21
-534.1616812125751
 31
0.0
  0
LINE
  5
559
100
AcDbEntity
  8
0
390
0
  6
Continuous
 62
               7
100
AcDbLine
 10
359.24615242727356
 20
-541.2182912125752
 30
0.0
 11
347.1811524272735
 21
-539.44255121257515
 31
0.0
  0
LINE
  5
55A
100
AcDbEntity
  8
0
390
0
  6
Continuous
 62
               7
100
AcDbLine
 10
370.95865242727353
 20
-543.10105121257516
 30
0.0
 11
359.24615242727356
 21
-541.2182912125752
 31
0.0
  0
LINE
  5
55B
100
AcDbEntity
  8
0
390
0
  6
Continuous
 62
               7
100
AcDbLine
 10
382.19365242727355
 20
-545.02142121257521
 30
0.0
 11
370.95865242727353
 21
-543.10105121257516
 31
0.0
  0
LINE
  5
55C
100
AcDbEntity
  8
0
390
0
  6
Continuous
 62
               7
100
AcDbLine
 10
392.81865242727355
 20
-546.9099812125753
 30
0.0
 11
382.19365242727355
 21
-545.02142121257521
 31
0.0
  0
LINE
  5
55D
100
AcDbEntity
  8
0
390
0
  6
Continuous
 62
               7
100
AcDbLine
 10
402.70615242727348
 20
-548.69732121257516
 30
0.0
 11
392.81865242727355
 21
-546.9099812125753
 31
0.0
  0
LINE
  5
55E
100
AcDbEntity
  8
0
390
0
  6
Continuous
 62
               7
100
AcDbLine
 10
411.71615242727347
 20
-550.31114121257519
 30
0.0
 11
402.70615242727348
 21
-548.69732121257516
 31
0.0
  0
LINE
  5
55F
100
AcDbEntity
  8
0
390
0
  6
Continuous
 62
               7
100
AcDbLine
 10
419.70365242727354
 20
-551.69357121257531
 30
0.0
 11
411.71615242727347
 21
-550.31114121257519
 31
0.0
  0
LINE
  5
560
100
AcDbEntity
  8
0
390
0
  6
Continuous
 62
               7
100
AcDbLine
 10
426.52615242727353
 20
-552.7983512125752
 30
0.0
 11
419.70365242727354
 21
-551.69357121257531
 31
0.0
  0
LINE
  5
561
100
AcDbEntity
  8
0
390
0
  6
Continuous
 62
               7
100
AcDbLine
 10
432.03615242727352
 20
-553.59655121257515
 30
0.0
 11
426.52615242727353
 21
-552.7983512125752
 31
0.0
  0
LINE
  5
562
100
AcDbEntity
  8
0
390
0
  6
Continuous
 62
               7
100
AcDbLine
 10
436.10365242727352
 20
-554.10263121257526
 30
0.0
 11
432.03615242727352
 21
-553.59655121257515
 31
0.0
  0
LINE
  5
563
100
AcDbEntity
  8
SENZA_NOME
390
0
 62
               7
100
AcDbLine
 10
441.68265900518446
 20
-510.33365709047945
 30
0.0
 11
441.68265900518446
 21
-525.33365709047939
 31
0.0
  0
LINE
  5
564
100
AcDbEntity
  8
SENZA_NOME
390
0
 62
               7
100
AcDbLine
 10
441.68265900518446
 20
-510.23817069637568
 30
0.0
 11
438.68265900518446
 21
-510.23817069637568
 31
0.0
  0
LINE
  5
565
100
AcDbEntity
  8
SENZA_NOME
390
0
 62
               7
100
AcDbLine
 10
441.68265900518446
 20
-525.33365709047939
 30
0.0
 11
438.68265900518446
 21
-525.33365709047939
 31
0.0
  0
LINE
  5
566
100
AcDbEntity
  8
SENZA_NOME
390
0
 62
               7
100
AcDbLine
 10
438.68265900518446
 20
-525.33365709047939
 30
0.0
 11
438.68265900518446
 21
-510.23817069637568
 31
0.0
  0
LINE
  5
567
100
AcDbEntity
  8
SENZA_NOME
390
0
 62
               7
100
AcDbLine
 10
189.29310205216476
 20
-511.05060530727229
 30
0.0
 11
189.29310205216476
 21
-526.05060530727224
 31
0.0
  0
LINE
  5
568
100
AcDbEntity
  8
SENZA_NOME
390
0
 62
               7
100
AcDbLine
 10
189.29310205216476
 20
-526.05060530727224
 30
0.0
 11
186.12898226682464
 21
-526.05059223711532
 31
0.0
  0
LINE
  5
569
100
AcDbEntity
  8
SENZA_NOME
390
0
 62
               7
100
AcDbLine
 10
186.13016212024843
 20
-511.05059228351735
 30
0.0
 11
189.29310205216476
 21
-511.05060530727229
 31
0.0
  0
LINE
  5
56A
100
AcDbEntity
  8
SENZA_NOME
390
0
 62
               7
100
AcDbLine
 10
166.12727091731915
 20
-521.94385066784184
 30
0.0
 11
186.12930529036572
 21
-521.94385066784184
 31
0.0
  0
LINE
  5
56B
100
AcDbEntity
  8
SENZA_NOME
390
0
 62
               7
100
AcDbLine
 10
286.64320101184586
 20
-481.24751866979324
 30
0.0
 11
306.64320101184586
 21
-481.24751866979324
 31
0.0
  0
LINE
  5
56C
100
AcDbEntity
  8
SENZA_NOME
390
0
 62
               7
100
AcDbLine
 10
530.86587186980773
 20
-481.24751866979324
 30
0.0
 11
550.86587186980773
 21
-481.24751866979324
 31
0.0
  0
INSERT
  5
574
100
AcDbEntity
  8
SENZA_NOME_3
390
0
100
AcDbBlockReference
  2
B02D6D458
 10
0.0
 20
0.0
 30
0.0
  0
LINE
  5
575
100
AcDbEntity
  8
SENZA_NOME
390
0
 62
               7
100
AcDbLine
 10
438.68265900518446
 20
-557.41979551116583
 30
0.0
 11
448.49435699509826
 21
-556.55885579224105
 31
0.0
  0
LINE
  5
576
100
AcDbEntity
  8
SENZA_NOME
390
0
 62
               7
100
AcDbLine
 10
447.96989463894766
 20
-550.58182147437242
 30
0.0
 11
448.49435699509826
 21
-556.55885579224105
 31
0.0
  0
LINE
  5
577
100
AcDbEntity
  8
SENZA_NOME
390
0
 62
               7
100
AcDbLine
 10
447.96989463894766
 20
-550.58182147437242
 30
0.0
 11
455.93927372943932
 21
-549.88253833283807
 31
0.0
  0
LINE
  5
578
100
AcDbEntity
  8
SENZA_NOME
390
0
 62
               7
100
AcDbLine
 10
455.93927372943932
 20
-549.88253833283807
 30
0.0
 11
456.20150490751467
 21
-552.87105549177249
 31
0.0
  0
LINE
  5
579
100
AcDbEntity
  8
SENZA_NOME
390
0
 62
               7
100
AcDbLine
 10
456.20150490751467
 20
-552.87105549177249
 30
0.0
 11
505.38762305266624
 21
-548.55515800140824
 31
0.0
  0
LINE
  5
57A
100
AcDbEntity
  8
SENZA_NOME
390
0
 62
               7
100
AcDbLine
 10
505.125391874591
 20
-545.56664084247382
 30
0.0
 11
505.38762305266624
 21
-548.55515800140824
 31
0.0
  0
LINE
  5
57B
100
AcDbEntity
  8
SENZA_NOME
390
0
 62
               7
100
AcDbLine
 10
505.125391874591
 20
-545.56664084247382
 30
0.0
 11
513.09477096508272
 21
-544.86735770093969
 31
0.0
  0
LINE
  5
57C
100
AcDbEntity
  8
SENZA_NOME
390
0
 62
               7
100
AcDbLine
 10
616.91083934288622
 20
-538.78073546347082
 30
0.0
 11
597.08144819688209
 21
-540.5139203115441
 31
0.0
  0
INSERT
  5
584
100
AcDbEntity
  8
SENZA_NOME_3
390
0
100
AcDbBlockReference
  2
B02D6DA30
 10
0.0
 20
0.0
 30
0.0
  0
LINE
  5
585
100
AcDbEntity
  8
SENZA_NOME
390
0
 62
               7
100
AcDbLine
 10
241.72825917787182
 20
-481.24751866979324
 30
0.0
 11
286.64320101184586
 21
-481.24751866979324
 31
0.0
  0
LINE
  5
586
100
AcDbEntity
  8
SENZA_NOME
390
0
 62
               7
100
AcDbLine
 10
306.64320101184586
 20
-481.24751866979324
 30
0.0
 11
530.86587186980773
 21
-481.24751866979324
 31
0.0
  0
LINE
  5
587
100
AcDbEntity
  8
SENZA_NOME
390
0
 62
               7
100
AcDbLine
 10
513.35700214315784
 20
-547.85587485987389
 30
0.0
 11
597.0810518497658
 21
-540.50940334233064
 31
0.0
  0
LINE
  5
588
100
AcDbEntity
  8
SENZA_NOME
390
0
 62
               7
100
AcDbLine
 10
550.86587186980773
 20
-481.24751866979324
 30
0.0
 11
649.44208496311217
 21
-481.24751866979324
 31
0.0
  0
LINE
  5
589
100
AcDbEntity
  8
SENZA_NOME
390
0
 62
               7
100
AcDbLine
 10
616.9098535017522
 20
-538.7695003267238
 30
0.0
 11
649.35429994107699
 21
-535.92262177146745
 31
0.0
  0
ARC
  5
58A
100
AcDbEntity
  8
SENZA_NOME
390
0
 62
               7
100
AcDbCircle
 10
225.34511191647542
 20
-1687.9403612254264
 30
0.0
 40
1206.8037778270145
100
AcDbArc
 50
89.224077571100665
 51
97.840467977387974
  0
LINE
  5
58B
100
AcDbEntity
  8
SENZA_NOME
390
0
 62
               7
100
AcDbLine
 10
60.718608689600188
 20
-544.92518587034215
 30
0.0
 11
60.718608689600188
 21
-492.41810187060975
 31
0.0
  0
LINE
  5
58C
100
AcDbEntity
  8
0
390
0
100
AcDbLine
 10
1377.7677078211186
 20
-607.66559054022048
 30
0.0
 11
1334.6682217871225
 21
-602.77936381271741
 31
0.0
  0
LINE
  5
58D
100
AcDbEntity
  8
0
390
0
100
AcDbLine
 10
1334.6682217871225
 20
-602.77936381271741
 30
0.0
 11
1349.62146719571
 21
-540.86029127575
 31
0.0
  0
ARC
  5
58E
100
AcDbEntity
  8
0
390
0
100
AcDbCircle
 10
1378.7831531323991
 20
-547.90273924005226
 30
0.0
 40
30.0
100
AcDbArc
 50
92.410387472096559
 51
166.423215644842
  0
LINE
  5
58F
100
AcDbEntity
  8
0
390
0
100
AcDbLine
 10
1377.521449444338
 20
-517.92928258581344
 30
0.0
 11
1377.7677078211186
 21
-607.66559054022048
 31
0.0
  0
LINE
  5
590
100
AcDbEntity
  8
0
390
0
100
AcDbLine
 10
1325.6386728770931
 20
-412.51734694462868
 30
0.0
 11
1303.9424934966585
 21
-603.89082024965091
 31
0.0
  0
LINE
  5
591
100
AcDbEntity
  8
0
390
0
100
AcDbLine
 10
1214.2061855422514
 20
-604.13707862643128
 30
0.0
 11
1303.9424934966585
 21
-603.8908202496508
 31
0.0
  0
LINE
  5
592
100
AcDbEntity
  8
0
390
0
100
AcDbLine
 10
1214.2061855422514
 20
-604.13707862643128
 30
0.0
 11
1206.1401381404753
 21
-412.51734694462868
 31
0.0
  0
LINE
  5
593
100
AcDbEntity
  8
0
390
0
100
AcDbLine
 10
1206.1401381404753
 20
-412.51734694462868
 30
0.0
 11
1325.6386728770931
 21
-412.51734694462868
 31
0.0
  0
ENDSEC
  0
SECTION
  2
OBJECTS
  0
DICTIONARY
  5
19
100
AcDbDictionary
280
               0
281
               1
  3
ACAD_GROUP
350
1A
  3
ACAD_MLINESTYLE
350
1B
  3
ACAD_LAYOUT
350
1E
  3
ACAD_PLOTSETTINGS
350
22
  3
ACAD_PLOTSTYLENAME
350
1F
  0
DICTIONARY
  5
1A
102
{ACAD_REACTORS
330
19
102
}
100
AcDbDictionary
280
               0
281
               1
  0
DICTIONARY
  5
1B
102
{ACAD_REACTORS
330
19
102
}
100
AcDbDictionary
280
               0
281
               1
  3
Standard
350
1C
  0
MLINESTYLE
  5
1C
102
{ACAD_REACTORS
330
1B
102
}
100
AcDbMlineStyle
  2
Standard
 70
               0
  3

 62
               0
 51
90.0
 52
90.0
 71
               2
 49
0.5
 62
             256
  6
ByLayer
 49
-0.5
 62
             256
  6
ByLayer
  0
ACDBDICTIONARYWDFLT
  5
1F
102
{ACAD_REACTORS
330
19
102
}
100
AcDbDictionary
281
               1
  3
Normal
350
1D
100
AcDbDictionaryWithDefault
340
1D
  0
ACDBPLACEHOLDER
  5
1D
102
{ACAD_REACTORS
330
1F
102
}
  0
LAYOUT
  5
20
102
{ACAD_REACTORS
330
1E
102
}
100
AcDbPlotSettings
  1

  2

  4

  6

 40
0.0
 41
0.0
 42
0.0
 43
0.0
 44
0.0
 45
0.0
 46
0.0
 47
0.0
 48
0.0
 49
0.0
140
0.0
141
0.0
142
1.0
143
1.0
 70
            1024
 72
               0
 73
               0
 74
               0
  7

 75
               0
147
1.0
148
0.0
149
0.0
100
AcDbLayout
  1
Model
 70
               0
 71
               0
 10
0.0
 20
0.0
 11
0.0
 21
0.0
 12
0.0
 22
0.0
 32
0.0
 14
0.0
 24
0.0
 34
0.0
 15
0.0
 25
0.0
 35
0.0
146
0.0
 13
0.0
 23
0.0
 33
0.0
 16
0.0
 26
0.0
 36
0.0
 17
0.0
 27
0.0
 37
0.0
 76
               0
330
A
331
0
345
0
346
0
  0
LAYOUT
  5
21
102
{ACAD_REACTORS
330
1E
102
}
100
AcDbPlotSettings
  1

  2

  4

  6

 40
0.0
 41
0.0
 42
0.0
 43
0.0
 44
0.0
 45
0.0
 46
0.0
 47
0.0
 48
0.0
 49
0.0
140
0.0
141
0.0
142
1.0
143
1.0
 70
               0
 72
               0
 73
               0
 74
               0
  7

 75
               0
147
1.0
148
0.0
149
0.0
100
AcDbLayout
  1
Layout1
 70
               0
 71
               0
 10
0.0
 20
0.0
 11
0.0
 21
0.0
 12
0.0
 22
0.0
 32
0.0
 14
0.0
 24
0.0
 34
0.0
 15
0.0
 25
0.0
 35
0.0
146
0.0
 13
0.0
 23
0.0
 33
0.0
 16
0.0
 26
0.0
 36
0.0
 17
0.0
 27
0.0
 37
0.0
 76
               0
330
B
331
0
345
0
346
0
  0
DICTIONARY
  5
1E
102
{ACAD_REACTORS
330
19
102
}
100
AcDbDictionary
280
               0
281
               1
  3
Layout1
350
21
  3
Model
350
20
  0
DICTIONARY
  5
22
102
{ACAD_REACTORS
330
19
102
}
100
AcDbDictionary
280
               0
281
               1
  0
ENDSEC
  0
EOF
