  0
SECTION
  2
HEADER
  9
$ACADVER
  1
AC1015
  9
$ACADMAINTVER
 70
               6
  9
$DWGCODEPAGE
  3
DOS437
  9
$INSBASE
 10
0.0
 20
0.0
 30
0.0
  9
$EXTMIN
 10
-4510.3124297736476
 20
-2650.0203900864026
 30
1.0000000000000000E+20
  9
$EXTMAX
 10
-1974.1174349615483
 20
-493.70958864904139
 30
-1.0000000000000000E+20
  9
$LIMMIN
 10
0.0
 20
0.0
  9
$LIMMAX
 10
0.0
 20
0.0
  9
$ORTHOMODE
 70
               0
  9
$REGENMODE
 70
               1
  9
$FILLMODE
 70
               1
  9
$QTEXTMODE
 70
               0
  9
$MIRRTEXT
 70
               1
  9
$LTSCALE
 40
0.1
  9
$ATTMODE
 70
               1
  9
$TEXTSIZE
 40
0.2
  9
$TRACEWID
 40
0.05
  9
$TEXTSTYLE
  7
STANDARD
  9
$CLAYER
  8
0
  9
$CELTYPE
  6
CONTINUOUS
  9
$CECOLOR
 62
             256
  9
$CELTSCALE
 40
1.0
  9
$DISPSILH
 70
               0
  9
$DIMSCALE
 40
1.0
  9
$DIMASZ
 40
0.18
  9
$DIMEXO
 40
0.0625
  9
$DIMDLI
 40
0.38
  9
$DIMRND
 40
0.0
  9
$DIMDLE
 40
0.0
  9
$DIMEXE
 40
0.18
  9
$DIMTP
 40
0.0
  9
$DIMTM
 40
0.0
  9
$DIMTXT
 40
0.18
  9
$DIMCEN
 40
0.09
  9
$DIMTSZ
 40
0.0
  9
$DIMTOL
 70
               0
  9
$DIMLIM
 70
               0
  9
$DIMTIH
 70
               1
  9
$DIMTOH
 70
               1
  9
$DIMSE1
 70
               0
  9
$DIMSE2
 70
               0
  9
$DIMTAD
 70
               0
  9
$DIMZIN
 70
               0
  9
$DIMBLK
  1

  9
$DIMASO
 70
               1
  9
$DIMSHO
 70
               1
  9
$DIMPOST
  1

  9
$DIMAPOST
  1

  9
$DIMALT
 70
               0
  9
$DIMALTD
 70
               2
  9
$DIMALTF
 40
25.399999999999999
  9
$DIMLFAC
 40
1.0
  9
$DIMTOFL
 70
               0
  9
$DIMTVP
 40
0.0
  9
$DIMTIX
 70
               0
  9
$DIMSOXD
 70
               0
  9
$DIMSAH
 70
               0
  9
$DIMBLK1
  1

  9
$DIMBLK2
  1

  9
$DIMSTYLE
  2
Standard
  9
$DIMCLRD
 70
               0
  9
$DIMCLRE
 70
               0
  9
$DIMCLRT
 70
               0
  9
$DIMTFAC
 40
1.0
  9
$DIMGAP
 40
0.09
  9
$DIMJUST
 70
               0
  9
$DIMSD1
 70
               0
  9
$DIMSD2
 70
               0
  9
$DIMTOLJ
 70
               1
  9
$DIMTZIN
 70
               0
  9
$DIMALTZ
 70
               0
  9
$DIMALTTZ
 70
               0
  9
$DIMUPT
 70
               0
  9
$DIMDEC
 70
               4
  9
$DIMTDEC
 70
               4
  9
$DIMALTU
 70
               2
  9
$DIMALTTD
 70
               2
  9
$DIMTXSTY
  7
STANDARD
  9
$DIMAUNIT
 70
               0
  9
$DIMADEC
 70
               0
  9
$DIMALTRND
 40
0.0
  9
$DIMAZIN
 70
               0
  9
$DIMDSEP
 70
               0
  9
$DIMATFIT
 70
               3
  9
$DIMFRAC
 70
               0
  9
$DIMLDRBLK
  1

  9
$DIMLUNIT
 70
               2
  9
$DIMLWD
 70
               0
  9
$DIMLWE
 70
               0
  9
$DIMTMOVE
 70
               0
  9
$LUNITS
 70
               2
  9
$LUPREC
 70
               4
  9
$SKETCHINC
 40
0.1
  9
$FILLETRAD
 40
0.0
  9
$AUNITS
 70
               0
  9
$AUPREC
 70
               0
  9
$MENU
  1
acad
  9
$ELEVATION
 40
0.0
  9
$PELEVATION
 40
0.0
  9
$THICKNESS
 40
0.0
  9
$LIMCHECK
 70
               0
  9
$CHAMFERA
 40
0.0
  9
$CHAMFERB
 40
0.0
  9
$CHAMFERC
 40
0.0
  9
$CHAMFERD
 40
0.0
  9
$SKPOLY
 70
               0
  9
$TDCREATE
 40
0.000000000
  9
$TDUCREATE
 40
0.000000000
  9
$TDUPDATE
 40
0.000000000
  9
$TDUUPDATE
 40
2447892.958333334
  9
$TDINDWG
 40
0.0000000000
  9
$TDUSRTIMER
 40
0.0000000000
  9
$USRTIMER
 70
               1
  9
$ANGBASE
 50
0.0
  9
$ANGDIR
 70
               0
  9
$PDMODE
 70
               2
  9
$PDSIZE
 40
1.5
  9
$PLINEWID
 40
0.0
  9
$SPLFRAME
 70
               0
  9
$SPLINETYPE
 70
               6
  9
$SPLINESEGS
 70
               8
  9
$HANDSEED
  5
31D
  9
$SURFTAB1
 70
               6
  9
$SURFTAB2
 70
               6
  9
$SURFTYPE
 70
               6
  9
$SURFU
 70
               6
  9
$SURFV
 70
               6
  9
$UCSBASE
  2

  9
$UCSNAME
  2

  9
$UCSORG
 10
0.0
 20
0.0
 30
0.0
  9
$UCSXDIR
 10
1.0
 20
0.0
 30
0.0
  9
$UCSYDIR
 10
0.0
 20
1.0
 30
0.0
  9
$UCSORTHOREF
  2

  9
$UCSORTHOVIEW
 70
               0
  9
$UCSORGTOP
 10
0.0
 20
0.0
 30
0.0
  9
$UCSORGBOTTOM
 10
0.0
 20
0.0
 30
0.0
  9
$UCSORGLEFT
 10
0.0
 20
0.0
 30
0.0
  9
$UCSORGRIGHT
 10
0.0
 20
0.0
 30
0.0
  9
$UCSORGFRONT
 10
0.0
 20
0.0
 30
0.0
  9
$UCSORGBACK
 10
0.0
 20
0.0
 30
0.0
  9
$PUCSBASE
  2

  9
$PUCSNAME
  2

  9
$PUCSORG
 10
0.0
 20
0.0
 30
0.0
  9
$PUCSXDIR
 10
1.0
 20
0.0
 30
0.0
  9
$PUCSYDIR
 10
0.0
 20
1.0
 30
0.0
  9
$PUCSORTHOREF
  2

  9
$PUCSORTHOVIEW
 70
               0
  9
$PUCSORGTOP
 10
0.0
 20
0.0
 30
0.0
  9
$PUCSORGBOTTOM
 10
0.0
 20
0.0
 30
0.0
  9
$PUCSORGLEFT
 10
0.0
 20
0.0
 30
0.0
  9
$PUCSORGRIGHT
 10
0.0
 20
0.0
 30
0.0
  9
$PUCSORGFRONT
 10
0.0
 20
0.0
 30
0.0
  9
$PUCSORGBACK
 10
0.0
 20
0.0
 30
0.0
  9
$USERI1
 70
               0
  9
$USERI2
 70
               0
  9
$USERI3
 70
               0
  9
$USERI4
 70
               0
  9
$USERI5
 70
               0
  9
$USERR1
 40
0.0
  9
$USERR2
 40
0.0
  9
$USERR3
 40
0.0
  9
$USERR4
 40
0.0
  9
$USERR5
 40
0.0
  9
$WORLDVIEW
 70
               1
  9
$SHADEDGE
 70
               3
  9
$SHADEDIF
 70
              70
  9
$TILEMODE
 70
               1
  9
$MAXACTVP
 70
              16
  9
$PINSBASE
 10
0.0
 20
0.0
 30
0.0
  9
$PLIMCHECK
 70
               0
  9
$PEXTMIN
 10
1.0000000000000000E+20
 20
1.0000000000000000E+20
 30
1.0000000000000000E+20
  9
$PEXTMAX
 10
-1.0000000000000000E+20
 20
-1.0000000000000000E+20
 30
-1.0000000000000000E+20
  9
$PLIMMIN
 10
0.0
 20
0.0
  9
$PLIMMAX
 10
12.0
 20
9.0
  9
$UNITMODE
 70
               0
  9
$VISRETAIN
 70
               0
  9
$PLINEGEN
 70
               1
  9
$PSLTSCALE
 70
               0
  9
$TREEDEPTH
 70
            3020
  9
$CMLSTYLE
  2
Standard
  9
$CMLJUST
 70
               0
  9
$CMLSCALE
 40
1.0
  9
$PROXYGRAPHICS
 70
               0
  9
$MEASUREMENT
 70
               0
  9
$CELWEIGHT
370
               0
  9
$ENDCAPS
280
               0
  9
$JOINSTYLE
280
               0
  9
$LWDISPLAY
290
               0
  9
$INSUNITS
 70
               0
  9
$HYPERLINKBASE
  1

  9
$STYLESHEET
  1

  9
$XEDIT
290
               1
  9
$CEPSNTYPE
380
               0
  9
$PSTYLEMODE
290
               1
  9
$FINGERPRINTGUID
  2

  9
$VERSIONGUID
  2

  9
$EXTNAMES
290
               1
  9
$PSVPSCALE
 40
0.0
  0
ENDSEC
  0
SECTION
  2
CLASSES
  0
CLASS
  1
LWPOLYLINE
  2
AcDbPolyline
  3
AutoCAD 2000
 90
    32768
280
               0
281
               1
  0
CLASS
  1
IMAGE
  2
AcDbRasterImage
  3
ISM
 90
    32895
280
               0
281
               1
  0
CLASS
  1
OLE2FRAME
  2
AcDbOle2Frame
  3
AutoCAD 2000
 90
    32768
280
               0
281
               1
  0
CLASS
  1
HATCH
  2
AcDbHatch
  3
AutoCAD 2000
 90
    32768
280
               0
281
               1
  0
CLASS
  1
DICTIONARYVAR
  2
AcDbDictionaryVar
  3
AutoCAD 2000
 90
    32768
280
               0
281
               0
  0
CLASS
  1
RASTERVARIABLES
  2
AcDbRasterVariables
  3
ISM
 90
    32768
280
               0
281
               0
  0
CLASS
  1
IMAGEDEF
  2
AcDbRasterImageDef
  3
ISM
 90
    32768
280
               0
281
               0
  0
CLASS
  1
IMAGEDEF_REACTOR
  2
AcDbRasterImageDefReactor
  3
ISM
 90
    32769
280
               0
281
               0
  0
CLASS
  1
IDBUFFER
  2
AcDbIdBuffer
  3
AutoCAD 2000
 90
    32768
280
               0
281
               0
  0
CLASS
  1
SPATIAL_FILTER
  2
AcDbSpatialFilter
  3
AutoCAD 2000
 90
    32768
280
               0
281
               0
  0
CLASS
  1
XRECORD
  2
AcDbXrecord
  3
AutoCAD 2000
 90
    32768
280
               0
281
               0
  0
CLASS
  1
SORTENTSTABLE
  2
AcDbSortentsTable
  3
AutoCAD 2000
 90
    32768
280
               0
281
               0
  0
CLASS
  1
LAYER_INDEX
  2
AcDbLayerIndex
  3
AutoCAD 2000
 90
    32768
280
               0
281
               0
  0
CLASS
  1
SPATIAL_INDEX
  2
AcDbSpatialIndex
  3
AutoCAD 2000
 90
    32768
280
               0
281
               0
  0
CLASS
  1
OBJECT_PTR
  2
CAseDLPNTableRecord
  3
"ASE-LPNTableRecord"
 90
    32769
280
               0
281
               0
  0
CLASS
  1
LAYOUT
  2
AcDbLayout
  3
AutoCAD 2000
 90
        0
280
               0
281
               0
  0
CLASS
  1
PLOTSETTINGS
  2
AcDbPlotSettings
  3
AutoCAD 2000
 90
    32768
280
               0
281
               0
  0
CLASS
  1
ACDBDICTIONARYWDFLT
  2
AcDbDictionaryWithDefault
  3
AutoCAD 2000
 90
        0
280
               0
281
               0
  0
CLASS
  1
ACDBPLACEHOLDER
  2
AcDbPlaceHolder
  3
AutoCAD 2000
 90
        0
280
               0
281
               0
  0
CLASS
  1
VBA_PROJECT
  2
AcDbVbaProject
  3
acadvba
 90
    32768
280
               0
281
               0
  0
CLASS
  1
WIPEOUT
  2
AcDbWipeout
  3
WipeOut|AutoCAD Express Tool|expresstools@autodesk.com
 90
    32895
280
               0
281
               1
  0
CLASS
  1
WIPEOUTVARIABLES
  2
AcDbWipeoutVariables
  3
WipeOut|AutoCAD Express Tool|expresstools@autodesk.com
 90
    32768
280
               0
281
               0
  0
CLASS
  1
RTEXT
  2
RText
  3
RText|AutoCAD Express Tool|expresstools@autodesk.com
 90
    32768
280
               0
281
               1
  0
CLASS
  1
ARCALIGNEDTEXT
  2
AcDbArcAlignedText
  3
ATEXT|AutoCAD Express Tool|expresstools@autodesk.com
 90
    32768
280
               0
281
               1
  0
ENDSEC
  0
SECTION
  2
TABLES
  0
TABLE
  2
VPORT
  5
6
100
AcDbSymbolTable
 70
               1
  0
VPORT
  5
3F
100
AcDbSymbolTableRecord
100
AcDbViewportTableRecord
  2
*ACTIVE
 70
               0
 10
0.0
 20
0.0
 11
1.0
 21
1.0
 12
6.5912879999999996
 22
4.5791839999999997
 13
0.0
 23
0.0
 14
1.0
 24
1.0
 15
0.0
 25
0.0
 16
0.0
 26
0.0
 36
1.0
 17
0.0
 27
0.0
 37
0.0
 40
9.1583690000000004
 41
0.688564
 42
50.0
 43
0.0
 44
0.0
 50
0.0
 51
0.0
 71
               0
 72
             100
 73
               1
 74
               1
 75
               0
 76
               0
 77
               0
 78
               0
281
               0
 65
               0
110
0.0
120
0.0
130
0.0
111
1.0
121
0.0
131
0.0
112
0.0
122
1.0
132
0.0
345
0
346
0
 79
               0
146
0.0
  0
ENDTAB
  0
TABLE
  2
LTYPE
  5
3
100
AcDbSymbolTable
 70
              48
  0
LTYPE
  5
C
100
AcDbSymbolTableRecord
100
AcDbLinetypeTableRecord
  2
ByBlock
 70
              64
  3

 72
              65
 73
               0
 40
0.0
  0
LTYPE
  5
D
100
AcDbSymbolTableRecord
100
AcDbLinetypeTableRecord
  2
ByLayer
 70
              64
  3

 72
              65
 73
               0
 40
0.0
  0
LTYPE
  5
E
100
AcDbSymbolTableRecord
100
AcDbLinetypeTableRecord
  2
CONTINUOUS
 70
               0
  3
Solido
 72
              65
 73
               0
 40
0.0
  0
LTYPE
  5
F
100
AcDbSymbolTableRecord
100
AcDbLinetypeTableRecord
  2
DOTTED
 70
               0
  3
Punteggiato
 72
              65
 73
               2
 40
12.0
 49
2.0
 74
               0
 49
-10.0
 74
               0
  0
LTYPE
  5
10
100
AcDbSymbolTableRecord
100
AcDbLinetypeTableRecord
  2
DASHEDS
 70
               0
  3
Tratteggiato piccolo
 72
              65
 73
               2
 40
20.0
 49
10.0
 74
               0
 49
-10.0
 74
               0
  0
LTYPE
  5
11
100
AcDbSymbolTableRecord
100
AcDbLinetypeTableRecord
  2
DASHEDM
 70
               0
  3
Tratteggiato medio
 72
              65
 73
               2
 40
40.0
 49
20.0
 74
               0
 49
-20.0
 74
               0
  0
LTYPE
  5
12
100
AcDbSymbolTableRecord
100
AcDbLinetypeTableRecord
  2
DASHEDL
 70
               0
  3
Tratteggiato grande
 72
              65
 73
               2
 40
60.0
 49
40.0
 74
               0
 49
-20.0
 74
               0
  0
LTYPE
  5
13
100
AcDbSymbolTableRecord
100
AcDbLinetypeTableRecord
  2
CENTERED
 70
               0
  3
Tratteggiato misto
 72
              65
 73
               4
 40
70.0
 49
10.0
 74
               0
 49
-20.0
 74
               0
 49
20.0
 74
               0
 49
-20.0
 74
               0
  0
LTYPE
  5
14
100
AcDbSymbolTableRecord
100
AcDbLinetypeTableRecord
  2
POINTLINE
 70
               0
  3
Punto e linea
 72
              65
 73
               4
 40
62.0
 49
20.0
 74
               0
 49
-20.0
 74
               0
 49
2.0
 74
               0
 49
-20.0
 74
               0
  0
LTYPE
  5
15
100
AcDbSymbolTableRecord
100
AcDbLinetypeTableRecord
  2
2POINTLINE
 70
               0
  3
Due punti e linea
 72
              65
 73
               6
 40
84.0
 49
20.0
 74
               0
 49
-20.0
 74
               0
 49
2.0
 74
               0
 49
-20.0
 74
               0
 49
2.0
 74
               0
 49
-20.0
 74
               0
  0
LTYPE
  5
16
100
AcDbSymbolTableRecord
100
AcDbLinetypeTableRecord
  2
ACAD_ISO02W100
 70
               0
  3
ISO Tratteggiata
 72
              65
 73
               2
 40
150.0
 49
120.0
 74
               0
 49
-30.0
 74
               0
  0
LTYPE
  5
17
100
AcDbSymbolTableRecord
100
AcDbLinetypeTableRecord
  2
ACAD_ISO03W100
 70
               0
  3
ISO Tratto spazio
 72
              65
 73
               2
 40
300.0
 49
120.0
 74
               0
 49
-180.0
 74
               0
  0
LTYPE
  5
18
100
AcDbSymbolTableRecord
100
AcDbLinetypeTableRecord
  2
ACAD_ISO04W100
 70
               0
  3
ISO Tratto lungo punto
 72
              65
 73
               4
 40
305.0
 49
240.0
 74
               0
 49
-30.0
 74
               0
 49
5.0
 74
               0
 49
-30.0
 74
               0
  0
LTYPE
  5
19
100
AcDbSymbolTableRecord
100
AcDbLinetypeTableRecord
  2
ACAD_ISO05W100
 70
               0
  3
ISO Tratto lungo doppio punto
 72
              65
 73
               6
 40
340.0
 49
240.0
 74
               0
 49
-30.0
 74
               0
 49
5.0
 74
               0
 49
-30.0
 74
               0
 49
5.0
 74
               0
 49
-30.0
 74
               0
  0
LTYPE
  5
1A
100
AcDbSymbolTableRecord
100
AcDbLinetypeTableRecord
  2
ACAD_ISO06W100
 70
               0
  3
ISO Tratto lungo triplo punto
 72
              65
 73
               8
 40
375.0
 49
240.0
 74
               0
 49
-30.0
 74
               0
 49
5.0
 74
               0
 49
-30.0
 74
               0
 49
5.0
 74
               0
 49
-30.0
 74
               0
 49
5.0
 74
               0
 49
-30.0
 74
               0
  0
LTYPE
  5
1B
100
AcDbSymbolTableRecord
100
AcDbLinetypeTableRecord
  2
ACAD_ISO07W100
 70
               0
  3
ISO Punteggiata
 72
              65
 73
               2
 40
35.0
 49
5.0
 74
               0
 49
-30.0
 74
               0
  0
LTYPE
  5
1C
100
AcDbSymbolTableRecord
100
AcDbLinetypeTableRecord
  2
ACAD_ISO08W100
 70
               0
  3
ISO Tratto lungo tratto corto
 72
              65
 73
               4
 40
360.0
 49
240.0
 74
               0
 49
-30.0
 74
               0
 49
60.0
 74
               0
 49
-30.0
 74
               0
  0
LTYPE
  5
1D
100
AcDbSymbolTableRecord
100
AcDbLinetypeTableRecord
  2
ACAD_ISO09W100
 70
               0
  3
ISO Tratto lungo doppio tratto corto
 72
              65
 73
               6
 40
450.0
 49
240.0
 74
               0
 49
-30.0
 74
               0
 49
60.0
 74
               0
 49
-30.0
 74
               0
 49
60.0
 74
               0
 49
-30.0
 74
               0
  0
LTYPE
  5
1E
100
AcDbSymbolTableRecord
100
AcDbLinetypeTableRecord
  2
ACAD_ISO10W100
 70
               0
  3
ISO Tratto punto
 72
              65
 73
               4
 40
185.0
 49
120.0
 74
               0
 49
-30.0
 74
               0
 49
5.0
 74
               0
 49
-30.0
 74
               0
  0
LTYPE
  5
1F
100
AcDbSymbolTableRecord
100
AcDbLinetypeTableRecord
  2
ACAD_ISO11W100
 70
               0
  3
ISO Doppio tratto punto
 72
              65
 73
               6
 40
335.0
 49
120.0
 74
               0
 49
-30.0
 74
               0
 49
120.0
 74
               0
 49
-30.0
 74
               0
 49
5.0
 74
               0
 49
-30.0
 74
               0
  0
LTYPE
  5
20
100
AcDbSymbolTableRecord
100
AcDbLinetypeTableRecord
  2
ACAD_ISO12W100
 70
               0
  3
ISO Tratto doppio punto
 72
              65
 73
               6
 40
220.0
 49
120.0
 74
               0
 49
-30.0
 74
               0
 49
5.0
 74
               0
 49
-30.0
 74
               0
 49
5.0
 74
               0
 49
-30.0
 74
               0
  0
LTYPE
  5
21
100
AcDbSymbolTableRecord
100
AcDbLinetypeTableRecord
  2
ACAD_ISO13W100
 70
               0
  3
ISO Doppio tratto doppio punto
 72
              65
 73
               8
 40
370.0
 49
120.0
 74
               0
 49
-30.0
 74
               0
 49
120.0
 74
               0
 49
-30.0
 74
               0
 49
5.0
 74
               0
 49
-30.0
 74
               0
 49
5.0
 74
               0
 49
-30.0
 74
               0
  0
LTYPE
  5
22
100
AcDbSymbolTableRecord
100
AcDbLinetypeTableRecord
  2
ACAD_ISO14W100
 70
               0
  3
ISO Tratto triplo punto
 72
              65
 73
               8
 40
255.0
 49
120.0
 74
               0
 49
-30.0
 74
               0
 49
5.0
 74
               0
 49
-30.0
 74
               0
 49
5.0
 74
               0
 49
-30.0
 74
               0
 49
5.0
 74
               0
 49
-30.0
 74
               0
  0
LTYPE
  5
23
100
AcDbSymbolTableRecord
100
AcDbLinetypeTableRecord
  2
ACAD_ISO15W100
 70
               0
  3
ISO Doppio tratto triplo punto
 72
              65
 73
              10
 40
405.0
 49
120.0
 74
               0
 49
-30.0
 74
               0
 49
120.0
 74
               0
 49
-30.0
 74
               0
 49
5.0
 74
               0
 49
-30.0
 74
               0
 49
5.0
 74
               0
 49
-30.0
 74
               0
 49
5.0
 74
               0
 49
-30.0
 74
               0
  0
LTYPE
  5
24
100
AcDbSymbolTableRecord
100
AcDbLinetypeTableRecord
  2
BORDER
 70
               0
  3
AutoCAD BORDER
 72
              65
 73
               6
 40
450.0
 49
128.0
 74
               0
 49
-64.0
 74
               0
 49
128.0
 74
               0
 49
-64.0
 74
               0
 49
2.0
 74
               0
 49
-64.0
 74
               0
  0
LTYPE
  5
25
100
AcDbSymbolTableRecord
100
AcDbLinetypeTableRecord
  2
BORDER2
 70
               0
  3
AutoCAD BORDER2
 72
              65
 73
               6
 40
226.0
 49
64.0
 74
               0
 49
-32.0
 74
               0
 49
64.0
 74
               0
 49
-32.0
 74
               0
 49
2.0
 74
               0
 49
-32.0
 74
               0
  0
LTYPE
  5
26
100
AcDbSymbolTableRecord
100
AcDbLinetypeTableRecord
  2
BORDERX2
 70
               0
  3
AutoCAD BORDERX2
 72
              65
 73
               6
 40
898.0
 49
256.0
 74
               0
 49
-128.0
 74
               0
 49
256.0
 74
               0
 49
-128.0
 74
               0
 49
2.0
 74
               0
 49
-128.0
 74
               0
  0
LTYPE
  5
27
100
AcDbSymbolTableRecord
100
AcDbLinetypeTableRecord
  2
CENTER
 70
               0
  3
AutoCAD CENTER
 72
              65
 73
               4
 40
512.0
 49
320.0
 74
               0
 49
-64.0
 74
               0
 49
64.0
 74
               0
 49
-64.0
 74
               0
  0
LTYPE
  5
28
100
AcDbSymbolTableRecord
100
AcDbLinetypeTableRecord
  2
CENTER2
 70
               0
  3
AutoCAD CENTER2
 72
              65
 73
               4
 40
256.0
 49
160.0
 74
               0
 49
-32.0
 74
               0
 49
32.0
 74
               0
 49
-32.0
 74
               0
  0
LTYPE
  5
29
100
AcDbSymbolTableRecord
100
AcDbLinetypeTableRecord
  2
CENTERX2
 70
               0
  3
AutoCAD CENTERX2
 72
              65
 73
               4
 40
1024.0
 49
640.0
 74
               0
 49
-128.0
 74
               0
 49
128.0
 74
               0
 49
-128.0
 74
               0
  0
LTYPE
  5
2A
100
AcDbSymbolTableRecord
100
AcDbLinetypeTableRecord
  2
DASHDOT
 70
               0
  3
AutoCAD DASHDOT
 72
              65
 73
               4
 40
258.0
 49
128.0
 74
               0
 49
-64.0
 74
               0
 49
2.0
 74
               0
 49
-64.0
 74
               0
  0
LTYPE
  5
2B
100
AcDbSymbolTableRecord
100
AcDbLinetypeTableRecord
  2
DASHDOT2
 70
               0
  3
AutoCAD DASHDOT2
 72
              65
 73
               4
 40
130.0
 49
64.0
 74
               0
 49
-32.0
 74
               0
 49
2.0
 74
               0
 49
-32.0
 74
               0
  0
LTYPE
  5
2C
100
AcDbSymbolTableRecord
100
AcDbLinetypeTableRecord
  2
DASHDOTX2
 70
               0
  3
AutoCAD DASHDOTX2
 72
              65
 73
               4
 40
514.0
 49
256.0
 74
               0
 49
-128.0
 74
               0
 49
2.0
 74
               0
 49
-128.0
 74
               0
  0
LTYPE
  5
2D
100
AcDbSymbolTableRecord
100
AcDbLinetypeTableRecord
  2
DASHED
 70
               0
  3
AutoCAD DASHED
 72
              65
 73
               2
 40
192.0
 49
128.0
 74
               0
 49
-64.0
 74
               0
  0
LTYPE
  5
2E
100
AcDbSymbolTableRecord
100
AcDbLinetypeTableRecord
  2
DASHED2
 70
               0
  3
AutoCAD DASHED2
 72
              65
 73
               2
 40
96.0
 49
64.0
 74
               0
 49
-32.0
 74
               0
  0
LTYPE
  5
2F
100
AcDbSymbolTableRecord
100
AcDbLinetypeTableRecord
  2
DASHEDX2
 70
               0
  3
AutoCAD DASHEDX2
 72
              65
 73
               2
 40
384.0
 49
256.0
 74
               0
 49
-128.0
 74
               0
  0
LTYPE
  5
30
100
AcDbSymbolTableRecord
100
AcDbLinetypeTableRecord
  2
DIVIDE
 70
               0
  3
AutoCAD DIVIDE
 72
              65
 73
               6
 40
324.0
 49
128.0
 74
               0
 49
-64.0
 74
               0
 49
2.0
 74
               0
 49
-64.0
 74
               0
 49
2.0
 74
               0
 49
-64.0
 74
               0
  0
LTYPE
  5
31
100
AcDbSymbolTableRecord
100
AcDbLinetypeTableRecord
  2
DIVIDE2
 70
               0
  3
AutoCAD DIVIDE2
 72
              65
 73
               6
 40
164.0
 49
64.0
 74
               0
 49
-32.0
 74
               0
 49
2.0
 74
               0
 49
-32.0
 74
               0
 49
2.0
 74
               0
 49
-32.0
 74
               0
  0
LTYPE
  5
32
100
AcDbSymbolTableRecord
100
AcDbLinetypeTableRecord
  2
DIVIDEX2
 70
               0
  3
AutoCAD DIVIDEX2
 72
              65
 73
               6
 40
644.0
 49
256.0
 74
               0
 49
-128.0
 74
               0
 49
2.0
 74
               0
 49
-128.0
 74
               0
 49
2.0
 74
               0
 49
-128.0
 74
               0
  0
LTYPE
  5
33
100
AcDbSymbolTableRecord
100
AcDbLinetypeTableRecord
  2
DOT
 70
               0
  3
AutoCAD DOT
 72
              65
 73
               2
 40
66.0
 49
2.0
 74
               0
 49
-64.0
 74
               0
  0
LTYPE
  5
34
100
AcDbSymbolTableRecord
100
AcDbLinetypeTableRecord
  2
DOT2
 70
               0
  3
AutoCAD DOT2
 72
              65
 73
               2
 40
34.0
 49
2.0
 74
               0
 49
-32.0
 74
               0
  0
LTYPE
  5
35
100
AcDbSymbolTableRecord
100
AcDbLinetypeTableRecord
  2
DOTX2
 70
               0
  3
AutoCAD DOTX2
 72
              65
 73
               2
 40
130.0
 49
2.0
 74
               0
 49
-128.0
 74
               0
  0
LTYPE
  5
36
100
AcDbSymbolTableRecord
100
AcDbLinetypeTableRecord
  2
HIDDEN
 70
               0
  3
AutoCAD HIDDEN
 72
              65
 73
               2
 40
96.0
 49
64.0
 74
               0
 49
-32.0
 74
               0
  0
LTYPE
  5
37
100
AcDbSymbolTableRecord
100
AcDbLinetypeTableRecord
  2
HIDDEN2
 70
               0
  3
AutoCAD HIDDEN2
 72
              65
 73
               2
 40
48.0
 49
32.0
 74
               0
 49
-16.0
 74
               0
  0
LTYPE
  5
38
100
AcDbSymbolTableRecord
100
AcDbLinetypeTableRecord
  2
HIDDENX2
 70
               0
  3
AutoCAD HIDDENX2
 72
              65
 73
               2
 40
192.0
 49
128.0
 74
               0
 49
-64.0
 74
               0
  0
LTYPE
  5
39
100
AcDbSymbolTableRecord
100
AcDbLinetypeTableRecord
  2
PHANTOM
 70
               0
  3
AutoCAD PHANTOM
 72
              65
 73
               6
 40
640.0
 49
320.0
 74
               0
 49
-64.0
 74
               0
 49
64.0
 74
               0
 49
-64.0
 74
               0
 49
64.0
 74
               0
 49
-64.0
 74
               0
  0
LTYPE
  5
3A
100
AcDbSymbolTableRecord
100
AcDbLinetypeTableRecord
  2
PHANTOM2
 70
               0
  3
AutoCAD PHANTOM2
 72
              65
 73
               6
 40
320.0
 49
160.0
 74
               0
 49
-32.0
 74
               0
 49
32.0
 74
               0
 49
-32.0
 74
               0
 49
32.0
 74
               0
 49
-32.0
 74
               0
  0
LTYPE
  5
3B
100
AcDbSymbolTableRecord
100
AcDbLinetypeTableRecord
  2
PHANTOMX2
 70
               0
  3
AutoCAD PHANTOMX2
 72
              65
 73
               6
 40
1280.0
 49
640.0
 74
               0
 49
-128.0
 74
               0
 49
128.0
 74
               0
 49
-128.0
 74
               0
 49
128.0
 74
               0
 49
-128.0
 74
               0
  0
ENDTAB
  0
TABLE
  2
LAYER
  5
1
100
AcDbSymbolTable
 70
               3
  0
LAYER
  5
3E
100
AcDbSymbolTableRecord
100
AcDbLayerTableRecord
  2
0
 70
               0
 62
               7
  6
CONTINUOUS
290
               1
370
              -3
390
0
  0
LAYER
  5
3C
100
AcDbSymbolTableRecord
100
AcDbLayerTableRecord
  2
LAYER___0
 70
               0
 62
               7
  6
CONTINUOUS
290
               1
370
              -3
390
0
  0
LAYER
  5
3D
100
AcDbSymbolTableRecord
100
AcDbLayerTableRecord
  2
LAYER___1
 70
               0
 62
              -7
  6
CONTINUOUS
290
               1
370
              -3
390
0
  0
ENDTAB
  0
TABLE
  2
STYLE
  5
2
100
AcDbSymbolTable
 70
               1
  0
STYLE
  5
41
100
AcDbSymbolTableRecord
100
AcDbTextStyleTableRecord
  2
STANDARD
 70
               0
 40
0.0
 41
1.0
 50
0.0
 71
               0
 42
10.0
  3
txt
  4

  0
ENDTAB
  0
TABLE
  2
VIEW
  5
4
100
AcDbSymbolTable
 70
               0
  0
ENDTAB
  0
TABLE
  2
UCS
  5
5
100
AcDbSymbolTable
 70
               0
  0
ENDTAB
  0
TABLE
  2
APPID
  5
7
100
AcDbSymbolTable
 70
               1
  0
APPID
  5
40
100
AcDbSymbolTableRecord
100
AcDbRegAppTableRecord
  2
ACAD
 70
               0
  0
ENDTAB
  0
TABLE
  2
DIMSTYLE
  5
8
100
AcDbSymbolTable
 70
               1
100
AcDbDimStyleTable
 71
               0
  0
DIMSTYLE
105
49
100
AcDbSymbolTableRecord
100
AcDbDimStyleTableRecord
  2
Standard
 70
               0
  3

  4

 40
1.0
 41
0.18
 42
0.0625
 43
0.38
 44
0.18
 45
0.0
 46
0.0
 47
0.0
 48
0.0
 71
               0
 72
               0
 73
               1
 74
               1
 75
               0
 76
               0
 77
               0
 78
               0
 79
               0
140
0.18
141
0.09
142
0.0
143
25.399999999999999
144
1.0
145
0.0
146
1.0
147
0.09
148
0.0
170
               0
171
               2
172
               0
173
               0
174
               0
175
               0
176
               0
177
               0
178
               0
179
               0
271
               4
272
               4
273
               2
274
               2
275
               0
276
               0
277
               2
278
              46
279
               0
280
               0
281
               0
282
               0
283
               1
284
               0
285
               0
286
               0
288
               0
340
41
341
0
342
0
343
0
344
0
371
              -2
372
              -2
  0
ENDTAB
  0
TABLE
  2
BLOCK_RECORD
  5
44
100
AcDbSymbolTable
 70
               0
  0
BLOCK_RECORD
  5
42
100
AcDbSymbolTableRecord
100
AcDbBlockTableRecord
  2
*Model_Space
340
0
  0
BLOCK_RECORD
  5
43
100
AcDbSymbolTableRecord
100
AcDbBlockTableRecord
  2
*Paper_Space
340
0
  0
ENDTAB
  0
ENDSEC
  0
SECTION
  2
BLOCKS
  0
BLOCK
  5
45
100
AcDbEntity
  8
0
100
AcDbBlockBegin
  2
*Model_Space
 70
               0
 10
0.0
 20
0.0
 30
0.0
  3
*Model_Space
  1

  0
ENDBLK
  5
46
100
AcDbEntity
  8
0
100
AcDbBlockEnd
  0
BLOCK
  5
47
100
AcDbEntity
 67
               1
  8
0
100
AcDbBlockBegin
  2
*Paper_Space
 70
               0
 10
0.0
 20
0.0
 30
0.0
  3
*Paper_Space
  1

  0
ENDBLK
  5
48
100
AcDbEntity
 67
               1
  8
0
100
AcDbBlockEnd
  0
ENDSEC
  0
SECTION
  2
ENTITIES
  0
LINE
  5
4A
100
AcDbEntity
  8
LAYER___0
  6
CONTINUOUS
 62
               7
100
AcDbLine
 10
-3365.2390740761821
 20
-646.17054345299687
 30
0.0
 11
-3365.2390740761821
 21
-599.94769822030446
 31
0.0
  0
LINE
  5
4B
100
AcDbEntity
  8
LAYER___0
  6
CONTINUOUS
 62
               7
100
AcDbLine
 10
-3371.2390740761821
 20
-646.17054345299687
 30
0.0
 11
-3371.2390740761821
 21
-599.94769822030446
 31
0.0
  0
LINE
  5
4C
100
AcDbEntity
  8
LAYER___0
  6
CONTINUOUS
 62
               7
100
AcDbLine
 10
-3517.2337372638744
 20
-646.17054345299687
 30
0.0
 11
-3517.2337372638744
 21
-600.632335350571
 31
0.0
  0
LINE
  5
4D
100
AcDbEntity
  8
LAYER___0
  6
CONTINUOUS
 62
               7
100
AcDbLine
 10
-3523.2337372638744
 20
-646.17054345299687
 30
0.0
 11
-3523.2337372638744
 21
-602.19495436080183
 31
0.0
  0
LINE
  5
4E
100
AcDbEntity
  8
LAYER___0
  6
CONTINUOUS
 62
               7
100
AcDbLine
 10
-3675.2284004515668
 20
-613.72794391819855
 30
0.0
 11
-3675.2284004515668
 21
-643.42317348601046
 31
0.0
  0
LINE
  5
4F
100
AcDbEntity
  8
LAYER___0
  6
CONTINUOUS
 62
               7
100
AcDbLine
 10
-3669.2284004515668
 20
-643.78370330982091
 30
0.0
 11
-3669.2284004515668
 21
-612.17995106164926
 31
0.0
  0
LINE
  5
50
100
AcDbEntity
  8
LAYER___0
  6
CONTINUOUS
 62
               7
100
AcDbLine
 10
-3213.2444108884897
 20
-583.94769822030446
 30
0.0
 11
-3213.2444108884897
 21
-593.94769822030446
 31
0.0
  0
LINE
  5
51
100
AcDbEntity
  8
LAYER___0
  6
CONTINUOUS
 62
               7
100
AcDbLine
 10
-3405.5574608855991
 20
-571.547756607157
 30
0.0
 11
-3213.2444108884897
 21
-583.94769822030446
 31
0.0
  0
LINE
  5
52
100
AcDbEntity
  8
LAYER___0
  6
CONTINUOUS
 62
               7
100
AcDbLine
 10
-3539.3934020858214
 20
-606.40352093575723
 30
0.0
 11
-3405.5574608855991
 21
-571.547756607157
 31
0.0
  0
LINE
  5
53
100
AcDbEntity
  8
LAYER___0
  6
CONTINUOUS
 62
               7
100
AcDbLine
 10
-3425.0600623071559
 20
-593.94769822030446
 30
0.0
 11
-3425.0600623071559
 21
-599.94769822030446
 31
0.0
  0
LINE
  5
54
100
AcDbEntity
  8
LAYER___0
  6
CONTINUOUS
 62
               7
100
AcDbLine
 10
-3425.0600623071559
 20
-599.94769822030446
 30
0.0
 11
-3213.2444108884897
 21
-599.94769822030446
 31
0.0
  0
LINE
  5
55
100
AcDbEntity
  8
LAYER___0
  6
CONTINUOUS
 62
               7
100
AcDbLine
 10
-3425.0600623071559
 20
-593.94769822030446
 30
0.0
 11
-3213.2444108884897
 21
-593.94769822030446
 31
0.0
  0
ARC
  5
56
100
AcDbEntity
  8
LAYER___0
  6
CONTINUOUS
 62
               7
100
AcDbCircle
 10
-3546.8198495458646
 20
-569.64623760138636
 30
0.0
 40
37.5
100
AcDbArc
 50
244.91724112639324
 51
281.42228502057174
  0
LINE
  5
57
100
AcDbEntity
  8
LAYER___0
  6
CONTINUOUS
 62
               7
100
AcDbLine
 10
-3587.0826366215583
 20
-595.20514494135023
 30
0.0
 11
-3582.5453048732475
 21
-594.32892173021617
 31
0.0
  0
LINE
  5
58
100
AcDbEntity
  8
LAYER___0
  6
CONTINUOUS
 62
               7
100
AcDbLine
 10
-3582.5453048732475
 20
-594.32892173021617
 30
0.0
 11
-3562.717108477063
 21
-603.60985281641365
 31
0.0
  0
LINE
  5
59
100
AcDbEntity
  8
LAYER___0
  6
CONTINUOUS
 62
               7
100
AcDbLine
 10
-3425.0600623071559
 20
-646.17054345299687
 30
0.0
 11
-3425.0600623071559
 21
-599.94769822030446
 31
0.0
  0
LWPOLYLINE
  5
5A
100
AcDbEntity
  8
LAYER___0
  6
CONTINUOUS
 62
               7
100
AcDbPolyline
 90
        2
 70
             128
 10
-3587.0826366215583
 20
-595.20514494135023
 10
-3675.2284004515668
 20
-613.72794391819855
  0
LWPOLYLINE
  5
5E
100
AcDbEntity
  8
LAYER___0
  6
CONTINUOUS
 62
               7
100
AcDbPolyline
 90
        2
 70
             128
 10
-3576.9784004515668
 20
-646.17054345299687
 10
-3675.2284004515668
 20
-643.42317348601046
  0
LINE
  5
62
100
AcDbEntity
  8
LAYER___0
  6
CONTINUOUS
 62
               7
100
AcDbLine
 10
-3412.7601095726272
 20
-646.17054345299687
 30
0.0
 11
-3213.2444108884897
 21
-646.17054345299687
 31
0.0
  0
LINE
  5
63
100
AcDbEntity
  8
LAYER___0
  6
CONTINUOUS
 62
               7
100
AcDbLine
 10
-3576.9784004515668
 20
-646.17054345299687
 30
0.0
 11
-3412.7601095726272
 21
-646.17054345299687
 31
0.0
  0
LINE
  5
64
100
AcDbEntity
  8
LAYER___0
  6
CONTINUOUS
 62
               7
100
AcDbLine
 10
-3213.2444108884897
 20
-599.94769822030446
 30
0.0
 11
-3213.2444108884897
 21
-646.17054345299687
 31
0.0
  0
LINE
  5
65
100
AcDbEntity
  8
LAYER___0
  6
POINTLINE
 62
               7
100
AcDbLine
 10
-3167.2136296134663
 20
-623.05912083665066
 30
0.0
 11
-3725.9689738234633
 21
-623.05912083665066
 31
0.0
  0
LINE
  5
66
100
AcDbEntity
  8
LAYER___0
  6
DASHEDM
 62
               1
100
AcDbLine
 10
-3440.4158748705941
 20
-493.70958864904139
 30
0.0
 11
-3440.4158748705941
 21
-761.25037923683965
 31
0.0
  0
LINE
  5
67
100
AcDbEntity
  8
LAYER___0
  6
CONTINUOUS
 62
               7
100
AcDbLine
 10
-3707.1549776656775
 20
-1086.9631154205085
 30
0.0
 11
-3707.1549776656775
 21
-1061.0955992948127
 31
0.0
  0
LINE
  5
68
100
AcDbEntity
  8
LAYER___0
  6
CONTINUOUS
 62
               7
100
AcDbLine
 10
-3707.1549776656775
 20
-1089.9631154205085
 30
0.0
 11
-3707.1549776656775
 21
-1086.9631154205085
 31
0.0
  0
LINE
  5
69
100
AcDbEntity
  8
LAYER___0
  6
CONTINUOUS
 62
               7
100
AcDbLine
 10
-3707.1549776656775
 20
-1061.0955992948127
 30
0.0
 11
-3707.1549776656775
 21
-1058.0955992948127
 31
0.0
  0
LINE
  5
6A
100
AcDbEntity
  8
LAYER___0
  6
CONTINUOUS
 62
               7
100
AcDbLine
 10
-3555.1603144779851
 20
-1097.3980545203287
 30
0.0
 11
-3555.1603144779851
 21
-1050.6606601949925
 31
0.0
  0
LINE
  5
6B
100
AcDbEntity
  8
LAYER___0
  6
POINTLINE
 62
               7
100
AcDbLine
 10
-3361.8885635512452
 20
-1074.0293573576605
 30
0.0
 11
-3092.1549776656775
 21
-1074.0293573576605
 31
0.0
  0
LINE
  5
6C
100
AcDbEntity
  8
LAYER___0
  6
POINTLINE
 62
               7
100
AcDbLine
 10
-3707.1549776656775
 20
-1074.0293573576605
 30
0.0
 11
-3361.8885635512452
 21
-1074.0293573576605
 31
0.0
  0
POINT
  5
6D
100
AcDbEntity
  8
LAYER___0
  6
CONTINUOUS
 62
               7
100
AcDbPoint
 10
-3361.8885635512452
 20
-1074.0293573576605
 30
0.0
  0
LINE
  5
6E
100
AcDbEntity
  8
LAYER___0
  6
CONTINUOUS
 62
               7
100
AcDbLine
 10
-3456.9866395212666
 20
-1131.7643619110088
 30
0.0
 11
-3456.9866395212666
 21
-1096.7643619110086
 31
0.0
  0
LINE
  5
6F
100
AcDbEntity
  8
LAYER___0
  6
CONTINUOUS
 62
               7
100
AcDbLine
 10
-3456.9866395212666
 20
-1131.7643619110088
 30
0.0
 11
-3092.1549776656775
 21
-1100.3980545203287
 31
0.0
  0
LINE
  5
70
100
AcDbEntity
  8
LAYER___0
  6
CONTINUOUS
 62
               7
100
AcDbLine
 10
-3456.9866395212666
 20
-1016.2943528043126
 30
0.0
 11
-3456.9866395212666
 21
-1051.2943528043124
 31
0.0
  0
LINE
  5
71
100
AcDbEntity
  8
LAYER___0
  6
CONTINUOUS
 62
               7
100
AcDbLine
 10
-3456.9866395212666
 20
-1016.2943528043126
 30
0.0
 11
-3092.1549776656775
 21
-1047.6606601949925
 31
0.0
  0
LINE
  5
72
100
AcDbEntity
  8
LAYER___0
  6
CONTINUOUS
 62
               7
100
AcDbLine
 10
-3092.1549776656775
 20
-1047.6606601949925
 30
0.0
 11
-3092.1549776656775
 21
-1100.3980545203287
 31
0.0
  0
LINE
  5
73
100
AcDbEntity
  8
LAYER___0
  6
CONTINUOUS
 62
               7
100
AcDbLine
 10
-3456.9866395212666
 20
-1100.3980545203287
 30
0.0
 11
-3456.9866395212666
 21
-1047.6606601949925
 31
0.0
  0
LINE
  5
74
100
AcDbEntity
  8
LAYER___0
  6
CONTINUOUS
 62
               7
100
AcDbLine
 10
-3403.1656512902928
 20
-1089.6381594428583
 30
0.0
 11
-3403.1656512902928
 21
-1058.4205552724629
 31
0.0
  0
LINE
  5
75
100
AcDbEntity
  8
LAYER___0
  6
CONTINUOUS
 62
               7
100
AcDbLine
 10
-3397.1656512902928
 20
-1089.0994285821221
 30
0.0
 11
-3397.1656512902928
 21
-1058.9592861331992
 31
0.0
  0
LINE
  5
76
100
AcDbEntity
  8
LAYER___0
  6
CONTINUOUS
 62
               7
100
AcDbLine
 10
-3549.1603144779851
 20
-1097.3479044921241
 30
0.0
 11
-3549.1603144779851
 21
-1050.7108102231969
 31
0.0
  0
POINT
  5
77
100
AcDbEntity
  8
LAYER___0
  6
CONTINUOUS
 62
               7
100
AcDbPoint
 10
-3701.1549776656775
 20
-1074.0293573576605
 30
0.0
  0
POINT
  5
78
100
AcDbEntity
  8
LAYER___0
  6
CONTINUOUS
 62
               7
100
AcDbPoint
 10
-3549.1603144779851
 20
-1074.0293573576605
 30
0.0
  0
POINT
  5
79
100
AcDbEntity
  8
LAYER___0
  6
CONTINUOUS
 62
               7
100
AcDbPoint
 10
-3397.1656512902928
 20
-1074.0293573576605
 30
0.0
  0
POINT
  5
7A
100
AcDbEntity
  8
LAYER___0
  6
CONTINUOUS
 62
               7
100
AcDbPoint
 10
-3245.1709881026004
 20
-1074.0293573576605
 30
0.0
  0
LINE
  5
7B
100
AcDbEntity
  8
LAYER___0
  6
POINTLINE
 62
               7
100
AcDbLine
 10
-3767.1549776656775
 20
-1074.0293573576605
 30
0.0
 11
-3707.1549776656775
 21
-1074.0293573576605
 31
0.0
  0
LINE
  5
7C
100
AcDbEntity
  8
LAYER___0
  6
CONTINUOUS
 62
               7
100
AcDbLine
 10
-3701.1549776656775
 20
-1087.9867415018882
 30
0.0
 11
-3701.1549776656775
 21
-1060.071973213433
 31
0.0
  0
LWPOLYLINE
  5
7D
100
AcDbEntity
  8
LAYER___0
  6
CONTINUOUS
 62
               7
100
AcDbPolyline
 90
        5
 70
             128
 10
-3707.1549776656775
 20
-1086.9631154205085
 10
-3626.5980997192783
 20
-1095.7692110247308
 10
-3525.9387798181137
 20
-1096.9229594838901
 10
-3405.7245862690315
 20
-1089.8633463956467
 10
-3266.503087378881
 20
-1074.0293573576605
  0
LWPOLYLINE
  5
84
100
AcDbEntity
  8
LAYER___0
  6
CONTINUOUS
 62
               7
100
AcDbPolyline
 90
        5
 70
             128
 10
-3707.1549776656775
 20
-1061.0955992948127
 10
-3626.5980997192783
 20
-1052.2895036905904
 10
-3525.9387798181137
 20
-1051.1357552314312
 10
-3405.7245862690315
 20
-1058.1953683196746
 10
-3266.503087378881
 20
-1074.0293573576605
  0
LINE
  5
8B
100
AcDbEntity
  8
LAYER___0
  6
CONTINUOUS
 62
               7
100
AcDbLine
 10
-3245.1709881026004
 20
-1113.5535662833397
 30
0.0
 11
-3245.1709881026004
 21
-1034.5051484319815
 31
0.0
  0
LINE
  5
8C
100
AcDbEntity
  8
LAYER___0
  6
CONTINUOUS
 62
               7
100
AcDbLine
 10
-3456.9866395212666
 20
-1100.3980545203287
 30
0.0
 11
-3441.9498767147425
 21
-1130.4715801333764
 31
0.0
  0
LINE
  5
8D
100
AcDbEntity
  8
LAYER___0
  6
CONTINUOUS
 62
               7
100
AcDbLine
 10
-3441.9498767147425
 20
-1017.5871345819447
 30
0.0
 11
-3456.9866395212666
 21
-1047.6606601949925
 31
0.0
  0
LWPOLYLINE
  5
8E
100
AcDbEntity
  8
LAYER___0
  6
CONTINUOUS
 62
               7
100
AcDbPolyline
 90
        5
 70
             128
 10
-3707.1549776656775
 20
-1058.0955992948127
 10
-3623.3575669837355
 20
-1049.1138008476469
 10
-3518.0223424771771
 20
-1048.3601161248389
 10
-3391.7574381740997
 20
-1056.4576125027297
 10
-3245.1709881026004
 20
-1074.0293573576605
  0
LWPOLYLINE
  5
95
100
AcDbEntity
  8
LAYER___0
  6
CONTINUOUS
 62
               7
100
AcDbPolyline
 90
        5
 70
             128
 10
-3707.1549776656775
 20
-1089.9631154205085
 10
-3623.3575669837355
 20
-1098.9449138676741
 10
-3518.0223424771771
 20
-1099.6985985904823
 10
-3391.7574381740997
 20
-1091.6011022125915
 10
-3245.1709881026004
 20
-1074.0293573576605
  0
LINE
  5
9C
100
AcDbEntity
  8
LAYER___0
  6
CONTINUOUS
 62
               5
100
AcDbLine
 10
-3456.9866395212666
 20
-1128.7532948403896
 30
0.0
 11
-3092.1549776656775
 21
-1097.3869874497095
 31
0.0
  0
LINE
  5
9D
100
AcDbEntity
  8
LAYER___0
  6
CONTINUOUS
 62
               5
100
AcDbLine
 10
-3456.9866395212666
 20
-1019.3054198749317
 30
0.0
 11
-3092.1549776656775
 21
-1050.6717272656117
 31
0.0
  0
LINE
  5
9E
100
AcDbEntity
  8
LAYER___0
  6
DASHEDM
 62
               1
100
AcDbLine
 10
-3456.9866395212666
 20
-1016.2943528043126
 30
0.0
 11
-3456.9866395212666
 21
-914.79315389338228
 31
0.0
  0
LINE
  5
9F
100
AcDbEntity
  8
LAYER___0
  6
DASHEDM
 62
               1
100
AcDbLine
 10
-3456.9866395212666
 20
-1131.7643619110088
 30
0.0
 11
-3456.9866395212666
 21
-1219.7388703052684
 31
0.0
  0
LINE
  5
A0
100
AcDbEntity
  8
LAYER___0
  6
DASHEDM
 62
               1
100
AcDbLine
 10
-3245.1709881026004
 20
-1034.5051484319815
 30
0.0
 11
-3245.1709881026004
 21
-914.58077401067544
 31
0.0
  0
LINE
  5
A1
100
AcDbEntity
  8
LAYER___0
  6
DASHEDM
 62
               1
100
AcDbLine
 10
-3245.1709881026004
 20
-1113.5535662833397
 30
0.0
 11
-3245.1709881026004
 21
-1257.3506666450346
 31
0.0
  0
POINT
  5
A2
100
AcDbEntity
  8
LAYER___0
  6
CONTINUOUS
 62
               7
100
AcDbPoint
 10
-4172.4213917801098
 20
-1399.8913564496552
 30
0.0
  0
LINE
  5
A3
100
AcDbEntity
  8
LAYER___0
  6
CONTINUOUS
 62
               7
100
AcDbLine
 10
-4077.3233158100884
 20
-1342.1563518963071
 30
0.0
 11
-4077.3233158100884
 21
-1377.1563518963071
 31
0.0
  0
LINE
  5
A4
100
AcDbEntity
  8
LAYER___0
  6
CONTINUOUS
 62
               7
100
AcDbLine
 10
-4077.3233158100884
 20
-1342.1563518963071
 30
0.0
 11
-4442.1549776656775
 21
-1373.5226592869869
 31
0.0
  0
LINE
  5
A5
100
AcDbEntity
  8
LAYER___0
  6
CONTINUOUS
 62
               7
100
AcDbLine
 10
-4077.3233158100884
 20
-1457.6263610030032
 30
0.0
 11
-4077.3233158100884
 21
-1422.6263610030032
 31
0.0
  0
LINE
  5
A6
100
AcDbEntity
  8
LAYER___0
  6
CONTINUOUS
 62
               7
100
AcDbLine
 10
-4077.3233158100884
 20
-1457.6263610030032
 30
0.0
 11
-4442.1549776656775
 21
-1426.2600536123232
 31
0.0
  0
LINE
  5
A7
100
AcDbEntity
  8
LAYER___0
  6
CONTINUOUS
 62
               7
100
AcDbLine
 10
-4442.1549776656775
 20
-1426.2600536123232
 30
0.0
 11
-4442.1549776656775
 21
-1373.5226592869869
 31
0.0
  0
LINE
  5
A8
100
AcDbEntity
  8
LAYER___0
  6
CONTINUOUS
 62
               7
100
AcDbLine
 10
-4077.3233158100884
 20
-1373.5226592869869
 30
0.0
 11
-4077.3233158100884
 21
-1426.2600536123232
 31
0.0
  0
LINE
  5
A9
100
AcDbEntity
  8
LAYER___0
  6
CONTINUOUS
 62
               7
100
AcDbLine
 10
-4131.1443040410622
 20
-1384.2825543644574
 30
0.0
 11
-4131.1443040410622
 21
-1415.500158534853
 31
0.0
  0
LINE
  5
AA
100
AcDbEntity
  8
LAYER___0
  6
CONTINUOUS
 62
               7
100
AcDbLine
 10
-4137.1443040410622
 20
-1384.8212852251938
 30
0.0
 11
-4137.1443040410622
 21
-1414.9614276741165
 31
0.0
  0
POINT
  5
AB
100
AcDbEntity
  8
LAYER___0
  6
CONTINUOUS
 62
               7
100
AcDbPoint
 10
-4137.1443040410622
 20
-1399.8913564496552
 30
0.0
  0
POINT
  5
AC
100
AcDbEntity
  8
LAYER___0
  6
CONTINUOUS
 62
               7
100
AcDbPoint
 10
-4289.1389672287542
 20
-1399.8913564496552
 30
0.0
  0
LINE
  5
AD
100
AcDbEntity
  8
LAYER___0
  6
CONTINUOUS
 62
               7
100
AcDbLine
 10
-4289.1389672287542
 20
-1398.3913564496552
 30
0.0
 11
-4442.1549776656775
 21
-1398.3913564496552
 31
0.0
  0
LINE
  5
AE
100
AcDbEntity
  8
LAYER___0
  6
CONTINUOUS
 62
               7
100
AcDbLine
 10
-4289.1389672287542
 20
-1401.3913564496552
 30
0.0
 11
-4442.1549776656775
 21
-1401.3913564496552
 31
0.0
  0
LINE
  5
AF
100
AcDbEntity
  8
LAYER___0
  6
CONTINUOUS
 62
               7
100
AcDbLine
 10
-4289.1389672287542
 20
-1360.3671475239762
 30
0.0
 11
-4289.1389672287542
 21
-1439.4155653753342
 31
0.0
  0
LINE
  5
B0
100
AcDbEntity
  8
LAYER___0
  6
CONTINUOUS
 62
               7
100
AcDbLine
 10
-4077.3233158100884
 20
-1373.5226592869869
 30
0.0
 11
-4092.3600786166121
 21
-1343.4491336739393
 31
0.0
  0
LINE
  5
B1
100
AcDbEntity
  8
LAYER___0
  6
CONTINUOUS
 62
               7
100
AcDbLine
 10
-4092.3600786166121
 20
-1456.3335792253711
 30
0.0
 11
-4077.3233158100884
 21
-1426.2600536123232
 31
0.0
  0
LINE
  5
B2
100
AcDbEntity
  8
LAYER___0
  6
CONTINUOUS
 62
               5
100
AcDbLine
 10
-4077.3233158100884
 20
-1345.1674189669261
 30
0.0
 11
-4442.1549776656775
 21
-1376.5337263576062
 31
0.0
  0
LINE
  5
B3
100
AcDbEntity
  8
LAYER___0
  6
CONTINUOUS
 62
               5
100
AcDbLine
 10
-4077.3233158100884
 20
-1454.615293932384
 30
0.0
 11
-4442.1549776656775
 21
-1423.2489865417042
 31
0.0
  0
LINE
  5
B4
100
AcDbEntity
  8
LAYER___0
  6
DASHEDM
 62
               1
100
AcDbLine
 10
-4077.3233158100884
 20
-1457.6263610030032
 30
0.0
 11
-4077.3233158100884
 21
-1559.1275599139335
 31
0.0
  0
LINE
  5
B5
100
AcDbEntity
  8
LAYER___0
  6
DASHEDM
 62
               1
100
AcDbLine
 10
-4077.3233158100884
 20
-1342.1563518963071
 30
0.0
 11
-4077.3233158100884
 21
-1254.1818435020475
 31
0.0
  0
LINE
  5
B6
100
AcDbEntity
  8
LAYER___0
  6
DASHEDM
 62
               1
100
AcDbLine
 10
-4289.1389672287542
 20
-1439.4155653753342
 30
0.0
 11
-4289.1389672287542
 21
-1559.3399397966402
 31
0.0
  0
LINE
  5
B7
100
AcDbEntity
  8
LAYER___0
  6
DASHEDM
 62
               1
100
AcDbLine
 10
-4289.1389672287542
 20
-1360.3671475239762
 30
0.0
 11
-4289.1389672287542
 21
-1216.5700471622813
 31
0.0
  0
LINE
  5
B8
100
AcDbEntity
  8
LAYER___0
  6
CONTINUOUS
 62
               7
100
AcDbLine
 10
-4295.1389672287542
 20
-1363.8940630365503
 30
0.0
 11
-4295.1389672287542
 21
-1435.8886498627601
 31
0.0
  0
LWPOLYLINE
  5
B9
100
AcDbEntity
  8
LAYER___0
  6
CONTINUOUS
 62
               7
100
AcDbPolyline
 90
        3
 70
             128
 10
-4077.3233158100884
 20
-1377.1563518963071
 10
-4177.5875792259631
 20
-1385.8288254481315
 10
-4289.1389672287542
 20
-1399.8913564496552
  0
LWPOLYLINE
  5
BE
100
AcDbEntity
  8
LAYER___0
  6
CONTINUOUS
 62
               7
100
AcDbPolyline
 90
        3
 70
             128
 10
-4077.3233158100884
 20
-1380.1563518963071
 10
-4167.9012351442561
 20
-1387.8111627394453
 10
-4267.806867952474
 20
-1399.8913564496552
  0
LWPOLYLINE
  5
C3
100
AcDbEntity
  8
LAYER___0
  6
CONTINUOUS
 62
               7
100
AcDbPolyline
 90
        3
 70
             128
 10
-4077.3233158100884
 20
-1419.6263610030032
 10
-4167.9012351442561
 20
-1411.971550159865
 10
-4267.806867952474
 20
-1399.8913564496552
  0
LWPOLYLINE
  5
C8
100
AcDbEntity
  8
LAYER___0
  6
CONTINUOUS
 62
               7
100
AcDbPolyline
 90
        3
 70
             128
 10
-4077.3233158100884
 20
-1422.6263610030032
 10
-4177.5875792259631
 20
-1413.9538874511788
 10
-4289.1389672287542
 20
-1399.8913564496552
  0
LINE
  5
CD
100
AcDbEntity
  8
LAYER___0
  6
POINTLINE
 62
               7
100
AcDbLine
 10
-4015.5183172300517
 20
-1399.8913564496552
 30
0.0
 11
-4475.1011936329232
 21
-1399.8913564496552
 31
0.0
  0
LINE
  5
CE
100
AcDbEntity
  8
LAYER___0
  6
CONTINUOUS
 62
               7
100
AcDbLine
 10
-4443.0810679132373
 20
-1677.5884782544731
 30
0.0
 11
-4231.2654164945716
 21
-1677.5884782544731
 31
0.0
  0
LINE
  5
CF
100
AcDbEntity
  8
LAYER___0
  6
CONTINUOUS
 62
               7
100
AcDbLine
 10
-4231.2654164945716
 20
-1677.5884782544731
 30
0.0
 11
-4161.9430099597976
 21
-1677.5884782544731
 31
0.0
  0
LINE
  5
D0
100
AcDbEntity
  8
LAYER___0
  6
CONTINUOUS
 62
               7
100
AcDbLine
 10
-4161.9430099597976
 20
-1677.5884782544731
 30
0.0
 11
-4078.2494060576487
 21
-1677.5884782544731
 31
0.0
  0
LINE
  5
D1
100
AcDbEntity
  8
LAYER___0
  6
POINTLINE
 62
               7
100
AcDbLine
 10
-4499.4603333153127
 20
-1694.0884782544731
 30
0.0
 11
-4078.2494060576487
 21
-1694.0884782544731
 31
0.0
  0
LINE
  5
D2
100
AcDbEntity
  8
LAYER___0
  6
CONTINUOUS
 62
               7
100
AcDbLine
 10
-4443.0810679132373
 20
-1723.8113234871655
 30
0.0
 11
-4443.0810679132373
 21
-1677.5884782544731
 31
0.0
  0
LINE
  5
D3
100
AcDbEntity
  8
LAYER___0
  6
CONTINUOUS
 62
               7
100
AcDbLine
 10
-4078.2494060576487
 20
-1677.5884782544731
 30
0.0
 11
-4078.2494060576487
 21
-1713.5884782544731
 31
0.0
  0
LINE
  5
D4
100
AcDbEntity
  8
LAYER___0
  6
CONTINUOUS
 62
               7
100
AcDbLine
 10
-4443.0810679132373
 20
-1723.8113234871655
 30
0.0
 11
-4231.2654164945716
 21
-1723.8113234871655
 31
0.0
  0
LWPOLYLINE
  5
D5
100
AcDbEntity
  8
LAYER___0
  6
CONTINUOUS
 62
               7
100
AcDbPolyline
 90
        3
 70
             128
 10
-4231.2654164945716
 20
-1723.8113234871655
 10
-4150.0318142771812
 20
-1720.8455457843593
 10
-4078.2494060576487
 20
-1713.5884782544731
  0
LINE
  5
DA
100
AcDbEntity
  8
LAYER___0
  6
CONTINUOUS
 62
               7
100
AcDbLine
 10
-3809.7989397982828
 20
-1879.3037558627734
 30
0.0
 11
-3809.7989397982828
 21
-1847.7000036146017
 31
0.0
  0
LINE
  5
DB
100
AcDbEntity
  8
LAYER___0
  6
CONTINUOUS
 62
               7
100
AcDbLine
 10
-3781.8841715098279
 20
-1879.3037558627734
 30
0.0
 11
-3809.7989397982828
 21
-1879.3037558627734
 31
0.0
  0
LINE
  5
DC
100
AcDbEntity
  8
LAYER___0
  6
CONTINUOUS
 62
               7
100
AcDbLine
 10
-3781.8841715098279
 20
-1879.3037558627734
 30
0.0
 11
-3781.8841715098279
 21
-1847.7000036146017
 31
0.0
  0
LINE
  5
DD
100
AcDbEntity
  8
LAYER___0
  6
CONTINUOUS
 62
               7
100
AcDbLine
 10
-3809.7989397982828
 20
-1847.7000036146017
 30
0.0
 11
-3781.8841715098279
 21
-1847.7000036146017
 31
0.0
  0
TEXT
  5
DE
100
AcDbEntity
  8
LAYER___0
  6
CONTINUOUS
 62
               7
100
AcDbText
 10
-3799.4038181268888
 20
-1867.2412891212562
 30
0.0
 40
10.0
  1
F1
100
AcDbText
  0
LINE
  5
DF
100
AcDbEntity
  8
LAYER___0
  6
CONTINUOUS
 62
               7
100
AcDbLine
 10
-3758.9935140311259
 20
-1879.2989756647326
 30
0.0
 11
-3758.9935140311259
 21
-1833.7607675623067
 31
0.0
  0
LINE
  5
E0
100
AcDbEntity
  8
LAYER___0
  6
CONTINUOUS
 62
               7
100
AcDbLine
 10
-3712.2561197057898
 20
-1879.2989756647326
 30
0.0
 11
-3758.9935140311259
 21
-1879.2989756647326
 31
0.0
  0
LINE
  5
E1
100
AcDbEntity
  8
LAYER___0
  6
CONTINUOUS
 62
               7
100
AcDbLine
 10
-3712.2561197057898
 20
-1879.2989756647326
 30
0.0
 11
-3712.2561197057898
 21
-1833.7607675623067
 31
0.0
  0
LINE
  5
E2
100
AcDbEntity
  8
LAYER___0
  6
CONTINUOUS
 62
               7
100
AcDbLine
 10
-3758.9935140311259
 20
-1833.7607675623067
 30
0.0
 11
-3712.2561197057898
 21
-1833.7607675623067
 31
0.0
  0
TEXT
  5
E3
100
AcDbEntity
  8
LAYER___0
  6
CONTINUOUS
 62
               7
100
AcDbText
 10
-3740.9087508182924
 20
-1859.587984059063
 30
0.0
 40
10.0
  1
F2
100
AcDbText
  0
LINE
  5
E4
100
AcDbEntity
  8
LAYER___0
  6
CONTINUOUS
 62
               7
100
AcDbLine
 10
-3698.2727665610714
 20
-1879.3441312488112
 30
0.0
 11
-3698.2727665610714
 21
-1833.121286016119
 31
0.0
  0
LINE
  5
E5
100
AcDbEntity
  8
LAYER___0
  6
CONTINUOUS
 62
               7
100
AcDbLine
 10
-3667.0551623906758
 20
-1879.3441312488112
 30
0.0
 11
-3698.2727665610714
 21
-1879.3441312488112
 31
0.0
  0
LINE
  5
E6
100
AcDbEntity
  8
LAYER___0
  6
CONTINUOUS
 62
               7
100
AcDbLine
 10
-3667.0551623906758
 20
-1879.3441312488112
 30
0.0
 11
-3667.0551623906758
 21
-1833.121286016119
 31
0.0
  0
LINE
  5
E7
100
AcDbEntity
  8
LAYER___0
  6
CONTINUOUS
 62
               7
100
AcDbLine
 10
-3698.2727665610714
 20
-1833.121286016119
 30
0.0
 11
-3667.0551623906758
 21
-1833.121286016119
 31
0.0
  0
TEXT
  5
E8
100
AcDbEntity
  8
LAYER___0
  6
CONTINUOUS
 62
               7
100
AcDbText
 10
-3687.0519324572861
 20
-1857.2535699990806
 30
0.0
 40
10.0
  1
F3
100
AcDbText
  0
LINE
  5
E9
100
AcDbEntity
  8
LAYER___0
  6
CONTINUOUS
 62
               7
100
AcDbLine
 10
-3821.0640887208933
 20
-1884.9857696996687
 30
0.0
 11
-3821.0640887208933
 21
-1694.9857696996687
 31
0.0
  0
LINE
  5
EA
100
AcDbEntity
  8
LAYER___0
  6
CONTINUOUS
 62
               7
100
AcDbLine
 10
-3821.0640887208933
 20
-1694.9857696996687
 30
0.0
 11
-3544.0640887208933
 21
-1694.9857696996687
 31
0.0
  0
LINE
  5
EB
100
AcDbEntity
  8
LAYER___0
  6
CONTINUOUS
 62
               7
100
AcDbLine
 10
-3544.0640887208933
 20
-1884.9857696996687
 30
0.0
 11
-3544.0640887208933
 21
-1694.9857696996687
 31
0.0
  0
LINE
  5
EC
100
AcDbEntity
  8
LAYER___0
  6
CONTINUOUS
 62
               7
100
AcDbLine
 10
-3821.0640887208933
 20
-1884.9857696996687
 30
0.0
 11
-3544.0640887208933
 21
-1884.9857696996687
 31
0.0
  0
LINE
  5
ED
100
AcDbEntity
  8
LAYER___0
  6
CONTINUOUS
 62
               7
100
AcDbLine
 10
-3576.3266304329045
 20
-1815.2742321673484
 30
0.0
 11
-3729.3426408698278
 21
-1815.2742321673484
 31
0.0
  0
LWPOLYLINE
  5
EE
100
AcDbEntity
  8
LAYER___0
  6
CONTINUOUS
 62
               7
100
AcDbPolyline
 90
        5
 70
             128
 10
-3596.3887646707703
 20
-1780.2895817971455
 10
-3599.4764807036677
 20
-1791.4027782436744
 10
-3598.68359160111
 20
-1799.6531722193445
 10
-3591.7277554739157
 20
-1806.9679335764658
 10
-3576.3266304329045
 20
-1815.2742321673484
  0
LINE
  5
F5
100
AcDbEntity
  8
LAYER___0
  6
CONTINUOUS
 62
               7
100
AcDbLine
 10
-3576.3266304329045
 20
-1718.2918404278666
 30
0.0
 11
-3596.3889008466331
 21
-1780.2900026195675
 31
0.0
  0
LINE
  5
F6
100
AcDbEntity
  8
LAYER___0
  6
CONTINUOUS
 62
               7
100
AcDbLine
 10
-3615.063145779347
 20
-1718.2918404278666
 30
0.0
 11
-3576.3266304329045
 21
-1718.2918404278666
 31
0.0
  0
LINE
  5
F7
100
AcDbEntity
  8
LAYER___0
  6
CONTINUOUS
 62
               7
100
AcDbLine
 10
-3658.8062392381476
 20
-1753.7506626392055
 30
0.0
 11
-3629.2052814030776
 21
-1724.1497048041358
 31
0.0
  0
ARC
  5
F8
100
AcDbEntity
  8
LAYER___0
  6
CONTINUOUS
 62
               7
100
AcDbCircle
 10
-3615.063145779347
 20
-1738.2918404278666
 30
0.0
 40
20.0
100
AcDbArc
 50
90.0
 51
135.0
  0
LWPOLYLINE
  5
F9
100
AcDbEntity
  8
LAYER___0
  6
CONTINUOUS
 62
               7
100
AcDbPolyline
 90
        5
 70
             128
 10
-3785.9783070700937
 20
-1801.6224833436697
 10
-3741.8889319025593
 20
-1797.1860825211245
 10
-3706.7681560443493
 20
-1787.0213204426134
 10
-3679.458542441073
 20
-1772.1899831366436
 10
-3658.802654038338
 20
-1753.7538566317232
  0
LINE
  5
100
100
AcDbEntity
  8
LAYER___0
  6
CONTINUOUS
 62
               7
100
AcDbLine
 10
-3729.3426408698278
 20
-1805.2742321673484
 30
0.0
 11
-3729.3426408698278
 21
-1815.2742321673484
 31
0.0
  0
LINE
  5
101
100
AcDbEntity
  8
LAYER___0
  6
CONTINUOUS
 62
               7
100
AcDbLine
 10
-3785.9783070700937
 20
-1801.6224833436697
 30
0.0
 11
-3729.3426408698278
 21
-1805.2742321673484
 31
0.0
  0
TEXT
  5
102
100
AcDbEntity
  8
LAYER___0
  6
CONTINUOUS
 62
               7
100
AcDbText
 10
-3640.3101954635135
 20
-1774.9824287363954
 30
0.0
 40
10.0
  1
PV
100
AcDbText
  0
LINE
  5
103
100
AcDbEntity
  8
LAYER___0
  6
CONTINUOUS
 62
               7
100
AcDbLine
 10
-3821.0640887208933
 20
-2173.5207428535282
 30
0.0
 11
-3821.0640887208933
 21
-1983.5207428535284
 31
0.0
  0
LINE
  5
104
100
AcDbEntity
  8
LAYER___0
  6
CONTINUOUS
 62
               7
100
AcDbLine
 10
-3821.0640887208933
 20
-1983.5207428535284
 30
0.0
 11
-3544.0640887208933
 21
-1983.5207428535284
 31
0.0
  0
LINE
  5
105
100
AcDbEntity
  8
LAYER___0
  6
CONTINUOUS
 62
               7
100
AcDbLine
 10
-3544.0640887208933
 20
-2173.5207428535282
 30
0.0
 11
-3544.0640887208933
 21
-1983.5207428535284
 31
0.0
  0
LINE
  5
106
100
AcDbEntity
  8
LAYER___0
  6
CONTINUOUS
 62
               7
100
AcDbLine
 10
-3821.0640887208933
 20
-2173.5207428535282
 30
0.0
 11
-3544.0640887208933
 21
-2173.5207428535282
 31
0.0
  0
LINE
  5
107
100
AcDbEntity
  8
LAYER___0
  6
CONTINUOUS
 62
               7
100
AcDbLine
 10
-2013.3239713134496
 20
-599.94769822030446
 30
0.0
 11
-2013.3239713134496
 21
-593.94769822030446
 31
0.0
  0
LINE
  5
108
100
AcDbEntity
  8
LAYER___0
  6
DASHEDM
 62
               7
100
AcDbLine
 10
-2043.3239713134496
 20
-952.72617853766099
 30
0.0
 11
-2043.3239713134496
 21
-1195.3325361776601
 31
0.0
  0
LINE
  5
109
100
AcDbEntity
  8
LAYER___0
  6
CONTINUOUS
 62
               7
100
AcDbLine
 10
-2043.3239713134496
 20
-1195.3325361776601
 30
0.0
 11
-2013.3239713134496
 21
-1195.3325361776601
 31
0.0
  0
LINE
  5
10A
100
AcDbEntity
  8
LAYER___0
  6
CONTINUOUS
 62
               7
100
AcDbLine
 10
-2013.3239713134496
 20
-1195.3325361776601
 30
0.0
 11
-2013.3239713134496
 21
-1102.3324861776603
 31
0.0
  0
LINE
  5
10B
100
AcDbEntity
  8
LAYER___0
  6
CONTINUOUS
 62
               7
100
AcDbLine
 10
-2093.0596903163714
 20
-1109.1877439136308
 30
0.0
 11
-2043.3239713134496
 21
-1195.3325361776601
 31
0.0
  0
LINE
  5
10C
100
AcDbEntity
  8
LAYER___0
  6
CONTINUOUS
 62
               7
100
AcDbLine
 10
-2200.4756479506386
 20
-580.29594939662582
 30
0.0
 11
-2143.8399817503728
 21
-583.94769822030446
 31
0.0
  0
LINE
  5
10D
100
AcDbEntity
  8
LAYER___0
  6
CONTINUOUS
 62
               7
100
AcDbLine
 10
-2336.1530317474817
 20
-571.547756607157
 30
0.0
 11
-2200.4756479506386
 21
-580.29594939662582
 31
0.0
  0
LINE
  5
10E
100
AcDbEntity
  8
LAYER___0
  6
DASHEDM
 62
               7
100
AcDbLine
 10
-2143.8399817503728
 20
-599.94769822030446
 30
0.0
 11
-2143.8399817503728
 21
-646.17054345299687
 31
0.0
  0
LINE
  5
10F
100
AcDbEntity
  8
LAYER___0
  6
CONTINUOUS
 62
               7
100
AcDbLine
 10
-2073.3035801186925
 20
-532.4241286921615
 30
0.0
 11
-2043.7026222836228
 21
-502.82317085709184
 31
0.0
  0
LINE
  5
110
100
AcDbEntity
  8
LAYER___0
  6
CONTINUOUS
 62
               7
100
AcDbLine
 10
-2295.8346449380651
 20
-646.17054345299687
 30
0.0
 11
-2295.8346449380651
 21
-599.94769822030446
 31
0.0
  0
LINE
  5
111
100
AcDbEntity
  8
LAYER___0
  6
CONTINUOUS
 62
               7
100
AcDbLine
 10
-2301.8346449380651
 20
-646.17054345299687
 30
0.0
 11
-2301.8346449380651
 21
-599.94769822030446
 31
0.0
  0
LINE
  5
112
100
AcDbEntity
  8
LAYER___0
  6
CONTINUOUS
 62
               7
100
AcDbLine
 10
-2447.8293081257571
 20
-646.17054345299687
 30
0.0
 11
-2447.8293081257571
 21
-600.632335350571
 31
0.0
  0
LINE
  5
113
100
AcDbEntity
  8
LAYER___0
  6
CONTINUOUS
 62
               7
100
AcDbLine
 10
-2453.8293081257571
 20
-646.17054345299687
 30
0.0
 11
-2453.8293081257571
 21
-602.19495436080183
 31
0.0
  0
LINE
  5
114
100
AcDbEntity
  8
LAYER___0
  6
CONTINUOUS
 62
               7
100
AcDbLine
 10
-2605.8239713134494
 20
-613.72794391819855
 30
0.0
 11
-2605.8239713134494
 21
-643.42317348601046
 31
0.0
  0
LINE
  5
115
100
AcDbEntity
  8
LAYER___0
  6
CONTINUOUS
 62
               7
100
AcDbLine
 10
-2605.8239713134494
 20
-610.72794391819855
 30
0.0
 11
-2605.8239713134494
 21
-613.72794391819855
 31
0.0
  0
LINE
  5
116
100
AcDbEntity
  8
LAYER___0
  6
CONTINUOUS
 62
               7
100
AcDbLine
 10
-2605.8239713134494
 20
-643.42317348601046
 30
0.0
 11
-2605.8239713134494
 21
-646.42317348601046
 31
0.0
  0
LINE
  5
117
100
AcDbEntity
  8
LAYER___0
  6
CONTINUOUS
 62
               7
100
AcDbLine
 10
-2599.8239713134494
 20
-643.78370330982091
 30
0.0
 11
-2599.8239713134494
 21
-612.17995106164926
 31
0.0
  0
LINE
  5
118
100
AcDbEntity
  8
LAYER___0
  6
CONTINUOUS
 62
               7
100
AcDbLine
 10
-2605.8239713134494
 20
-1086.9631154205085
 30
0.0
 11
-2605.8239713134494
 21
-1061.0955992948127
 31
0.0
  0
LINE
  5
119
100
AcDbEntity
  8
LAYER___0
  6
CONTINUOUS
 62
               7
100
AcDbLine
 10
-2605.8239713134494
 20
-1089.9631154205085
 30
0.0
 11
-2605.8239713134494
 21
-1086.9631154205085
 31
0.0
  0
LINE
  5
11A
100
AcDbEntity
  8
LAYER___0
  6
CONTINUOUS
 62
               7
100
AcDbLine
 10
-2605.8239713134494
 20
-1061.0955992948127
 30
0.0
 11
-2605.8239713134494
 21
-1058.0955992948127
 31
0.0
  0
LINE
  5
11B
100
AcDbEntity
  8
LAYER___0
  6
CONTINUOUS
 62
               7
100
AcDbLine
 10
-2453.8293081257571
 20
-1097.3980545203287
 30
0.0
 11
-2453.8293081257571
 21
-1050.6606601949925
 31
0.0
  0
LINE
  5
11C
100
AcDbEntity
  8
LAYER___0
  6
CONTINUOUS
 62
               7
100
AcDbLine
 10
-2143.8399817503728
 20
-583.94769822030446
 30
0.0
 11
-2143.8399817503728
 21
-593.94769822030446
 31
0.0
  0
LINE
  5
11D
100
AcDbEntity
  8
LAYER___0
  6
CONTINUOUS
 62
               7
100
AcDbLine
 10
-2013.3239713134496
 20
-952.72617853766099
 30
0.0
 11
-2013.3239713134496
 21
-1045.726228537661
 31
0.0
  0
LINE
  5
11E
100
AcDbEntity
  8
LAYER___0
  6
CONTINUOUS
 62
               7
100
AcDbLine
 10
-2043.3239713134496
 20
-952.72617853766099
 30
0.0
 11
-2013.3239713134496
 21
-952.72617853766099
 31
0.0
  0
LINE
  5
11F
100
AcDbEntity
  8
LAYER___0
  6
CONTINUOUS
 62
               7
100
AcDbLine
 10
-2093.0596903163714
 20
-1038.8709708016904
 30
0.0
 11
-2043.3239713134496
 21
-952.72617853766099
 31
0.0
  0
LINE
  5
120
100
AcDbEntity
  8
LAYER___0
  6
POINTLINE
 62
               7
100
AcDbLine
 10
-2605.8239713134494
 20
-1074.0293573576605
 30
0.0
 11
-2260.5575571990175
 21
-1074.0293573576605
 31
0.0
  0
POINT
  5
121
100
AcDbEntity
  8
LAYER___0
  6
CONTINUOUS
 62
               7
100
AcDbPoint
 10
-2260.5575571990175
 20
-1074.0293573576605
 30
0.0
  0
LWPOLYLINE
  5
122
100
AcDbEntity
  8
LAYER___0
  6
CONTINUOUS
 62
               7
100
AcDbPolyline
 90
        5
 70
             128
 10
-2010.8861055513155
 20
-558.96304785010147
 10
-2013.9738215842126
 20
-570.07624429663042
 10
-2013.180932481655
 20
-578.32663827230056
 10
-2006.2250963544609
 20
-585.64139962942193
 10
-1990.8239713134496
 20
-593.94769822030446
  0
LINE
  5
129
100
AcDbEntity
  8
LAYER___0
  6
CONTINUOUS
 62
               7
100
AcDbLine
 10
-2143.8399817503728
 20
-599.94769822030446
 30
0.0
 11
-2074.5175752155983
 21
-599.94769822030446
 31
0.0
  0
LINE
  5
12A
100
AcDbEntity
  8
LAYER___0
  6
CONTINUOUS
 62
               7
100
AcDbLine
 10
-2074.5175752155983
 20
-599.94769822030446
 30
0.0
 11
-1990.8239713134496
 21
-599.94769822030446
 31
0.0
  0
LINE
  5
12B
100
AcDbEntity
  8
LAYER___0
  6
CONTINUOUS
 62
               7
100
AcDbLine
 10
-2074.5175752155983
 20
-593.94769822030446
 30
0.0
 11
-2074.5175752155983
 21
-599.94769822030446
 31
0.0
  0
LINE
  5
12C
100
AcDbEntity
  8
LAYER___0
  6
CONTINUOUS
 62
               7
100
AcDbLine
 10
-2074.5175752155983
 20
-599.94769822030446
 30
0.0
 11
-1990.8239713134496
 21
-599.94769822030446
 31
0.0
  0
LINE
  5
12D
100
AcDbEntity
  8
LAYER___0
  6
CONTINUOUS
 62
               7
100
AcDbLine
 10
-1990.8239713134496
 20
-599.94769822030446
 30
0.0
 11
-1990.8239713134496
 21
-593.94769822030446
 31
0.0
  0
LINE
  5
12E
100
AcDbEntity
  8
LAYER___0
  6
CONTINUOUS
 62
               7
100
AcDbLine
 10
-2074.5175752155983
 20
-593.94769822030446
 30
0.0
 11
-1990.8239713134496
 21
-593.94769822030446
 31
0.0
  0
LWPOLYLINE
  5
12F
100
AcDbEntity
  8
LAYER___0
  6
DASHEDM
 62
               5
100
AcDbPolyline
 90
        2
 70
             128
 10
-2517.6782074834409
 20
-595.20514494135023
 10
-2605.8239713134494
 20
-613.72794391819855
  0
LINE
  5
133
100
AcDbEntity
  8
LAYER___0
  6
DASHEDM
 62
               5
100
AcDbLine
 10
-2507.5739713134494
 20
-646.17054345299687
 30
0.0
 11
-2343.3556804345103
 21
-646.17054345299687
 31
0.0
  0
LWPOLYLINE
  5
134
100
AcDbEntity
  8
LAYER___0
  6
DASHEDM
 62
               5
100
AcDbPolyline
 90
        2
 70
             128
 10
-2507.5739713134494
 20
-646.17054345299687
 10
-2605.8239713134494
 20
-643.42317348601046
  0
LINE
  5
138
100
AcDbEntity
  8
LAYER___0
  6
CONTINUOUS
 62
               7
100
AcDbLine
 10
-2355.6556331690385
 20
-649.17054345299687
 30
0.0
 11
-2355.6556331690385
 21
-599.94769822030446
 31
0.0
  0
LINE
  5
139
100
AcDbEntity
  8
LAYER___0
  6
CONTINUOUS
 62
               7
100
AcDbLine
 10
-2355.6556331690385
 20
-1131.7643619110088
 30
0.0
 11
-2355.6556331690385
 21
-1096.7643619110086
 31
0.0
  0
LINE
  5
13A
100
AcDbEntity
  8
LAYER___0
  6
CONTINUOUS
 62
               7
100
AcDbLine
 10
-2355.6556331690385
 20
-1016.2943528043126
 30
0.0
 11
-2355.6556331690385
 21
-1051.2943528043124
 31
0.0
  0
LINE
  5
13B
100
AcDbEntity
  8
LAYER___0
  6
CONTINUOUS
 62
               7
100
AcDbLine
 10
-2029.5604866598919
 20
-496.96530648082279
 30
0.0
 11
-1990.8239713134496
 21
-496.96530648082279
 31
0.0
  0
ARC
  5
13C
100
AcDbEntity
  8
LAYER___0
  6
CONTINUOUS
 62
               7
100
AcDbCircle
 10
-2029.5604866598919
 20
-516.96530648082285
 30
0.0
 40
20.0
100
AcDbArc
 50
90.0
 51
135.0
  0
LINE
  5
13D
100
AcDbEntity
  8
LAYER___0
  6
CONTINUOUS
 62
               7
100
AcDbLine
 10
-1990.8239713134496
 20
-496.96530648082279
 30
0.0
 11
-2010.8862417271782
 21
-558.9634686725235
 31
0.0
  0
LWPOLYLINE
  5
13E
100
AcDbEntity
  8
LAYER___0
  6
CONTINUOUS
 62
               7
100
AcDbPolyline
 90
        5
 70
             128
 10
-2200.4756479506386
 20
-580.29594939662582
 10
-2156.3862727831047
 20
-575.85954857408058
 10
-2121.2654969248947
 20
-565.69478649556936
 10
-2093.9558833216179
 20
-550.86344918959969
 10
-2073.2999949188834
 20
-532.42732268467921
  0
LWPOLYLINE
  5
145
100
AcDbEntity
  8
LAYER___0
  6
CONTINUOUS
 62
               7
100
AcDbPolyline
 90
        5
 70
             128
 10
-2517.6782074834409
 20
-592.20514494135023
 10
-2498.8097523642477
 20
-582.39547674992332
 10
-2478.6029709236213
 20
-575.76722938832677
 10
-2434.6669720936206
 20
-569.82215243762266
 10
-2336.1530317474817
 20
-571.547756607157
  0
LINE
  5
14C
100
AcDbEntity
  8
LAYER___0
  6
CONTINUOUS
 62
               7
100
AcDbLine
 10
-2469.9889729477045
 20
-606.40352093575723
 30
0.0
 11
-2336.1530317474817
 21
-571.547756607157
 31
0.0
  0
LINE
  5
14D
100
AcDbEntity
  8
LAYER___0
  6
CONTINUOUS
 62
               7
100
AcDbLine
 10
-1990.8239713134496
 20
-593.94769822030446
 30
0.0
 11
-2355.6556331690385
 21
-593.94769822030446
 31
0.0
  0
LINE
  5
14E
100
AcDbEntity
  8
LAYER___0
  6
CONTINUOUS
 62
               7
100
AcDbLine
 10
-2355.6556331690385
 20
-593.94769822030446
 30
0.0
 11
-2355.6556331690385
 21
-599.94769822030446
 31
0.0
  0
LINE
  5
14F
100
AcDbEntity
  8
LAYER___0
  6
CONTINUOUS
 62
               7
100
AcDbLine
 10
-2143.8399817503728
 20
-593.94769822030446
 30
0.0
 11
-2143.8399817503728
 21
-599.94769822030446
 31
0.0
  0
LINE
  5
150
100
AcDbEntity
  8
LAYER___0
  6
CONTINUOUS
 62
               7
100
AcDbLine
 10
-2355.6556331690385
 20
-599.94769822030446
 30
0.0
 11
-2143.8399817503728
 21
-599.94769822030446
 31
0.0
  0
LINE
  5
151
100
AcDbEntity
  8
LAYER___0
  6
CONTINUOUS
 62
               7
100
AcDbLine
 10
-2355.6556331690385
 20
-593.94769822030446
 30
0.0
 11
-2143.8399817503728
 21
-593.94769822030446
 31
0.0
  0
LINE
  5
152
100
AcDbEntity
  8
LAYER___0
  6
CONTINUOUS
 62
               7
100
AcDbLine
 10
-2166.3399817503728
 20
-999.02935735766061
 30
0.0
 11
-2143.8399817503728
 21
-999.02935735766061
 31
0.0
  0
LINE
  5
153
100
AcDbEntity
  8
LAYER___0
  6
CONTINUOUS
 62
               7
100
AcDbLine
 10
-2166.3399817503728
 20
-774.02935735766061
 30
0.0
 11
-2166.3399817503728
 21
-999.02935735766061
 31
0.0
  0
LINE
  5
154
100
AcDbEntity
  8
LAYER___0
  6
CONTINUOUS
 62
               7
100
AcDbLine
 10
-2143.8399817503728
 20
-1374.0293573576605
 30
0.0
 11
-2143.8399817503728
 21
-1074.0293573576605
 31
0.0
  0
LINE
  5
155
100
AcDbEntity
  8
LAYER___0
  6
CONTINUOUS
 62
               7
100
AcDbLine
 10
-2143.8399817503728
 20
-774.02935735766061
 30
0.0
 11
-2143.8399817503728
 21
-1074.0293573576605
 31
0.0
  0
LINE
  5
156
100
AcDbEntity
  8
LAYER___0
  6
CONTINUOUS
 62
               7
100
AcDbLine
 10
-1990.8239713134496
 20
-1047.6606601949925
 30
0.0
 11
-1990.8239713134496
 21
-1100.3980545203287
 31
0.0
  0
LINE
  5
157
100
AcDbEntity
  8
LAYER___0
  6
CONTINUOUS
 62
               7
100
AcDbLine
 10
-2218.8399817503728
 20
-774.02935735766061
 30
0.0
 11
-2143.8399817503728
 21
-774.02935735766061
 31
0.0
  0
LINE
  5
158
100
AcDbEntity
  8
LAYER___0
  6
CONTINUOUS
 62
               7
100
AcDbLine
 10
-2218.8399817503728
 20
-774.02935735766061
 30
0.0
 11
-2355.6556331690385
 21
-1047.6606601949925
 31
0.0
  0
LINE
  5
159
100
AcDbEntity
  8
LAYER___0
  6
CONTINUOUS
 62
               7
100
AcDbLine
 10
-2355.6556331690385
 20
-1100.3980545203287
 30
0.0
 11
-2355.6556331690385
 21
-1047.6606601949925
 31
0.0
  0
LINE
  5
15A
100
AcDbEntity
  8
LAYER___0
  6
CONTINUOUS
 62
               7
100
AcDbLine
 10
-2355.6556331690385
 20
-1100.3980545203287
 30
0.0
 11
-2218.8399817503728
 21
-1374.0293573576605
 31
0.0
  0
LINE
  5
15B
100
AcDbEntity
  8
LAYER___0
  6
CONTINUOUS
 62
               7
100
AcDbLine
 10
-2301.8346449380651
 20
-1089.6381594428583
 30
0.0
 11
-2301.8346449380651
 21
-1058.4205552724629
 31
0.0
  0
LINE
  5
15C
100
AcDbEntity
  8
LAYER___0
  6
CONTINUOUS
 62
               7
100
AcDbLine
 10
-2295.8346449380651
 20
-1089.0994285821221
 30
0.0
 11
-2295.8346449380651
 21
-1058.9592861331992
 31
0.0
  0
LINE
  5
15D
100
AcDbEntity
  8
LAYER___0
  6
CONTINUOUS
 62
               7
100
AcDbLine
 10
-2447.8293081257571
 20
-1097.3479044921241
 30
0.0
 11
-2447.8293081257571
 21
-1050.7108102231969
 31
0.0
  0
POINT
  5
15E
100
AcDbEntity
  8
LAYER___0
  6
CONTINUOUS
 62
               7
100
AcDbPoint
 10
-2599.8239713134494
 20
-1074.0293573576605
 30
0.0
  0
POINT
  5
15F
100
AcDbEntity
  8
LAYER___0
  6
CONTINUOUS
 62
               7
100
AcDbPoint
 10
-2447.8293081257571
 20
-1074.0293573576605
 30
0.0
  0
POINT
  5
160
100
AcDbEntity
  8
LAYER___0
  6
CONTINUOUS
 62
               7
100
AcDbPoint
 10
-2295.8346449380651
 20
-1074.0293573576605
 30
0.0
  0
POINT
  5
161
100
AcDbEntity
  8
LAYER___0
  6
CONTINUOUS
 62
               7
100
AcDbPoint
 10
-2143.8399817503728
 20
-1074.0293573576605
 30
0.0
  0
LINE
  5
162
100
AcDbEntity
  8
LAYER___0
  6
POINTLINE
 62
               7
100
AcDbLine
 10
-2665.8239713134494
 20
-1074.0293573576605
 30
0.0
 11
-2605.8239713134494
 21
-1074.0293573576605
 31
0.0
  0
LINE
  5
163
100
AcDbEntity
  8
LAYER___0
  6
CONTINUOUS
 62
               7
100
AcDbLine
 10
-2599.8239713134494
 20
-1087.9867415018882
 30
0.0
 11
-2599.8239713134494
 21
-1060.071973213433
 31
0.0
  0
LWPOLYLINE
  5
164
100
AcDbEntity
  8
LAYER___0
  6
CONTINUOUS
 62
               7
100
AcDbPolyline
 90
        5
 70
             128
 10
-2605.8239713134494
 20
-1086.9631154205085
 10
-2525.2670933670502
 20
-1095.7692110247308
 10
-2424.6077734658857
 20
-1096.9229594838901
 10
-2304.3935799168039
 20
-1089.8633463956467
 10
-2165.1720810266534
 20
-1074.0293573576605
  0
LWPOLYLINE
  5
16B
100
AcDbEntity
  8
LAYER___0
  6
CONTINUOUS
 62
               7
100
AcDbPolyline
 90
        5
 70
             128
 10
-2605.8239713134494
 20
-1061.0955992948127
 10
-2525.2670933670502
 20
-1052.2895036905904
 10
-2424.6077734658857
 20
-1051.1357552314312
 10
-2304.3935799168039
 20
-1058.1953683196746
 10
-2165.1720810266534
 20
-1074.0293573576605
  0
LWPOLYLINE
  5
172
100
AcDbEntity
  8
LAYER___0
  6
CONTINUOUS
 62
               7
100
AcDbPolyline
 90
        7
 70
             128
 10
-2665.8239713134494
 20
-1074.0293573576605
 10
-2629.7260224211213
 20
-1085.0447714578756
 10
-2585.0083079047954
 20
-1093.2112545721607
 10
-2531.8164177474619
 20
-1098.3796416077353
 10
-2470.2959419321119
 20
-1100.40076747182
 10
-2322.8515932593286
 20
-1094.4045753143996
 10
-2143.8399817503728
 20
-1074.0293573576605
  0
LWPOLYLINE
  5
17B
100
AcDbEntity
  8
LAYER___0
  6
CONTINUOUS
 62
               7
100
AcDbPolyline
 90
        7
 70
             128
 10
-2665.8239713134494
 20
-1074.0293573576605
 10
-2629.7260224211213
 20
-1063.0139432574456
 10
-2585.0083079047954
 20
-1054.8474601431606
 10
-2531.8164177474619
 20
-1049.679073107586
 10
-2470.2959419321119
 20
-1047.6579472435012
 10
-2322.8515932593286
 20
-1053.6541394009214
 10
-2143.8399817503728
 20
-1074.0293573576605
  0
LINE
  5
184
100
AcDbEntity
  8
LAYER___0
  6
CONTINUOUS
 62
               7
100
AcDbLine
 10
-2218.8399817503728
 20
-1374.0293573576605
 30
0.0
 11
-2143.8399817503728
 21
-1374.0293573576605
 31
0.0
  0
LINE
  5
185
100
AcDbEntity
  8
LAYER___0
  6
CONTINUOUS
 62
               7
100
AcDbLine
 10
-2166.3399817503728
 20
-1374.0293573576605
 30
0.0
 11
-2166.3399817503728
 21
-1149.0293573576605
 31
0.0
  0
LINE
  5
186
100
AcDbEntity
  8
LAYER___0
  6
CONTINUOUS
 62
               7
100
AcDbLine
 10
-2166.3399817503728
 20
-1149.0293573576605
 30
0.0
 11
-2143.8399817503728
 21
-1149.0293573576605
 31
0.0
  0
LINE
  5
187
100
AcDbEntity
  8
LAYER___0
  6
CONTINUOUS
 62
               7
100
AcDbLine
 10
-2517.6782074834409
 20
-592.20514494135023
 30
0.0
 11
-2493.3126793389461
 21
-603.60985281641365
 31
0.0
  0
ARC
  5
188
100
AcDbEntity
  8
LAYER___0
  6
CONTINUOUS
 62
               7
100
AcDbCircle
 10
-2477.4154204077477
 20
-569.64623760138636
 30
0.0
 40
37.5
100
AcDbArc
 50
244.91724112639324
 51
281.42228502057174
  0
LWPOLYLINE
  5
189
100
AcDbEntity
  8
LAYER___0
  6
CONTINUOUS
 62
               7
100
AcDbPolyline
 90
        3
 70
             128
 10
-2605.8239713134494
 20
-610.72794391819855
 10
-2644.9558523908504
 20
-623.3135363704522
 10
-2665.8239713134494
 20
-636.00506075946555
  0
LWPOLYLINE
  5
18E
100
AcDbEntity
  8
LAYER___0
  6
CONTINUOUS
 62
               7
100
AcDbPolyline
 90
        2
 70
             128
 10
-2517.6782074834409
 20
-592.20514494135023
 10
-2605.8239713134494
 20
-610.72794391819855
  0
LINE
  5
192
100
AcDbEntity
  8
LAYER___0
  6
CONTINUOUS
 62
               7
100
AcDbLine
 10
-2507.5739713134494
 20
-649.17054345299687
 30
0.0
 11
-2343.3556804345103
 21
-649.17054345299687
 31
0.0
  0
LINE
  5
193
100
AcDbEntity
  8
LAYER___0
  6
POINTLINE
 62
               7
100
AcDbLine
 10
-2665.8239713134494
 20
-616.44769822030446
 30
0.0
 11
-1990.8239713134496
 21
-616.44769822030446
 31
0.0
  0
LWPOLYLINE
  5
194
100
AcDbEntity
  8
LAYER___0
  6
CONTINUOUS
 62
               7
100
AcDbPolyline
 90
        4
 70
             128
 10
-2507.5739713134494
 20
-649.17054345299687
 10
-2606.3082612244407
 20
-646.39232015252355
 10
-2646.1417287259806
 20
-642.38122462246645
 10
-2665.8239713134494
 20
-635.96610214468717
  0
LINE
  5
19A
100
AcDbEntity
  8
LAYER___0
  6
CONTINUOUS
 62
               7
100
AcDbLine
 10
-2517.6782074834409
 20
-595.20514494135023
 30
0.0
 11
-2513.1408757351301
 21
-594.32892173021617
 31
0.0
  0
LINE
  5
19B
100
AcDbEntity
  8
LAYER___0
  6
DASHEDM
 62
               5
100
AcDbLine
 10
-2093.0596903163714
 20
-1038.8709708016904
 30
0.0
 11
-2093.0596903163714
 21
-1109.1877439136308
 31
0.0
  0
LINE
  5
19C
100
AcDbEntity
  8
LAYER___0
  6
DASHEDM
 62
               5
100
AcDbLine
 10
-2013.3239713134496
 20
-1045.726228537661
 30
0.0
 11
-2013.3239713134496
 21
-1102.3324861776603
 31
0.0
  0
LWPOLYLINE
  5
19D
100
AcDbEntity
  8
LAYER___1
  6
CONTINUOUS
 62
               7
100
AcDbPolyline
 90
       21
 70
               1
 10
-2275.4433186481806
 20
-1074.0293573576605
 10
-2275.3924762258498
 20
-1075.2586137949897
 10
-2275.2402962641559
 20
-1076.4794731644024
 10
-2274.9878183065457
 20
-1077.6835957584701
 10
-2274.6367670334785
 20
-1078.8627561989113
 10
-2274.1895404811112
 20
-1080.008899624265
 10
-2273.6491936602779
 20
-1081.1141967127614
 10
-2273.0194176876694
 20
-1082.1710971645302
 10
-2272.3045145717633
 20
-1083.1723812778023
 10
-2271.5093678257431
 20
-1084.1112092667956
 10
-2270.6394091081524
 20
-1084.981167984386
 10
-2269.7005811191593
 20
-1085.7763147304063
 10
-2268.6992970058868
 20
-1086.4912178463126
 10
-2267.6423965541185
 20
-1087.1209938189209
 10
-2266.5370994656218
 20
-1087.6613406397541
 10
-2265.3909560402681
 20
-1088.1085671921217
 10
-2264.2117955998269
 20
-1088.4596184651887
 10
-2263.0076730057594
 20
-1088.712096422799
 10
-2261.7868136363468
 20
-1088.864276384493
 10
-2260.5575571990175
 20
-1088.9151188068236
 10
-2260.5575571990175
 20
-1074.0293573576605
  0
LINE
  5
1B4
100
AcDbEntity
  8
LAYER___1
  6
CONTINUOUS
 62
               7
100
AcDbLine
 10
-2260.5575571990175
 20
-1074.0293573576605
 30
0.0
 11
-2260.5575571990175
 21
-1088.9151188068236
 31
0.0
  0
LINE
  5
1B5
100
AcDbEntity
  8
LAYER___1
  6
CONTINUOUS
 62
               7
100
AcDbLine
 10
-2275.4433186481806
 20
-1074.0293573576605
 30
0.0
 11
-2260.5575571990175
 21
-1074.0293573576605
 31
0.0
  0
ARC
  5
1B6
100
AcDbEntity
  8
LAYER___1
  6
CONTINUOUS
 62
               7
100
AcDbCircle
 10
-2260.5575571990175
 20
-1074.0293573576605
 30
0.0
 40
14.885761449163002
100
AcDbArc
 50
180.0
 51
270.0
  0
ARC
  5
1B7
100
AcDbEntity
  8
LAYER___1
  6
CONTINUOUS
 62
               7
100
AcDbCircle
 10
-2260.5575571990175
 20
-1074.0293573576605
 30
0.0
 40
14.885761449163002
100
AcDbArc
 50
90.0
 51
180.0
  0
ARC
  5
1B8
100
AcDbEntity
  8
LAYER___1
  6
CONTINUOUS
 62
               7
100
AcDbCircle
 10
-2260.5575571990175
 20
-1074.0293573576605
 30
0.0
 40
14.885761449163002
100
AcDbArc
 50
270.0
 51
0.0000000000000003
  0
LWPOLYLINE
  5
1B9
100
AcDbEntity
  8
LAYER___1
  6
CONTINUOUS
 62
               7
100
AcDbPolyline
 90
       21
 70
               1
 10
-2260.5575571990175
 20
-1074.0293573576605
 10
-2245.6717957498545
 20
-1074.0293573576605
 10
-2245.7284405663027
 20
-1072.7319777621944
 10
-2245.8979439143914
 20
-1071.4444720088288
 10
-2246.1790157712926
 20
-1070.1766387937644
 10
-2246.5695170104595
 20
-1068.9381270933061
 10
-2247.0664756816709
 20
-1067.7383627293286
 10
-2247.6661096293674
 20
-1066.5864766330792
 10
-2248.3638552771372
 20
-1065.4912353532779
 10
-2249.1544023592915
 20
-1064.4609743373892
 10
-2250.031734335189
 20
-1063.5035344938321
 10
-2250.989174178746
 20
-1062.6262025179346
 10
-2252.0194351946348
 20
-1061.8356554357804
 10
-2253.1146764744362
 20
-1061.1379097880103
 10
-2254.2665625706854
 20
-1060.5382758403141
 10
-2255.4663269346629
 20
-1060.0413171691027
 10
-2256.7048386351212
 20
-1059.6508159299358
 10
-2257.9726718501856
 20
-1059.3697440730346
 10
-2259.2601776035513
 20
-1059.2002407249458
 10
-2260.5575571990175
 20
-1059.1435959084977
 10
-2260.5575571990175
 20
-1088.9151188068236
  0
ARC
  5
1D0
100
AcDbEntity
  8
LAYER___1
  6
CONTINUOUS
 62
               7
100
AcDbCircle
 10
-2260.5575571990175
 20
-1074.0293573576605
 30
0.0
 40
14.885761449163002
100
AcDbArc
 50
0.0000000000000003
 51
90.0
  0
LINE
  5
1D1
100
AcDbEntity
  8
LAYER___1
  6
CONTINUOUS
 62
               7
100
AcDbLine
 10
-2260.5575571990175
 20
-1074.0293573576605
 30
0.0
 11
-2245.6717957498545
 21
-1074.0293573576605
 31
0.0
  0
LINE
  5
1D2
100
AcDbEntity
  8
LAYER___1
  6
CONTINUOUS
 62
               7
100
AcDbLine
 10
-2260.5575571990175
 20
-1088.9151188068236
 30
0.0
 11
-2260.5575571990175
 21
-1059.1435959084977
 31
0.0
  0
LINE
  5
1D3
100
AcDbEntity
  8
LAYER___1
  6
CONTINUOUS
 62
               7
100
AcDbLine
 10
-2275.4433186481806
 20
-1074.0293573576605
 30
0.0
 11
-2245.6717957498545
 21
-1074.0293573576605
 31
0.0
  0
LINE
  5
1D4
100
AcDbEntity
  8
LAYER___0
  6
POINTLINE
 62
               7
100
AcDbLine
 10
-2260.5575571990175
 20
-1074.0293573576605
 30
0.0
 11
-2013.3239713134496
 21
-1074.0293573576605
 31
0.0
  0
LINE
  5
1D5
100
AcDbEntity
  8
LAYER___0
  6
POINTLINE
 62
               7
100
AcDbLine
 10
-2013.3239713134496
 20
-1074.0293573576605
 30
0.0
 11
-1990.8239713134496
 21
-1074.0293573576605
 31
0.0
  0
LINE
  5
1D6
100
AcDbEntity
  8
LAYER___0
  6
CONTINUOUS
 62
               7
100
AcDbLine
 10
-1999.0739713134496
 20
-1098.0962790573979
 30
0.0
 11
-1999.0739713134496
 21
-1049.9624356579234
 31
0.0
  0
LINE
  5
1D7
100
AcDbEntity
  8
LAYER___0
  6
CONTINUOUS
 62
               7
100
AcDbLine
 10
-2355.6556331690385
 20
-1016.2943528043126
 30
0.0
 11
-2143.8399817503728
 21
-1034.5051484319815
 31
0.0
  0
LINE
  5
1D8
100
AcDbEntity
  8
LAYER___0
  6
CONTINUOUS
 62
               7
100
AcDbLine
 10
-2143.8399817503728
 20
-1034.5051484319815
 30
0.0
 11
-1990.8239713134496
 21
-1047.6606601949925
 31
0.0
  0
LINE
  5
1D9
100
AcDbEntity
  8
LAYER___0
  6
DASHEDM
 62
               5
100
AcDbLine
 10
-2355.6556331690385
 20
-1019.3054198749317
 30
0.0
 11
-2143.8399817503728
 21
-1037.5162155026007
 31
0.0
  0
LINE
  5
1DA
100
AcDbEntity
  8
LAYER___0
  6
DASHEDM
 62
               5
100
AcDbLine
 10
-2143.8399817503728
 20
-1037.5162155026007
 30
0.0
 11
-1990.8239713134496
 21
-1050.6717272656117
 31
0.0
  0
LINE
  5
1DB
100
AcDbEntity
  8
LAYER___0
  6
CONTINUOUS
 62
               7
100
AcDbLine
 10
-2355.6556331690385
 20
-1131.7643619110088
 30
0.0
 11
-2143.8399817503728
 21
-1113.5535662833397
 31
0.0
  0
LINE
  5
1DC
100
AcDbEntity
  8
LAYER___0
  6
CONTINUOUS
 62
               7
100
AcDbLine
 10
-2143.8399817503728
 20
-1113.5535662833397
 30
0.0
 11
-1990.8239713134496
 21
-1100.3980545203287
 31
0.0
  0
LINE
  5
1DD
100
AcDbEntity
  8
LAYER___0
  6
DASHEDM
 62
               5
100
AcDbLine
 10
-2355.6556331690385
 20
-1128.7532948403896
 30
0.0
 11
-2143.8399817503728
 21
-1110.5424992127205
 31
0.0
  0
LINE
  5
1DE
100
AcDbEntity
  8
LAYER___0
  6
DASHEDM
 62
               5
100
AcDbLine
 10
-2143.8399817503728
 20
-1110.5424992127205
 30
0.0
 11
-1990.8239713134496
 21
-1097.3869874497095
 31
0.0
  0
LINE
  5
1DF
100
AcDbEntity
  8
LAYER___0
  6
CONTINUOUS
 62
               5
100
AcDbLine
 10
-2198.9524554549798
 20
-1062.1469863278858
 30
0.0
 11
-2198.9524554549798
 21
-1050.6469863278858
 31
0.0
  0
LINE
  5
1E0
100
AcDbEntity
  8
LAYER___0
  6
CONTINUOUS
 62
               5
100
AcDbLine
 10
-2198.9524554549798
 20
-1062.1469863278858
 30
0.0
 11
-2194.75245545498
 21
-1062.1469863278858
 31
0.0
  0
LINE
  5
1E1
100
AcDbEntity
  8
LAYER___0
  6
CONTINUOUS
 62
               5
100
AcDbLine
 10
-2194.75245545498
 20
-1062.1469863278858
 30
0.0
 11
-2194.75245545498
 21
-1050.6469863278858
 31
0.0
  0
LINE
  5
1E2
100
AcDbEntity
  8
LAYER___0
  6
CONTINUOUS
 62
               5
100
AcDbLine
 10
-2198.9524554549798
 20
-1050.6469863278858
 30
0.0
 11
-2194.75245545498
 21
-1050.6469863278858
 31
0.0
  0
CIRCLE
  5
1E3
100
AcDbEntity
  8
LAYER___0
  6
CONTINUOUS
 62
               5
100
AcDbCircle
 10
-2188.75245545498
 20
-1043.1469863278858
 30
0.0
 40
1.75
  0
LINE
  5
1E4
100
AcDbEntity
  8
LAYER___0
  6
CONTINUOUS
 62
               5
100
AcDbLine
 10
-2185.75245545498
 20
-1056.3969863278858
 30
0.0
 11
-2187.00245545498
 21
-1043.1469863278858
 31
0.0
  0
LINE
  5
1E5
100
AcDbEntity
  8
LAYER___0
  6
CONTINUOUS
 62
               5
100
AcDbLine
 10
-2191.75245545498
 20
-1056.3969863278858
 30
0.0
 11
-2190.50245545498
 21
-1043.1469863278858
 31
0.0
  0
CIRCLE
  5
1E6
100
AcDbEntity
  8
LAYER___0
  6
CONTINUOUS
 62
               5
100
AcDbCircle
 10
-2188.75245545498
 20
-1056.3969863278858
 30
0.0
 40
3.0
  0
ARC
  5
1E7
100
AcDbEntity
  8
LAYER___0
  6
CONTINUOUS
 62
               5
100
AcDbCircle
 10
-2188.75245545498
 20
-1056.3969863278858
 30
0.0
 40
6.0
100
AcDbArc
 50
106.59784213586656
 51
253.40215786413347
  0
ARC
  5
1E8
100
AcDbEntity
  8
LAYER___0
  6
CONTINUOUS
 62
               5
100
AcDbCircle
 10
-2188.75245545498
 20
-1056.3969863278858
 30
0.0
 40
6.0
100
AcDbArc
 50
286.59784213586653
 51
73.402157864133443
  0
LINE
  5
1E9
100
AcDbEntity
  8
LAYER___0
  6
CONTINUOUS
 62
               5
100
AcDbLine
 10
-2167.5524554549797
 20
-1062.1469863278858
 30
0.0
 11
-2171.75245545498
 21
-1062.1469863278858
 31
0.0
  0
LINE
  5
1EA
100
AcDbEntity
  8
LAYER___0
  6
CONTINUOUS
 62
               5
100
AcDbLine
 10
-2167.5524554549797
 20
-1050.6469863278858
 30
0.0
 11
-2171.75245545498
 21
-1050.6469863278858
 31
0.0
  0
LINE
  5
1EB
100
AcDbEntity
  8
LAYER___0
  6
CONTINUOUS
 62
               5
100
AcDbLine
 10
-2171.75245545498
 20
-1050.6469863278858
 30
0.0
 11
-2194.75245545498
 21
-1050.6469863278858
 31
0.0
  0
LINE
  5
1EC
100
AcDbEntity
  8
LAYER___0
  6
CONTINUOUS
 62
               5
100
AcDbLine
 10
-2171.75245545498
 20
-1062.1469863278858
 30
0.0
 11
-2194.75245545498
 21
-1062.1469863278858
 31
0.0
  0
LINE
  5
1ED
100
AcDbEntity
  8
LAYER___0
  6
CONTINUOUS
 62
               5
100
AcDbLine
 10
-2171.75245545498
 20
-1062.1469863278858
 30
0.0
 11
-2171.75245545498
 21
-1050.6469863278858
 31
0.0
  0
LINE
  5
1EE
100
AcDbEntity
  8
LAYER___0
  6
CONTINUOUS
 62
               5
100
AcDbLine
 10
-2167.5524554549797
 20
-1062.1469863278858
 30
0.0
 11
-2167.5524554549797
 21
-1050.6469863278858
 31
0.0
  0
LINE
  5
1EF
100
AcDbEntity
  8
LAYER___0
  6
POINTLINE
 62
               5
100
AcDbLine
 10
-2188.75245545498
 20
-1062.1469863278858
 30
0.0
 11
-2188.75245545498
 21
-1041.3969863278858
 31
0.0
  0
LINE
  5
1F0
100
AcDbEntity
  8
LAYER___0
  6
POINTLINE
 62
               5
100
AcDbLine
 10
-2194.75245545498
 20
-1056.3969863278858
 30
0.0
 11
-2198.9524554549798
 21
-1056.3969863278858
 31
0.0
  0
LINE
  5
1F1
100
AcDbEntity
  8
LAYER___0
  6
POINTLINE
 62
               5
100
AcDbLine
 10
-2167.5524554549797
 20
-1056.3969863278858
 30
0.0
 11
-2171.75245545498
 21
-1056.3969863278858
 31
0.0
  0
LINE
  5
1F2
100
AcDbEntity
  8
LAYER___0
  6
POINTLINE
 62
               5
100
AcDbLine
 10
-2171.75245545498
 20
-1056.3969863278858
 30
0.0
 11
-2194.75245545498
 21
-1056.3969863278858
 31
0.0
  0
POINT
  5
1F3
100
AcDbEntity
  8
LAYER___0
  6
CONTINUOUS
 62
               5
100
AcDbPoint
 10
-2169.6524554549801
 20
-1056.3969863278858
 30
0.0
  0
POINT
  5
1F4
100
AcDbEntity
  8
LAYER___0
  6
CONTINUOUS
 62
               5
100
AcDbPoint
 10
-2196.8524554549799
 20
-1056.3969863278858
 30
0.0
  0
LINE
  5
1F5
100
AcDbEntity
  8
LAYER___0
  6
CONTINUOUS
 62
               7
100
AcDbLine
 10
-2043.3239713134496
 20
-1043.1469863278858
 30
0.0
 11
-2188.75245545498
 21
-1043.1469863278858
 31
0.0
  0
LINE
  5
1F6
100
AcDbEntity
  8
LAYER___0
  6
DASHEDM
 62
               7
100
AcDbLine
 10
-3787.2103409492033
 20
-2050.4591171299949
 30
0.0
 11
-3576.0484655717428
 21
-2050.4591171299949
 31
0.0
  0
LINE
  5
1F7
100
AcDbEntity
  8
LAYER___0
  6
CONTINUOUS
 62
               7
100
AcDbLine
 10
-3662.1932578357723
 20
-2000.7233981270729
 30
0.0
 11
-3669.0485155717429
 21
-2080.4591171299949
 31
0.0
  0
LINE
  5
1F8
100
AcDbEntity
  8
LAYER___0
  6
CONTINUOUS
 62
               7
100
AcDbLine
 10
-3701.0655486851742
 20
-2000.7233981270729
 30
0.0
 11
-3694.2102909492037
 21
-2080.4591171299949
 31
0.0
  0
LINE
  5
1F9
100
AcDbEntity
  8
LAYER___0
  6
CONTINUOUS
 62
               7
100
AcDbLine
 10
-3576.0484655717428
 20
-2050.4591171299949
 30
0.0
 11
-3576.0484655717428
 21
-2080.4591171299949
 31
0.0
  0
LINE
  5
1FA
100
AcDbEntity
  8
LAYER___0
  6
CONTINUOUS
 62
               7
100
AcDbLine
 10
-3576.0484655717428
 20
-2080.4591171299949
 30
0.0
 11
-3669.0485155717429
 21
-2080.4591171299949
 31
0.0
  0
LINE
  5
1FB
100
AcDbEntity
  8
LAYER___0
  6
CONTINUOUS
 62
               7
100
AcDbLine
 10
-3662.1932578357723
 20
-2000.7233981270729
 30
0.0
 11
-3576.0484655717428
 21
-2050.4591171299949
 31
0.0
  0
LINE
  5
1FC
100
AcDbEntity
  8
LAYER___0
  6
CONTINUOUS
 62
               7
100
AcDbLine
 10
-3787.2103409492033
 20
-2050.4591171299949
 30
0.0
 11
-3787.2103409492033
 21
-2080.4591171299949
 31
0.0
  0
LINE
  5
1FD
100
AcDbEntity
  8
LAYER___0
  6
CONTINUOUS
 62
               7
100
AcDbLine
 10
-3787.2103409492033
 20
-2080.4591171299949
 30
0.0
 11
-3694.2102909492037
 21
-2080.4591171299949
 31
0.0
  0
LINE
  5
1FE
100
AcDbEntity
  8
LAYER___0
  6
CONTINUOUS
 62
               7
100
AcDbLine
 10
-3701.0655486851742
 20
-2000.7233981270729
 30
0.0
 11
-3787.2103409492033
 21
-2050.4591171299949
 31
0.0
  0
LINE
  5
1FF
100
AcDbEntity
  8
LAYER___0
  6
CONTINUOUS
 62
               7
100
AcDbLine
 10
-3641.1945203564587
 20
-2096.7343648154865
 30
0.0
 11
-3641.1945203564587
 21
-2147.4178633760371
 31
0.0
  0
LINE
  5
200
100
AcDbEntity
  8
LAYER___0
  6
CONTINUOUS
 62
               7
100
AcDbLine
 10
-3733.8776159347781
 20
-2138.0098721586096
 30
0.0
 11
-3733.8776159347781
 21
-2106.142356032914
 31
0.0
  0
LWPOLYLINE
  5
201
100
AcDbEntity
  8
LAYER___0
  6
CONTINUOUS
 62
               7
100
AcDbPolyline
 90
        2
 70
             128
 10
-3733.8776159347781
 20
-2106.142356032914
 10
-3641.1945203564587
 20
-2096.7343648154865
  0
LWPOLYLINE
  5
205
100
AcDbEntity
  8
LAYER___0
  6
CONTINUOUS
 62
               7
100
AcDbPolyline
 90
        2
 70
             128
 10
-3733.8776159347781
 20
-2138.0098721586096
 10
-3641.1945203564587
 20
-2147.4178633760371
  0
LINE
  5
209
100
AcDbEntity
  8
LAYER___0
  6
POINTLINE
 62
               7
100
AcDbLine
 10
-3751.4094771128289
 20
-2122.076114095762
 30
0.0
 11
-3616.236465677935
 21
-2122.076114095762
 31
0.0
  0
TEXT
  5
20A
100
AcDbEntity
  8
LAYER___0
  6
CONTINUOUS
 62
               7
100
AcDbText
 10
-3738.8939805045088
 20
-2040.1153031899246
 30
0.0
 40
10.0
  1
PSX
100
AcDbText
  0
TEXT
  5
20B
100
AcDbEntity
  8
LAYER___0
  6
CONTINUOUS
 62
               7
100
AcDbText
 10
-3645.1701995103604
 20
-2039.6987530521728
 30
0.0
 40
10.0
  1
PDX
100
AcDbText
  0
LINE
  5
20C
100
AcDbEntity
  8
LAYER___0
  6
DASHEDM
 62
               5
100
AcDbLine
 10
-3787.2103409492033
 20
-2057.9591171299949
 30
0.0
 11
-3696.1447226065352
 21
-2057.9591171299949
 31
0.0
  0
LINE
  5
20D
100
AcDbEntity
  8
LAYER___0
  6
DASHEDM
 62
               5
100
AcDbLine
 10
-3576.0484655717428
 20
-2057.9591171299949
 30
0.0
 11
-3667.1140839144114
 21
-2057.9591171299949
 31
0.0
  0
LINE
  5
20E
100
AcDbEntity
  8
LAYER___0
  6
CONTINUOUS
 62
               7
100
AcDbLine
 10
-3746.7895331589789
 20
-2048.9591171299949
 30
0.0
 11
-3746.7895331589789
 21
-2051.9591171299949
 31
0.0
  0
LINE
  5
20F
100
AcDbEntity
  8
LAYER___0
  6
CONTINUOUS
 62
               7
100
AcDbLine
 10
-3746.7895331589789
 20
-2048.9591171299949
 30
0.0
 11
-3696.9184952694677
 21
-2048.9591171299949
 31
0.0
  0
LINE
  5
210
100
AcDbEntity
  8
LAYER___0
  6
CONTINUOUS
 62
               7
100
AcDbLine
 10
-3746.7895331589789
 20
-2051.9591171299949
 30
0.0
 11
-3696.6605710484901
 21
-2051.9591171299949
 31
0.0
  0
LINE
  5
211
100
AcDbEntity
  8
LAYER___0
  6
CONTINUOUS
 62
               7
100
AcDbLine
 10
-3616.4692733619677
 20
-2048.9591171299949
 30
0.0
 11
-3666.3403112514789
 21
-2048.9591171299949
 31
0.0
  0
LINE
  5
212
100
AcDbEntity
  8
LAYER___0
  6
CONTINUOUS
 62
               7
100
AcDbLine
 10
-3616.4692733619677
 20
-2051.9591171299949
 30
0.0
 11
-3666.5982354724561
 21
-2051.9591171299949
 31
0.0
  0
LINE
  5
213
100
AcDbEntity
  8
LAYER___0
  6
CONTINUOUS
 62
               7
100
AcDbLine
 10
-3616.4692733619677
 20
-2048.9591171299949
 30
0.0
 11
-3616.4692733619677
 21
-2051.9591171299949
 31
0.0
  0
TEXT
  5
214
100
AcDbEntity
  8
LAYER___0
  6
CONTINUOUS
 62
               7
100
AcDbText
 10
-3685.1413885419329
 20
-2115.0762391748144
 30
0.0
 40
10.0
  1
P1
100
AcDbText
  0
ARC
  5
215
100
AcDbEntity
  8
LAYER___0
  6
CONTINUOUS
 62
               7
100
AcDbCircle
 10
-3786.2271190815572
 20
-1745.9908526481784
 30
0.0
 40
2.5
100
AcDbArc
 50
30.448242258122296
 51
159.84345101053378
  0
CIRCLE
  5
216
100
AcDbEntity
  8
LAYER___0
  6
CONTINUOUS
 62
               7
100
AcDbCircle
 10
-3786.2271190815572
 20
-1746.4908526481784
 30
0.0
 40
0.75
  0
CIRCLE
  5
217
100
AcDbEntity
  8
LAYER___0
  6
CONTINUOUS
 62
               7
100
AcDbCircle
 10
-3786.2271190815572
 20
-1750.4908526481784
 30
0.0
 40
0.75
  0
CIRCLE
  5
218
100
AcDbEntity
  8
LAYER___0
  6
CONTINUOUS
 62
               7
100
AcDbCircle
 10
-3786.2271190815572
 20
-1754.4908526481784
 30
0.0
 40
0.75
  0
POINT
  5
219
100
AcDbEntity
  8
LAYER___0
  6
CONTINUOUS
 62
               7
100
AcDbPoint
 10
-3786.2271190815572
 20
-1746.4908526481784
 30
0.0
  0
POINT
  5
21A
100
AcDbEntity
  8
LAYER___0
  6
CONTINUOUS
 62
               7
100
AcDbPoint
 10
-3786.2271190815572
 20
-1750.4908526481784
 30
0.0
  0
POINT
  5
21B
100
AcDbEntity
  8
LAYER___0
  6
CONTINUOUS
 62
               7
100
AcDbPoint
 10
-3786.2271190815572
 20
-1754.4908526481784
 30
0.0
  0
CIRCLE
  5
21C
100
AcDbEntity
  8
LAYER___0
  6
CONTINUOUS
 62
               7
100
AcDbCircle
 10
-3786.2271190815572
 20
-1761.4908526481784
 30
0.0
 40
1.5
  0
POINT
  5
21D
100
AcDbEntity
  8
LAYER___0
  6
CONTINUOUS
 62
               7
100
AcDbPoint
 10
-3786.2271190815572
 20
-1761.4908526481784
 30
0.0
  0
LINE
  5
21E
100
AcDbEntity
  8
LAYER___0
  6
CONTINUOUS
 62
               7
100
AcDbLine
 10
-3788.382337306693
 20
-1744.7239531249156
 30
0.0
 11
-3797.7271190815572
 21
-1764.4908526481784
 31
0.0
  0
LINE
  5
21F
100
AcDbEntity
  8
LAYER___0
  6
CONTINUOUS
 62
               7
100
AcDbLine
 10
-3784.0719008564215
 20
-1744.7239531249156
 30
0.0
 11
-3774.7271190815572
 21
-1764.4908526481784
 31
0.0
  0
LINE
  5
220
100
AcDbEntity
  8
LAYER___0
  6
CONTINUOUS
 62
               7
100
AcDbLine
 10
-3797.7271190815572
 20
-1764.4908526481784
 30
0.0
 11
-3774.7271190815572
 21
-1764.4908526481784
 31
0.0
  0
LINE
  5
221
100
AcDbEntity
  8
LAYER___0
  6
CONTINUOUS
 62
               7
100
AcDbLine
 10
-3797.7271190815572
 20
-1731.6629482286457
 30
0.0
 11
-3774.7271190815572
 21
-1731.6629482286457
 31
0.0
  0
LINE
  5
222
100
AcDbEntity
  8
LAYER___0
  6
CONTINUOUS
 62
               7
100
AcDbLine
 10
-3784.0719008564215
 20
-1711.896048705383
 30
0.0
 11
-3774.7271190815572
 21
-1731.6629482286457
 31
0.0
  0
LINE
  5
223
100
AcDbEntity
  8
LAYER___0
  6
CONTINUOUS
 62
               7
100
AcDbLine
 10
-3788.382337306693
 20
-1711.896048705383
 30
0.0
 11
-3797.7271190815572
 21
-1731.6629482286457
 31
0.0
  0
POINT
  5
224
100
AcDbEntity
  8
LAYER___0
  6
CONTINUOUS
 62
               7
100
AcDbPoint
 10
-3786.2271190815572
 20
-1728.6629482286457
 30
0.0
  0
CIRCLE
  5
225
100
AcDbEntity
  8
LAYER___0
  6
CONTINUOUS
 62
               7
100
AcDbCircle
 10
-3786.2271190815572
 20
-1728.6629482286457
 30
0.0
 40
1.5
  0
POINT
  5
226
100
AcDbEntity
  8
LAYER___0
  6
CONTINUOUS
 62
               7
100
AcDbPoint
 10
-3786.2271190815572
 20
-1721.6629482286457
 30
0.0
  0
POINT
  5
227
100
AcDbEntity
  8
LAYER___0
  6
CONTINUOUS
 62
               7
100
AcDbPoint
 10
-3786.2271190815572
 20
-1717.6629482286457
 30
0.0
  0
POINT
  5
228
100
AcDbEntity
  8
LAYER___0
  6
CONTINUOUS
 62
               7
100
AcDbPoint
 10
-3786.2271190815572
 20
-1713.6629482286457
 30
0.0
  0
CIRCLE
  5
229
100
AcDbEntity
  8
LAYER___0
  6
CONTINUOUS
 62
               7
100
AcDbCircle
 10
-3786.2271190815572
 20
-1721.6629482286457
 30
0.0
 40
0.75
  0
CIRCLE
  5
22A
100
AcDbEntity
  8
LAYER___0
  6
CONTINUOUS
 62
               7
100
AcDbCircle
 10
-3786.2271190815572
 20
-1717.6629482286457
 30
0.0
 40
0.75
  0
CIRCLE
  5
22B
100
AcDbEntity
  8
LAYER___0
  6
CONTINUOUS
 62
               7
100
AcDbCircle
 10
-3786.2271190815572
 20
-1713.6629482286457
 30
0.0
 40
0.75
  0
ARC
  5
22C
100
AcDbEntity
  8
LAYER___0
  6
CONTINUOUS
 62
               7
100
AcDbCircle
 10
-3786.2271190815572
 20
-1713.1629482286457
 30
0.0
 40
2.5
100
AcDbArc
 50
30.448242258122296
 51
159.84345101053378
  0
LINE
  5
22D
100
AcDbEntity
  8
LAYER___0
  6
CONTINUOUS
 62
               7
100
AcDbLine
 10
-2343.3556804345103
 20
-649.17054345299687
 30
0.0
 11
-1990.8239713134496
 21
-649.17054345299687
 31
0.0
  0
LINE
  5
22E
100
AcDbEntity
  8
LAYER___0
  6
CONTINUOUS
 62
               7
100
AcDbLine
 10
-1990.8239713134496
 20
-593.94769822030446
 30
0.0
 11
-1990.8239713134496
 21
-649.17054345299687
 31
0.0
  0
LINE
  5
22F
100
AcDbEntity
  8
LAYER___0
  6
CONTINUOUS
 62
               7
100
AcDbLine
 10
-1999.0739713134496
 20
-649.17054345299687
 30
0.0
 11
-1999.0739713134496
 21
-599.94769822030446
 31
0.0
  0
LINE
  5
230
100
AcDbEntity
  8
LAYER___0
  6
CONTINUOUS
 62
               7
100
AcDbLine
 10
-2143.8399817503728
 20
-1077.0293573576605
 30
0.0
 11
-1999.0739713134496
 21
-1077.0293573576605
 31
0.0
  0
LINE
  5
231
100
AcDbEntity
  8
LAYER___0
  6
CONTINUOUS
 62
               7
100
AcDbLine
 10
-2143.8399817503728
 20
-1071.0293573576605
 30
0.0
 11
-1999.0739713134496
 21
-1071.0293573576605
 31
0.0
  0
LINE
  5
232
100
AcDbEntity
  8
LAYER___0
  6
CONTINUOUS
 62
               7
100
AcDbLine
 10
-2039.0739713134496
 20
-1101.5352686704314
 30
0.0
 11
-2039.0739713134496
 21
-1046.5234460448896
 31
0.0
  0
LINE
  5
233
100
AcDbEntity
  8
LAYER___0
  6
CONTINUOUS
 62
               7
100
AcDbLine
 10
-2039.0739713134496
 20
-1046.5234460448896
 30
0.0
 11
-1999.0739713134496
 21
-1049.9624356579234
 31
0.0
  0
LINE
  5
234
100
AcDbEntity
  8
LAYER___0
  6
CONTINUOUS
 62
               7
100
AcDbLine
 10
-2039.0739713134496
 20
-1101.5352686704314
 30
0.0
 11
-1999.0739713134496
 21
-1098.0962790573979
 31
0.0
  0
LINE
  5
235
100
AcDbEntity
  8
LAYER___0
  6
POINTLINE
 62
               7
100
AcDbLine
 10
-1974.1174349615483
 20
-624.55912083665066
 30
0.0
 11
-2039.0739713134496
 21
-624.55912083665066
 31
0.0
  0
LINE
  5
236
100
AcDbEntity
  8
LAYER___0
  6
POINTLINE
 62
               7
100
AcDbLine
 10
-2039.0739713134496
 20
-624.55912083665066
 30
0.0
 11
-2160.2761218991259
 21
-624.55912083665066
 31
0.0
  0
LINE
  5
237
100
AcDbEntity
  8
LAYER___0
  6
CONTINUOUS
 62
               7
100
AcDbLine
 10
-1999.0739713134496
 20
-627.55912083665066
 30
0.0
 11
-2039.0739713134496
 21
-627.55912083665066
 31
0.0
  0
LINE
  5
238
100
AcDbEntity
  8
LAYER___0
  6
CONTINUOUS
 62
               7
100
AcDbLine
 10
-1999.0739713134496
 20
-621.55912083665066
 30
0.0
 11
-2039.0739713134496
 21
-621.55912083665066
 31
0.0
  0
LINE
  5
239
100
AcDbEntity
  8
LAYER___0
  6
CONTINUOUS
 62
               7
100
AcDbLine
 10
-2039.0739713134496
 20
-627.55912083665066
 30
0.0
 11
-2039.0739713134496
 21
-621.55912083665066
 31
0.0
  0
LINE
  5
23A
100
AcDbEntity
  8
LAYER___0
  6
CONTINUOUS
 62
               7
100
AcDbLine
 10
-2019.0739713134496
 20
-621.55912083665066
 30
0.0
 11
-2019.0739713134496
 21
-627.55912083665066
 31
0.0
  0
LINE
  5
23B
100
AcDbEntity
  8
LAYER___0
  6
CONTINUOUS
 62
               7
100
AcDbLine
 10
-3612.5386179459238
 20
-2330.5303740402496
 30
0.0
 11
-3572.5386179459238
 21
-2333.9693636532834
 31
0.0
  0
LINE
  5
23C
100
AcDbEntity
  8
LAYER___0
  6
CONTINUOUS
 62
               7
100
AcDbLine
 10
-3572.5386179459238
 20
-2382.1032070527576
 30
0.0
 11
-3572.5386179459238
 21
-2333.9693636532834
 31
0.0
  0
LINE
  5
23D
100
AcDbEntity
  8
LAYER___0
  6
CONTINUOUS
 62
               7
100
AcDbLine
 10
-3612.5386179459238
 20
-2385.5421966657914
 30
0.0
 11
-3572.5386179459238
 21
-2382.1032070527576
 31
0.0
  0
LINE
  5
23E
100
AcDbEntity
  8
LAYER___0
  6
CONTINUOUS
 62
               7
100
AcDbLine
 10
-3592.5386179459238
 20
-2355.0362853530205
 30
0.0
 11
-3592.5386179459238
 21
-2361.0362853530205
 31
0.0
  0
LINE
  5
23F
100
AcDbEntity
  8
LAYER___0
  6
CONTINUOUS
 62
               7
100
AcDbLine
 10
-3612.5386179459238
 20
-2355.0362853530205
 30
0.0
 11
-3592.5386179459238
 21
-2355.0362853530205
 31
0.0
  0
LINE
  5
240
100
AcDbEntity
  8
LAYER___0
  6
CONTINUOUS
 62
               7
100
AcDbLine
 10
-3612.5386179459238
 20
-2361.0362853530205
 30
0.0
 11
-3592.5386179459238
 21
-2361.0362853530205
 31
0.0
  0
LINE
  5
241
100
AcDbEntity
  8
LAYER___0
  6
DASHEDM
 62
               7
100
AcDbLine
 10
-3592.5386179459238
 20
-2361.0362853530205
 30
0.0
 11
-3572.5386179459238
 21
-2361.0362853530205
 31
0.0
  0
LINE
  5
242
100
AcDbEntity
  8
LAYER___0
  6
DASHEDM
 62
               7
100
AcDbLine
 10
-3592.5386179459238
 20
-2355.0362853530205
 30
0.0
 11
-3572.5386179459238
 21
-2355.0362853530205
 31
0.0
  0
LINE
  5
243
100
AcDbEntity
  8
LAYER___0
  6
CONTINUOUS
 62
               7
100
AcDbLine
 10
-3612.5386179459238
 20
-2355.0362853530205
 30
0.0
 11
-3612.5386179459238
 21
-2330.5303740402496
 31
0.0
  0
LINE
  5
244
100
AcDbEntity
  8
LAYER___0
  6
CONTINUOUS
 62
               7
100
AcDbLine
 10
-3612.5386179459238
 20
-2385.5421966657914
 30
0.0
 11
-3612.5386179459238
 21
-2361.0362853530205
 31
0.0
  0
LINE
  5
245
100
AcDbEntity
  8
LAYER___0
  6
POINTLINE
 62
               7
100
AcDbLine
 10
-3627.2447150173821
 20
-2358.0362853530205
 30
0.0
 11
-3559.5066055669349
 21
-2358.0362853530205
 31
0.0
  0
LINE
  5
246
100
AcDbEntity
  8
LAYER___0
  6
CONTINUOUS
 62
               7
100
AcDbLine
 10
-3820.8537983303904
 20
-2425.9119600458434
 30
0.0
 11
-3820.8537983303904
 21
-2235.9119600458434
 31
0.0
  0
LINE
  5
247
100
AcDbEntity
  8
LAYER___0
  6
CONTINUOUS
 62
               7
100
AcDbLine
 10
-3820.8537983303904
 20
-2235.9119600458434
 30
0.0
 11
-3543.8537983303904
 21
-2235.9119600458434
 31
0.0
  0
LINE
  5
248
100
AcDbEntity
  8
LAYER___0
  6
CONTINUOUS
 62
               7
100
AcDbLine
 10
-3543.8537983303904
 20
-2425.9119600458434
 30
0.0
 11
-3543.8537983303904
 21
-2235.9119600458434
 31
0.0
  0
LINE
  5
249
100
AcDbEntity
  8
LAYER___0
  6
CONTINUOUS
 62
               7
100
AcDbLine
 10
-3820.8537983303904
 20
-2425.9119600458434
 30
0.0
 11
-3543.8537983303904
 21
-2425.9119600458434
 31
0.0
  0
LINE
  5
24A
100
AcDbEntity
  8
LAYER___0
  6
CONTINUOUS
 62
               7
100
AcDbLine
 10
-3668.8219571046257
 20
-2355.0633452832781
 30
0.0
 11
-3668.8219571046257
 21
-2361.0633452832781
 31
0.0
  0
LINE
  5
24B
100
AcDbEntity
  8
LAYER___0
  6
CONTINUOUS
 62
               7
100
AcDbLine
 10
-3648.8219571046257
 20
-2355.0633452832781
 30
0.0
 11
-3668.8219571046257
 21
-2355.0633452832781
 31
0.0
  0
LINE
  5
24C
100
AcDbEntity
  8
LAYER___0
  6
CONTINUOUS
 62
               7
100
AcDbLine
 10
-3648.8219571046257
 20
-2361.0633452832781
 30
0.0
 11
-3668.8219571046257
 21
-2361.0633452832781
 31
0.0
  0
LINE
  5
24D
100
AcDbEntity
  8
LAYER___0
  6
POINTLINE
 62
               7
100
AcDbLine
 10
-3636.6328784730831
 20
-2358.0633452832781
 30
0.0
 11
-3810.0241076903017
 21
-2358.0633452832781
 31
0.0
  0
LINE
  5
24E
100
AcDbEntity
  8
LAYER___0
  6
DASHEDM
 62
               7
100
AcDbLine
 10
-3668.8219571046257
 20
-2355.0633452832781
 30
0.0
 11
-3688.8219571046257
 21
-2355.0633452832781
 31
0.0
  0
LINE
  5
24F
100
AcDbEntity
  8
LAYER___0
  6
DASHEDM
 62
               7
100
AcDbLine
 10
-3668.8219571046257
 20
-2361.0633452832781
 30
0.0
 11
-3688.8219571046257
 21
-2361.0633452832781
 31
0.0
  0
LINE
  5
250
100
AcDbEntity
  8
LAYER___0
  6
DASHEDM
 62
               7
100
AcDbLine
 10
-3688.8219571046257
 20
-2361.0633452832781
 30
0.0
 11
-3688.8219571046257
 21
-2355.0633452832781
 31
0.0
  0
LINE
  5
251
100
AcDbEntity
  8
LAYER___0
  6
CONTINUOUS
 62
               7
100
AcDbLine
 10
-3688.8219571046257
 20
-2285.0471172135472
 30
0.0
 11
-3648.8219571046257
 21
-2285.0471172135472
 31
0.0
  0
LINE
  5
252
100
AcDbEntity
  8
LAYER___0
  6
CONTINUOUS
 62
               7
100
AcDbLine
 10
-3793.5879675415486
 20
-2285.0471172135472
 30
0.0
 11
-3688.8219571046257
 21
-2285.0471172135472
 31
0.0
  0
LINE
  5
253
100
AcDbEntity
  8
LAYER___0
  6
CONTINUOUS
 62
               7
100
AcDbLine
 10
-3668.8219571046257
 20
-2279.0471172135472
 30
0.0
 11
-3668.8219571046257
 21
-2285.0471172135472
 31
0.0
  0
LINE
  5
254
100
AcDbEntity
  8
LAYER___0
  6
CONTINUOUS
 62
               7
100
AcDbLine
 10
-3688.8219571046257
 20
-2279.0471172135472
 30
0.0
 11
-3648.8219571046257
 21
-2279.0471172135472
 31
0.0
  0
LINE
  5
255
100
AcDbEntity
  8
LAYER___0
  6
CONTINUOUS
 62
               7
100
AcDbLine
 10
-3793.5879675415486
 20
-2279.0471172135472
 30
0.0
 11
-3688.8219571046257
 21
-2279.0471172135472
 31
0.0
  0
LINE
  5
256
100
AcDbEntity
  8
LAYER___0
  6
POINTLINE
 62
               7
100
AcDbLine
 10
-3809.074802030374
 20
-2282.0471172135472
 30
0.0
 11
-3635.7899447256368
 21
-2282.0471172135472
 31
0.0
  0
LINE
  5
257
100
AcDbEntity
  8
LAYER___0
  6
CONTINUOUS
 62
               7
100
AcDbLine
 10
-3793.5879675415486
 20
-2279.0471172135472
 30
0.0
 11
-3793.5879675415486
 21
-2285.0471172135472
 31
0.0
  0
LINE
  5
258
100
AcDbEntity
  8
LAYER___0
  6
CONTINUOUS
 62
               7
100
AcDbLine
 10
-3688.8219571046257
 20
-2309.553028526318
 30
0.0
 11
-3648.8219571046257
 21
-2306.1140389132843
 31
0.0
  0
LINE
  5
259
100
AcDbEntity
  8
LAYER___0
  6
CONTINUOUS
 62
               7
100
AcDbLine
 10
-3688.8219571046257
 20
-2254.5412059007763
 30
0.0
 11
-3648.8219571046257
 21
-2257.9801955138096
 31
0.0
  0
LINE
  5
25A
100
AcDbEntity
  8
LAYER___0
  6
CONTINUOUS
 62
               7
100
AcDbLine
 10
-3648.8219571046257
 20
-2306.1140389132843
 30
0.0
 11
-3648.8219571046257
 21
-2257.9801955138096
 31
0.0
  0
LINE
  5
25B
100
AcDbEntity
  8
LAYER___0
  6
CONTINUOUS
 62
               7
100
AcDbLine
 10
-3688.8219571046257
 20
-2309.553028526318
 30
0.0
 11
-3688.8219571046257
 21
-2254.5412059007763
 31
0.0
  0
LINE
  5
25C
100
AcDbEntity
  8
LAYER___0
  6
CONTINUOUS
 62
               7
100
AcDbLine
 10
-3793.5879675415486
 20
-2381.1747678996244
 30
0.0
 11
-3648.8219571046257
 21
-2381.1747678996244
 31
0.0
  0
LINE
  5
25D
100
AcDbEntity
  8
LAYER___0
  6
CONTINUOUS
 62
               7
100
AcDbLine
 10
-3648.8219571046257
 20
-2355.0633452832781
 30
0.0
 11
-3648.8219571046257
 21
-2334.9519226669318
 31
0.0
  0
LINE
  5
25E
100
AcDbEntity
  8
LAYER___0
  6
CONTINUOUS
 62
               7
100
AcDbLine
 10
-3793.5879675415486
 20
-2334.9519226669318
 30
0.0
 11
-3648.8219571046257
 21
-2334.9519226669318
 31
0.0
  0
LINE
  5
25F
100
AcDbEntity
  8
LAYER___0
  6
CONTINUOUS
 62
               7
100
AcDbLine
 10
-3793.5879675415486
 20
-2334.9519226669318
 30
0.0
 11
-3793.5879675415486
 21
-2381.1747678996244
 31
0.0
  0
LINE
  5
260
100
AcDbEntity
  8
LAYER___0
  6
CONTINUOUS
 62
               7
100
AcDbLine
 10
-3648.8219571046257
 20
-2381.1747678996244
 30
0.0
 11
-3648.8219571046257
 21
-2361.0633452832781
 31
0.0
  0
LINE
  5
261
100
AcDbEntity
  8
LAYER___0
  6
POINTLINE
 62
               7
100
AcDbLine
 10
-3383.6754182751783
 20
-1718.469229535566
 30
0.0
 11
-3383.6754182751783
 21
-1871.4852399724891
 31
0.0
  0
LINE
  5
262
100
AcDbEntity
  8
LAYER___0
  6
CONTINUOUS
 62
               7
100
AcDbLine
 10
-3423.1996272008578
 20
-1718.469229535566
 30
0.0
 11
-3344.1512093494994
 21
-1718.469229535566
 31
0.0
  0
LINE
  5
263
100
AcDbEntity
  8
LAYER___0
  6
CONTINUOUS
 62
               7
100
AcDbLine
 10
-3519.0320911502786
 20
-1884.7379109656849
 30
0.0
 11
-3519.0320911502786
 21
-1694.7379109656849
 31
0.0
  0
LINE
  5
264
100
AcDbEntity
  8
LAYER___0
  6
CONTINUOUS
 62
               7
100
AcDbLine
 10
-3519.0320911502786
 20
-1694.7379109656849
 30
0.0
 11
-3242.0320911502786
 21
-1694.7379109656849
 31
0.0
  0
LINE
  5
265
100
AcDbEntity
  8
LAYER___0
  6
CONTINUOUS
 62
               7
100
AcDbLine
 10
-3242.0320911502786
 20
-1884.7379109656849
 30
0.0
 11
-3242.0320911502786
 21
-1694.7379109656849
 31
0.0
  0
LINE
  5
266
100
AcDbEntity
  8
LAYER___0
  6
CONTINUOUS
 62
               7
100
AcDbLine
 10
-3519.0320911502786
 20
-1884.7379109656849
 30
0.0
 11
-3242.0320911502786
 21
-1884.7379109656849
 31
0.0
  0
LINE
  5
267
100
AcDbEntity
  8
LAYER___0
  6
CONTINUOUS
 62
               7
100
AcDbLine
 10
-3382.1754182751783
 20
-1718.469229535566
 30
0.0
 11
-3382.1754182751783
 21
-1857.2352399724891
 31
0.0
  0
LINE
  5
268
100
AcDbEntity
  8
LAYER___0
  6
DASHEDM
 62
               5
100
AcDbLine
 10
-3420.1885601302383
 20
-1718.469229535566
 30
0.0
 11
-3407.0330483672274
 21
-1871.4852399724891
 31
0.0
  0
LINE
  5
269
100
AcDbEntity
  8
LAYER___0
  6
CONTINUOUS
 62
               7
100
AcDbLine
 10
-3423.1996272008578
 20
-1718.469229535566
 30
0.0
 11
-3410.0441154378468
 21
-1871.4852399724891
 31
0.0
  0
LINE
  5
26A
100
AcDbEntity
  8
LAYER___0
  6
DASHEDM
 62
               5
100
AcDbLine
 10
-3347.1622764201188
 20
-1718.469229535566
 30
0.0
 11
-3360.3177881831298
 21
-1871.4852399724891
 31
0.0
  0
LINE
  5
26B
100
AcDbEntity
  8
LAYER___0
  6
CONTINUOUS
 62
               7
100
AcDbLine
 10
-3344.1512093494994
 20
-1718.469229535566
 30
0.0
 11
-3357.3067211125103
 21
-1871.4852399724891
 31
0.0
  0
LINE
  5
26C
100
AcDbEntity
  8
LAYER___0
  6
CONTINUOUS
 62
               7
100
AcDbLine
 10
-3385.1754182751783
 20
-1718.469229535566
 30
0.0
 11
-3385.1754182751783
 21
-1857.2352399724891
 31
0.0
  0
LINE
  5
26D
100
AcDbEntity
  8
LAYER___0
  6
CONTINUOUS
 62
               7
100
AcDbLine
 10
-3408.2581884168708
 20
-1857.2352399724891
 30
0.0
 11
-3359.0926481334864
 21
-1857.2352399724891
 31
0.0
  0
LINE
  5
26E
100
AcDbEntity
  8
LAYER___0
  6
CONTINUOUS
 62
               7
100
AcDbLine
 10
-3407.7423399749159
 20
-1863.2352399724891
 30
0.0
 11
-3359.6084965754412
 21
-1863.2352399724891
 31
0.0
  0
LINE
  5
26F
100
AcDbEntity
  8
LAYER___0
  6
DASHEDM
 62
               5
100
AcDbLine
 10
-3355.3722894551788
 20
-1848.9852399724891
 30
0.0
 11
-3411.9785470951783
 21
-1848.9852399724891
 31
0.0
  0
LINE
  5
270
100
AcDbEntity
  8
LAYER___0
  6
DASHEDM
 62
               5
100
AcDbLine
 10
-3348.5170317192083
 20
-1769.2495209695674
 30
0.0
 11
-3418.8338048311489
 21
-1769.2495209695674
 31
0.0
  0
POINT
  5
271
100
AcDbEntity
  8
LAYER___0
  6
CONTINUOUS
 62
               7
100
AcDbPoint
 10
-3383.6754182751783
 20
-1718.469229535566
 30
0.0
  0
LINE
  5
272
100
AcDbEntity
  8
LAYER___0
  6
CONTINUOUS
 62
               7
100
AcDbLine
 10
-3357.3067211125103
 20
-1871.4852399724891
 30
0.0
 11
-3410.0441154378468
 21
-1871.4852399724891
 31
0.0
  0
LINE
  5
273
100
AcDbEntity
  8
LAYER___0
  6
CONTINUOUS
 62
               7
100
AcDbLine
 10
-3348.5170317192083
 20
-1769.2495209695674
 30
0.0
 11
-3262.3722394551792
 21
-1818.9852399724891
 31
0.0
  0
LINE
  5
274
100
AcDbEntity
  8
LAYER___0
  6
CONTINUOUS
 62
               7
100
AcDbLine
 10
-3262.3722394551792
 20
-1818.9852399724891
 30
0.0
 11
-3262.3722394551792
 21
-1848.9852399724891
 31
0.0
  0
LINE
  5
275
100
AcDbEntity
  8
LAYER___0
  6
CONTINUOUS
 62
               7
100
AcDbLine
 10
-3262.3722394551792
 20
-1848.9852399724891
 30
0.0
 11
-3355.3722894551788
 21
-1848.9852399724891
 31
0.0
  0
LINE
  5
276
100
AcDbEntity
  8
LAYER___0
  6
CONTINUOUS
 62
               7
100
AcDbLine
 10
-3418.8338048311489
 20
-1769.2495209695674
 30
0.0
 11
-3504.978597095178
 21
-1818.9852399724891
 31
0.0
  0
LINE
  5
277
100
AcDbEntity
  8
LAYER___0
  6
CONTINUOUS
 62
               7
100
AcDbLine
 10
-3504.978597095178
 20
-1848.9852399724891
 30
0.0
 11
-3411.9785470951783
 21
-1848.9852399724891
 31
0.0
  0
LINE
  5
278
100
AcDbEntity
  8
LAYER___0
  6
CONTINUOUS
 62
               7
100
AcDbLine
 10
-3504.978597095178
 20
-1818.9852399724891
 30
0.0
 11
-3504.978597095178
 21
-1848.9852399724891
 31
0.0
  0
LINE
  5
279
100
AcDbEntity
  8
LAYER___0
  6
DASHEDM
 62
               7
100
AcDbLine
 10
-3262.3722394551792
 20
-1818.9852399724891
 30
0.0
 11
-3504.978597095178
 21
-1818.9852399724891
 31
0.0
  0
LINE
  5
27A
100
AcDbEntity
  8
LAYER___0
  6
CONTINUOUS
 62
               7
100
AcDbLine
 10
-3464.4190128438549
 20
-2226.3041394761658
 30
0.0
 11
-3464.4190128438549
 21
-2248.8041394761658
 31
0.0
  0
LINE
  5
27B
100
AcDbEntity
  8
LAYER___0
  6
CONTINUOUS
 62
               7
100
AcDbLine
 10
-3239.4190128438549
 20
-2226.3041394761658
 30
0.0
 11
-3464.4190128438549
 21
-2226.3041394761658
 31
0.0
  0
LINE
  5
27C
100
AcDbEntity
  8
LAYER___0
  6
CONTINUOUS
 62
               7
100
AcDbLine
 10
-3239.4190128438549
 20
-2173.8041394761658
 30
0.0
 11
-3239.4190128438549
 21
-2248.8041394761658
 31
0.0
  0
LINE
  5
27D
100
AcDbEntity
  8
LAYER___0
  6
CONTINUOUS
 62
               7
100
AcDbLine
 10
-3239.4190128438549
 20
-2173.8041394761658
 30
0.0
 11
-3482.9767900681391
 21
-2052.0252508640237
 31
0.0
  0
LINE
  5
27E
100
AcDbEntity
  8
LAYER___0
  6
CONTINUOUS
 62
               7
100
AcDbLine
 10
-3482.9767900681391
 20
-2052.0252508640237
 30
0.0
 11
-3499.894803918176
 21
-2248.8041394761658
 31
0.0
  0
LINE
  5
27F
100
AcDbEntity
  8
LAYER___0
  6
CONTINUOUS
 62
               7
100
AcDbLine
 10
-3239.4190128438549
 20
-2248.8041394761658
 30
0.0
 11
-3499.894803918176
 21
-2248.8041394761658
 31
0.0
  0
LINE
  5
280
100
AcDbEntity
  8
LAYER___0
  6
CONTINUOUS
 62
               7
100
AcDbLine
 10
-3503.1597519408265
 20
-2363.8041394761658
 30
0.0
 11
-3503.1597519408265
 21
-2173.8041394761658
 31
0.0
  0
LINE
  5
281
100
AcDbEntity
  8
LAYER___0
  6
CONTINUOUS
 62
               7
100
AcDbLine
 10
-3503.1597519408265
 20
-2173.8041394761658
 30
0.0
 11
-3226.1597519408265
 21
-2173.8041394761658
 31
0.0
  0
LINE
  5
282
100
AcDbEntity
  8
LAYER___0
  6
CONTINUOUS
 62
               7
100
AcDbLine
 10
-3226.1597519408265
 20
-2363.8041394761658
 30
0.0
 11
-3226.1597519408265
 21
-2173.8041394761658
 31
0.0
  0
LINE
  5
283
100
AcDbEntity
  8
LAYER___0
  6
CONTINUOUS
 62
               7
100
AcDbLine
 10
-3503.1597519408265
 20
-2363.8041394761658
 30
0.0
 11
-3226.1597519408265
 21
-2363.8041394761658
 31
0.0
  0
LINE
  5
284
100
AcDbEntity
  8
LAYER___0
  6
CONTINUOUS
 62
               7
100
AcDbLine
 10
-3503.1597519408265
 20
-2173.8041394761658
 30
0.0
 11
-3503.1597519408265
 21
-1983.804139476166
 31
0.0
  0
LINE
  5
285
100
AcDbEntity
  8
LAYER___0
  6
CONTINUOUS
 62
               7
100
AcDbLine
 10
-3503.1597519408265
 20
-1983.804139476166
 30
0.0
 11
-3226.1597519408265
 21
-1983.804139476166
 31
0.0
  0
LINE
  5
286
100
AcDbEntity
  8
LAYER___0
  6
CONTINUOUS
 62
               7
100
AcDbLine
 10
-3226.1597519408265
 20
-2173.8041394761658
 30
0.0
 11
-3226.1597519408265
 21
-1983.804139476166
 31
0.0
  0
LINE
  5
287
100
AcDbEntity
  8
LAYER___0
  6
CONTINUOUS
 62
               7
100
AcDbLine
 10
-3503.1597519408265
 20
-2173.8041394761658
 30
0.0
 11
-3226.1597519408265
 21
-2173.8041394761658
 31
0.0
  0
LWPOLYLINE
  5
288
100
AcDbEntity
  8
LAYER___0
  6
CONTINUOUS
 62
               7
100
AcDbPolyline
 90
        3
 70
             128
 10
-3582.8552728409559
 20
-1861.9580604862913
 10
-3623.008855020817
 20
-1857.9427924975168
 10
-3642.8552728409559
 20
-1851.5009891449679
  0
LINE
  5
28D
100
AcDbEntity
  8
LAYER___0
  6
CONTINUOUS
 62
               7
100
AcDbLine
 10
-3582.8552728409559
 20
-1861.9580604862913
 30
0.0
 11
-3582.8552728409559
 21
-1826.2628309184793
 31
0.0
  0
LWPOLYLINE
  5
28E
100
AcDbEntity
  8
LAYER___0
  6
CONTINUOUS
 62
               7
100
AcDbPolyline
 90
        3
 70
             128
 10
-3582.8552728409559
 20
-1826.2628309184793
 10
-3621.9871539183569
 20
-1838.8484233707329
 10
-3642.8552728409559
 20
-1851.5399477597464
  0
TEXT
  5
293
100
AcDbEntity
  8
LAYER___0
  6
CONTINUOUS
 62
               7
100
AcDbText
 10
-3609.0548310410986
 20
-1853.1472699462063
 30
0.0
 40
10.0
  1
O1
100
AcDbText
  0
LWPOLYLINE
  5
294
100
AcDbEntity
  8
LAYER___0
  6
CONTINUOUS
 62
               7
100
AcDbPolyline
 90
        2
 70
             128
 10
-3744.8586982392135
 20
-1726.2285271218807
 10
-3684.8586982392135
 20
-1710.2947690590327
  0
LWPOLYLINE
  5
298
100
AcDbEntity
  8
LAYER___0
  6
CONTINUOUS
 62
               7
100
AcDbPolyline
 90
        2
 70
             128
 10
-3744.8586982392135
 20
-1726.2285271218807
 10
-3684.8586982392135
 20
-1742.1622851847285
  0
LINE
  5
29C
100
AcDbEntity
  8
LAYER___0
  6
CONTINUOUS
 62
               7
100
AcDbLine
 10
-3684.8586982392135
 20
-1742.1622851847285
 30
0.0
 11
-3684.8586982392135
 21
-1710.2947690590327
 31
0.0
  0
TEXT
  5
29D
100
AcDbEntity
  8
LAYER___0
  6
CONTINUOUS
 62
               7
100
AcDbText
 10
-3713.2812399641498
 20
-1729.7567347503793
 30
0.0
 40
10.0
  1
O1/1
100
AcDbText
  0
LINE
  5
29E
100
AcDbEntity
  8
LAYER___0
  6
CONTINUOUS
 62
               7
100
AcDbLine
 10
-2517.6782074834409
 20
-1048.89522260439
 30
0.0
 11
-2517.6782074834409
 21
-1099.1634921109312
 31
0.0
  0
LINE
  5
29F
100
AcDbEntity
  8
LAYER___0
  6
CONTINUOUS
 62
               7
100
AcDbLine
 10
-2336.1530317474817
 20
-1052.6369342546379
 30
0.0
 11
-2336.1530317474817
 21
-1095.4217804606833
 31
0.0
  0
LINE
  5
2A0
100
AcDbEntity
  8
LAYER___0
  6
CONTINUOUS
 62
               7
100
AcDbLine
 10
-3820.8537983303904
 20
-2650.0203900864026
 30
0.0
 11
-3820.8537983303904
 21
-2460.0203900864026
 31
0.0
  0
LINE
  5
2A1
100
AcDbEntity
  8
LAYER___0
  6
CONTINUOUS
 62
               7
100
AcDbLine
 10
-3820.8537983303904
 20
-2460.0203900864026
 30
0.0
 11
-3543.8537983303904
 21
-2460.0203900864026
 31
0.0
  0
LINE
  5
2A2
100
AcDbEntity
  8
LAYER___0
  6
CONTINUOUS
 62
               7
100
AcDbLine
 10
-3543.8537983303904
 20
-2650.0203900864026
 30
0.0
 11
-3543.8537983303904
 21
-2460.0203900864026
 31
0.0
  0
LINE
  5
2A3
100
AcDbEntity
  8
LAYER___0
  6
CONTINUOUS
 62
               7
100
AcDbLine
 10
-3820.8537983303904
 20
-2650.0203900864026
 30
0.0
 11
-3543.8537983303904
 21
-2650.0203900864026
 31
0.0
  0
LINE
  5
2A4
100
AcDbEntity
  8
LAYER___0
  6
CONTINUOUS
 62
               7
100
AcDbLine
 10
-2517.6782074834409
 20
-1099.1634921109312
 30
0.0
 11
-2336.1530317474817
 21
-1084.0293573576605
 31
0.0
  0
LINE
  5
2A5
100
AcDbEntity
  8
LAYER___0
  6
CONTINUOUS
 62
               7
100
AcDbLine
 10
-2517.6782074834409
 20
-1048.89522260439
 30
0.0
 11
-2336.1530317474817
 21
-1064.0293573576605
 31
0.0
  0
LINE
  5
2A6
100
AcDbEntity
  8
LAYER___0
  6
DASHEDM
 62
               7
100
AcDbLine
 10
-3717.2459319232212
 20
-2504.4077594832438
 30
0.0
 11
-3583.4099907229984
 21
-2469.5519951546435
 31
0.0
  0
ARC
  5
2A7
100
AcDbEntity
  8
LAYER___0
  6
DASHEDM
 62
               7
100
AcDbCircle
 10
-3724.6723793832643
 20
-2467.6504761488732
 30
0.0
 40
37.5
100
AcDbArc
 50
244.91724112639324
 51
281.42228502057174
  0
LINE
  5
2A8
100
AcDbEntity
  8
LAYER___0
  6
DASHEDM
 62
               7
100
AcDbLine
 10
-3764.9351664589581
 20
-2490.2093834888369
 30
0.0
 11
-3740.5696383144627
 21
-2501.6140913639001
 31
0.0
  0
LINE
  5
2A9
100
AcDbEntity
  8
LAYER___0
  6
CONTINUOUS
 62
               7
100
AcDbLine
 10
-3715.0115261522901
 20
-2500.7257669612532
 30
0.0
 11
-3604.6034034003114
 21
-2471.9714617118962
 31
0.0
  0
LINE
  5
2AA
100
AcDbEntity
  8
LAYER___0
  6
CONTINUOUS
 62
               7
100
AcDbLine
 10
-3759.0127569994111
 20
-2489.6691016840632
 30
0.0
 11
-3740.359891148365
 21
-2498.3998989318129
 31
0.0
  0
ARC
  5
2AB
100
AcDbEntity
  8
LAYER___0
  6
CONTINUOUS
 62
               7
100
AcDbCircle
 10
-3724.4626322171666
 20
-2464.436283716786
 30
0.0
 40
37.5
100
AcDbArc
 50
244.91724112639335
 51
284.59763980772908
  0
LWPOLYLINE
  5
2AC
100
AcDbEntity
  8
LAYER___0
  6
CONTINUOUS
 62
               7
100
AcDbPolyline
 90
        4
 70
             128
 10
-3762.1751803262368
 20
-2491.5012428483483
 10
-3725.6330364724508
 20
-2476.7147558844299
 10
-3684.8923375939048
 20
-2470.9806023990695
 10
-3593.9837213132942
 20
-2472.3057805595527
  0
LWPOLYLINE
  5
2B2
100
AcDbEntity
  8
LAYER___0
  6
CONTINUOUS
 62
               7
100
AcDbPolyline
 90
        5
 70
             128
 10
-3764.9351664589581
 20
-2490.2093834888369
 10
-3746.0667113397644
 20
-2480.3997152974098
 10
-3725.8599298991385
 20
-2473.7714679358132
 10
-3681.9239310691373
 20
-2467.8263909851094
 10
-3583.4099907229984
 20
-2469.5519951546435
  0
LWPOLYLINE
  5
2B9
100
AcDbEntity
  8
LAYER___0
  6
CONTINUOUS
 62
               7
100
AcDbPolyline
 90
        3
 70
             128
 10
-3768.2663610864715
 20
-2517.3583267152549
 10
-3684.3192969226034
 20
-2516.389424900326
 10
-3586.7411853505123
 20
-2521.1000383655028
  0
LWPOLYLINE
  5
2BE
100
AcDbEntity
  8
LAYER___0
  6
CONTINUOUS
 62
               7
100
AcDbPolyline
 90
        3
 70
             128
 10
-3768.2663610864715
 20
-2567.6265962217958
 10
-3684.3192969226034
 20
-2568.5954980367251
 10
-3586.7411853505123
 20
-2563.8848845715484
  0
LINE
  5
2C3
100
AcDbEntity
  8
LAYER___0
  6
POINTLINE
 62
               7
100
AcDbLine
 10
-3770.949217247065
 20
-2542.4924614685256
 30
0.0
 11
-3582.3247687606645
 21
-2542.4924614685256
 31
0.0
  0
LINE
  5
2C4
100
AcDbEntity
  8
LAYER___0
  6
CONTINUOUS
 62
               7
100
AcDbLine
 10
-3586.7411853505123
 20
-2521.1000383655028
 30
0.0
 11
-3586.7411853505123
 21
-2563.8848845715484
 31
0.0
  0
LINE
  5
2C5
100
AcDbEntity
  8
LAYER___0
  6
CONTINUOUS
 62
               7
100
AcDbLine
 10
-3768.2663610864715
 20
-2517.3583267152549
 30
0.0
 11
-3768.2663610864715
 21
-2567.6265962217958
 31
0.0
  0
LINE
  5
2C6
100
AcDbEntity
  8
LAYER___0
  6
CONTINUOUS
 62
               7
100
AcDbLine
 10
-3768.2663610864715
 20
-2517.3583267152549
 30
0.0
 11
-3586.7411853505123
 21
-2532.4924614685256
 31
0.0
  0
LINE
  5
2C7
100
AcDbEntity
  8
LAYER___0
  6
CONTINUOUS
 62
               7
100
AcDbLine
 10
-3768.2663610864715
 20
-2567.6265962217958
 30
0.0
 11
-3586.7411853505123
 21
-2552.4924614685256
 31
0.0
  0
LINE
  5
2C8
100
AcDbEntity
  8
LAYER___0
  6
CONTINUOUS
 62
               7
100
AcDbLine
 10
-3770.949217247065
 20
-2584.9541045236101
 30
0.0
 11
-3770.949217247065
 21
-2635.2223740301511
 31
0.0
  0
LINE
  5
2C9
100
AcDbEntity
  8
LAYER___0
  6
CONTINUOUS
 62
               7
100
AcDbLine
 10
-3582.3247687606645
 20
-2588.695816173858
 30
0.0
 11
-3582.3247687606645
 21
-2631.4806623799036
 31
0.0
  0
LINE
  5
2CA
100
AcDbEntity
  8
LAYER___0
  6
POINTLINE
 62
               7
100
AcDbLine
 10
-3770.949217247065
 20
-2610.0882392768808
 30
0.0
 11
-3582.3247687606645
 21
-2610.0882392768808
 31
0.0
  0
LWPOLYLINE
  5
2CB
100
AcDbEntity
  8
LAYER___0
  6
CONTINUOUS
 62
               7
100
AcDbPolyline
 90
        3
 70
             128
 10
-3770.949217247065
 20
-2584.9541045236101
 10
-3684.1026018689467
 20
-2583.9852027086813
 10
-3582.3247687606645
 20
-2588.695816173858
  0
LWPOLYLINE
  5
2D0
100
AcDbEntity
  8
LAYER___0
  6
CONTINUOUS
 62
               7
100
AcDbPolyline
 90
        3
 70
             128
 10
-3770.949217247065
 20
-2635.2223740301511
 10
-3684.1026018689467
 20
-2636.1912758450803
 10
-3582.3247687606645
 20
-2631.4806623799036
  0
LINE
  5
2D5
100
AcDbEntity
  8
LAYER___0
  6
DASHEDM
 62
               7
100
AcDbLine
 10
-3768.2663610864715
 20
-2584.9541045236101
 30
0.0
 11
-3586.7411853505123
 21
-2600.0882392768808
 31
0.0
  0
LINE
  5
2D6
100
AcDbEntity
  8
LAYER___0
  6
DASHEDM
 62
               7
100
AcDbLine
 10
-3768.2663610864715
 20
-2635.2223740301511
 30
0.0
 11
-3586.7411853505123
 21
-2620.0882392768808
 31
0.0
  0
LINE
  5
2D7
100
AcDbEntity
  8
LAYER___0
  6
DASHEDM
 62
               7
100
AcDbLine
 10
-3770.949217247065
 20
-2517.3583267152549
 30
0.0
 11
-3770.949217247065
 21
-2567.6265962217958
 31
0.0
  0
LINE
  5
2D8
100
AcDbEntity
  8
LAYER___0
  6
DASHEDM
 62
               7
100
AcDbLine
 10
-3582.3247687606645
 20
-2521.1000383655028
 30
0.0
 11
-3582.3247687606645
 21
-2563.8848845715484
 31
0.0
  0
LINE
  5
2D9
100
AcDbEntity
  8
LAYER___0
  6
CONTINUOUS
 62
               7
100
AcDbLine
 10
-3266.503087378881
 20
-1071.0293573576605
 30
0.0
 11
-3092.1549776656775
 21
-1071.0293573576605
 31
0.0
  0
LINE
  5
2DA
100
AcDbEntity
  8
LAYER___0
  6
CONTINUOUS
 62
               7
100
AcDbLine
 10
-3266.503087378881
 20
-1077.0293573576605
 30
0.0
 11
-3092.1549776656775
 21
-1077.0293573576605
 31
0.0
  0
LINE
  5
2DB
100
AcDbEntity
  8
LAYER___0
  6
CONTINUOUS
 62
               5
100
AcDbLine
 10
-2198.9524554549798
 20
-1085.9117283874355
 30
0.0
 11
-2198.9524554549798
 21
-1097.4117283874355
 31
0.0
  0
LINE
  5
2DC
100
AcDbEntity
  8
LAYER___0
  6
CONTINUOUS
 62
               5
100
AcDbLine
 10
-2198.9524554549798
 20
-1085.9117283874355
 30
0.0
 11
-2194.75245545498
 21
-1085.9117283874355
 31
0.0
  0
LINE
  5
2DD
100
AcDbEntity
  8
LAYER___0
  6
CONTINUOUS
 62
               5
100
AcDbLine
 10
-2194.75245545498
 20
-1085.9117283874355
 30
0.0
 11
-2194.75245545498
 21
-1097.4117283874355
 31
0.0
  0
LINE
  5
2DE
100
AcDbEntity
  8
LAYER___0
  6
CONTINUOUS
 62
               5
100
AcDbLine
 10
-2198.9524554549798
 20
-1097.4117283874355
 30
0.0
 11
-2194.75245545498
 21
-1097.4117283874355
 31
0.0
  0
CIRCLE
  5
2DF
100
AcDbEntity
  8
LAYER___0
  6
CONTINUOUS
 62
               5
100
AcDbCircle
 10
-2188.75245545498
 20
-1104.9117283874355
 30
0.0
 40
1.75
  0
LINE
  5
2E0
100
AcDbEntity
  8
LAYER___0
  6
CONTINUOUS
 62
               5
100
AcDbLine
 10
-2185.75245545498
 20
-1091.6617283874355
 30
0.0
 11
-2187.00245545498
 21
-1104.9117283874355
 31
0.0
  0
LINE
  5
2E1
100
AcDbEntity
  8
LAYER___0
  6
CONTINUOUS
 62
               5
100
AcDbLine
 10
-2191.75245545498
 20
-1091.6617283874355
 30
0.0
 11
-2190.50245545498
 21
-1104.9117283874355
 31
0.0
  0
CIRCLE
  5
2E2
100
AcDbEntity
  8
LAYER___0
  6
CONTINUOUS
 62
               5
100
AcDbCircle
 10
-2188.75245545498
 20
-1091.6617283874355
 30
0.0
 40
3.0
  0
ARC
  5
2E3
100
AcDbEntity
  8
LAYER___0
  6
CONTINUOUS
 62
               5
100
AcDbCircle
 10
-2188.75245545498
 20
-1091.6617283874355
 30
0.0
 40
6.0
100
AcDbArc
 50
106.59784213586656
 51
253.40215786413347
  0
ARC
  5
2E4
100
AcDbEntity
  8
LAYER___0
  6
CONTINUOUS
 62
               5
100
AcDbCircle
 10
-2188.75245545498
 20
-1091.6617283874355
 30
0.0
 40
6.0
100
AcDbArc
 50
286.59784213586653
 51
73.402157864133443
  0
LINE
  5
2E5
100
AcDbEntity
  8
LAYER___0
  6
CONTINUOUS
 62
               5
100
AcDbLine
 10
-2167.5524554549797
 20
-1085.9117283874355
 30
0.0
 11
-2171.75245545498
 21
-1085.9117283874355
 31
0.0
  0
LINE
  5
2E6
100
AcDbEntity
  8
LAYER___0
  6
CONTINUOUS
 62
               5
100
AcDbLine
 10
-2167.5524554549797
 20
-1097.4117283874355
 30
0.0
 11
-2171.75245545498
 21
-1097.4117283874355
 31
0.0
  0
LINE
  5
2E7
100
AcDbEntity
  8
LAYER___0
  6
CONTINUOUS
 62
               5
100
AcDbLine
 10
-2171.75245545498
 20
-1097.4117283874355
 30
0.0
 11
-2194.75245545498
 21
-1097.4117283874355
 31
0.0
  0
LINE
  5
2E8
100
AcDbEntity
  8
LAYER___0
  6
CONTINUOUS
 62
               5
100
AcDbLine
 10
-2171.75245545498
 20
-1085.9117283874355
 30
0.0
 11
-2194.75245545498
 21
-1085.9117283874355
 31
0.0
  0
LINE
  5
2E9
100
AcDbEntity
  8
LAYER___0
  6
CONTINUOUS
 62
               5
100
AcDbLine
 10
-2171.75245545498
 20
-1085.9117283874355
 30
0.0
 11
-2171.75245545498
 21
-1097.4117283874355
 31
0.0
  0
LINE
  5
2EA
100
AcDbEntity
  8
LAYER___0
  6
CONTINUOUS
 62
               5
100
AcDbLine
 10
-2167.5524554549797
 20
-1085.9117283874355
 30
0.0
 11
-2167.5524554549797
 21
-1097.4117283874355
 31
0.0
  0
LINE
  5
2EB
100
AcDbEntity
  8
LAYER___0
  6
POINTLINE
 62
               5
100
AcDbLine
 10
-2188.75245545498
 20
-1085.9117283874355
 30
0.0
 11
-2188.75245545498
 21
-1106.6617283874355
 31
0.0
  0
LINE
  5
2EC
100
AcDbEntity
  8
LAYER___0
  6
POINTLINE
 62
               5
100
AcDbLine
 10
-2194.75245545498
 20
-1091.6617283874355
 30
0.0
 11
-2198.9524554549798
 21
-1091.6617283874355
 31
0.0
  0
LINE
  5
2ED
100
AcDbEntity
  8
LAYER___0
  6
POINTLINE
 62
               5
100
AcDbLine
 10
-2167.5524554549797
 20
-1091.6617283874355
 30
0.0
 11
-2171.75245545498
 21
-1091.6617283874355
 31
0.0
  0
LINE
  5
2EE
100
AcDbEntity
  8
LAYER___0
  6
POINTLINE
 62
               5
100
AcDbLine
 10
-2171.75245545498
 20
-1091.6617283874355
 30
0.0
 11
-2194.75245545498
 21
-1091.6617283874355
 31
0.0
  0
POINT
  5
2EF
100
AcDbEntity
  8
LAYER___0
  6
CONTINUOUS
 62
               5
100
AcDbPoint
 10
-2169.6524554549801
 20
-1091.6617283874355
 30
0.0
  0
POINT
  5
2F0
100
AcDbEntity
  8
LAYER___0
  6
CONTINUOUS
 62
               5
100
AcDbPoint
 10
-2196.8524554549799
 20
-1091.6617283874355
 30
0.0
  0
LINE
  5
2F1
100
AcDbEntity
  8
LAYER___0
  6
CONTINUOUS
 62
               7
100
AcDbLine
 10
-2043.3239713134496
 20
-1104.9117283874355
 30
0.0
 11
-2188.75245545498
 21
-1104.9117283874355
 31
0.0
  0
LINE
  5
2F2
100
AcDbEntity
  8
LAYER___0
  6
DASHEDM
 62
               5
100
AcDbLine
 10
-2343.3556804345103
 20
-646.17054345299687
 30
0.0
 11
-1990.8239713134496
 21
-646.17054345299687
 31
0.0
  0
LINE
  5
2F3
100
AcDbEntity
  8
LAYER___0
  6
DASHEDM
 62
               1
100
AcDbLine
 10
-4289.1946341233643
 20
-1629.5530351088119
 30
0.0
 11
-4289.1946341233643
 21
-1767.4658121886509
 31
0.0
  0
LINE
  5
2F4
100
AcDbEntity
  8
LAYER___0
  6
POINTLINE
 62
               7
100
AcDbLine
 10
-4510.3124297736476
 20
-1835.1053138695584
 30
0.0
 11
-4000.7606199447846
 21
-1835.1053138695584
 31
0.0
  0
LINE
  5
2F5
100
AcDbEntity
  8
LAYER___0
  6
CONTINUOUS
 62
               7
100
AcDbLine
 10
-4443.0810679132373
 20
-1858.2167364859047
 30
0.0
 11
-4443.0810679132373
 21
-1811.9938912532123
 31
0.0
  0
LINE
  5
2F6
100
AcDbEntity
  8
LAYER___0
  6
DASHEDM
 62
               1
100
AcDbLine
 10
-4289.7198911288679
 20
-1767.4658121886509
 30
0.0
 11
-4289.7198911288679
 21
-1977.0165430235133
 31
0.0
  0
LINE
  5
2F7
100
AcDbEntity
  8
LAYER___0
  6
CONTINUOUS
 62
               7
100
AcDbLine
 10
-4077.0810679132378
 20
-1858.2167364859047
 30
0.0
 11
-4077.0810679132378
 21
-1811.9938912532123
 31
0.0
  0
LINE
  5
2F8
100
AcDbEntity
  8
LAYER___0
  6
CONTINUOUS
 62
               7
100
AcDbLine
 10
-4443.0810679132373
 20
-1811.9938912532123
 30
0.0
 11
-4077.0810679132378
 21
-1811.9938912532123
 31
0.0
  0
LINE
  5
2F9
100
AcDbEntity
  8
LAYER___0
  6
CONTINUOUS
 62
               7
100
AcDbLine
 10
-4443.0810679132373
 20
-1858.2167364859047
 30
0.0
 11
-4077.0810679132378
 21
-1858.2167364859047
 31
0.0
  0
LINE
  5
2FA
100
AcDbEntity
  8
LAYER___0
  6
POINTLINE
 62
               7
100
AcDbLine
 10
-3468.3643298961874
 20
-2513.6983265923468
 30
0.0
 11
-3256.5486784775212
 21
-2513.6983265923468
 31
0.0
  0
LINE
  5
2FB
100
AcDbEntity
  8
LAYER___0
  6
CONTINUOUS
 62
               7
100
AcDbLine
 10
-3468.3643298961874
 20
-2455.9633220389987
 30
0.0
 11
-3256.5486784775212
 21
-2474.1741176666678
 31
0.0
  0
LINE
  5
2FC
100
AcDbEntity
  8
LAYER___0
  6
CONTINUOUS
 62
               5
100
AcDbLine
 10
-3311.6611521821287
 20
-2501.8159555625716
 30
0.0
 11
-3311.6611521821287
 21
-2490.3159555625716
 31
0.0
  0
LINE
  5
2FD
100
AcDbEntity
  8
LAYER___0
  6
CONTINUOUS
 62
               5
100
AcDbLine
 10
-3311.6611521821287
 20
-2501.8159555625716
 30
0.0
 11
-3307.4611521821284
 21
-2501.8159555625716
 31
0.0
  0
LINE
  5
2FE
100
AcDbEntity
  8
LAYER___0
  6
CONTINUOUS
 62
               5
100
AcDbLine
 10
-3307.4611521821284
 20
-2501.8159555625716
 30
0.0
 11
-3307.4611521821284
 21
-2490.3159555625716
 31
0.0
  0
LINE
  5
2FF
100
AcDbEntity
  8
LAYER___0
  6
CONTINUOUS
 62
               5
100
AcDbLine
 10
-3311.6611521821287
 20
-2490.3159555625716
 30
0.0
 11
-3307.4611521821284
 21
-2490.3159555625716
 31
0.0
  0
CIRCLE
  5
300
100
AcDbEntity
  8
LAYER___0
  6
CONTINUOUS
 62
               5
100
AcDbCircle
 10
-3301.4611521821284
 20
-2482.8159555625716
 30
0.0
 40
1.75
  0
LINE
  5
301
100
AcDbEntity
  8
LAYER___0
  6
CONTINUOUS
 62
               5
100
AcDbLine
 10
-3298.4611521821284
 20
-2496.0659555625716
 30
0.0
 11
-3299.7111521821284
 21
-2482.8159555625716
 31
0.0
  0
LINE
  5
302
100
AcDbEntity
  8
LAYER___0
  6
CONTINUOUS
 62
               5
100
AcDbLine
 10
-3304.4611521821284
 20
-2496.0659555625716
 30
0.0
 11
-3303.2111521821284
 21
-2482.8159555625716
 31
0.0
  0
CIRCLE
  5
303
100
AcDbEntity
  8
LAYER___0
  6
CONTINUOUS
 62
               5
100
AcDbCircle
 10
-3301.4611521821284
 20
-2496.0659555625716
 30
0.0
 40
3.0
  0
ARC
  5
304
100
AcDbEntity
  8
LAYER___0
  6
CONTINUOUS
 62
               5
100
AcDbCircle
 10
-3301.4611521821284
 20
-2496.0659555625716
 30
0.0
 40
6.0
100
AcDbArc
 50
106.59784213586656
 51
253.40215786413347
  0
ARC
  5
305
100
AcDbEntity
  8
LAYER___0
  6
CONTINUOUS
 62
               5
100
AcDbCircle
 10
-3301.4611521821284
 20
-2496.0659555625716
 30
0.0
 40
6.0
100
AcDbArc
 50
286.59784213586653
 51
73.402157864133443
  0
LINE
  5
306
100
AcDbEntity
  8
LAYER___0
  6
CONTINUOUS
 62
               5
100
AcDbLine
 10
-3280.2611521821286
 20
-2501.8159555625716
 30
0.0
 11
-3284.4611521821284
 21
-2501.8159555625716
 31
0.0
  0
LINE
  5
307
100
AcDbEntity
  8
LAYER___0
  6
CONTINUOUS
 62
               5
100
AcDbLine
 10
-3280.2611521821286
 20
-2490.3159555625716
 30
0.0
 11
-3284.4611521821284
 21
-2490.3159555625716
 31
0.0
  0
LINE
  5
308
100
AcDbEntity
  8
LAYER___0
  6
CONTINUOUS
 62
               5
100
AcDbLine
 10
-3284.4611521821284
 20
-2490.3159555625716
 30
0.0
 11
-3307.4611521821284
 21
-2490.3159555625716
 31
0.0
  0
LINE
  5
309
100
AcDbEntity
  8
LAYER___0
  6
CONTINUOUS
 62
               5
100
AcDbLine
 10
-3284.4611521821284
 20
-2501.8159555625716
 30
0.0
 11
-3307.4611521821284
 21
-2501.8159555625716
 31
0.0
  0
LINE
  5
30A
100
AcDbEntity
  8
LAYER___0
  6
CONTINUOUS
 62
               5
100
AcDbLine
 10
-3284.4611521821284
 20
-2501.8159555625716
 30
0.0
 11
-3284.4611521821284
 21
-2490.3159555625716
 31
0.0
  0
LINE
  5
30B
100
AcDbEntity
  8
LAYER___0
  6
CONTINUOUS
 62
               5
100
AcDbLine
 10
-3280.2611521821286
 20
-2501.8159555625716
 30
0.0
 11
-3280.2611521821286
 21
-2490.3159555625716
 31
0.0
  0
LINE
  5
30C
100
AcDbEntity
  8
LAYER___0
  6
POINTLINE
 62
               5
100
AcDbLine
 10
-3301.4611521821284
 20
-2501.8159555625716
 30
0.0
 11
-3301.4611521821284
 21
-2481.0659555625716
 31
0.0
  0
LINE
  5
30D
100
AcDbEntity
  8
LAYER___0
  6
POINTLINE
 62
               5
100
AcDbLine
 10
-3307.4611521821284
 20
-2496.0659555625716
 30
0.0
 11
-3311.6611521821287
 21
-2496.0659555625716
 31
0.0
  0
LINE
  5
30E
100
AcDbEntity
  8
LAYER___0
  6
POINTLINE
 62
               5
100
AcDbLine
 10
-3280.2611521821286
 20
-2496.0659555625716
 30
0.0
 11
-3284.4611521821284
 21
-2496.0659555625716
 31
0.0
  0
LINE
  5
30F
100
AcDbEntity
  8
LAYER___0
  6
POINTLINE
 62
               5
100
AcDbLine
 10
-3284.4611521821284
 20
-2496.0659555625716
 30
0.0
 11
-3307.4611521821284
 21
-2496.0659555625716
 31
0.0
  0
POINT
  5
310
100
AcDbEntity
  8
LAYER___0
  6
CONTINUOUS
 62
               5
100
AcDbPoint
 10
-3282.3611521821285
 20
-2496.0659555625716
 30
0.0
  0
POINT
  5
311
100
AcDbEntity
  8
LAYER___0
  6
CONTINUOUS
 62
               5
100
AcDbPoint
 10
-3309.5611521821284
 20
-2496.0659555625716
 30
0.0
  0
LINE
  5
312
100
AcDbEntity
  8
LAYER___0
  6
CONTINUOUS
 62
               7
100
AcDbLine
 10
-3256.5486784775212
 20
-2474.1741176666678
 30
0.0
 11
-3256.5486784775212
 21
-2513.6983265923468
 31
0.0
  0
LINE
  5
313
100
AcDbEntity
  8
LAYER___0
  6
CONTINUOUS
 62
               7
100
AcDbLine
 10
-3468.3643298961874
 20
-2455.9633220389987
 30
0.0
 11
-3468.3643298961874
 21
-2513.6983265923468
 31
0.0
  0
LINE
  5
314
100
AcDbEntity
  8
LAYER___0
  6
CONTINUOUS
 62
               7
100
AcDbLine
 10
-3502.8761023599886
 20
-2587.6433685809257
 30
0.0
 11
-3502.8761023599886
 21
-2397.6433685809257
 31
0.0
  0
LINE
  5
315
100
AcDbEntity
  8
LAYER___0
  6
CONTINUOUS
 62
               7
100
AcDbLine
 10
-3502.8761023599886
 20
-2397.6433685809257
 30
0.0
 11
-3225.8761023599886
 21
-2397.6433685809257
 31
0.0
  0
LINE
  5
316
100
AcDbEntity
  8
LAYER___0
  6
CONTINUOUS
 62
               7
100
AcDbLine
 10
-3225.8761023599886
 20
-2587.6433685809257
 30
0.0
 11
-3225.8761023599886
 21
-2397.6433685809257
 31
0.0
  0
LINE
  5
317
100
AcDbEntity
  8
LAYER___0
  6
CONTINUOUS
 62
               7
100
AcDbLine
 10
-3502.8761023599886
 20
-2587.6433685809257
 30
0.0
 11
-3225.8761023599886
 21
-2587.6433685809257
 31
0.0
  0
ENDSEC
  0
SECTION
  2
OBJECTS
  0
DICTIONARY
  5
318
100
AcDbDictionary
280
               0
281
               1
  3
ACAD_GROUP
350
319
  3
ACAD_MLINESTYLE
350
31A
  0
DICTIONARY
  5
319
102
{ACAD_REACTORS
330
318
102
}
100
AcDbDictionary
280
               0
281
               1
  0
DICTIONARY
  5
31A
102
{ACAD_REACTORS
330
318
102
}
100
AcDbDictionary
280
               0
281
               1
  3
Standard
350
31B
  0
MLINESTYLE
  5
31B
102
{ACAD_REACTORS
330
31A
102
}
100
AcDbMlineStyle
  2
Standard
 70
               0
  3

 62
               0
 51
90.0
 52
90.0
 71
               2
 49
0.5
 62
             256
  6
ByLayer
 49
-0.5
 62
             256
  6
ByLayer
  0
ENDSEC
  0
EOF
