999
Created by ExtraCAD III per Windows 95
  0
SECTION
  2
HEADER
  9
$EXTMIN
 10
-633.333333333333333
 20
-1680
  9
$EXTMAX
 10
713.333333333333333
 20
-190
  9
$LTSCALE
 40
0.1
  9
$PDMODE
 70
2
  9
$PDSIZE
 40
1.5
  0
ENDSEC
  0
SECTION
  2
TABLES
  0
TABLE
  2
LTYPE
 70
32
  0
LTYPE
  2
SOLID
 70
0
  3
Solido
 72
65
 73
0
 40
0
  0
LTYPE
  2
DOTTED
 70
0
  3
Punteggiato
 72
65
 73
2
 40
12
 49
2
 49
-10
  0
LTYPE
  2
DASHEDS
 70
0
  3
Tratteggiato piccolo
 72
65
 73
2
 40
20
 49
10
 49
-10
  0
LTYPE
  2
DASHEDM
 70
0
  3
Tratteggiato medio
 72
65
 73
2
 40
40
 49
20
 49
-20
  0
LTYPE
  2
DASHEDL
 70
0
  3
Tratteggiato grande
 72
65
 73
2
 40
60
 49
40
 49
-20
  0
LTYPE
  2
CENTERED
 70
0
  3
Tratteggiato misto
 72
65
 73
4
 40
70
 49
10
 49
-20
 49
20
 49
-20
  0
LTYPE
  2
POINTLINE
 70
0
  3
Punto e linea
 72
65
 73
4
 40
62
 49
20
 49
-20
 49
2
 49
-20
  0
LTYPE
  2
2POINTLINE
 70
0
  3
Due punti e linea
 72
65
 73
6
 40
84
 49
20
 49
-20
 49
2
 49
-20
 49
2
 49
-20
  0
LTYPE
  2
BORDER
 70
0
  3
AutoCAD BORDER
 72
65
 73
6
 40
450
 49
128
 49
-64
 49
128
 49
-64
 49
2
 49
-64
  0
LTYPE
  2
BORDER2
 70
0
  3
AutoCAD BORDER2
 72
65
 73
6
 40
226
 49
64
 49
-32
 49
64
 49
-32
 49
2
 49
-32
  0
LTYPE
  2
BORDERX2
 70
0
  3
AutoCAD BORDERX2
 72
65
 73
6
 40
898
 49
256
 49
-128
 49
256
 49
-128
 49
2
 49
-128
  0
LTYPE
  2
CENTER
 70
0
  3
AutoCAD CENTER
 72
65
 73
4
 40
512
 49
320
 49
-64
 49
64
 49
-64
  0
LTYPE
  2
CENTER2
 70
0
  3
AutoCAD CENTER2
 72
65
 73
4
 40
256
 49
160
 49
-32
 49
32
 49
-32
  0
LTYPE
  2
CENTERX2
 70
0
  3
AutoCAD CENTERX2
 72
65
 73
4
 40
1024
 49
640
 49
-128
 49
128
 49
-128
  0
LTYPE
  2
DASHDOT
 70
0
  3
AutoCAD DASHDOT
 72
65
 73
4
 40
258
 49
128
 49
-64
 49
2
 49
-64
  0
LTYPE
  2
DASHDOT2
 70
0
  3
AutoCAD DASHDOT2
 72
65
 73
4
 40
130
 49
64
 49
-32
 49
2
 49
-32
  0
LTYPE
  2
DASHDOTX2
 70
0
  3
AutoCAD DASHDOTX2
 72
65
 73
4
 40
514
 49
256
 49
-128
 49
2
 49
-128
  0
LTYPE
  2
DASHED
 70
0
  3
AutoCAD DASHED
 72
65
 73
2
 40
192
 49
128
 49
-64
  0
LTYPE
  2
DASHED2
 70
0
  3
AutoCAD DASHED2
 72
65
 73
2
 40
96
 49
64
 49
-32
  0
LTYPE
  2
DASHEDX2
 70
0
  3
AutoCAD DASHEDX2
 72
65
 73
2
 40
384
 49
256
 49
-128
  0
LTYPE
  2
DIVIDE
 70
0
  3
AutoCAD DIVIDE
 72
65
 73
6
 40
324
 49
128
 49
-64
 49
2
 49
-64
 49
2
 49
-64
  0
LTYPE
  2
DIVIDE2
 70
0
  3
AutoCAD DIVIDE2
 72
65
 73
6
 40
164
 49
64
 49
-32
 49
2
 49
-32
 49
2
 49
-32
  0
LTYPE
  2
DIVIDEX2
 70
0
  3
AutoCAD DIVIDEX2
 72
65
 73
6
 40
644
 49
256
 49
-128
 49
2
 49
-128
 49
2
 49
-128
  0
LTYPE
  2
DOT
 70
0
  3
AutoCAD DOT
 72
65
 73
2
 40
66
 49
2
 49
-64
  0
LTYPE
  2
DOT2
 70
0
  3
AutoCAD DOT2
 72
65
 73
2
 40
34
 49
2
 49
-32
  0
LTYPE
  2
DOTX2
 70
0
  3
AutoCAD DOTX2
 72
65
 73
2
 40
130
 49
2
 49
-128
  0
LTYPE
  2
HIDDEN
 70
0
  3
AutoCAD HIDDEN
 72
65
 73
2
 40
96
 49
64
 49
-32
  0
LTYPE
  2
HIDDEN2
 70
0
  3
AutoCAD HIDDEN2
 72
65
 73
2
 40
48
 49
32
 49
-16
  0
LTYPE
  2
HIDDENX2
 70
0
  3
AutoCAD HIDDENX2
 72
65
 73
2
 40
192
 49
128
 49
-64
  0
LTYPE
  2
PHANTOM
 70
0
  3
AutoCAD PHANTOM
 72
65
 73
6
 40
640
 49
320
 49
-64
 49
64
 49
-64
 49
64
 49
-64
  0
LTYPE
  2
PHANTOM2
 70
0
  3
AutoCAD PHANTOM2
 72
65
 73
6
 40
320
 49
160
 49
-32
 49
32
 49
-32
 49
32
 49
-32
  0
LTYPE
  2
PHANTOMX2
 70
0
  3
AutoCAD PHANTOMX2
 72
65
 73
6
 40
1280
 49
640
 49
-128
 49
128
 49
-128
 49
128
 49
-128
  0
ENDTAB
  0
TABLE
  2
LAYER
 70
256
  0
LAYER
  2
0
 70
0
 62
7
  6
SOLID
  0
LAYER
  2
1
 70
0
 62
7
  6
SOLID
  0
LAYER
  2
2
 70
0
 62
7
  6
SOLID
  0
LAYER
  2
3
 70
0
 62
7
  6
SOLID
  0
LAYER
  2
4
 70
0
 62
7
  6
SOLID
  0
LAYER
  2
5
 70
0
 62
7
  6
SOLID
  0
LAYER
  2
6
 70
0
 62
7
  6
SOLID
  0
LAYER
  2
7
 70
0
 62
7
  6
SOLID
  0
LAYER
  2
8
 70
0
 62
7
  6
SOLID
  0
LAYER
  2
9
 70
0
 62
7
  6
SOLID
  0
LAYER
  2
10
 70
0
 62
7
  6
SOLID
  0
LAYER
  2
11
 70
0
 62
7
  6
SOLID
  0
LAYER
  2
12
 70
0
 62
7
  6
SOLID
  0
LAYER
  2
13
 70
0
 62
7
  6
SOLID
  0
LAYER
  2
14
 70
0
 62
7
  6
SOLID
  0
LAYER
  2
15
 70
0
 62
7
  6
SOLID
  0
LAYER
  2
16
 70
0
 62
7
  6
SOLID
  0
LAYER
  2
17
 70
0
 62
7
  6
SOLID
  0
LAYER
  2
18
 70
0
 62
7
  6
SOLID
  0
LAYER
  2
19
 70
0
 62
7
  6
SOLID
  0
LAYER
  2
20
 70
0
 62
7
  6
SOLID
  0
LAYER
  2
21
 70
0
 62
7
  6
SOLID
  0
LAYER
  2
22
 70
0
 62
7
  6
SOLID
  0
LAYER
  2
23
 70
0
 62
7
  6
SOLID
  0
LAYER
  2
24
 70
0
 62
7
  6
SOLID
  0
LAYER
  2
25
 70
0
 62
7
  6
SOLID
  0
LAYER
  2
26
 70
0
 62
7
  6
SOLID
  0
LAYER
  2
27
 70
0
 62
7
  6
SOLID
  0
LAYER
  2
28
 70
0
 62
7
  6
SOLID
  0
LAYER
  2
29
 70
0
 62
7
  6
SOLID
  0
LAYER
  2
30
 70
0
 62
7
  6
SOLID
  0
LAYER
  2
31
 70
0
 62
7
  6
SOLID
  0
LAYER
  2
32
 70
0
 62
7
  6
SOLID
  0
LAYER
  2
33
 70
0
 62
7
  6
SOLID
  0
LAYER
  2
34
 70
0
 62
7
  6
SOLID
  0
LAYER
  2
35
 70
0
 62
7
  6
SOLID
  0
LAYER
  2
36
 70
0
 62
7
  6
SOLID
  0
LAYER
  2
37
 70
0
 62
7
  6
SOLID
  0
LAYER
  2
38
 70
0
 62
7
  6
SOLID
  0
LAYER
  2
39
 70
0
 62
7
  6
SOLID
  0
LAYER
  2
40
 70
0
 62
7
  6
SOLID
  0
LAYER
  2
41
 70
0
 62
7
  6
SOLID
  0
LAYER
  2
42
 70
0
 62
7
  6
SOLID
  0
LAYER
  2
43
 70
0
 62
7
  6
SOLID
  0
LAYER
  2
44
 70
0
 62
7
  6
SOLID
  0
LAYER
  2
45
 70
0
 62
7
  6
SOLID
  0
LAYER
  2
46
 70
0
 62
7
  6
SOLID
  0
LAYER
  2
47
 70
0
 62
7
  6
SOLID
  0
LAYER
  2
48
 70
0
 62
7
  6
SOLID
  0
LAYER
  2
49
 70
0
 62
7
  6
SOLID
  0
LAYER
  2
50
 70
0
 62
7
  6
SOLID
  0
LAYER
  2
51
 70
0
 62
7
  6
SOLID
  0
LAYER
  2
52
 70
0
 62
7
  6
SOLID
  0
LAYER
  2
53
 70
0
 62
7
  6
SOLID
  0
LAYER
  2
54
 70
0
 62
7
  6
SOLID
  0
LAYER
  2
55
 70
0
 62
7
  6
SOLID
  0
LAYER
  2
56
 70
0
 62
7
  6
SOLID
  0
LAYER
  2
57
 70
0
 62
7
  6
SOLID
  0
LAYER
  2
58
 70
0
 62
7
  6
SOLID
  0
LAYER
  2
59
 70
0
 62
7
  6
SOLID
  0
LAYER
  2
60
 70
0
 62
7
  6
SOLID
  0
LAYER
  2
61
 70
0
 62
7
  6
SOLID
  0
LAYER
  2
62
 70
0
 62
7
  6
SOLID
  0
LAYER
  2
63
 70
0
 62
7
  6
SOLID
  0
LAYER
  2
64
 70
0
 62
7
  6
SOLID
  0
LAYER
  2
65
 70
0
 62
7
  6
SOLID
  0
LAYER
  2
66
 70
0
 62
7
  6
SOLID
  0
LAYER
  2
67
 70
0
 62
7
  6
SOLID
  0
LAYER
  2
68
 70
0
 62
7
  6
SOLID
  0
LAYER
  2
69
 70
0
 62
7
  6
SOLID
  0
LAYER
  2
70
 70
0
 62
7
  6
SOLID
  0
LAYER
  2
71
 70
0
 62
7
  6
SOLID
  0
LAYER
  2
72
 70
0
 62
7
  6
SOLID
  0
LAYER
  2
73
 70
0
 62
7
  6
SOLID
  0
LAYER
  2
74
 70
0
 62
7
  6
SOLID
  0
LAYER
  2
75
 70
0
 62
7
  6
SOLID
  0
LAYER
  2
76
 70
0
 62
7
  6
SOLID
  0
LAYER
  2
77
 70
0
 62
7
  6
SOLID
  0
LAYER
  2
78
 70
0
 62
7
  6
SOLID
  0
LAYER
  2
79
 70
0
 62
7
  6
SOLID
  0
LAYER
  2
80
 70
0
 62
7
  6
SOLID
  0
LAYER
  2
81
 70
0
 62
7
  6
SOLID
  0
LAYER
  2
82
 70
0
 62
7
  6
SOLID
  0
LAYER
  2
83
 70
0
 62
7
  6
SOLID
  0
LAYER
  2
84
 70
0
 62
7
  6
SOLID
  0
LAYER
  2
85
 70
0
 62
7
  6
SOLID
  0
LAYER
  2
86
 70
0
 62
7
  6
SOLID
  0
LAYER
  2
87
 70
0
 62
7
  6
SOLID
  0
LAYER
  2
88
 70
0
 62
7
  6
SOLID
  0
LAYER
  2
89
 70
0
 62
7
  6
SOLID
  0
LAYER
  2
90
 70
0
 62
7
  6
SOLID
  0
LAYER
  2
91
 70
0
 62
7
  6
SOLID
  0
LAYER
  2
92
 70
0
 62
7
  6
SOLID
  0
LAYER
  2
93
 70
0
 62
7
  6
SOLID
  0
LAYER
  2
94
 70
0
 62
7
  6
SOLID
  0
LAYER
  2
95
 70
0
 62
7
  6
SOLID
  0
LAYER
  2
96
 70
0
 62
7
  6
SOLID
  0
LAYER
  2
97
 70
0
 62
7
  6
SOLID
  0
LAYER
  2
98
 70
0
 62
7
  6
SOLID
  0
LAYER
  2
99
 70
0
 62
7
  6
SOLID
  0
LAYER
  2
100
 70
0
 62
7
  6
SOLID
  0
LAYER
  2
101
 70
0
 62
7
  6
SOLID
  0
LAYER
  2
102
 70
0
 62
7
  6
SOLID
  0
LAYER
  2
103
 70
0
 62
7
  6
SOLID
  0
LAYER
  2
104
 70
0
 62
7
  6
SOLID
  0
LAYER
  2
105
 70
0
 62
7
  6
SOLID
  0
LAYER
  2
106
 70
0
 62
7
  6
SOLID
  0
LAYER
  2
107
 70
0
 62
7
  6
SOLID
  0
LAYER
  2
108
 70
0
 62
7
  6
SOLID
  0
LAYER
  2
109
 70
0
 62
7
  6
SOLID
  0
LAYER
  2
110
 70
0
 62
7
  6
SOLID
  0
LAYER
  2
111
 70
0
 62
7
  6
SOLID
  0
LAYER
  2
112
 70
0
 62
7
  6
SOLID
  0
LAYER
  2
113
 70
0
 62
7
  6
SOLID
  0
LAYER
  2
114
 70
0
 62
7
  6
SOLID
  0
LAYER
  2
115
 70
0
 62
7
  6
SOLID
  0
LAYER
  2
116
 70
0
 62
7
  6
SOLID
  0
LAYER
  2
117
 70
0
 62
7
  6
SOLID
  0
LAYER
  2
118
 70
0
 62
7
  6
SOLID
  0
LAYER
  2
119
 70
0
 62
7
  6
SOLID
  0
LAYER
  2
120
 70
0
 62
7
  6
SOLID
  0
LAYER
  2
121
 70
0
 62
7
  6
SOLID
  0
LAYER
  2
122
 70
0
 62
7
  6
SOLID
  0
LAYER
  2
123
 70
0
 62
7
  6
SOLID
  0
LAYER
  2
124
 70
0
 62
7
  6
SOLID
  0
LAYER
  2
125
 70
0
 62
7
  6
SOLID
  0
LAYER
  2
126
 70
0
 62
7
  6
SOLID
  0
LAYER
  2
127
 70
0
 62
7
  6
SOLID
  0
LAYER
  2
128
 70
0
 62
7
  6
SOLID
  0
LAYER
  2
129
 70
0
 62
7
  6
SOLID
  0
LAYER
  2
130
 70
0
 62
7
  6
SOLID
  0
LAYER
  2
131
 70
0
 62
7
  6
SOLID
  0
LAYER
  2
132
 70
0
 62
7
  6
SOLID
  0
LAYER
  2
133
 70
0
 62
7
  6
SOLID
  0
LAYER
  2
134
 70
0
 62
7
  6
SOLID
  0
LAYER
  2
135
 70
0
 62
7
  6
SOLID
  0
LAYER
  2
136
 70
0
 62
7
  6
SOLID
  0
LAYER
  2
137
 70
0
 62
7
  6
SOLID
  0
LAYER
  2
138
 70
0
 62
7
  6
SOLID
  0
LAYER
  2
139
 70
0
 62
7
  6
SOLID
  0
LAYER
  2
140
 70
0
 62
7
  6
SOLID
  0
LAYER
  2
141
 70
0
 62
7
  6
SOLID
  0
LAYER
  2
142
 70
0
 62
7
  6
SOLID
  0
LAYER
  2
143
 70
0
 62
7
  6
SOLID
  0
LAYER
  2
144
 70
0
 62
7
  6
SOLID
  0
LAYER
  2
145
 70
0
 62
7
  6
SOLID
  0
LAYER
  2
146
 70
0
 62
7
  6
SOLID
  0
LAYER
  2
147
 70
0
 62
7
  6
SOLID
  0
LAYER
  2
148
 70
0
 62
7
  6
SOLID
  0
LAYER
  2
149
 70
0
 62
7
  6
SOLID
  0
LAYER
  2
150
 70
0
 62
7
  6
SOLID
  0
LAYER
  2
151
 70
0
 62
7
  6
SOLID
  0
LAYER
  2
152
 70
0
 62
7
  6
SOLID
  0
LAYER
  2
153
 70
0
 62
7
  6
SOLID
  0
LAYER
  2
154
 70
0
 62
7
  6
SOLID
  0
LAYER
  2
155
 70
0
 62
7
  6
SOLID
  0
LAYER
  2
156
 70
0
 62
7
  6
SOLID
  0
LAYER
  2
157
 70
0
 62
7
  6
SOLID
  0
LAYER
  2
158
 70
0
 62
7
  6
SOLID
  0
LAYER
  2
159
 70
0
 62
7
  6
SOLID
  0
LAYER
  2
160
 70
0
 62
7
  6
SOLID
  0
LAYER
  2
161
 70
0
 62
7
  6
SOLID
  0
LAYER
  2
162
 70
0
 62
7
  6
SOLID
  0
LAYER
  2
163
 70
0
 62
7
  6
SOLID
  0
LAYER
  2
164
 70
0
 62
7
  6
SOLID
  0
LAYER
  2
165
 70
0
 62
7
  6
SOLID
  0
LAYER
  2
166
 70
0
 62
7
  6
SOLID
  0
LAYER
  2
167
 70
0
 62
7
  6
SOLID
  0
LAYER
  2
168
 70
0
 62
7
  6
SOLID
  0
LAYER
  2
169
 70
0
 62
7
  6
SOLID
  0
LAYER
  2
170
 70
0
 62
7
  6
SOLID
  0
LAYER
  2
171
 70
0
 62
7
  6
SOLID
  0
LAYER
  2
172
 70
0
 62
7
  6
SOLID
  0
LAYER
  2
173
 70
0
 62
7
  6
SOLID
  0
LAYER
  2
174
 70
0
 62
7
  6
SOLID
  0
LAYER
  2
175
 70
0
 62
7
  6
SOLID
  0
LAYER
  2
176
 70
0
 62
7
  6
SOLID
  0
LAYER
  2
177
 70
0
 62
7
  6
SOLID
  0
LAYER
  2
178
 70
0
 62
7
  6
SOLID
  0
LAYER
  2
179
 70
0
 62
7
  6
SOLID
  0
LAYER
  2
180
 70
0
 62
7
  6
SOLID
  0
LAYER
  2
181
 70
0
 62
7
  6
SOLID
  0
LAYER
  2
182
 70
0
 62
7
  6
SOLID
  0
LAYER
  2
183
 70
0
 62
7
  6
SOLID
  0
LAYER
  2
184
 70
0
 62
7
  6
SOLID
  0
LAYER
  2
185
 70
0
 62
7
  6
SOLID
  0
LAYER
  2
186
 70
0
 62
7
  6
SOLID
  0
LAYER
  2
187
 70
0
 62
7
  6
SOLID
  0
LAYER
  2
188
 70
0
 62
7
  6
SOLID
  0
LAYER
  2
189
 70
0
 62
7
  6
SOLID
  0
LAYER
  2
190
 70
0
 62
7
  6
SOLID
  0
LAYER
  2
191
 70
0
 62
7
  6
SOLID
  0
LAYER
  2
192
 70
0
 62
7
  6
SOLID
  0
LAYER
  2
193
 70
0
 62
7
  6
SOLID
  0
LAYER
  2
194
 70
0
 62
7
  6
SOLID
  0
LAYER
  2
195
 70
0
 62
7
  6
SOLID
  0
LAYER
  2
196
 70
0
 62
7
  6
SOLID
  0
LAYER
  2
197
 70
0
 62
7
  6
SOLID
  0
LAYER
  2
198
 70
0
 62
7
  6
SOLID
  0
LAYER
  2
199
 70
0
 62
7
  6
SOLID
  0
LAYER
  2
200
 70
0
 62
7
  6
SOLID
  0
LAYER
  2
201
 70
0
 62
7
  6
SOLID
  0
LAYER
  2
202
 70
0
 62
7
  6
SOLID
  0
LAYER
  2
203
 70
0
 62
7
  6
SOLID
  0
LAYER
  2
204
 70
0
 62
7
  6
SOLID
  0
LAYER
  2
205
 70
0
 62
7
  6
SOLID
  0
LAYER
  2
206
 70
0
 62
7
  6
SOLID
  0
LAYER
  2
207
 70
0
 62
7
  6
SOLID
  0
LAYER
  2
208
 70
0
 62
7
  6
SOLID
  0
LAYER
  2
209
 70
0
 62
7
  6
SOLID
  0
LAYER
  2
210
 70
0
 62
7
  6
SOLID
  0
LAYER
  2
211
 70
0
 62
7
  6
SOLID
  0
LAYER
  2
212
 70
0
 62
7
  6
SOLID
  0
LAYER
  2
213
 70
0
 62
7
  6
SOLID
  0
LAYER
  2
214
 70
0
 62
7
  6
SOLID
  0
LAYER
  2
215
 70
0
 62
7
  6
SOLID
  0
LAYER
  2
216
 70
0
 62
7
  6
SOLID
  0
LAYER
  2
217
 70
0
 62
7
  6
SOLID
  0
LAYER
  2
218
 70
0
 62
7
  6
SOLID
  0
LAYER
  2
219
 70
0
 62
7
  6
SOLID
  0
LAYER
  2
220
 70
0
 62
7
  6
SOLID
  0
LAYER
  2
221
 70
0
 62
7
  6
SOLID
  0
LAYER
  2
222
 70
0
 62
7
  6
SOLID
  0
LAYER
  2
223
 70
0
 62
7
  6
SOLID
  0
LAYER
  2
224
 70
0
 62
7
  6
SOLID
  0
LAYER
  2
225
 70
0
 62
7
  6
SOLID
  0
LAYER
  2
226
 70
0
 62
7
  6
SOLID
  0
LAYER
  2
227
 70
0
 62
7
  6
SOLID
  0
LAYER
  2
228
 70
0
 62
7
  6
SOLID
  0
LAYER
  2
229
 70
0
 62
7
  6
SOLID
  0
LAYER
  2
230
 70
0
 62
7
  6
SOLID
  0
LAYER
  2
231
 70
0
 62
7
  6
SOLID
  0
LAYER
  2
232
 70
0
 62
7
  6
SOLID
  0
LAYER
  2
233
 70
0
 62
7
  6
SOLID
  0
LAYER
  2
234
 70
0
 62
7
  6
SOLID
  0
LAYER
  2
235
 70
0
 62
7
  6
SOLID
  0
LAYER
  2
236
 70
0
 62
7
  6
SOLID
  0
LAYER
  2
237
 70
0
 62
7
  6
SOLID
  0
LAYER
  2
238
 70
0
 62
7
  6
SOLID
  0
LAYER
  2
239
 70
0
 62
7
  6
SOLID
  0
LAYER
  2
240
 70
0
 62
7
  6
SOLID
  0
LAYER
  2
241
 70
0
 62
7
  6
SOLID
  0
LAYER
  2
242
 70
0
 62
7
  6
SOLID
  0
LAYER
  2
243
 70
0
 62
7
  6
SOLID
  0
LAYER
  2
244
 70
0
 62
7
  6
SOLID
  0
LAYER
  2
245
 70
0
 62
7
  6
SOLID
  0
LAYER
  2
246
 70
0
 62
7
  6
SOLID
  0
LAYER
  2
247
 70
0
 62
7
  6
SOLID
  0
LAYER
  2
248
 70
0
 62
7
  6
SOLID
  0
LAYER
  2
249
 70
0
 62
7
  6
SOLID
  0
LAYER
  2
250
 70
0
 62
7
  6
SOLID
  0
LAYER
  2
251
 70
0
 62
7
  6
SOLID
  0
LAYER
  2
252
 70
0
 62
7
  6
SOLID
  0
LAYER
  2
253
 70
0
 62
7
  6
SOLID
  0
LAYER
  2
254
 70
0
 62
7
  6
SOLID
  0
LAYER
  2
255
 70
0
 62
7
  6
SOLID
  0
ENDTAB
  0
TABLE
  2
STYLE
 70
1
  0
STYLE
  2
STANDARD
 70
0
 40
0.0
 41
1.0
 50
0.0
 71
0
 42
10.0
  3
txt
  4

  0
ENDTAB
  0
TABLE
  2
VIEW
 70
0
  0
ENDTAB
  0
ENDSEC
  0
SECTION
  2
BLOCKS
  0
ENDSEC
  0
SECTION
  2
ENTITIES
  0
LINE
  8
0
 10
0
 20
-500
 11
-430
 21
-500
  0
LINE
  8
0
 10
0
 20
-360
 11
-400
 21
-430
  0
LINE
  8
0
 10
0
 20
-360
 11
0
 21
-500
  0
LINE
  8
0
 10
-420
 20
-530
 11
-430
 21
-500
  0
LINE
  8
0
 10
-430
 20
-500
 11
-400
 21
-430
  0
LINE
  8
0
 10
430
 20
-500
 11
400
 21
-430
  0
LINE
  8
0
 10
420
 20
-530
 11
430
 21
-500
  0
LINE
  8
0
 10
0
 20
-500
 11
430
 21
-500
  0
LINE
  8
0
 10
0
 20
-360
 11
400
 21
-430
  0
LINE
  8
0
 10
0
 20
-360
 11
0
 21
-500
  0
LINE
  8
0
 10
-627
 20
-434
 11
-544
 21
-434
  0
LINE
  8
0
 10
-628
 20
-994
 11
-548
 21
-994
  0
TEXT
  8
0
  6
SOLID
 10
-619
 20
-747.333333333333333
 40
20
  1
560,0
 50
90
 41
1
  0
LINE
  8
0
  6
SOLID
 10
-614
 20
-994
 11
-614
 21
-434
  0
LINE
  8
0
  6
SOLID
 10
-614
 20
-994
 11
-619.358983846499708
 21
-974.000000007922196
  0
LINE
  8
0
  6
SOLID
 10
-614
 20
-994
 11
-608.641016153500292
 21
-974.000000007922196
  0
LINE
  8
0
  6
SOLID
 10
-619.358983846499708
 20
-974.000000007922196
 11
-608.641016153500292
 21
-974.000000007922196
  0
LINE
  8
0
  6
SOLID
 10
-614
 20
-434
 11
-608.641016153500292
 21
-453.999999992077804
  0
LINE
  8
0
  6
SOLID
 10
-614
 20
-434
 11
-619.358983846499708
 21
-453.999999992077804
  0
LINE
  8
0
  6
SOLID
 10
-608.641016153500292
 20
-453.999999992077804
 11
-619.358983846499708
 21
-453.999999992077804
  0
LINE
  8
0
  6
SOLID
 10
-630
 20
-434
 11
-609
 21
-434
  0
LINE
  8
0
  6
SOLID
 10
-632
 20
-994
 11
-609
 21
-994
  0
LINE
  8
0
 10
-190
 20
-994
 11
-210
 21
-1044
  0
LINE
  8
0
 10
0
 20
-934
 11
-190
 21
-994
  0
LINE
  8
0
 10
0
 20
-1084
 11
-211
 21
-1044
  0
LINE
  8
0
 10
0
 20
-1084
 11
211
 21
-1044
  0
LINE
  8
0
 10
0
 20
-934
 11
190
 21
-994
  0
LINE
  8
0
 10
190
 20
-994
 11
210
 21
-1044
  0
LINE
  8
0
 10
-160
 20
-1010
 11
-20
 21
-1010
  0
LINE
  8
0
 10
-160
 20
-1010
 11
-160
 21
-990
  0
LINE
  8
0
 10
-20
 20
-330
 11
20
 21
-330
  0
LINE
  8
0
 10
-20
 20
-330
 11
-4
 21
-1042
  0
LINE
  8
0
 10
-543
 20
-260
 11
-613
 21
-260
  0
TEXT
  8
0
  6
SOLID
 10
-620
 20
-380.333333333333333
 40
20
  1
174,0
 50
90
 41
1
  0
LINE
  8
0
  6
SOLID
 10
-615
 20
-434
 11
-615
 21
-260
  0
LINE
  8
0
  6
SOLID
 10
-615
 20
-434
 11
-620.358983846499708
 21
-414.000000007922196
  0
LINE
  8
0
  6
SOLID
 10
-615
 20
-434
 11
-609.641016153500292
 21
-414.000000007922196
  0
LINE
  8
0
  6
SOLID
 10
-620.358983846499708
 20
-414.000000007922196
 11
-609.641016153500292
 21
-414.000000007922196
  0
LINE
  8
0
  6
SOLID
 10
-615
 20
-260
 11
-609.641016153500292
 21
-279.999999992077804
  0
LINE
  8
0
  6
SOLID
 10
-615
 20
-260
 11
-620.358983846499708
 21
-279.999999992077804
  0
LINE
  8
0
  6
SOLID
 10
-609.641016153500292
 20
-279.999999992077804
 11
-620.358983846499708
 21
-279.999999992077804
  0
LINE
  8
0
  6
SOLID
 10
-615
 20
-434
 11
-620
 21
-434
  0
LINE
  8
0
  6
SOLID
 10
-615
 20
-260
 11
-620
 21
-260
  0
LINE
  8
0
 10
20
 20
-330
 11
4
 21
-1042
  0
LINE
  8
0
 10
160
 20
-1010
 11
160
 21
-990
  0
LINE
  8
0
 10
160
 20
-1010
 11
20
 21
-1010
  0
TEXT
  8
0
  6
SOLID
 10
-33.3333333333333333
 20
-220
 40
20
  1
860,0
 50
0
 41
1
  0
LINE
  8
0
  6
SOLID
 10
-430
 20
-225
 11
430
 21
-225
  0
LINE
  8
0
  6
SOLID
 10
-430
 20
-225
 11
-410.000000007922196
 21
-219.641016153500292
  0
LINE
  8
0
  6
SOLID
 10
-430
 20
-225
 11
-410.000000007922196
 21
-230.358983846499708
  0
LINE
  8
0
  6
SOLID
 10
-410.000000007922196
 20
-219.641016153500292
 11
-410.000000007922196
 21
-230.358983846499708
  0
LINE
  8
0
  6
SOLID
 10
430
 20
-225
 11
410.000000007922196
 21
-230.358983846499708
  0
LINE
  8
0
  6
SOLID
 10
430
 20
-225
 11
410.000000007922196
 21
-219.641016153500292
  0
LINE
  8
0
  6
SOLID
 10
410.000000007922196
 20
-230.358983846499708
 11
410.000000007922196
 21
-219.641016153500292
  0
LINE
  8
0
  6
SOLID
 10
-430
 20
-210
 11
-430
 21
-230
  0
LINE
  8
0
  6
SOLID
 10
430
 20
-210
 11
430
 21
-230
  0
LINE
  8
0
 10
160
 20
-1010
 11
20
 21
-1010
  0
LINE
  8
0
 10
160
 20
-1010
 11
160
 21
-990
  0
LINE
  8
0
 10
20
 20
-330
 11
4
 21
-1042
  0
LINE
  8
0
 10
-20
 20
-330
 11
-4
 21
-1042
  0
LINE
  8
0
 10
-160
 20
-1010
 11
-160
 21
-990
  0
LINE
  8
0
 10
-160
 20
-1010
 11
-20
 21
-1010
  0
LINE
  8
0
 10
190
 20
-994
 11
210
 21
-1044
  0
LINE
  8
0
 10
0
 20
-934
 11
190
 21
-994
  0
LINE
  8
0
 10
0
 20
-1084
 11
211
 21
-1044
  0
LINE
  8
0
 10
0
 20
-1084
 11
-211
 21
-1044
  0
LINE
  8
0
 10
0
 20
-934
 11
-190
 21
-994
  0
LINE
  8
0
 10
-190
 20
-994
 11
-210
 21
-1044
  0
LINE
  8
0
 10
0
 20
-360
 11
0
 21
-500
  0
LINE
  8
0
 10
0
 20
-360
 11
400
 21
-430
  0
LINE
  8
0
 10
0
 20
-500
 11
430
 21
-500
  0
LINE
  8
0
 10
420
 20
-530
 11
430
 21
-500
  0
LINE
  8
0
 10
430
 20
-500
 11
400
 21
-430
  0
LINE
  8
0
 10
-430
 20
-500
 11
-400
 21
-430
  0
LINE
  8
0
 10
-420
 20
-530
 11
-430
 21
-500
  0
LINE
  8
0
 10
0
 20
-360
 11
-400
 21
-430
  0
LINE
  8
0
 10
0
 20
-500
 11
-430
 21
-500
  0
TEXT
  8
0
  6
SOLID
 10
-248.333333333333333
 20
-305
 40
20
  1
430,0
 50
0
 41
1
  0
LINE
  8
0
  6
SOLID
 10
-430
 20
-310
 11
0
 21
-310
  0
LINE
  8
0
  6
SOLID
 10
-430
 20
-310
 11
-410.000000007922196
 21
-304.641016153500292
  0
LINE
  8
0
  6
SOLID
 10
-430
 20
-310
 11
-410.000000007922196
 21
-315.358983846499708
  0
LINE
  8
0
  6
SOLID
 10
-410.000000007922196
 20
-304.641016153500292
 11
-410.000000007922196
 21
-315.358983846499708
  0
LINE
  8
0
  6
SOLID
 10
0
 20
-310
 11
-19.9999999920778038
 21
-315.358983846499708
  0
LINE
  8
0
  6
SOLID
 10
0
 20
-310
 11
-19.9999999920778038
 21
-304.641016153500292
  0
LINE
  8
0
  6
SOLID
 10
-19.9999999920778038
 20
-315.358983846499708
 11
-19.9999999920778038
 21
-304.641016153500292
  0
LINE
  8
0
  6
SOLID
 10
0
 20
-310
 11
0
 21
-315
  0
LINE
  8
0
  6
SOLID
 10
-430
 20
-310
 11
-430
 21
-315
  0
TEXT
  8
0
  6
SOLID
 10
-128.333333333333333
 20
-855
 40
20
  1
190,0
 50
0
 41
1
  0
LINE
  8
0
  6
SOLID
 10
-190
 20
-860
 11
0
 21
-860
  0
LINE
  8
0
  6
SOLID
 10
-190
 20
-860
 11
-170.000000007922196
 21
-854.641016153500292
  0
LINE
  8
0
  6
SOLID
 10
-190
 20
-860
 11
-170.000000007922196
 21
-865.358983846499708
  0
LINE
  8
0
  6
SOLID
 10
-170.000000007922196
 20
-854.641016153500292
 11
-170.000000007922196
 21
-865.358983846499708
  0
LINE
  8
0
  6
SOLID
 10
0
 20
-860
 11
-19.9999999920778038
 21
-865.358983846499708
  0
LINE
  8
0
  6
SOLID
 10
0
 20
-860
 11
-19.9999999920778038
 21
-854.641016153500292
  0
LINE
  8
0
  6
SOLID
 10
-19.9999999920778038
 20
-865.358983846499708
 11
-19.9999999920778038
 21
-854.641016153500292
  0
LINE
  8
0
  6
SOLID
 10
0
 20
-860
 11
0
 21
-865
  0
LINE
  8
0
  6
SOLID
 10
-190
 20
-860
 11
-190
 21
-865
  0
TEXT
  8
0
  6
SOLID
 10
-138.333333333333333
 20
-1125
 40
20
  1
210,0
 50
0
 41
1
  0
LINE
  8
0
  6
SOLID
 10
-210
 20
-1130
 11
0
 21
-1130
  0
LINE
  8
0
  6
SOLID
 10
-210
 20
-1130
 11
-190.000000007922196
 21
-1124.64101615350029
  0
LINE
  8
0
  6
SOLID
 10
-210
 20
-1130
 11
-190.000000007922196
 21
-1135.35898384649971
  0
LINE
  8
0
  6
SOLID
 10
-190.000000007922196
 20
-1124.64101615350029
 11
-190.000000007922196
 21
-1135.35898384649971
  0
LINE
  8
0
  6
SOLID
 10
0
 20
-1130
 11
-19.9999999920778038
 21
-1135.35898384649971
  0
LINE
  8
0
  6
SOLID
 10
0
 20
-1130
 11
-19.9999999920778038
 21
-1124.64101615350029
  0
LINE
  8
0
  6
SOLID
 10
-19.9999999920778038
 20
-1135.35898384649971
 11
-19.9999999920778038
 21
-1124.64101615350029
  0
LINE
  8
0
  6
SOLID
 10
-210
 20
-1060
 11
-210
 21
-1135
  0
LINE
  8
0
  6
SOLID
 10
0
 20
-1100
 11
0
 21
-1135
  0
TEXT
  8
0
  6
SOLID
 10
485
 20
-1043.33333333333333
 40
20
  1
150,0
 50
90
 41
1
  0
LINE
  8
0
  6
SOLID
 10
490
 20
-1085
 11
490
 21
-935
  0
LINE
  8
0
  6
SOLID
 10
490
 20
-1085
 11
484.641016153500292
 21
-1065.0000000079222
  0
LINE
  8
0
  6
SOLID
 10
490
 20
-1085
 11
495.358983846499708
 21
-1065.0000000079222
  0
LINE
  8
0
  6
SOLID
 10
484.641016153500292
 20
-1065.0000000079222
 11
495.358983846499708
 21
-1065.0000000079222
  0
LINE
  8
0
  6
SOLID
 10
490
 20
-935
 11
495.358983846499708
 21
-954.999999992077804
  0
LINE
  8
0
  6
SOLID
 10
490
 20
-935
 11
484.641016153500292
 21
-954.999999992077804
  0
LINE
  8
0
  6
SOLID
 10
495.358983846499708
 20
-954.999999992077804
 11
484.641016153500292
 21
-954.999999992077804
  0
LINE
  8
0
  6
SOLID
 10
100
 20
-935
 11
495
 21
-935
  0
LINE
  8
0
  6
SOLID
 10
100
 20
-1085
 11
495
 21
-1085
  0
TEXT
  8
0
  6
SOLID
 10
350
 20
-955
 40
20
  1
50,0
 50
90
 41
1
  0
LINE
  8
0
  6
SOLID
 10
355
 20
-995
 11
355
 21
-881.666666666666667
  0
LINE
  8
0
  6
SOLID
 10
355
 20
-1085
 11
355
 21
-1045
  0
LINE
  8
0
  6
SOLID
 10
355
 20
-1045
 11
360.358983846499708
 21
-1064.9999999920778
  0
LINE
  8
0
  6
SOLID
 10
355
 20
-1045
 11
349.641016153500292
 21
-1064.9999999920778
  0
LINE
  8
0
  6
SOLID
 10
360.358983846499708
 20
-1064.9999999920778
 11
349.641016153500292
 21
-1064.9999999920778
  0
LINE
  8
0
  6
SOLID
 10
355
 20
-995
 11
349.641016153500292
 21
-975.000000007922196
  0
LINE
  8
0
  6
SOLID
 10
355
 20
-995
 11
360.358983846499708
 21
-975.000000007922196
  0
LINE
  8
0
  6
SOLID
 10
349.641016153500292
 20
-975.000000007922196
 11
360.358983846499708
 21
-975.000000007922196
  0
LINE
  8
0
  6
SOLID
 10
200
 20
-995
 11
360
 21
-995
  0
LINE
  8
0
  6
SOLID
 10
220
 20
-1045
 11
360
 21
-1045
  0
TEXT
  8
0
  6
SOLID
 10
185
 20
-895
 40
20
  1
60,0
 50
90
 41
1
  0
LINE
  8
0
  6
SOLID
 10
190
 20
-935
 11
190
 21
-821.666666666666667
  0
LINE
  8
0
  6
SOLID
 10
190
 20
-1035
 11
190
 21
-995
  0
LINE
  8
0
  6
SOLID
 10
190
 20
-995
 11
195.358983846499708
 21
-1014.9999999920778
  0
LINE
  8
0
  6
SOLID
 10
190
 20
-995
 11
184.641016153500292
 21
-1014.9999999920778
  0
LINE
  8
0
  6
SOLID
 10
195.358983846499708
 20
-1014.9999999920778
 11
184.641016153500292
 21
-1014.9999999920778
  0
LINE
  8
0
  6
SOLID
 10
190
 20
-935
 11
184.641016153500292
 21
-915.000000007922196
  0
LINE
  8
0
  6
SOLID
 10
190
 20
-935
 11
195.358983846499708
 21
-915.000000007922196
  0
LINE
  8
0
  6
SOLID
 10
184.641016153500292
 20
-915.000000007922196
 11
195.358983846499708
 21
-915.000000007922196
  0
LINE
  8
0
  6
SOLID
 10
190
 20
-995
 11
185
 21
-995
  0
LINE
  8
0
  6
SOLID
 10
190
 20
-935
 11
185
 21
-935
  0
TEXT
  8
0
  6
SOLID
 10
615
 20
-488.333333333333333
 40
20
  1
190,0
 50
90
 41
1
  0
LINE
  8
0
  6
SOLID
 10
620
 20
-550
 11
620
 21
-360
  0
LINE
  8
0
  6
SOLID
 10
620
 20
-550
 11
614.641016153500292
 21
-530.000000007922196
  0
LINE
  8
0
  6
SOLID
 10
620
 20
-550
 11
625.358983846499708
 21
-530.000000007922196
  0
LINE
  8
0
  6
SOLID
 10
614.641016153500292
 20
-530.000000007922196
 11
625.358983846499708
 21
-530.000000007922196
  0
LINE
  8
0
  6
SOLID
 10
620
 20
-360
 11
625.358983846499708
 21
-379.999999992077804
  0
LINE
  8
0
  6
SOLID
 10
620
 20
-360
 11
614.641016153500292
 21
-379.999999992077804
  0
LINE
  8
0
  6
SOLID
 10
625.358983846499708
 20
-379.999999992077804
 11
614.641016153500292
 21
-379.999999992077804
  0
LINE
  8
0
  6
SOLID
 10
175
 20
-550
 11
625
 21
-550
  0
LINE
  8
0
  6
SOLID
 10
175
 20
-360
 11
625
 21
-360
  0
TEXT
  8
0
  6
SOLID
 10
560
 20
-636.666666666666667
 40
20
  1
100,0
 50
90
 41
1
  0
LINE
  8
0
  6
SOLID
 10
565
 20
-656.666666666666667
 11
565
 21
-530
  0
LINE
  8
0
  6
SOLID
 10
565
 20
-430
 11
565
 21
-390
  0
LINE
  8
0
  6
SOLID
 10
565
 20
-530
 11
570.358983846499708
 21
-549.999999992077804
  0
LINE
  8
0
  6
SOLID
 10
565
 20
-530
 11
559.641016153500292
 21
-549.999999992077804
  0
LINE
  8
0
  6
SOLID
 10
570.358983846499708
 20
-549.999999992077804
 11
559.641016153500292
 21
-549.999999992077804
  0
LINE
  8
0
  6
SOLID
 10
565
 20
-430
 11
559.641016153500292
 21
-410.000000007922196
  0
LINE
  8
0
  6
SOLID
 10
565
 20
-430
 11
570.358983846499708
 21
-410.000000007922196
  0
LINE
  8
0
  6
SOLID
 10
559.641016153500292
 20
-410.000000007922196
 11
570.358983846499708
 21
-410.000000007922196
  0
LINE
  8
0
  6
SOLID
 10
470
 20
-430
 11
570
 21
-430
  0
LINE
  8
0
  6
SOLID
 10
470
 20
-530
 11
570
 21
-530
  0
TEXT
  8
0
  6
SOLID
 10
460
 20
-623.333333333333333
 40
20
  1
30,0
 50
90
 41
1
  0
LINE
  8
0
  6
SOLID
 10
465
 20
-643.333333333333333
 11
465
 21
-530
  0
LINE
  8
0
  6
SOLID
 10
465
 20
-500
 11
465
 21
-460
  0
LINE
  8
0
  6
SOLID
 10
465
 20
-530
 11
470.358983846499708
 21
-549.999999992077804
  0
LINE
  8
0
  6
SOLID
 10
465
 20
-530
 11
459.641016153500292
 21
-549.999999992077804
  0
LINE
  8
0
  6
SOLID
 10
470.358983846499708
 20
-549.999999992077804
 11
459.641016153500292
 21
-549.999999992077804
  0
LINE
  8
0
  6
SOLID
 10
465
 20
-500
 11
459.641016153500292
 21
-480.000000007922196
  0
LINE
  8
0
  6
SOLID
 10
465
 20
-500
 11
470.358983846499708
 21
-480.000000007922196
  0
LINE
  8
0
  6
SOLID
 10
459.641016153500292
 20
-480.000000007922196
 11
470.358983846499708
 21
-480.000000007922196
  0
LINE
  8
0
  6
SOLID
 10
470
 20
-530
 11
460
 21
-530
  0
LINE
  8
0
  6
SOLID
 10
470
 20
-500
 11
460
 21
-500
  0
TEXT
  8
0
  6
SOLID
 10
425
 20
-320
 40
20
  1
70,0
 50
90
 41
1
  0
LINE
  8
0
  6
SOLID
 10
430
 20
-360
 11
430
 21
-246.666666666666667
  0
LINE
  8
0
  6
SOLID
 10
430
 20
-470
 11
430
 21
-430
  0
LINE
  8
0
  6
SOLID
 10
430
 20
-430
 11
435.358983846499708
 21
-449.999999992077804
  0
LINE
  8
0
  6
SOLID
 10
430
 20
-430
 11
424.641016153500292
 21
-449.999999992077804
  0
LINE
  8
0
  6
SOLID
 10
435.358983846499708
 20
-449.999999992077804
 11
424.641016153500292
 21
-449.999999992077804
  0
LINE
  8
0
  6
SOLID
 10
430
 20
-360
 11
424.641016153500292
 21
-340.000000007922196
  0
LINE
  8
0
  6
SOLID
 10
430
 20
-360
 11
435.358983846499708
 21
-340.000000007922196
  0
LINE
  8
0
  6
SOLID
 10
424.641016153500292
 20
-340.000000007922196
 11
435.358983846499708
 21
-340.000000007922196
  0
LINE
  8
0
  6
SOLID
 10
405
 20
-430
 11
435
 21
-430
  0
LINE
  8
0
  6
SOLID
 10
405
 20
-360
 11
435
 21
-360
  0
ARC
  8
0
 10
-5.48750780274960714
 20
-240
 40
10
 50
90.0000000000000001
 51
177.137594773888252
  0
LINE
  8
0
 10
-15.4750311915280539
 20
-239.500623830561078
 11
-20
 21
-330
  0
ARC
  8
0
 10
5.48750780274960714
 20
-240
 40
10
 50
2.86240522611174754
 51
90.0000000000000001
  0
LINE
  8
0
 10
-5.48750780274960715
 20
-230
 11
5.48750780274960712
 21
-230
  0
LINE
  8
0
 10
15.4750311915280539
 20
-239.500623830561078
 11
20
 21
-330
  0
LINE
  8
0
 10
0
 20
-255
 11
0
 21
-190
  0
LINE
  8
0
 10
0
 20
-500
 11
0
 21
-550
  0
LINE
  8
0
 10
-420
 20
-530
 11
0
 21
-550
  0
LINE
  8
0
 10
0
 20
-550
 11
420
 21
-530
  0
TEXT
  8
0
  6
SOLID
 10
-303.333333333333333
 20
-1655
 40
20
  1
130,0
 50
0
 41
1
  0
LINE
  8
0
  6
SOLID
 10
-335
 20
-1660
 11
-205
 21
-1660
  0
LINE
  8
0
  6
SOLID
 10
-335
 20
-1660
 11
-315.000000007922196
 21
-1654.64101615350029
  0
LINE
  8
0
  6
SOLID
 10
-335
 20
-1660
 11
-315.000000007922196
 21
-1665.35898384649971
  0
LINE
  8
0
  6
SOLID
 10
-315.000000007922196
 20
-1654.64101615350029
 11
-315.000000007922196
 21
-1665.35898384649971
  0
LINE
  8
0
  6
SOLID
 10
-205
 20
-1660
 11
-224.999999992077804
 21
-1665.35898384649971
  0
LINE
  8
0
  6
SOLID
 10
-205
 20
-1660
 11
-224.999999992077804
 21
-1654.64101615350029
  0
LINE
  8
0
  6
SOLID
 10
-224.999999992077804
 20
-1665.35898384649971
 11
-224.999999992077804
 21
-1654.64101615350029
  0
LINE
  8
0
  6
SOLID
 10
-335
 20
-1560
 11
-335
 21
-1665
  0
LINE
  8
0
  6
SOLID
 10
-205
 20
-1595
 11
-205
 21
-1665
  0
LINE
  8
0
 10
375
 20
-1440
 11
515
 21
-1440
  0
LINE
  8
0
 10
-205
 20
-1505
 11
-15
 21
-1505
  0
LINE
  8
0
 10
-205
 20
-1365
 11
-15
 21
-1365
  0
LINE
  8
0
 10
-360
 20
-1445
 11
-280
 21
-1445
  0
LINE
  8
0
 10
-30
 20
-1395
 11
-320.491539152311424
 21
-1404.52431275909218
  0
LINE
  8
0
 10
-335
 20
-1419.51625690459062
 11
-335
 21
-1466.49218940641788
  0
ARC
  8
0
 10
-320
 20
-1419.51625690459062
 40
15
 50
91.8778774472853591
 51
180
  0
LINE
  8
0
 10
-317.390343746967147
 20
-1492.01207031629107
 11
-332.808688094430303
 21
-1472.73913988196212
  0
LINE
  8
0
 10
-225
 20
-1510
 11
-311.225645525590416
 21
-1495.62905907906826
  0
ARC
  8
0
 10
-309.581655652536843
 20
-1485.76511984074683
 40
10
 50
218.65980825409008
 51
260.537677791974383
  0
ARC
  8
0
 10
-325
 20
-1466.49218940641788
 40
10
 50
180
 51
218.659808254090091
  0
TEXT
  8
0
  6
SOLID
 10
465
 20
-1370
 40
20
  1
90,0
 50
90
 41
1
  0
LINE
  8
0
  6
SOLID
 10
470
 20
-1410
 11
470
 21
-1296.66666666666667
  0
LINE
  8
0
  6
SOLID
 10
470
 20
-1540
 11
470
 21
-1500
  0
LINE
  8
0
  6
SOLID
 10
470
 20
-1500
 11
475.358983846499708
 21
-1519.9999999920778
  0
LINE
  8
0
  6
SOLID
 10
470
 20
-1500
 11
464.641016153500292
 21
-1519.9999999920778
  0
LINE
  8
0
  6
SOLID
 10
475.358983846499708
 20
-1519.9999999920778
 11
464.641016153500292
 21
-1519.9999999920778
  0
LINE
  8
0
  6
SOLID
 10
470
 20
-1410
 11
464.641016153500292
 21
-1390.0000000079222
  0
LINE
  8
0
  6
SOLID
 10
470
 20
-1410
 11
475.358983846499708
 21
-1390.0000000079222
  0
LINE
  8
0
  6
SOLID
 10
464.641016153500292
 20
-1390.0000000079222
 11
475.358983846499708
 21
-1390.0000000079222
  0
LINE
  8
0
  6
SOLID
 10
465
 20
-1500
 11
475
 21
-1500
  0
LINE
  8
0
  6
SOLID
 10
465
 20
-1410
 11
475
 21
-1410
  0
TEXT
  8
0
  6
SOLID
 10
640
 20
-1450.83333333333333
 40
20
  1
175,0
 50
90
 41
1
  0
LINE
  8
0
  6
SOLID
 10
645
 20
-1505
 11
645
 21
-1330
  0
LINE
  8
0
  6
SOLID
 10
645
 20
-1505
 11
639.641016153500292
 21
-1485.0000000079222
  0
LINE
  8
0
  6
SOLID
 10
645
 20
-1505
 11
650.358983846499708
 21
-1485.0000000079222
  0
LINE
  8
0
  6
SOLID
 10
639.641016153500292
 20
-1485.0000000079222
 11
650.358983846499708
 21
-1485.0000000079222
  0
LINE
  8
0
  6
SOLID
 10
645
 20
-1330
 11
650.358983846499708
 21
-1349.9999999920778
  0
LINE
  8
0
  6
SOLID
 10
645
 20
-1330
 11
639.641016153500292
 21
-1349.9999999920778
  0
LINE
  8
0
  6
SOLID
 10
650.358983846499708
 20
-1349.9999999920778
 11
639.641016153500292
 21
-1349.9999999920778
  0
LINE
  8
0
  6
SOLID
 10
620
 20
-1505
 11
650
 21
-1505
  0
LINE
  8
0
  6
SOLID
 10
620
 20
-1330
 11
650
 21
-1330
  0
TEXT
  8
0
  6
SOLID
 10
303.333333333333333
 20
-1230
 40
20
  1
105,0
 50
0
 41
1
  0
LINE
  8
0
  6
SOLID
 10
283.333333333333333
 20
-1235
 11
410
 21
-1235
  0
LINE
  8
0
  6
SOLID
 10
515
 20
-1235
 11
555
 21
-1235
  0
LINE
  8
0
  6
SOLID
 10
410
 20
-1235
 11
390.000000007922196
 21
-1240.35898384649971
  0
LINE
  8
0
  6
SOLID
 10
410
 20
-1235
 11
390.000000007922196
 21
-1229.64101615350029
  0
LINE
  8
0
  6
SOLID
 10
390.000000007922196
 20
-1240.35898384649971
 11
390.000000007922196
 21
-1229.64101615350029
  0
LINE
  8
0
  6
SOLID
 10
515
 20
-1235
 11
534.999999992077804
 21
-1229.64101615350029
  0
LINE
  8
0
  6
SOLID
 10
515
 20
-1235
 11
534.999999992077804
 21
-1240.35898384649971
  0
LINE
  8
0
  6
SOLID
 10
534.999999992077804
 20
-1229.64101615350029
 11
534.999999992077804
 21
-1240.35898384649971
  0
LINE
  8
0
  6
SOLID
 10
515
 20
-1260
 11
515
 21
-1230
  0
LINE
  8
0
  6
SOLID
 10
410
 20
-1265
 11
410
 21
-1230
  0
TEXT
  8
0
  6
SOLID
 10
610
 20
-1195
 40
20
  1
55,0
 50
0
 41
1
  0
LINE
  8
0
  6
SOLID
 10
570
 20
-1200
 11
683.333333333333333
 21
-1200
  0
LINE
  8
0
  6
SOLID
 10
475
 20
-1200
 11
515
 21
-1200
  0
LINE
  8
0
  6
SOLID
 10
515
 20
-1200
 11
495.000000007922196
 21
-1205.35898384649971
  0
LINE
  8
0
  6
SOLID
 10
515
 20
-1200
 11
495.000000007922196
 21
-1194.64101615350029
  0
LINE
  8
0
  6
SOLID
 10
495.000000007922196
 20
-1205.35898384649971
 11
495.000000007922196
 21
-1194.64101615350029
  0
LINE
  8
0
  6
SOLID
 10
570
 20
-1200
 11
589.999999992077804
 21
-1194.64101615350029
  0
LINE
  8
0
  6
SOLID
 10
570
 20
-1200
 11
589.999999992077804
 21
-1205.35898384649971
  0
LINE
  8
0
  6
SOLID
 10
589.999999992077804
 20
-1194.64101615350029
 11
589.999999992077804
 21
-1205.35898384649971
  0
LINE
  8
0
  6
SOLID
 10
570
 20
-1260
 11
570
 21
-1195
  0
LINE
  8
0
  6
SOLID
 10
515
 20
-1260
 11
515
 21
-1195
  0
TEXT
  8
0
  6
SOLID
 10
640
 20
-1230
 40
20
  1
30,0
 50
0
 41
1
  0
LINE
  8
0
  6
SOLID
 10
600
 20
-1235
 11
713.333333333333333
 21
-1235
  0
LINE
  8
0
  6
SOLID
 10
530
 20
-1235
 11
570
 21
-1235
  0
LINE
  8
0
  6
SOLID
 10
570
 20
-1235
 11
550.000000007922196
 21
-1240.35898384649971
  0
LINE
  8
0
  6
SOLID
 10
570
 20
-1235
 11
550.000000007922196
 21
-1229.64101615350029
  0
LINE
  8
0
  6
SOLID
 10
550.000000007922196
 20
-1240.35898384649971
 11
550.000000007922196
 21
-1229.64101615350029
  0
LINE
  8
0
  6
SOLID
 10
600
 20
-1235
 11
619.999999992077804
 21
-1229.64101615350029
  0
LINE
  8
0
  6
SOLID
 10
600
 20
-1235
 11
619.999999992077804
 21
-1240.35898384649971
  0
LINE
  8
0
  6
SOLID
 10
619.999999992077804
 20
-1229.64101615350029
 11
619.999999992077804
 21
-1240.35898384649971
  0
LINE
  8
0
  6
SOLID
 10
600
 20
-1260
 11
600
 21
-1230
  0
LINE
  8
0
  6
SOLID
 10
570
 20
-1260
 11
570
 21
-1230
  0
TEXT
  8
0
  6
SOLID
 10
501.666666666666667
 20
-1590
 40
20
  1
130,0
 50
0
 41
1
  0
LINE
  8
0
  6
SOLID
 10
470
 20
-1595
 11
600
 21
-1595
  0
LINE
  8
0
  6
SOLID
 10
470
 20
-1595
 11
489.999999992077804
 21
-1589.64101615350029
  0
LINE
  8
0
  6
SOLID
 10
470
 20
-1595
 11
489.999999992077804
 21
-1600.35898384649971
  0
LINE
  8
0
  6
SOLID
 10
489.999999992077804
 20
-1589.64101615350029
 11
489.999999992077804
 21
-1600.35898384649971
  0
LINE
  8
0
  6
SOLID
 10
600
 20
-1595
 11
580.000000007922196
 21
-1600.35898384649971
  0
LINE
  8
0
  6
SOLID
 10
600
 20
-1595
 11
580.000000007922196
 21
-1589.64101615350029
  0
LINE
  8
0
  6
SOLID
 10
580.000000007922196
 20
-1600.35898384649971
 11
580.000000007922196
 21
-1589.64101615350029
  0
LINE
  8
0
  6
SOLID
 10
470
 20
-1595
 11
470
 21
-1600
  0
LINE
  8
0
  6
SOLID
 10
600
 20
-1595
 11
600
 21
-1600
  0
LINE
  8
0
 10
375
 20
-1535
 11
375
 21
-1640
  0
TEXT
  8
0
  6
SOLID
 10
194.166666666666667
 20
-1590
 40
20
  1
485,0
 50
0
 41
1
  0
LINE
  8
0
  6
SOLID
 10
-15
 20
-1595
 11
470
 21
-1595
  0
LINE
  8
0
  6
SOLID
 10
-15
 20
-1595
 11
4.99999999207780383
 21
-1589.64101615350029
  0
LINE
  8
0
  6
SOLID
 10
-15
 20
-1595
 11
4.99999999207780383
 21
-1600.35898384649971
  0
LINE
  8
0
  6
SOLID
 10
4.99999999207780383
 20
-1589.64101615350029
 11
4.99999999207780383
 21
-1600.35898384649971
  0
LINE
  8
0
  6
SOLID
 10
470
 20
-1595
 11
450.000000007922196
 21
-1600.35898384649971
  0
LINE
  8
0
  6
SOLID
 10
470
 20
-1595
 11
450.000000007922196
 21
-1589.64101615350029
  0
LINE
  8
0
  6
SOLID
 10
450.000000007922196
 20
-1600.35898384649971
 11
450.000000007922196
 21
-1589.64101615350029
  0
LINE
  8
0
  6
SOLID
 10
-15
 20
-1600
 11
-15
 21
-1590
  0
LINE
  8
0
  6
SOLID
 10
470
 20
-1600
 11
470
 21
-1590
  0
TEXT
  8
0
  6
SOLID
 10
146.666666666666667
 20
-1655
 40
20
  1
390,0
 50
0
 41
1
  0
LINE
  8
0
  6
SOLID
 10
-15
 20
-1660
 11
375
 21
-1660
  0
LINE
  8
0
  6
SOLID
 10
-15
 20
-1660
 11
4.99999999207780383
 21
-1654.64101615350029
  0
LINE
  8
0
  6
SOLID
 10
-15
 20
-1660
 11
4.99999999207780383
 21
-1665.35898384649971
  0
LINE
  8
0
  6
SOLID
 10
4.99999999207780383
 20
-1654.64101615350029
 11
4.99999999207780383
 21
-1665.35898384649971
  0
LINE
  8
0
  6
SOLID
 10
375
 20
-1660
 11
355.000000007922196
 21
-1665.35898384649971
  0
LINE
  8
0
  6
SOLID
 10
375
 20
-1660
 11
355.000000007922196
 21
-1654.64101615350029
  0
LINE
  8
0
  6
SOLID
 10
355.000000007922196
 20
-1665.35898384649971
 11
355.000000007922196
 21
-1654.64101615350029
  0
LINE
  8
0
  6
SOLID
 10
-15
 20
-1660
 11
-15
 21
-1665
  0
LINE
  8
0
  6
SOLID
 10
375
 20
-1660
 11
375
 21
-1665
  0
TEXT
  8
0
  6
SOLID
 10
-143.333333333333333
 20
-1655
 40
20
  1
190,0
 50
0
 41
1
  0
LINE
  8
0
  6
SOLID
 10
-205
 20
-1660
 11
-15
 21
-1660
  0
LINE
  8
0
  6
SOLID
 10
-205
 20
-1660
 11
-185.000000007922196
 21
-1654.64101615350029
  0
LINE
  8
0
  6
SOLID
 10
-205
 20
-1660
 11
-185.000000007922196
 21
-1665.35898384649971
  0
LINE
  8
0
  6
SOLID
 10
-185.000000007922196
 20
-1654.64101615350029
 11
-185.000000007922196
 21
-1665.35898384649971
  0
LINE
  8
0
  6
SOLID
 10
-15
 20
-1660
 11
-34.9999999920778038
 21
-1665.35898384649971
  0
LINE
  8
0
  6
SOLID
 10
-15
 20
-1660
 11
-34.9999999920778038
 21
-1654.64101615350029
  0
LINE
  8
0
  6
SOLID
 10
-34.9999999920778038
 20
-1665.35898384649971
 11
-34.9999999920778038
 21
-1654.64101615350029
  0
LINE
  8
0
  6
SOLID
 10
-205
 20
-1680
 11
-205
 21
-1655
  0
LINE
  8
0
  6
SOLID
 10
-15
 20
-1660
 11
-15
 21
-1665
  0
LINE
  8
0
 10
120
 20
-1425
 11
140
 21
-1380
  0
LINE
  8
0
 10
-5
 20
-1425
 11
120
 21
-1425
  0
LINE
  8
0
 10
-30
 20
-1395
 11
-5
 21
-1425
  0
POLYLINE
  8
0
 66
1
 70
128
 40
0
 41
0
  0
VERTEX
  8
0
 10
85
 20
-1375
  0
VERTEX
  8
0
 10
46.640625
 20
-1375.3125
  0
VERTEX
  8
0
 10
18.125
 20
-1377.5
  0
VERTEX
  8
0
 10
-5.703125
 20
-1383.4375
  0
VERTEX
  8
0
 10
-30
 20
-1395
  0
SEQEND
  8
0
  0
LINE
  8
0
 10
-205
 20
-1335
 11
-205
 21
-1610
  0
LINE
  8
0
 10
-15
 20
-1335
 11
-15
 21
-1610
  0
LINE
  8
0
 10
375
 20
-1445
 11
515
 21
-1445
  0
LINE
  8
0
 10
515
 20
-1330
 11
405
 21
-1405
  0
LINE
  8
0
 10
570
 20
-1330
 11
515
 21
-1330
  0
LINE
  8
0
 10
600
 20
-1505
 11
570
 21
-1330
  0
LINE
  8
0
 10
470
 20
-1500
 11
600
 21
-1505
  0
LINE
  8
0
 10
470
 20
-1500
 11
470
 21
-1410
  0
LINE
  8
0
 10
85
 20
-1375
 11
470
 21
-1410
  0
LINE
  8
0
 10
470
 20
-1500
 11
-15
 21
-1510
  0
LINE
  8
0
 10
-225
 20
-1510
 11
-205
 21
-1510
  0
LINE
  8
0
 10
-205
 20
-1510
 11
-15
 21
-1510
  0
LINE
  8
0
 10
-205
 20
-1370
 11
-15
 21
-1370
  0
LINE
  8
0
 10
445
 20
-1230
 11
445
 21
-1550
  0
LINE
  8
0
 10
515
 20
-1280
 11
515
 21
-1550
  0
LINE
  8
0
 10
375
 20
-1250
 11
375
 21
-1540
  0
ENDSEC
  0
EOF
