999
Created by ExtraCAD III per Windows 95
  0
SECTION
  2
HEADER
  9
$EXTMIN
 10
-510
 20
-75
  9
$EXTMAX
 10
525
 20
1135
  9
$LTSCALE
 40
0.1
  9
$PDMODE
 70
2
  9
$PDSIZE
 40
1.5
  0
ENDSEC
  0
SECTION
  2
TABLES
  0
TABLE
  2
LTYPE
 70
32
  0
LTYPE
  2
SOLID
 70
0
  3
Solido
 72
65
 73
0
 40
0
  0
LTYPE
  2
DOTTED
 70
0
  3
Punteggiato
 72
65
 73
2
 40
12
 49
2
 49
-10
  0
LTYPE
  2
DASHEDS
 70
0
  3
Tratteggiato piccolo
 72
65
 73
2
 40
20
 49
10
 49
-10
  0
LTYPE
  2
DASHEDM
 70
0
  3
Tratteggiato medio
 72
65
 73
2
 40
40
 49
20
 49
-20
  0
LTYPE
  2
DASHEDL
 70
0
  3
Tratteggiato grande
 72
65
 73
2
 40
60
 49
40
 49
-20
  0
LTYPE
  2
CENTERED
 70
0
  3
Tratteggiato misto
 72
65
 73
4
 40
70
 49
10
 49
-20
 49
20
 49
-20
  0
LTYPE
  2
POINTLINE
 70
0
  3
Punto e linea
 72
65
 73
4
 40
62
 49
20
 49
-20
 49
2
 49
-20
  0
LTYPE
  2
2POINTLINE
 70
0
  3
Due punti e linea
 72
65
 73
6
 40
84
 49
20
 49
-20
 49
2
 49
-20
 49
2
 49
-20
  0
LTYPE
  2
BORDER
 70
0
  3
AutoCAD BORDER
 72
65
 73
6
 40
450
 49
128
 49
-64
 49
128
 49
-64
 49
2
 49
-64
  0
LTYPE
  2
BORDER2
 70
0
  3
AutoCAD BORDER2
 72
65
 73
6
 40
226
 49
64
 49
-32
 49
64
 49
-32
 49
2
 49
-32
  0
LTYPE
  2
BORDERX2
 70
0
  3
AutoCAD BORDERX2
 72
65
 73
6
 40
898
 49
256
 49
-128
 49
256
 49
-128
 49
2
 49
-128
  0
LTYPE
  2
CENTER
 70
0
  3
AutoCAD CENTER
 72
65
 73
4
 40
512
 49
320
 49
-64
 49
64
 49
-64
  0
LTYPE
  2
CENTER2
 70
0
  3
AutoCAD CENTER2
 72
65
 73
4
 40
256
 49
160
 49
-32
 49
32
 49
-32
  0
LTYPE
  2
CENTERX2
 70
0
  3
AutoCAD CENTERX2
 72
65
 73
4
 40
1024
 49
640
 49
-128
 49
128
 49
-128
  0
LTYPE
  2
DASHDOT
 70
0
  3
AutoCAD DASHDOT
 72
65
 73
4
 40
258
 49
128
 49
-64
 49
2
 49
-64
  0
LTYPE
  2
DASHDOT2
 70
0
  3
AutoCAD DASHDOT2
 72
65
 73
4
 40
130
 49
64
 49
-32
 49
2
 49
-32
  0
LTYPE
  2
DASHDOTX2
 70
0
  3
AutoCAD DASHDOTX2
 72
65
 73
4
 40
514
 49
256
 49
-128
 49
2
 49
-128
  0
LTYPE
  2
DASHED
 70
0
  3
AutoCAD DASHED
 72
65
 73
2
 40
192
 49
128
 49
-64
  0
LTYPE
  2
DASHED2
 70
0
  3
AutoCAD DASHED2
 72
65
 73
2
 40
96
 49
64
 49
-32
  0
LTYPE
  2
DASHEDX2
 70
0
  3
AutoCAD DASHEDX2
 72
65
 73
2
 40
384
 49
256
 49
-128
  0
LTYPE
  2
DIVIDE
 70
0
  3
AutoCAD DIVIDE
 72
65
 73
6
 40
324
 49
128
 49
-64
 49
2
 49
-64
 49
2
 49
-64
  0
LTYPE
  2
DIVIDE2
 70
0
  3
AutoCAD DIVIDE2
 72
65
 73
6
 40
164
 49
64
 49
-32
 49
2
 49
-32
 49
2
 49
-32
  0
LTYPE
  2
DIVIDEX2
 70
0
  3
AutoCAD DIVIDEX2
 72
65
 73
6
 40
644
 49
256
 49
-128
 49
2
 49
-128
 49
2
 49
-128
  0
LTYPE
  2
DOT
 70
0
  3
AutoCAD DOT
 72
65
 73
2
 40
66
 49
2
 49
-64
  0
LTYPE
  2
DOT2
 70
0
  3
AutoCAD DOT2
 72
65
 73
2
 40
34
 49
2
 49
-32
  0
LTYPE
  2
DOTX2
 70
0
  3
AutoCAD DOTX2
 72
65
 73
2
 40
130
 49
2
 49
-128
  0
LTYPE
  2
HIDDEN
 70
0
  3
AutoCAD HIDDEN
 72
65
 73
2
 40
96
 49
64
 49
-32
  0
LTYPE
  2
HIDDEN2
 70
0
  3
AutoCAD HIDDEN2
 72
65
 73
2
 40
48
 49
32
 49
-16
  0
LTYPE
  2
HIDDENX2
 70
0
  3
AutoCAD HIDDENX2
 72
65
 73
2
 40
192
 49
128
 49
-64
  0
LTYPE
  2
PHANTOM
 70
0
  3
AutoCAD PHANTOM
 72
65
 73
6
 40
640
 49
320
 49
-64
 49
64
 49
-64
 49
64
 49
-64
  0
LTYPE
  2
PHANTOM2
 70
0
  3
AutoCAD PHANTOM2
 72
65
 73
6
 40
320
 49
160
 49
-32
 49
32
 49
-32
 49
32
 49
-32
  0
LTYPE
  2
PHANTOMX2
 70
0
  3
AutoCAD PHANTOMX2
 72
65
 73
6
 40
1280
 49
640
 49
-128
 49
128
 49
-128
 49
128
 49
-128
  0
ENDTAB
  0
TABLE
  2
LAYER
 70
256
  0
LAYER
  2
0
 70
0
 62
7
  6
SOLID
  0
LAYER
  2
1
 70
0
 62
7
  6
SOLID
  0
LAYER
  2
2
 70
0
 62
7
  6
SOLID
  0
LAYER
  2
3
 70
0
 62
7
  6
SOLID
  0
LAYER
  2
4
 70
0
 62
7
  6
SOLID
  0
LAYER
  2
5
 70
0
 62
7
  6
SOLID
  0
LAYER
  2
6
 70
0
 62
7
  6
SOLID
  0
LAYER
  2
7
 70
0
 62
7
  6
SOLID
  0
LAYER
  2
8
 70
0
 62
7
  6
SOLID
  0
LAYER
  2
9
 70
0
 62
7
  6
SOLID
  0
LAYER
  2
10
 70
0
 62
7
  6
SOLID
  0
LAYER
  2
11
 70
0
 62
7
  6
SOLID
  0
LAYER
  2
12
 70
0
 62
7
  6
SOLID
  0
LAYER
  2
13
 70
0
 62
7
  6
SOLID
  0
LAYER
  2
14
 70
0
 62
7
  6
SOLID
  0
LAYER
  2
15
 70
0
 62
7
  6
SOLID
  0
LAYER
  2
16
 70
0
 62
7
  6
SOLID
  0
LAYER
  2
17
 70
0
 62
7
  6
SOLID
  0
LAYER
  2
18
 70
0
 62
7
  6
SOLID
  0
LAYER
  2
19
 70
0
 62
7
  6
SOLID
  0
LAYER
  2
20
 70
0
 62
7
  6
SOLID
  0
LAYER
  2
21
 70
0
 62
7
  6
SOLID
  0
LAYER
  2
22
 70
0
 62
7
  6
SOLID
  0
LAYER
  2
23
 70
0
 62
7
  6
SOLID
  0
LAYER
  2
24
 70
0
 62
7
  6
SOLID
  0
LAYER
  2
25
 70
0
 62
7
  6
SOLID
  0
LAYER
  2
26
 70
0
 62
7
  6
SOLID
  0
LAYER
  2
27
 70
0
 62
7
  6
SOLID
  0
LAYER
  2
28
 70
0
 62
7
  6
SOLID
  0
LAYER
  2
29
 70
0
 62
7
  6
SOLID
  0
LAYER
  2
30
 70
0
 62
7
  6
SOLID
  0
LAYER
  2
31
 70
0
 62
7
  6
SOLID
  0
LAYER
  2
32
 70
0
 62
7
  6
SOLID
  0
LAYER
  2
33
 70
0
 62
7
  6
SOLID
  0
LAYER
  2
34
 70
0
 62
7
  6
SOLID
  0
LAYER
  2
35
 70
0
 62
7
  6
SOLID
  0
LAYER
  2
36
 70
0
 62
7
  6
SOLID
  0
LAYER
  2
37
 70
0
 62
7
  6
SOLID
  0
LAYER
  2
38
 70
0
 62
7
  6
SOLID
  0
LAYER
  2
39
 70
0
 62
7
  6
SOLID
  0
LAYER
  2
40
 70
0
 62
7
  6
SOLID
  0
LAYER
  2
41
 70
0
 62
7
  6
SOLID
  0
LAYER
  2
42
 70
0
 62
7
  6
SOLID
  0
LAYER
  2
43
 70
0
 62
7
  6
SOLID
  0
LAYER
  2
44
 70
0
 62
7
  6
SOLID
  0
LAYER
  2
45
 70
0
 62
7
  6
SOLID
  0
LAYER
  2
46
 70
0
 62
7
  6
SOLID
  0
LAYER
  2
47
 70
0
 62
7
  6
SOLID
  0
LAYER
  2
48
 70
0
 62
7
  6
SOLID
  0
LAYER
  2
49
 70
0
 62
7
  6
SOLID
  0
LAYER
  2
50
 70
0
 62
7
  6
SOLID
  0
LAYER
  2
51
 70
0
 62
7
  6
SOLID
  0
LAYER
  2
52
 70
0
 62
7
  6
SOLID
  0
LAYER
  2
53
 70
0
 62
7
  6
SOLID
  0
LAYER
  2
54
 70
0
 62
7
  6
SOLID
  0
LAYER
  2
55
 70
0
 62
7
  6
SOLID
  0
LAYER
  2
56
 70
0
 62
7
  6
SOLID
  0
LAYER
  2
57
 70
0
 62
7
  6
SOLID
  0
LAYER
  2
58
 70
0
 62
7
  6
SOLID
  0
LAYER
  2
59
 70
0
 62
7
  6
SOLID
  0
LAYER
  2
60
 70
0
 62
7
  6
SOLID
  0
LAYER
  2
61
 70
0
 62
7
  6
SOLID
  0
LAYER
  2
62
 70
0
 62
7
  6
SOLID
  0
LAYER
  2
63
 70
0
 62
7
  6
SOLID
  0
LAYER
  2
64
 70
0
 62
7
  6
SOLID
  0
LAYER
  2
65
 70
0
 62
7
  6
SOLID
  0
LAYER
  2
66
 70
0
 62
7
  6
SOLID
  0
LAYER
  2
67
 70
0
 62
7
  6
SOLID
  0
LAYER
  2
68
 70
0
 62
7
  6
SOLID
  0
LAYER
  2
69
 70
0
 62
7
  6
SOLID
  0
LAYER
  2
70
 70
0
 62
7
  6
SOLID
  0
LAYER
  2
71
 70
0
 62
7
  6
SOLID
  0
LAYER
  2
72
 70
0
 62
7
  6
SOLID
  0
LAYER
  2
73
 70
0
 62
7
  6
SOLID
  0
LAYER
  2
74
 70
0
 62
7
  6
SOLID
  0
LAYER
  2
75
 70
0
 62
7
  6
SOLID
  0
LAYER
  2
76
 70
0
 62
7
  6
SOLID
  0
LAYER
  2
77
 70
0
 62
7
  6
SOLID
  0
LAYER
  2
78
 70
0
 62
7
  6
SOLID
  0
LAYER
  2
79
 70
0
 62
7
  6
SOLID
  0
LAYER
  2
80
 70
0
 62
7
  6
SOLID
  0
LAYER
  2
81
 70
0
 62
7
  6
SOLID
  0
LAYER
  2
82
 70
0
 62
7
  6
SOLID
  0
LAYER
  2
83
 70
0
 62
7
  6
SOLID
  0
LAYER
  2
84
 70
0
 62
7
  6
SOLID
  0
LAYER
  2
85
 70
0
 62
7
  6
SOLID
  0
LAYER
  2
86
 70
0
 62
7
  6
SOLID
  0
LAYER
  2
87
 70
0
 62
7
  6
SOLID
  0
LAYER
  2
88
 70
0
 62
7
  6
SOLID
  0
LAYER
  2
89
 70
0
 62
7
  6
SOLID
  0
LAYER
  2
90
 70
0
 62
7
  6
SOLID
  0
LAYER
  2
91
 70
0
 62
7
  6
SOLID
  0
LAYER
  2
92
 70
0
 62
7
  6
SOLID
  0
LAYER
  2
93
 70
0
 62
7
  6
SOLID
  0
LAYER
  2
94
 70
0
 62
7
  6
SOLID
  0
LAYER
  2
95
 70
0
 62
7
  6
SOLID
  0
LAYER
  2
96
 70
0
 62
7
  6
SOLID
  0
LAYER
  2
97
 70
0
 62
7
  6
SOLID
  0
LAYER
  2
98
 70
0
 62
7
  6
SOLID
  0
LAYER
  2
99
 70
0
 62
7
  6
SOLID
  0
LAYER
  2
100
 70
0
 62
7
  6
SOLID
  0
LAYER
  2
101
 70
0
 62
7
  6
SOLID
  0
LAYER
  2
102
 70
0
 62
7
  6
SOLID
  0
LAYER
  2
103
 70
0
 62
7
  6
SOLID
  0
LAYER
  2
104
 70
0
 62
7
  6
SOLID
  0
LAYER
  2
105
 70
0
 62
7
  6
SOLID
  0
LAYER
  2
106
 70
0
 62
7
  6
SOLID
  0
LAYER
  2
107
 70
0
 62
7
  6
SOLID
  0
LAYER
  2
108
 70
0
 62
7
  6
SOLID
  0
LAYER
  2
109
 70
0
 62
7
  6
SOLID
  0
LAYER
  2
110
 70
0
 62
7
  6
SOLID
  0
LAYER
  2
111
 70
0
 62
7
  6
SOLID
  0
LAYER
  2
112
 70
0
 62
7
  6
SOLID
  0
LAYER
  2
113
 70
0
 62
7
  6
SOLID
  0
LAYER
  2
114
 70
0
 62
7
  6
SOLID
  0
LAYER
  2
115
 70
0
 62
7
  6
SOLID
  0
LAYER
  2
116
 70
0
 62
7
  6
SOLID
  0
LAYER
  2
117
 70
0
 62
7
  6
SOLID
  0
LAYER
  2
118
 70
0
 62
7
  6
SOLID
  0
LAYER
  2
119
 70
0
 62
7
  6
SOLID
  0
LAYER
  2
120
 70
0
 62
7
  6
SOLID
  0
LAYER
  2
121
 70
0
 62
7
  6
SOLID
  0
LAYER
  2
122
 70
0
 62
7
  6
SOLID
  0
LAYER
  2
123
 70
0
 62
7
  6
SOLID
  0
LAYER
  2
124
 70
0
 62
7
  6
SOLID
  0
LAYER
  2
125
 70
0
 62
7
  6
SOLID
  0
LAYER
  2
126
 70
0
 62
7
  6
SOLID
  0
LAYER
  2
127
 70
0
 62
7
  6
SOLID
  0
LAYER
  2
128
 70
0
 62
7
  6
SOLID
  0
LAYER
  2
129
 70
0
 62
7
  6
SOLID
  0
LAYER
  2
130
 70
0
 62
7
  6
SOLID
  0
LAYER
  2
131
 70
0
 62
7
  6
SOLID
  0
LAYER
  2
132
 70
0
 62
7
  6
SOLID
  0
LAYER
  2
133
 70
0
 62
7
  6
SOLID
  0
LAYER
  2
134
 70
0
 62
7
  6
SOLID
  0
LAYER
  2
135
 70
0
 62
7
  6
SOLID
  0
LAYER
  2
136
 70
0
 62
7
  6
SOLID
  0
LAYER
  2
137
 70
0
 62
7
  6
SOLID
  0
LAYER
  2
138
 70
0
 62
7
  6
SOLID
  0
LAYER
  2
139
 70
0
 62
7
  6
SOLID
  0
LAYER
  2
140
 70
0
 62
7
  6
SOLID
  0
LAYER
  2
141
 70
0
 62
7
  6
SOLID
  0
LAYER
  2
142
 70
0
 62
7
  6
SOLID
  0
LAYER
  2
143
 70
0
 62
7
  6
SOLID
  0
LAYER
  2
144
 70
0
 62
7
  6
SOLID
  0
LAYER
  2
145
 70
0
 62
7
  6
SOLID
  0
LAYER
  2
146
 70
0
 62
7
  6
SOLID
  0
LAYER
  2
147
 70
0
 62
7
  6
SOLID
  0
LAYER
  2
148
 70
0
 62
7
  6
SOLID
  0
LAYER
  2
149
 70
0
 62
7
  6
SOLID
  0
LAYER
  2
150
 70
0
 62
7
  6
SOLID
  0
LAYER
  2
151
 70
0
 62
7
  6
SOLID
  0
LAYER
  2
152
 70
0
 62
7
  6
SOLID
  0
LAYER
  2
153
 70
0
 62
7
  6
SOLID
  0
LAYER
  2
154
 70
0
 62
7
  6
SOLID
  0
LAYER
  2
155
 70
0
 62
7
  6
SOLID
  0
LAYER
  2
156
 70
0
 62
7
  6
SOLID
  0
LAYER
  2
157
 70
0
 62
7
  6
SOLID
  0
LAYER
  2
158
 70
0
 62
7
  6
SOLID
  0
LAYER
  2
159
 70
0
 62
7
  6
SOLID
  0
LAYER
  2
160
 70
0
 62
7
  6
SOLID
  0
LAYER
  2
161
 70
0
 62
7
  6
SOLID
  0
LAYER
  2
162
 70
0
 62
7
  6
SOLID
  0
LAYER
  2
163
 70
0
 62
7
  6
SOLID
  0
LAYER
  2
164
 70
0
 62
7
  6
SOLID
  0
LAYER
  2
165
 70
0
 62
7
  6
SOLID
  0
LAYER
  2
166
 70
0
 62
7
  6
SOLID
  0
LAYER
  2
167
 70
0
 62
7
  6
SOLID
  0
LAYER
  2
168
 70
0
 62
7
  6
SOLID
  0
LAYER
  2
169
 70
0
 62
7
  6
SOLID
  0
LAYER
  2
170
 70
0
 62
7
  6
SOLID
  0
LAYER
  2
171
 70
0
 62
7
  6
SOLID
  0
LAYER
  2
172
 70
0
 62
7
  6
SOLID
  0
LAYER
  2
173
 70
0
 62
7
  6
SOLID
  0
LAYER
  2
174
 70
0
 62
7
  6
SOLID
  0
LAYER
  2
175
 70
0
 62
7
  6
SOLID
  0
LAYER
  2
176
 70
0
 62
7
  6
SOLID
  0
LAYER
  2
177
 70
0
 62
7
  6
SOLID
  0
LAYER
  2
178
 70
0
 62
7
  6
SOLID
  0
LAYER
  2
179
 70
0
 62
7
  6
SOLID
  0
LAYER
  2
180
 70
0
 62
7
  6
SOLID
  0
LAYER
  2
181
 70
0
 62
7
  6
SOLID
  0
LAYER
  2
182
 70
0
 62
7
  6
SOLID
  0
LAYER
  2
183
 70
0
 62
7
  6
SOLID
  0
LAYER
  2
184
 70
0
 62
7
  6
SOLID
  0
LAYER
  2
185
 70
0
 62
7
  6
SOLID
  0
LAYER
  2
186
 70
0
 62
7
  6
SOLID
  0
LAYER
  2
187
 70
0
 62
7
  6
SOLID
  0
LAYER
  2
188
 70
0
 62
7
  6
SOLID
  0
LAYER
  2
189
 70
0
 62
7
  6
SOLID
  0
LAYER
  2
190
 70
0
 62
7
  6
SOLID
  0
LAYER
  2
191
 70
0
 62
7
  6
SOLID
  0
LAYER
  2
192
 70
0
 62
7
  6
SOLID
  0
LAYER
  2
193
 70
0
 62
7
  6
SOLID
  0
LAYER
  2
194
 70
0
 62
7
  6
SOLID
  0
LAYER
  2
195
 70
0
 62
7
  6
SOLID
  0
LAYER
  2
196
 70
0
 62
7
  6
SOLID
  0
LAYER
  2
197
 70
0
 62
7
  6
SOLID
  0
LAYER
  2
198
 70
0
 62
7
  6
SOLID
  0
LAYER
  2
199
 70
0
 62
7
  6
SOLID
  0
LAYER
  2
200
 70
0
 62
7
  6
SOLID
  0
LAYER
  2
201
 70
0
 62
7
  6
SOLID
  0
LAYER
  2
202
 70
0
 62
7
  6
SOLID
  0
LAYER
  2
203
 70
0
 62
7
  6
SOLID
  0
LAYER
  2
204
 70
0
 62
7
  6
SOLID
  0
LAYER
  2
205
 70
0
 62
7
  6
SOLID
  0
LAYER
  2
206
 70
0
 62
7
  6
SOLID
  0
LAYER
  2
207
 70
0
 62
7
  6
SOLID
  0
LAYER
  2
208
 70
0
 62
7
  6
SOLID
  0
LAYER
  2
209
 70
0
 62
7
  6
SOLID
  0
LAYER
  2
210
 70
0
 62
7
  6
SOLID
  0
LAYER
  2
211
 70
0
 62
7
  6
SOLID
  0
LAYER
  2
212
 70
0
 62
7
  6
SOLID
  0
LAYER
  2
213
 70
0
 62
7
  6
SOLID
  0
LAYER
  2
214
 70
0
 62
7
  6
SOLID
  0
LAYER
  2
215
 70
0
 62
7
  6
SOLID
  0
LAYER
  2
216
 70
0
 62
7
  6
SOLID
  0
LAYER
  2
217
 70
0
 62
7
  6
SOLID
  0
LAYER
  2
218
 70
0
 62
7
  6
SOLID
  0
LAYER
  2
219
 70
0
 62
7
  6
SOLID
  0
LAYER
  2
220
 70
0
 62
7
  6
SOLID
  0
LAYER
  2
221
 70
0
 62
7
  6
SOLID
  0
LAYER
  2
222
 70
0
 62
7
  6
SOLID
  0
LAYER
  2
223
 70
0
 62
7
  6
SOLID
  0
LAYER
  2
224
 70
0
 62
7
  6
SOLID
  0
LAYER
  2
225
 70
0
 62
7
  6
SOLID
  0
LAYER
  2
226
 70
0
 62
7
  6
SOLID
  0
LAYER
  2
227
 70
0
 62
7
  6
SOLID
  0
LAYER
  2
228
 70
0
 62
7
  6
SOLID
  0
LAYER
  2
229
 70
0
 62
7
  6
SOLID
  0
LAYER
  2
230
 70
0
 62
7
  6
SOLID
  0
LAYER
  2
231
 70
0
 62
7
  6
SOLID
  0
LAYER
  2
232
 70
0
 62
7
  6
SOLID
  0
LAYER
  2
233
 70
0
 62
7
  6
SOLID
  0
LAYER
  2
234
 70
0
 62
7
  6
SOLID
  0
LAYER
  2
235
 70
0
 62
7
  6
SOLID
  0
LAYER
  2
236
 70
0
 62
7
  6
SOLID
  0
LAYER
  2
237
 70
0
 62
7
  6
SOLID
  0
LAYER
  2
238
 70
0
 62
7
  6
SOLID
  0
LAYER
  2
239
 70
0
 62
7
  6
SOLID
  0
LAYER
  2
240
 70
0
 62
7
  6
SOLID
  0
LAYER
  2
241
 70
0
 62
7
  6
SOLID
  0
LAYER
  2
242
 70
0
 62
7
  6
SOLID
  0
LAYER
  2
243
 70
0
 62
7
  6
SOLID
  0
LAYER
  2
244
 70
0
 62
7
  6
SOLID
  0
LAYER
  2
245
 70
0
 62
7
  6
SOLID
  0
LAYER
  2
246
 70
0
 62
7
  6
SOLID
  0
LAYER
  2
247
 70
0
 62
7
  6
SOLID
  0
LAYER
  2
248
 70
0
 62
7
  6
SOLID
  0
LAYER
  2
249
 70
0
 62
7
  6
SOLID
  0
LAYER
  2
250
 70
0
 62
7
  6
SOLID
  0
LAYER
  2
251
 70
0
 62
7
  6
SOLID
  0
LAYER
  2
252
 70
0
 62
7
  6
SOLID
  0
LAYER
  2
253
 70
0
 62
7
  6
SOLID
  0
LAYER
  2
254
 70
0
 62
7
  6
SOLID
  0
LAYER
  2
255
 70
0
 62
7
  6
SOLID
  0
ENDTAB
  0
TABLE
  2
STYLE
 70
1
  0
STYLE
  2
STANDARD
 70
0
 40
0.0
 41
1.0
 50
0.0
 71
0
 42
10.0
  3
txt
  4

  0
ENDTAB
  0
TABLE
  2
VIEW
 70
0
  0
ENDTAB
  0
ENDSEC
  0
SECTION
  2
BLOCKS
  0
ENDSEC
  0
SECTION
  2
ENTITIES
  0
LINE
  8
0
 10
-20
 20
460
 11
0
 21
10
  0
LINE
  8
0
 10
-450
 20
440
 11
-25
 21
440
  0
LINE
  8
0
 10
-25
 20
440
 11
-25
 21
480
  0
LINE
  8
0
 10
0
 20
10
 11
0
 21
-75
  0
LINE
  8
0
 10
-20.1176470588235294
 20
705.529411764705882
 11
0
 21
710
  0
LINE
  8
0
 10
-450
 20
540
 11
-20
 21
540
  0
LINE
  8
0
 10
-20
 20
540
 11
0
 21
540
  0
LINE
  8
0
 10
-20
 20
810
 11
-20
 21
705
  0
LINE
  8
0
 10
-25
 20
480
 11
-450
 21
480
  0
LINE
  8
0
 10
-25
 20
480
 11
0
 21
540
  0
LINE
  8
0
 10
-20
 20
495
 11
-20
 21
460
  0
LINE
  8
0
 10
-450
 20
480
 11
-450
 21
440
  0
LINE
  8
0
 10
-350
 20
630
 11
-350
 21
440
  0
LINE
  8
0
 10
-250
 20
650
 11
-250
 21
440
  0
LINE
  8
0
 10
-150
 20
670
 11
-150
 21
440
  0
LINE
  8
0
 10
-50
 20
700
 11
-50
 21
440
  0
LINE
  8
0
 10
-210
 20
100
 11
0
 21
100
  0
LINE
  8
0
 10
-210
 20
30
 11
0
 21
10
  0
LINE
  8
0
 10
-70
 20
190
 11
-70
 21
20
  0
LINE
  8
0
 10
-140
 20
150
 11
-140
 21
30
  0
LINE
  8
0
 10
140
 20
150
 11
140
 21
30
  0
LINE
  8
0
 10
70
 20
190
 11
70
 21
20
  0
LINE
  8
0
 10
210
 20
30
 11
0
 21
10
  0
LINE
  8
0
 10
210
 20
100
 11
0
 21
100
  0
LINE
  8
0
 10
50
 20
700
 11
50
 21
440
  0
LINE
  8
0
 10
150
 20
670
 11
150
 21
440
  0
LINE
  8
0
 10
250
 20
650
 11
250
 21
440
  0
LINE
  8
0
 10
350
 20
630
 11
350
 21
440
  0
LINE
  8
0
 10
450
 20
480
 11
450
 21
440
  0
LINE
  8
0
 10
20
 20
495
 11
20
 21
460
  0
LINE
  8
0
 10
25
 20
480
 11
0
 21
540
  0
LINE
  8
0
 10
25
 20
480
 11
450
 21
480
  0
LINE
  8
0
 10
20
 20
810
 11
20
 21
705
  0
LINE
  8
0
 10
20
 20
540
 11
0
 21
540
  0
LINE
  8
0
 10
450
 20
540
 11
20
 21
540
  0
LINE
  8
0
 10
20.1176470588235294
 20
705.529411764705882
 11
0
 21
710
  0
LINE
  8
0
 10
25
 20
440
 11
25
 21
480
  0
LINE
  8
0
 10
450
 20
440
 11
25
 21
440
  0
LINE
  8
0
 10
20
 20
460
 11
0
 21
10
  0
LINE
  8
0
 10
-20
 20
730
 11
20
 21
730
  0
LINE
  8
0
 10
-110
 20
1020
 11
-10
 21
1020
  0
LINE
  8
0
 10
-145
 20
1040
 11
-110
 21
1020
  0
LINE
  8
0
 10
-144.927588703837799
 20
1043.49746560463432
 11
-405.96273806971376
 21
1030.91745840627885
  0
LINE
  8
0
  6
CENTERED
 10
525
 20
1000
 11
-510
 21
1000
  0
LINE
  8
0
 10
375
 20
1110
 11
244.198813056379822
 21
1036.42433234421365
  0
LINE
  8
0
 10
-10
 20
1080
 11
-10
 21
1000
  0
POLYLINE
  8
0
 66
1
 70
128
 40
0
 41
0
  0
VERTEX
  8
0
 10
-10
 20
1080
  0
VERTEX
  8
0
 10
-53.59375
 20
1090
  0
VERTEX
  8
0
 10
-70.29296875
 20
1090.8984375
  0
VERTEX
  8
0
 10
-85
 20
1088.75
  0
VERTEX
  8
0
 10
-98.76953125
 20
1083.3203125
  0
VERTEX
  8
0
 10
-112.65625
 20
1074.375
  0
VERTEX
  8
0
 10
-145
 20
1045
  0
SEQEND
  8
0
  0
LINE
  8
0
 10
-425
 20
1010.94064345971833
 11
-425
 21
961.01281793832625
  0
LINE
  8
0
 10
-405.252291892601132
 20
932.819015233673139
 11
-315
 21
900
  0
ARC
  8
0
 10
-395
 20
961.01281793832625
 40
30
 50
180.000000000000001
 51
250.016893478100022
  0
ARC
  8
0
 10
-405
 20
1010.94064345971833
 40
20
 50
92.7591076586202733
 51
180
  0
LINE
  8
0
 10
-345
 20
1035
 11
-345
 21
910
  0
LINE
  8
0
 10
375
 20
1010
 11
-10
 21
1080
  0
LINE
  8
0
 10
285
 20
990
 11
285
 21
1005
  0
LINE
  8
0
 10
375
 20
1110
 11
375
 21
910
  0
LINE
  8
0
 10
-115
 20
907
 11
-115
 21
903
  0
LINE
  8
0
 10
-115
 20
900
 11
-115
 21
903
  0
LINE
  8
0
 10
-285
 20
900
 11
-285
 21
905
  0
LINE
  8
0
 10
-115
 20
900
 11
-55
 21
900
  0
POLYLINE
  8
0
 66
1
 70
128
 40
0
 41
0
  0
VERTEX
  8
0
 10
-115
 20
903
  0
VERTEX
  8
0
 10
-189.796875
 20
892.484375
  0
VERTEX
  8
0
 10
-243.125
 20
890.875
  0
VERTEX
  8
0
 10
-274.890625
 20
895.828125
  0
VERTEX
  8
0
 10
-282.658203125
 20
900.033203125
  0
VERTEX
  8
0
 10
-285
 20
905
  0
SEQEND
  8
0
  0
POLYLINE
  8
0
 66
1
 70
128
 40
0
 41
0
  0
VERTEX
  8
0
 10
-115
 20
907
  0
VERTEX
  8
0
 10
-189.796875
 20
917.515625
  0
VERTEX
  8
0
 10
-243.125
 20
919.125
  0
VERTEX
  8
0
 10
-274.890625
 20
914.171875
  0
VERTEX
  8
0
 10
-282.658203125
 20
909.966796875
  0
VERTEX
  8
0
 10
-285
 20
905
  0
SEQEND
  8
0
  0
LINE
  8
0
 10
-115
 20
907
 11
-55
 21
907
  0
LINE
  8
0
 10
-55
 20
907
 11
-55
 21
905
  0
LINE
  8
0
 10
-115
 20
903
 11
-55
 21
903
  0
LINE
  8
0
 10
-55
 20
903
 11
-55
 21
905
  0
LINE
  8
0
 10
-115
 20
907
 11
-115
 21
905
  0
LINE
  8
0
 10
-115
 20
905
 11
-115
 21
903
  0
POLYLINE
  8
0
 66
1
 70
128
 40
0
 41
0
  0
VERTEX
  8
0
 10
-155
 20
1118
  0
VERTEX
  8
0
 10
-229.796875
 20
1107.484375
  0
VERTEX
  8
0
 10
-283.125
 20
1105.875
  0
VERTEX
  8
0
 10
-314.890625
 20
1110.828125
  0
VERTEX
  8
0
 10
-322.658203125
 20
1115.033203125
  0
VERTEX
  8
0
 10
-325
 20
1120
  0
SEQEND
  8
0
  0
POLYLINE
  8
0
 66
1
 70
128
 40
0
 41
0
  0
VERTEX
  8
0
 10
-155
 20
1122
  0
VERTEX
  8
0
 10
-229.796875
 20
1132.515625
  0
VERTEX
  8
0
 10
-283.125
 20
1134.125
  0
VERTEX
  8
0
 10
-314.890625
 20
1129.171875
  0
VERTEX
  8
0
 10
-322.658203125
 20
1124.966796875
  0
VERTEX
  8
0
 10
-325
 20
1120
  0
SEQEND
  8
0
  0
LINE
  8
0
 10
-155
 20
1122
 11
-95
 21
1122
  0
LINE
  8
0
 10
-95
 20
1122
 11
-95
 21
1120
  0
LINE
  8
0
 10
-155
 20
1118
 11
-95
 21
1118
  0
LINE
  8
0
 10
-95
 20
1118
 11
-95
 21
1120
  0
LINE
  8
0
 10
-155
 20
1122
 11
-155
 21
1120
  0
LINE
  8
0
 10
-155
 20
1120
 11
-155
 21
1118
  0
LINE
  8
0
 10
285
 20
1000
 11
285
 21
996
  0
LINE
  8
0
 10
287
 20
996
 11
375
 21
996
  0
LINE
  8
0
 10
145
 20
996
 11
285
 21
996
  0
LINE
  8
0
 10
287
 20
1000
 11
375
 21
1000
  0
LINE
  8
0
 10
145
 20
1000
 11
285
 21
1000
  0
LINE
  8
0
 10
285
 20
998
 11
287
 21
996
  0
LINE
  8
0
 10
285
 20
998
 11
287
 21
1000
  0
LINE
  8
0
 10
145
 20
996
 11
145
 21
1000
  0
LINE
  8
0
 10
375
 20
996
 11
375
 21
1000
  0
LINE
  8
0
 10
-55
 20
900
 11
375
 21
910
  0
LINE
  8
0
 10
-285
 20
900
 11
-315
 21
900
  0
ARC
  8
0
 10
-420
 20
585.934851809023709
 40
30
 50
102.528807709151511
 51
180
  0
LINE
  8
0
 10
-450
 20
480
 11
-450
 21
585.934851809023709
  0
LINE
  8
0
 10
-426.507913734559685
 20
615.220463614542292
 11
-20.1176470588235294
 21
705.529411764705882
  0
ARC
  8
0
 10
420
 20
585.934851809023709
 40
30
 50
4.96961668978674478E-17
 51
77.4711922908484892
  0
LINE
  8
0
 10
426.507913734559685
 20
615.220463614542292
 11
20.1176470588235294
 21
705.529411764705882
  0
LINE
  8
0
 10
450
 20
480
 11
450
 21
585.934851809023709
  0
ARC
  8
0
 10
-180
 20
84.3803331527988911
 40
30
 50
124.992020198558662
 51
180
  0
LINE
  8
0
 10
-210
 20
84.3803331527988911
 11
-210
 21
30
  0
LINE
  8
0
 10
-197.20387033089985
 20
108.957290768370105
 11
-10
 21
240
  0
ARC
  8
0
 10
180
 20
84.3803331527988911
 40
30
 50
0
 51
55.0079798014413379
  0
LINE
  8
0
 10
197.20387033089985
 20
108.957290768370105
 11
10
 21
240
  0
LINE
  8
0
 10
210
 20
84.3803331527988912
 11
210
 21
30
  0
LINE
  8
0
 10
375
 20
910
 11
460
 21
915
  0
LINE
  8
0
 10
255
 20
1040
 11
470
 21
1040
  0
LINE
  8
0
 10
375
 20
970
 11
490
 21
970
  0
POLYLINE
  8
0
 66
1
 70
128
 40
0
 41
0
  0
VERTEX
  8
0
 10
375
 20
1110
  0
VERTEX
  8
0
 10
406.484375
 20
1124.453125
  0
VERTEX
  8
0
 10
428.125
 20
1131.875
  0
VERTEX
  8
0
 10
443.203125
 20
1134.609375
  0
VERTEX
  8
0
 10
455
 20
1135
  0
SEQEND
  8
0
  0
LINE
  8
0
 10
455
 20
1135
 11
495
 21
965
  0
POLYLINE
  8
0
 66
1
 70
128
 40
0
 41
0
  0
VERTEX
  8
0
 10
460
 20
915
  0
VERTEX
  8
0
 10
480.020418337076662
 20
922.196051735922669
  0
VERTEX
  8
0
 10
491.693973390763055
 20
932.66877651473592
  0
VERTEX
  8
0
 10
496.438903838311629
 20
946.189426162689355
  0
VERTEX
  8
0
 10
495.673448356974832
 20
962.529252506032582
  0
SEQEND
  8
0
  0
ENDSEC
  0
EOF
