  0
SECTION
  2
HEADER
  9
$ACADVER
  1
AC1009
  9
$INSBASE
 10
0.0
 20
0.0
 30
0.0
  9
$EXTMIN
 10
-196.14245652771109
 20
1315.126219173661
 30
0.0
  9
$EXTMAX
 10
-179.54592463810479
 20
1329.857114517227
 30
2.743564204486574
  9
$LIMMIN
 10
0.0
 20
0.0
  9
$LIMMAX
 10
420.0
 20
297.0
  9
$ORTHOMODE
 70
     0
  9
$REGENMODE
 70
     1
  9
$FILLMODE
 70
     1
  9
$QTEXTMODE
 70
     0
  9
$MIRRTEXT
 70
     0
  9
$DRAGMODE
 70
     2
  9
$LTSCALE
 40
1.0
  9
$OSMODE
 70
   229
  9
$ATTMODE
 70
     1
  9
$TEXTSIZE
 40
2.5
  9
$TRACEWID
 40
1.0
  9
$TEXTSTYLE
  7
STANDARD
  9
$CLAYER
  8
0
  9
$CELTYPE
  6
BYLAYER
  9
$CECOLOR
 62
   256
  9
$DIMSCALE
 40
1.0
  9
$DIMASZ
 40
2.5
  9
$DIMEXO
 40
0.625
  9
$DIMDLI
 40
3.75
  9
$DIMRND
 40
0.0
  9
$DIMDLE
 40
0.0
  9
$DIMEXE
 40
1.25
  9
$DIMTP
 40
0.0
  9
$DIMTM
 40
0.0
  9
$DIMTXT
 40
2.5
  9
$DIMCEN
 40
2.5
  9
$DIMTSZ
 40
0.0
  9
$DIMTOL
 70
     0
  9
$DIMLIM
 70
     0
  9
$DIMTIH
 70
     0
  9
$DIMTOH
 70
     0
  9
$DIMSE1
 70
     0
  9
$DIMSE2
 70
     0
  9
$DIMTAD
 70
     1
  9
$DIMZIN
 70
     8
  9
$DIMBLK
  1

  9
$DIMASO
 70
     1
  9
$DIMSHO
 70
     1
  9
$DIMPOST
  1

  9
$DIMAPOST
  1

  9
$DIMALT
 70
     0
  9
$DIMALTD
 70
     3
  9
$DIMALTF
 40
0.03937007874016
  9
$DIMLFAC
 40
1.0
  9
$DIMTOFL
 70
     1
  9
$DIMTVP
 40
0.0
  9
$DIMTIX
 70
     0
  9
$DIMSOXD
 70
     0
  9
$DIMSAH
 70
     0
  9
$DIMBLK1
  1

  9
$DIMBLK2
  1

  9
$DIMSTYLE
  2
ISO-25
  9
$DIMCLRD
 70
     0
  9
$DIMCLRE
 70
     0
  9
$DIMCLRT
 70
     0
  9
$DIMTFAC
 40
1.0
  9
$DIMGAP
 40
0.625
  9
$LUNITS
 70
     2
  9
$LUPREC
 70
     4
  9
$SKETCHINC
 40
1.0
  9
$FILLETRAD
 40
0.0
  9
$AUNITS
 70
     0
  9
$AUPREC
 70
     0
  9
$MENU
  1
.
  9
$ELEVATION
 40
0.0
  9
$PELEVATION
 40
0.0
  9
$THICKNESS
 40
0.0
  9
$LIMCHECK
 70
     0
  9
$BLIPMODE
 70
     0
  9
$CHAMFERA
 40
0.0
  9
$CHAMFERB
 40
0.0
  9
$SKPOLY
 70
     0
  9
$TDCREATE
 40
2455152.711037593
  9
$TDUPDATE
 40
2455215.767552014
  9
$TDINDWG
 40
0.008324375
  9
$TDUSRTIMER
 40
0.0083236458
  9
$USRTIMER
 70
     1
  9
$ANGBASE
 50
0.0
  9
$ANGDIR
 70
     0
  9
$PDMODE
 70
     0
  9
$PDSIZE
 40
0.0
  9
$PLINEWID
 40
0.0
  9
$COORDS
 70
     1
  9
$SPLFRAME
 70
     0
  9
$SPLINETYPE
 70
     6
  9
$SPLINESEGS
 70
     8
  9
$ATTDIA
 70
     0
  9
$ATTREQ
 70
     1
  9
$HANDLING
 70
     1
  9
$HANDSEED
  5
38F
  9
$SURFTAB1
 70
     6
  9
$SURFTAB2
 70
     6
  9
$SURFTYPE
 70
     6
  9
$SURFU
 70
     6
  9
$SURFV
 70
     6
  9
$UCSNAME
  2

  9
$UCSORG
 10
0.0
 20
0.0
 30
0.0
  9
$UCSXDIR
 10
1.0
 20
0.0
 30
0.0
  9
$UCSYDIR
 10
0.0
 20
1.0
 30
0.0
  9
$PUCSNAME
  2

  9
$PUCSORG
 10
0.0
 20
0.0
 30
0.0
  9
$PUCSXDIR
 10
1.0
 20
0.0
 30
0.0
  9
$PUCSYDIR
 10
0.0
 20
1.0
 30
0.0
  9
$USERI1
 70
     0
  9
$USERI2
 70
     0
  9
$USERI3
 70
     0
  9
$USERI4
 70
     0
  9
$USERI5
 70
     0
  9
$USERR1
 40
0.0
  9
$USERR2
 40
0.0
  9
$USERR3
 40
0.0
  9
$USERR4
 40
0.0
  9
$USERR5
 40
0.0
  9
$WORLDVIEW
 70
     1
  9
$SHADEDGE
 70
     3
  9
$SHADEDIF
 70
    70
  9
$TILEMODE
 70
     1
  9
$MAXACTVP
 70
    64
  9
$PLIMCHECK
 70
     0
  9
$PEXTMIN
 10
0.0
 20
0.0
 30
0.0
  9
$PEXTMAX
 10
0.0
 20
0.0
 30
0.0
  9
$PLIMMIN
 10
0.0
 20
0.0
  9
$PLIMMAX
 10
12.0
 20
9.0
  9
$UNITMODE
 70
     0
  9
$VISRETAIN
 70
     1
  9
$PLINEGEN
 70
     0
  9
$PSLTSCALE
 70
     1
  0
ENDSEC
  0
SECTION
  2
TABLES
  0
TABLE
  2
VPORT
 70
     1
  0
VPORT
  2
*ACTIVE
 70
     0
 10
0.0
 20
0.0
 11
1.0
 21
1.0
 12
0.0
 22
0.0
 13
0.0
 23
0.0
 14
10.0
 24
10.0
 15
10.0
 25
10.0
 16
-41.324359899058088
 26
-41.324359899057981
 36
41.324359899058088
 17
-297.46128358352132
 27
1198.0064079836741
 37
121.9172041288535
 40
25.654784942440539
 41
2.1195079086115989
 42
50.0
 43
0.0
 44
0.0
 50
0.0
 51
0.0000000000000441
 71
     0
 72
  1000
 73
     1
 74
     3
 75
     0
 76
     0
 77
     0
 78
     0
  0
ENDTAB
  0
TABLE
  2
LTYPE
 70
     1
  0
LTYPE
  2
CONTINUOUS
 70
     0
  3
Solid line
 72
    65
 73
     0
 40
0.0
  0
ENDTAB
  0
TABLE
  2
LAYER
 70
     2
  0
LAYER
  2
0
 70
     0
 62
     7
  6
CONTINUOUS
  0
LAYER
  2
DEFPOINTS
 70
     0
 62
     7
  6
CONTINUOUS
  0
ENDTAB
  0
TABLE
  2
STYLE
 70
     3
  0
STYLE
  2
STANDARD
 70
     0
 40
0.0
 41
1.0
 50
0.0
 71
     0
 42
2.5
  3
txt.shx
  4

  0
STYLE
  2
ANNOTATIVE
 70
     0
 40
0.0
 41
1.0
 50
0.0
 71
     0
 42
0.2
  3
txt
  4

  0
STYLE
  2
ANNOTATIVA
 70
     0
 40
0.0
 41
1.0
 50
0.0
 71
     0
 42
2.5
  3
txt.shx
  4

  0
ENDTAB
  0
TABLE
  2
VIEW
 70
     0
  0
ENDTAB
  0
TABLE
  2
UCS
 70
     0
  0
ENDTAB
  0
TABLE
  2
APPID
 70
     7
  0
APPID
  2
ACAD
 70
     0
  0
APPID
  2
ACADANNOTATIVE
 70
     0
  0
APPID
  2
ACAD_MLEADERVER
 70
     0
  0
APPID
  2
ACAD_PSEXT
 70
     0
  0
APPID
  2
ACADANNOPO
 70
     0
  0
APPID
  2
ACAD_DSTYLE_DIMJAG
 70
     0
  0
APPID
  2
ACAD_DSTYLE_DIMTALN
 70
     0
  0
ENDTAB
  0
TABLE
  2
DIMSTYLE
 70
     4
  0
DIMSTYLE
  2
STANDARD
 70
     0
  3

  4

  5

  6

  7

 40
1.0
 41
0.18
 42
0.0625
 43
0.38
 44
0.18
 45
0.0
 46
0.0
 47
0.0
 48
0.0
140
0.18
141
0.09
142
0.0
143
25.399999999999999
144
1.0
145
0.0
146
1.0
147
0.09
 71
     0
 72
     0
 73
     1
 74
     1
 75
     0
 76
     0
 77
     0
 78
     0
170
     0
171
     2
172
     0
173
     0
174
     0
175
     0
176
     0
177
     0
178
     0
  0
DIMSTYLE
  2
ANNOTATIVE
 70
     0
  3

  4

  5

  6

  7

 40
1.0
 41
0.18
 42
0.0625
 43
0.38
 44
0.18
 45
0.0
 46
0.0
 47
0.0
 48
0.0
140
0.18
141
0.09
142
0.0
143
25.399999999999999
144
1.0
145
0.0
146
1.0
147
0.09
 71
     0
 72
     0
 73
     1
 74
     1
 75
     0
 76
     0
 77
     0
 78
     0
170
     0
171
     2
172
     0
173
     0
174
     0
175
     0
176
     0
177
     0
178
     0
  0
DIMSTYLE
  2
ISO-25
 70
     0
  3

  4

  5

  6

  7

 40
1.0
 41
2.5
 42
0.625
 43
3.75
 44
1.25
 45
0.0
 46
0.0
 47
0.0
 48
0.0
140
2.5
141
2.5
142
0.0
143
0.03937007874016
144
1.0
145
0.0
146
1.0
147
0.625
 71
     0
 72
     0
 73
     0
 74
     0
 75
     0
 76
     0
 77
     1
 78
     8
170
     0
171
     3
172
     1
173
     0
174
     0
175
     0
176
     0
177
     0
178
     0
  0
DIMSTYLE
  2
ANNOTATIVA
 70
     0
  3

  4

  5

  6

  7

 40
0.0
 41
2.5
 42
0.625
 43
3.75
 44
1.25
 45
0.0
 46
0.0
 47
0.0
 48
0.0
140
2.5
141
2.5
142
0.0
143
0.03937007874016
144
1.0
145
0.0
146
1.0
147
0.625
 71
     0
 72
     0
 73
     0
 74
     0
 75
     0
 76
     0
 77
     1
 78
     8
170
     0
171
     3
172
     1
173
     0
174
     0
175
     0
176
     0
177
     0
178
     0
  0
ENDTAB
  0
ENDSEC
  0
SECTION
  2
BLOCKS
  0
BLOCK
  8
0
  2
$MODEL_SPACE
 70
     0
 10
0.0
 20
0.0
 30
0.0
  3
$MODEL_SPACE
  1

  0
ENDBLK
  5
336
  8
0
  0
BLOCK
 67
     1
  8
0
  2
$PAPER_SPACE
 70
     0
 10
0.0
 20
0.0
 30
0.0
  3
$PAPER_SPACE
  1

  0
ENDBLK
  5
332
 67
     1
  8
0
  0
BLOCK
  8
0
  2
*D2
 70
     1
 10
0.0
 20
0.0
 30
0.0
  3
*D2
  1

  0
LINE
  5
1C0
  8
0
 62
     0
 10
-189.1840747005881
 20
1333.6408244232291
 30
0.0
 11
-189.1840747005881
 21
1340.701326483344
 31
0.0
  0
LINE
  5
1C1
  8
0
 62
     0
 10
-169.1840747005881
 20
1333.6408244232291
 30
0.0
 11
-169.1840747005881
 21
1340.701326483344
 31
0.0
  0
LINE
  5
1C2
  8
0
 62
     0
 10
-186.6840747005881
 20
1339.451326483344
 30
0.0
 11
-171.6840747005881
 21
1339.451326483344
 31
0.0
  0
SOLID
  5
1C3
  8
0
 62
     0
 10
-186.6840747005881
 20
1339.8679931500119
 30
0.0
 11
-186.6840747005881
 21
1339.034659816678
 31
0.0
 12
-189.1840747005881
 22
1339.451326483344
 32
0.0
 13
-189.1840747005881
 23
1339.451326483344
 33
0.0
  0
SOLID
  5
1C4
  8
0
 62
     0
 10
-171.6840747005881
 20
1339.8679931500119
 30
0.0
 11
-171.6840747005881
 21
1339.034659816678
 31
0.0
 12
-169.1840747005881
 22
1339.451326483344
 32
0.0
 13
-169.1840747005881
 23
1339.451326483344
 33
0.0
  0
INSERT
  5
1C5
  8
0
  2
*U3
 10
0.0
 20
0.0
 30
0.0
  0
POINT
  5
1C6
  8
DEFPOINTS
 62
     0
 10
-189.1840747005881
 20
1333.0158244232291
 30
0.0
  0
POINT
  5
1C7
  8
DEFPOINTS
 62
     0
 10
-169.1840747005881
 20
1333.0158244232291
 30
0.0
  0
POINT
  5
1C8
  8
DEFPOINTS
 62
     0
 10
-169.1840747005881
 20
1339.451326483344
 30
0.0
  0
ENDBLK
  5
1B5
  8
0
  0
BLOCK
  8
0
  2
*U3
 70
     1
 10
0.0
 20
0.0
 30
0.0
  3
*U3
  1

  0
TEXT
  5
1F0
  8
0
 62
     0
 10
-181.0590747005881
 20
1340.0763264833449
 30
0.0
 40
2.5
  1
20
  0
ENDBLK
  5
1F2
  8
0
  0
BLOCK
  8
0
  2
*U4
 70
     1
 10
0.0
 20
0.0
 30
0.0
  3
*U4
  1

  0
LINE
  5
1FA
  8
0
 10
-186.2973233546399
 20
1315.902575769177
 30
5.0
 11
-186.2973233546399
 21
1330.129073077281
 31
5.0
210
-0.8660254037844376
220
0.0
230
0.5000000000000017
  0
LINE
  5
1FB
  8
0
 10
-189.1840747005881
 20
1333.0158244232291
 30
0.0
 11
-186.2973233546399
 21
1330.129073077281
 31
5.0
210
-0.8660254037844376
220
0.0
230
0.5000000000000017
  0
LINE
  5
1FC
  8
0
 10
-189.1840747005881
 20
1313.0158244232291
 30
0.0
 11
-186.2973233546399
 21
1315.902575769177
 31
5.0
210
-0.8660254037844376
220
0.0
230
0.5000000000000017
  0
LINE
  5
1FD
  8
0
 10
-189.1840747005881
 20
1333.0158244232291
 30
0.0
 11
-189.1840747005881
 21
1313.0158244232291
 31
0.0
210
-0.8660254037844376
220
0.0
230
0.5000000000000017
  0
LINE
  5
1FE
  8
0
 10
-186.2973233546399
 20
1330.129073077281
 30
5.0
 11
-172.0708260465363
 21
1330.129073077281
 31
5.0
210
0.0
220
0.8660254037844376
230
0.5000000000000017
  0
LINE
  5
1FF
  8
0
 10
-169.1840747005881
 20
1333.0158244232291
 30
0.0
 11
-172.0708260465363
 21
1330.129073077281
 31
5.0
210
0.0
220
0.8660254037844376
230
0.5000000000000017
  0
LINE
  5
200
  8
0
 10
-189.1840747005881
 20
1333.0158244232291
 30
0.0
 11
-186.2973233546399
 21
1330.129073077281
 31
5.0
210
0.0
220
0.8660254037844376
230
0.5000000000000017
  0
LINE
  5
201
  8
0
 10
-169.1840747005881
 20
1333.0158244232291
 30
0.0
 11
-189.1840747005881
 21
1333.0158244232291
 31
0.0
210
0.0
220
0.8660254037844376
230
0.5000000000000017
  0
LINE
  5
202
  8
0
 10
-172.0708260465363
 20
1330.129073077281
 30
5.0
 11
-172.07082604653621
 21
1315.902575769177
 31
5.0
210
0.8660254037844376
220
0.0
230
0.5000000000000017
  0
LINE
  5
203
  8
0
 10
-169.1840747005881
 20
1313.0158244232291
 30
0.0
 11
-172.07082604653621
 21
1315.902575769177
 31
5.0
210
0.8660254037844376
220
0.0
230
0.5000000000000017
  0
LINE
  5
204
  8
0
 10
-169.1840747005881
 20
1333.0158244232291
 30
0.0
 11
-172.0708260465363
 21
1330.129073077281
 31
5.0
210
0.8660254037844376
220
0.0
230
0.5000000000000017
  0
LINE
  5
205
  8
0
 10
-169.1840747005881
 20
1313.0158244232291
 30
0.0
 11
-169.1840747005881
 21
1333.0158244232291
 31
0.0
210
0.8660254037844376
220
0.0
230
0.5000000000000017
  0
LINE
  5
206
  8
0
 10
-172.07082604653621
 20
1315.902575769177
 30
5.0
 11
-186.2973233546399
 21
1315.902575769177
 31
5.0
210
0.0
220
-0.8660254037844376
230
0.5000000000000017
  0
LINE
  5
207
  8
0
 10
-189.1840747005881
 20
1313.0158244232291
 30
0.0
 11
-186.2973233546399
 21
1315.902575769177
 31
5.0
210
0.0
220
-0.8660254037844376
230
0.5000000000000017
  0
LINE
  5
208
  8
0
 10
-169.1840747005881
 20
1313.0158244232291
 30
0.0
 11
-172.07082604653621
 21
1315.902575769177
 31
5.0
210
0.0
220
-0.8660254037844376
230
0.5000000000000017
  0
LINE
  5
209
  8
0
 10
-189.1840747005881
 20
1313.0158244232291
 30
0.0
 11
-169.1840747005881
 21
1313.0158244232291
 31
0.0
210
0.0
220
-0.8660254037844376
230
0.5000000000000017
  0
LINE
  5
20A
  8
0
 10
-189.1840747005881
 20
1313.0158244232291
 30
0.0
 11
-169.1840747005881
 21
1313.0158244232291
 31
0.0
210
0.0
220
0.0
230
-1.0
  0
LINE
  5
20B
  8
0
 10
-189.1840747005881
 20
1333.0158244232291
 30
0.0
 11
-189.1840747005881
 21
1313.0158244232291
 31
0.0
210
0.0
220
0.0
230
-1.0
  0
LINE
  5
20C
  8
0
 10
-169.1840747005881
 20
1313.0158244232291
 30
0.0
 11
-169.1840747005881
 21
1333.0158244232291
 31
0.0
210
0.0
220
0.0
230
-1.0
  0
LINE
  5
20D
  8
0
 10
-169.1840747005881
 20
1333.0158244232291
 30
0.0
 11
-189.1840747005881
 21
1333.0158244232291
 31
0.0
210
0.0
220
0.0
230
-1.0
  0
LINE
  5
20E
  8
0
 10
-186.2973233546399
 20
1315.902575769177
 30
5.0
 11
-186.2973233546399
 21
1330.129073077281
 31
5.0
  0
LINE
  5
20F
  8
0
 10
-172.07082604653621
 20
1315.902575769177
 30
5.0
 11
-186.2973233546399
 21
1315.902575769177
 31
5.0
  0
LINE
  5
210
  8
0
 10
-186.2973233546399
 20
1330.129073077281
 30
5.0
 11
-172.0708260465363
 21
1330.129073077281
 31
5.0
  0
LINE
  5
211
  8
0
 10
-172.0708260465363
 20
1330.129073077281
 30
5.0
 11
-172.07082604653621
 21
1315.902575769177
 31
5.0
  0
ENDBLK
  5
213
  8
0
  0
BLOCK
  8
0
  2
*U5
 70
     1
 10
0.0
 20
0.0
 30
0.0
  3
*U5
  1

  0
LINE
  5
375
  8
0
 10
-181.8480483502006
 20
1327.5549908051321
 30
2.743564204486574
 11
-181.84804835020071
 21
1317.428342885758
 31
2.743564204486574
210
0.7660444431189794
220
0.0
230
0.6427876096865379
  0
LINE
  5
376
  8
0
 10
-179.54592463810479
 20
1315.126219173661
 30
0.0
 11
-181.84804835020071
 21
1317.428342885758
 31
2.743564204486574
210
0.7660444431189794
220
0.0
230
0.6427876096865379
  0
LINE
  5
377
  8
0
 10
-179.54592463810479
 20
1329.857114517227
 30
0.0
 11
-181.8480483502006
 21
1327.5549908051321
 31
2.743564204486574
210
0.7660444431189794
220
0.0
230
0.6427876096865379
  0
LINE
  5
378
  8
0
 10
-179.54592463810479
 20
1329.857114517227
 30
0.0
 11
-179.54592463810479
 21
1315.126219173661
 31
0.0
210
0.7660444431189794
220
0.0
230
0.6427876096865379
  0
LINE
  5
379
  8
0
 10
-181.84804835020071
 20
1317.428342885758
 30
2.743564204486574
 11
-193.84033281561531
 21
1317.428342885757
 31
2.743564204486574
210
0.0
220
-0.7660444431189794
230
0.6427876096865379
  0
LINE
  5
37A
  8
0
 10
-196.14245652771109
 20
1315.126219173661
 30
0.0
 11
-193.84033281561531
 21
1317.428342885757
 31
2.743564204486574
210
0.0
220
-0.7660444431189794
230
0.6427876096865379
  0
LINE
  5
37B
  8
0
 10
-179.54592463810479
 20
1315.126219173661
 30
0.0
 11
-181.84804835020071
 21
1317.428342885758
 31
2.743564204486574
210
0.0
220
-0.7660444431189794
230
0.6427876096865379
  0
LINE
  5
37C
  8
0
 10
-179.54592463810479
 20
1315.126219173661
 30
0.0
 11
-196.14245652771109
 21
1315.126219173661
 31
0.0
210
0.0
220
-0.7660444431189794
230
0.6427876096865379
  0
LINE
  5
37D
  8
0
 10
-193.84033281561531
 20
1317.428342885757
 30
2.743564204486574
 11
-193.84033281561531
 21
1327.5549908051321
 31
2.743564204486574
210
-0.7660444431189794
220
0.0
230
0.6427876096865379
  0
LINE
  5
37E
  8
0
 10
-196.14245652771109
 20
1329.857114517227
 30
0.0
 11
-193.84033281561531
 21
1327.5549908051321
 31
2.743564204486574
210
-0.7660444431189794
220
0.0
230
0.6427876096865379
  0
LINE
  5
37F
  8
0
 10
-196.14245652771109
 20
1315.126219173661
 30
0.0
 11
-193.84033281561531
 21
1317.428342885757
 31
2.743564204486574
210
-0.7660444431189794
220
0.0
230
0.6427876096865379
  0
LINE
  5
380
  8
0
 10
-196.14245652771109
 20
1315.126219173661
 30
0.0
 11
-196.14245652771109
 21
1329.857114517227
 31
0.0
210
-0.7660444431189794
220
0.0
230
0.6427876096865379
  0
LINE
  5
381
  8
0
 10
-193.84033281561531
 20
1327.5549908051321
 30
2.743564204486574
 11
-181.8480483502006
 21
1327.5549908051321
 31
2.743564204486574
210
0.0
220
0.7660444431189794
230
0.6427876096865379
  0
LINE
  5
382
  8
0
 10
-179.54592463810479
 20
1329.857114517227
 30
0.0
 11
-181.8480483502006
 21
1327.5549908051321
 31
2.743564204486574
210
0.0
220
0.7660444431189794
230
0.6427876096865379
  0
LINE
  5
383
  8
0
 10
-196.14245652771109
 20
1329.857114517227
 30
0.0
 11
-193.84033281561531
 21
1327.5549908051321
 31
2.743564204486574
210
0.0
220
0.7660444431189794
230
0.6427876096865379
  0
LINE
  5
384
  8
0
 10
-196.14245652771109
 20
1329.857114517227
 30
0.0
 11
-179.54592463810479
 21
1329.857114517227
 31
0.0
210
0.0
220
0.7660444431189794
230
0.6427876096865379
  0
LINE
  5
385
  8
0
 10
-181.8480483502006
 20
1327.5549908051321
 30
2.743564204486574
 11
-181.84804835020071
 21
1317.428342885758
 31
2.743564204486574
  0
LINE
  5
386
  8
0
 10
-193.84033281561531
 20
1327.5549908051321
 30
2.743564204486574
 11
-181.8480483502006
 21
1327.5549908051321
 31
2.743564204486574
  0
LINE
  5
387
  8
0
 10
-181.84804835020071
 20
1317.428342885758
 30
2.743564204486574
 11
-193.84033281561531
 21
1317.428342885757
 31
2.743564204486574
  0
LINE
  5
388
  8
0
 10
-193.84033281561531
 20
1317.428342885757
 30
2.743564204486574
 11
-193.84033281561531
 21
1327.5549908051321
 31
2.743564204486574
  0
LINE
  5
389
  8
0
 10
-196.14245652771109
 20
1329.857114517227
 30
0.0
 11
-179.54592463810479
 21
1329.857114517227
 31
0.0
210
0.0
220
0.0
230
-1.0
  0
LINE
  5
38A
  8
0
 10
-179.54592463810479
 20
1329.857114517227
 30
0.0
 11
-179.54592463810479
 21
1315.126219173661
 31
0.0
210
0.0
220
0.0
230
-1.0
  0
LINE
  5
38B
  8
0
 10
-196.14245652771109
 20
1315.126219173661
 30
0.0
 11
-196.14245652771109
 21
1329.857114517227
 31
0.0
210
0.0
220
0.0
230
-1.0
  0
LINE
  5
38C
  8
0
 10
-179.54592463810479
 20
1315.126219173661
 30
0.0
 11
-196.14245652771109
 21
1315.126219173661
 31
0.0
210
0.0
220
0.0
230
-1.0
  0
ENDBLK
  5
38E
  8
0
  0
ENDSEC
  0
SECTION
  2
ENTITIES
  0
INSERT
  5
351
  8
0
  2
*U5
 10
0.0
 20
0.0
 30
0.0
  0
ENDSEC
  0
EOF
