  0
SECTION
  2
HEADER
  9
$ACADVER
  1
AC1009
  9
$INSBASE
 10
0.0
 20
0.0
 30
0.0
  9
$EXTMIN
 10
-266.73696838415708
 20
519.35686710791015
 30
0.0
  9
$EXTMAX
 10
866.15352923001399
 20
1286.4954011092691
 30
0.0
  9
$LIMMIN
 10
-9.1846270000000008
 20
4.2969829999999991
  9
$LIMMAX
 10
44.815373000000001
 20
28.296983000000001
  9
$ORTHOMODE
 70
     1
  9
$REGENMODE
 70
     1
  9
$FILLMODE
 70
     1
  9
$QTEXTMODE
 70
     0
  9
$MIRRTEXT
 70
     1
  9
$DRAGMODE
 70
     2
  9
$LTSCALE
 40
0.4400000000000003
  9
$OSMODE
 70
    39
  9
$ATTMODE
 70
     1
  9
$TEXTSIZE
 40
0.0
  9
$TRACEWID
 40
0.05
  9
$TEXTSTYLE
  7
STANDARD
  9
$CLAYER
  8
LAYER01
  9
$CELTYPE
  6
CONTINUOUS
  9
$CECOLOR
 62
     7
  9
$DIMSCALE
 40
1.0
  9
$DIMASZ
 40
0.18
  9
$DIMEXO
 40
0.0625
  9
$DIMDLI
 40
0.38
  9
$DIMRND
 40
0.0
  9
$DIMDLE
 40
0.0
  9
$DIMEXE
 40
0.18
  9
$DIMTP
 40
0.0
  9
$DIMTM
 40
0.0
  9
$DIMTXT
 40
0.18
  9
$DIMCEN
 40
0.09
  9
$DIMTSZ
 40
0.0
  9
$DIMTOL
 70
     0
  9
$DIMLIM
 70
     0
  9
$DIMTIH
 70
     1
  9
$DIMTOH
 70
     1
  9
$DIMSE1
 70
     0
  9
$DIMSE2
 70
     0
  9
$DIMTAD
 70
     0
  9
$DIMZIN
 70
     0
  9
$DIMBLK
  1

  9
$DIMASO
 70
     1
  9
$DIMSHO
 70
     1
  9
$DIMPOST
  1

  9
$DIMAPOST
  1

  9
$DIMALT
 70
     0
  9
$DIMALTD
 70
     2
  9
$DIMALTF
 40
25.399999999999999
  9
$DIMLFAC
 40
1.0
  9
$DIMTOFL
 70
     0
  9
$DIMTVP
 40
0.0
  9
$DIMTIX
 70
     0
  9
$DIMSOXD
 70
     0
  9
$DIMSAH
 70
     0
  9
$DIMBLK1
  1

  9
$DIMBLK2
  1

  9
$DIMSTYLE
  2
STANDARD
  9
$DIMCLRD
 70
     0
  9
$DIMCLRE
 70
     0
  9
$DIMCLRT
 70
     0
  9
$DIMTFAC
 40
1.0
  9
$DIMGAP
 40
0.09
  9
$LUNITS
 70
     2
  9
$LUPREC
 70
     4
  9
$SKETCHINC
 40
0.1
  9
$FILLETRAD
 40
0.125
  9
$AUNITS
 70
     0
  9
$AUPREC
 70
     0
  9
$MENU
  1
acad
  9
$ELEVATION
 40
0.0
  9
$PELEVATION
 40
0.0
  9
$THICKNESS
 40
0.0
  9
$LIMCHECK
 70
     0
  9
$BLIPMODE
 70
     0
  9
$CHAMFERA
 40
0.5
  9
$CHAMFERB
 40
0.5
  9
$SKPOLY
 70
     0
  9
$TDCREATE
 40
2312272.4576737969
  9
$TDUPDATE
 40
2456211.8901149188
  9
$TDINDWG
 40
0.7191191435
  9
$TDUSRTIMER
 40
0.7191189583000001
  9
$USRTIMER
 70
     1
  9
$ANGBASE
 50
0.0
  9
$ANGDIR
 70
     0
  9
$PDMODE
 70
     0
  9
$PDSIZE
 40
0.0
  9
$PLINEWID
 40
0.008
  9
$COORDS
 70
     0
  9
$SPLFRAME
 70
     0
  9
$SPLINETYPE
 70
     6
  9
$SPLINESEGS
 70
    10
  9
$ATTDIA
 70
     0
  9
$ATTREQ
 70
     1
  9
$HANDLING
 70
     1
  9
$HANDSEED
  5
1E0C
  9
$SURFTAB1
 70
     6
  9
$SURFTAB2
 70
     6
  9
$SURFTYPE
 70
     6
  9
$SURFU
 70
     6
  9
$SURFV
 70
     6
  9
$UCSNAME
  2

  9
$UCSORG
 10
0.0
 20
0.0
 30
0.0
  9
$UCSXDIR
 10
1.0
 20
0.0
 30
0.0
  9
$UCSYDIR
 10
0.0
 20
1.0
 30
0.0
  9
$PUCSNAME
  2

  9
$PUCSORG
 10
0.0
 20
0.0
 30
0.0
  9
$PUCSXDIR
 10
1.0
 20
0.0
 30
0.0
  9
$PUCSYDIR
 10
0.0
 20
1.0
 30
0.0
  9
$USERI1
 70
     0
  9
$USERI2
 70
     0
  9
$USERI3
 70
     0
  9
$USERI4
 70
     0
  9
$USERI5
 70
     0
  9
$USERR1
 40
0.0
  9
$USERR2
 40
0.0
  9
$USERR3
 40
0.0
  9
$USERR4
 40
0.0
  9
$USERR5
 40
0.0
  9
$WORLDVIEW
 70
     1
  9
$SHADEDGE
 70
     3
  9
$SHADEDIF
 70
    70
  9
$TILEMODE
 70
     1
  9
$MAXACTVP
 70
    64
  9
$PLIMCHECK
 70
     0
  9
$PEXTMIN
 10
1.0000000000000000E+020
 20
1.0000000000000000E+020
 30
1.0000000000000000E+020
  9
$PEXTMAX
 10
-1.0000000000000000E+020
 20
-1.0000000000000000E+020
 30
-1.0000000000000000E+020
  9
$PLIMMIN
 10
0.0
 20
0.0
  9
$PLIMMAX
 10
12.0
 20
9.0
  9
$UNITMODE
 70
     0
  9
$VISRETAIN
 70
     1
  9
$PLINEGEN
 70
     0
  9
$PSLTSCALE
 70
     1
  0
ENDSEC
  0
SECTION
  2
TABLES
  0
TABLE
  2
VPORT
 70
     1
  0
VPORT
  2
*ACTIVE
 70
     0
 10
0.0
 20
0.0
 11
1.0
 21
1.0
 12
463.85846556280688
 22
884.09112887959009
 13
0.0
 23
0.0
 14
1.0
 24
1.0
 15
0.0
 25
0.0
 16
0.0
 26
0.0
 36
1.0
 17
0.0
 27
0.0
 37
0.0
 40
823.71277505151102
 41
2.2763636363636359
 42
50.0
 43
0.0
 44
0.0
 50
0.0
 51
0.0
 71
     0
 72
   100
 73
     1
 74
     1
 75
     0
 76
     0
 77
     0
 78
     0
  0
ENDTAB
  0
TABLE
  2
LTYPE
 70
    11
  0
LTYPE
  2
CONTINUOUS
 70
     0
  3
Solid line
 72
    65
 73
     0
 40
0.0
  0
LTYPE
  2
DASHED
 70
     0
  3
__ __ __ __ __ __ __ __ __ __ __ __ __ __ __
 72
    65
 73
     2
 40
0.75
 49
0.5
 49
-0.25
  0
LTYPE
  2
HIDDEN
 70
     0
  3
_ _ _ _ _ _ _ _ _ _ _ _ _ _ _ _ _ _ _ _ _ _ 
 72
    65
 73
     2
 40
0.25
 49
0.125
 49
-0.125
  0
LTYPE
  2
CENTER
 70
     0
  3
____ _ ____ _ ____ _ ____ _ ____ _ ____ _ __
 72
    65
 73
     4
 40
2.0
 49
1.25
 49
-0.25
 49
0.25
 49
-0.25
  0
LTYPE
  2
PHANTOM
 70
     0
  3
_____ _ _ _____ _ _ _____ _ _ _____ _ _ ____
 72
    65
 73
     6
 40
2.5
 49
1.25
 49
-0.25
 49
0.25
 49
-0.25
 49
0.25
 49
-0.25
  0
LTYPE
  2
DOT
 70
     0
  3
............................................
 72
    65
 73
     2
 40
0.25
 49
0.0
 49
-0.25
  0
LTYPE
  2
DASHDOT
 70
     0
  3
__ . __ . __ . __ . __ . __ . __ . __ . __ .
 72
    65
 73
     4
 40
1.0
 49
0.5
 49
-0.25
 49
0.0
 49
-0.25
  0
LTYPE
  2
BORDER
 70
     0
  3
__ __ . __ __ . __ __ . __ __ . __ __ . __ _
 72
    65
 73
     6
 40
1.75
 49
0.5
 49
-0.25
 49
0.5
 49
-0.25
 49
0.0
 49
-0.25
  0
LTYPE
  2
DIVIDE
 70
     0
  3
__ . . __ . . __ . . __ . . __ . . __ . . __
 72
    65
 73
     6
 40
1.25
 49
0.5
 49
-0.25
 49
0.0
 49
-0.25
 49
0.0
 49
-0.25
  0
LTYPE
  2
DOTS
 70
     0
  3
close                                       
 72
    65
 73
     2
 40
0.1
 49
0.05
 49
-0.05
  0
LTYPE
  2
CLOSE
 70
     0
  3
                                            
 72
    65
 73
     0
 40
0.0
  0
ENDTAB
  0
TABLE
  2
LAYER
 70
    12
  0
LAYER
  2
0
 70
     0
 62
     7
  6
CONTINUOUS
  0
LAYER
  2
LAYER01
 70
     0
 62
     7
  6
CONTINUOUS
  0
LAYER
  2
LAYER02
 70
     0
 62
     7
  6
CONTINUOUS
  0
LAYER
  2
LAYER03
 70
     0
 62
     7
  6
CONTINUOUS
  0
LAYER
  2
LAYER04
 70
     0
 62
     7
  6
CONTINUOUS
  0
LAYER
  2
LAYER05
 70
     0
 62
     7
  6
CONTINUOUS
  0
LAYER
  2
LAYER06
 70
     0
 62
     7
  6
CONTINUOUS
  0
LAYER
  2
LAYER07
 70
     0
 62
     7
  6
CONTINUOUS
  0
LAYER
  2
LAYER08
 70
     0
 62
     7
  6
CONTINUOUS
  0
LAYER
  2
LAYER09
 70
     0
 62
     7
  6
CONTINUOUS
  0
LAYER
  2
LAYER10
 70
     0
 62
     7
  6
CONTINUOUS
  0
LAYER
  2
7
 70
     0
 62
     7
  6
CONTINUOUS
  0
ENDTAB
  0
TABLE
  2
STYLE
 70
     1
  0
STYLE
  2
STANDARD
 70
     0
 40
0.0
 41
1.0
 50
0.0
 71
     0
 42
0.0
  3
txt
  4

  0
ENDTAB
  0
TABLE
  2
VIEW
 70
     0
  0
ENDTAB
  0
TABLE
  2
UCS
 70
     0
  0
ENDTAB
  0
TABLE
  2
APPID
 70
     2
  0
APPID
  2
ACAD
 70
     0
  0
APPID
  2
ACAD_MLEADERVER
 70
     0
  0
ENDTAB
  0
TABLE
  2
DIMSTYLE
 70
     2
  0
DIMSTYLE
  2
STANDARD
 70
     0
  3

  4

  5

  6

  7

 40
1.0
 41
0.18
 42
0.0625
 43
0.38
 44
0.18
 45
0.0
 46
0.0
 47
0.0
 48
0.0
140
0.18
141
0.09
142
0.0
143
25.399999999999999
144
1.0
145
0.0
146
1.0
147
0.09
 71
     0
 72
     0
 73
     1
 74
     1
 75
     0
 76
     0
 77
     0
 78
     0
170
     0
171
     2
172
     0
173
     0
174
     0
175
     0
176
     0
177
     0
178
     0
  0
DIMSTYLE
  2
ISO-25
 70
     0
  3

  4

  5

  6

  7

 40
1.0
 41
2.5
 42
0.625
 43
3.75
 44
1.25
 45
0.0
 46
0.0
 47
0.0
 48
0.0
140
2.5
141
2.5
142
0.0
143
0.03937007874016
144
1.0
145
0.0
146
1.0
147
0.625
 71
     0
 72
     0
 73
     0
 74
     0
 75
     0
 76
     0
 77
     1
 78
     8
170
     0
171
     3
172
     1
173
     0
174
     0
175
     0
176
     0
177
     0
178
     0
  0
ENDTAB
  0
ENDSEC
  0
SECTION
  2
BLOCKS
  0
BLOCK
  8
0
  2
$MODEL_SPACE
 70
     0
 10
0.0
 20
0.0
 30
0.0
  3
$MODEL_SPACE
  1

  0
ENDBLK
  5
E5D
  8
0
  0
BLOCK
 67
     1
  8
0
  2
$PAPER_SPACE
 70
     0
 10
0.0
 20
0.0
 30
0.0
  3
$PAPER_SPACE
  1

  0
ENDBLK
  5
E59
 67
     1
  8
0
  0
ENDSEC
  0
SECTION
  2
ENTITIES
  0
POLYLINE
  5
100D
  8
LAYER01
  6
CONTINUOUS
 62
     7
 66
     1
 10
0.0
 20
0.0
 30
0.0
 70
     1
  0
VERTEX
  5
1A2D
  8
LAYER01
  6
CONTINUOUS
 62
     7
 10
-145.9201184085795
 20
883.40292868014114
 30
0.0
  0
VERTEX
  5
1A2E
  8
LAYER01
  6
CONTINUOUS
 62
     7
 10
-145.9486371028558
 20
862.40294804481505
 30
0.0
  0
VERTEX
  5
1A2F
  8
LAYER01
  6
CONTINUOUS
 62
     7
 10
-187.94863685306419
 20
862.39836738000326
 30
0.0
  0
VERTEX
  5
1A30
  8
LAYER01
  6
CONTINUOUS
 62
     7
 10
-187.9201184085795
 20
883.40292868014114
 30
0.0
  0
SEQEND
  5
1A31
  8
LAYER01
  6
CONTINUOUS
 62
     7
  0
POLYLINE
  5
100E
  8
LAYER01
  6
CONTINUOUS
 62
     7
 66
     1
 10
0.0
 20
0.0
 30
0.0
 70
     1
  0
VERTEX
  5
1A32
  8
LAYER01
  6
CONTINUOUS
 62
     7
 10
-247.38523254019091
 20
891.79432995406455
 30
0.0
  0
VERTEX
  5
1A33
  8
LAYER01
  6
CONTINUOUS
 62
     7
 10
-223.31750092981801
 20
891.79432995406455
 30
0.0
  0
VERTEX
  5
1A34
  8
LAYER01
  6
CONTINUOUS
 62
     7
 10
-223.38523538223021
 20
879.29451347365341
 30
0.0
  0
VERTEX
  5
1A35
  8
LAYER01
  6
CONTINUOUS
 62
     7
 10
-247.38523254019091
 20
879.30619327978013
 30
0.0
  0
SEQEND
  5
1A36
  8
LAYER01
  6
CONTINUOUS
 62
     7
  0
POLYLINE
  5
100F
  8
LAYER01
  6
CONTINUOUS
 62
     7
 66
     1
 10
0.0
 20
0.0
 30
0.0
 70
     1
  0
VERTEX
  5
1A37
  8
LAYER01
  6
CONTINUOUS
 62
     7
 10
-205.4220841924691
 20
872.45762435195252
 30
0.0
  0
VERTEX
  5
1A38
  8
LAYER01
  6
CONTINUOUS
 62
     7
 10
-205.4506028867454
 20
851.45764371662642
 30
0.0
  0
VERTEX
  5
1A39
  8
LAYER01
  6
CONTINUOUS
 62
     7
 10
-247.4506026369537
 20
851.45306305181441
 30
0.0
  0
VERTEX
  5
1A3A
  8
LAYER01
  6
CONTINUOUS
 62
     7
 10
-247.42208419246899
 20
872.45762435195252
 30
0.0
  0
SEQEND
  5
1A3B
  8
LAYER01
  6
CONTINUOUS
 62
     7
  0
POLYLINE
  5
167D
  8
LAYER01
  6
CONTINUOUS
 62
     7
 66
     1
 10
0.0
 20
0.0
 30
0.0
 70
     1
  0
VERTEX
  5
1A3C
  8
LAYER01
  6
CONTINUOUS
 62
     7
 10
-46.469081616874057
 20
1065.2591691017749
 30
0.0
  0
VERTEX
  5
1A3D
  8
LAYER01
  6
CONTINUOUS
 62
     7
 10
-46.469081616874057
 20
1091.859169101775
 30
0.0
  0
VERTEX
  5
1A3E
  8
LAYER01
  6
CONTINUOUS
 62
     7
 10
-46.469081616874057
 20
1118.4591691017761
 30
0.0
 42
-0.0442718632125567
  0
VERTEX
  5
1A3F
  8
LAYER01
  6
CONTINUOUS
 62
     7
 10
326.63076805581778
 20
1123.8591691017771
 30
0.0
  0
VERTEX
  5
1A40
  8
LAYER01
  6
CONTINUOUS
 62
     7
 10
708.5305252957769
 20
1102.384219031635
 30
0.0
  0
VERTEX
  5
1A41
  8
LAYER01
  6
CONTINUOUS
 62
     7
 10
708.5305252957769
 20
1081.3341191719151
 30
0.0
  0
VERTEX
  5
1A42
  8
LAYER01
  6
CONTINUOUS
 62
     7
 10
326.63076805581778
 20
1059.859169101773
 30
0.0
 42
-0.0442718632125568
  0
SEQEND
  5
1A43
  8
LAYER01
  6
CONTINUOUS
 62
     7
  0
POLYLINE
  5
1690
  8
LAYER01
  6
CONTINUOUS
 62
     7
 66
     1
 10
0.0
 20
0.0
 30
0.0
 70
     1
  0
VERTEX
  5
1A44
  8
LAYER01
  6
CONTINUOUS
 62
     7
 10
323.53076805591371
 20
762.99651616049118
 30
0.0
  0
VERTEX
  5
1A45
  8
LAYER01
  6
CONTINUOUS
 62
     7
 10
323.53076805591371
 20
827.45165139660162
 30
0.0
 42
-0.0003680744305215
  0
VERTEX
  5
1A46
  8
LAYER01
  6
CONTINUOUS
 62
     7
 10
326.63076805588571
 20
827.22408377854867
 30
0.0
  0
VERTEX
  5
1A47
  8
LAYER01
  6
CONTINUOUS
 62
     7
 10
860.13574384295748
 20
797.22408377854651
 30
0.0
  0
VERTEX
  5
1A48
  8
LAYER01
  6
CONTINUOUS
 62
     7
 10
860.13574384295748
 20
793.22408377854674
 30
0.0
  0
VERTEX
  5
1A49
  8
LAYER01
  6
CONTINUOUS
 62
     7
 10
326.63076805588571
 20
763.22408377854447
 30
0.0
 42
-0.0003680744305215
  0
SEQEND
  5
1A4A
  8
LAYER01
  6
CONTINUOUS
 62
     7
  0
POLYLINE
  5
169F
  8
LAYER01
  6
CONTINUOUS
 62
     7
 66
     1
 10
0.0
 20
0.0
 30
0.0
 70
     1
  0
VERTEX
  5
1A4B
  8
LAYER01
  6
CONTINUOUS
 62
     7
 10
850.42663321165128
 20
1086.5323336629519
 30
0.0
  0
VERTEX
  5
1A4C
  8
LAYER01
  6
CONTINUOUS
 62
     7
 10
750.42663321165139
 20
1080.9091433720371
 30
0.0
  0
VERTEX
  5
1A4D
  8
LAYER01
  6
CONTINUOUS
 62
     7
 10
750.42663321165139
 20
1101.9592432317579
 30
0.0
  0
VERTEX
  5
1A4E
  8
LAYER01
  6
CONTINUOUS
 62
     7
 10
850.42663321165128
 20
1096.336052940844
 30
0.0
  0
SEQEND
  5
1A4F
  8
LAYER01
  6
CONTINUOUS
 62
     7
  0
POLYLINE
  5
16C6
  8
LAYER01
  6
CONTINUOUS
 62
     7
 66
     1
 10
0.0
 20
0.0
 30
0.0
  0
VERTEX
  5
1A50
  8
LAYER01
  6
CONTINUOUS
 62
     7
 10
781.32043718180228
 20
842.16516941345776
 30
0.0
  0
VERTEX
  5
1A51
  8
LAYER01
  6
CONTINUOUS
 62
     7
 10
781.32043718180228
 20
846.77219670508271
 30
0.0
  0
VERTEX
  5
1A52
  8
LAYER01
  6
CONTINUOUS
 62
     7
 10
787.9204371818023
 20
842.16516941345776
 30
0.0
  0
VERTEX
  5
1A53
  8
LAYER01
  6
CONTINUOUS
 62
     7
 10
794.52043718180221
 20
846.80091097409695
 30
0.0
  0
VERTEX
  5
1A54
  8
LAYER01
  6
CONTINUOUS
 62
     7
 10
794.52043718180221
 20
832.25871301077564
 30
0.0
  0
VERTEX
  5
1A55
  8
LAYER01
  6
CONTINUOUS
 62
     7
 10
781.32043718180228
 20
832.25871301077541
 30
0.0
  0
VERTEX
  5
1A56
  8
LAYER01
  6
CONTINUOUS
 62
     7
 10
781.32043718180228
 20
843.7062384662587
 30
0.0
  0
SEQEND
  5
1A57
  8
LAYER01
  6
CONTINUOUS
 62
     7
  0
POLYLINE
  5
16D7
  8
LAYER01
  6
CONTINUOUS
 62
     7
 66
     1
 10
0.0
 20
0.0
 30
0.0
 70
     1
  0
VERTEX
  5
1A58
  8
LAYER01
  6
CONTINUOUS
 62
     7
 10
687.48052529577694
 20
831.12183275629741
 30
0.0
  0
VERTEX
  5
1A59
  8
LAYER01
  6
CONTINUOUS
 62
     7
 10
687.48052529577694
 20
849.51547204691394
 30
0.0
  0
VERTEX
  5
1A5A
  8
LAYER01
  6
CONTINUOUS
 62
     7
 10
698.01052529577692
 20
842.16516941345776
 30
0.0
  0
VERTEX
  5
1A5B
  8
LAYER01
  6
CONTINUOUS
 62
     7
 10
708.5305252957769
 20
849.55426050708274
 30
0.0
  0
VERTEX
  5
1A5C
  8
LAYER01
  6
CONTINUOUS
 62
     7
 10
708.5305252957769
 20
831.37685568711436
 30
0.0
  0
SEQEND
  5
1A5D
  8
LAYER01
  6
CONTINUOUS
 62
     7
  0
POLYLINE
  5
1730
  8
LAYER01
  6
CONTINUOUS
 62
     7
 66
     1
 10
0.0
 20
0.0
 30
0.0
  0
VERTEX
  5
1A5E
  8
LAYER01
  6
CONTINUOUS
 62
     7
 10
-257.27387775360859
 20
1006.110788287136
 30
0.0
  0
VERTEX
  5
1A5F
  8
LAYER01
  6
CONTINUOUS
 62
     7
 10
-257.27387775360859
 20
1012.110788287136
 30
0.0
  0
VERTEX
  5
1A60
  8
LAYER01
  6
CONTINUOUS
 62
     7
 10
-237.76267106368871
 20
1012.110788287136
 30
0.0
  0
VERTEX
  5
1A61
  8
LAYER01
  6
CONTINUOUS
 62
     7
 10
-237.76267106368871
 20
1015.110788287136
 30
0.0
  0
VERTEX
  5
1A62
  8
LAYER01
  6
CONTINUOUS
 62
     7
 10
-217.9626710636885
 20
1015.110788287136
 30
0.0
  0
VERTEX
  5
1A63
  8
LAYER01
  6
CONTINUOUS
 62
     7
 10
-217.96267106368859
 20
1012.110788287136
 30
0.0
  0
VERTEX
  5
1A64
  8
LAYER01
  6
CONTINUOUS
 62
     7
 10
-198.4514643737692
 20
1012.110788287136
 30
0.0
  0
VERTEX
  5
1A65
  8
LAYER01
  6
CONTINUOUS
 62
     7
 10
-198.4514643737692
 20
1006.110788287136
 30
0.0
  0
VERTEX
  5
1A66
  8
LAYER01
  6
CONTINUOUS
 62
     7
 10
-192.4514643737692
 20
1006.110788287136
 30
0.0
  0
VERTEX
  5
1A67
  8
LAYER01
  6
CONTINUOUS
 62
     7
 10
-192.4514643737692
 20
995.03227387958009
 30
0.0
  0
VERTEX
  5
1A68
  8
LAYER01
  6
CONTINUOUS
 62
     7
 10
-189.4514643737692
 20
995.03227387958009
 30
0.0
  0
VERTEX
  5
1A69
  8
LAYER01
  6
CONTINUOUS
 62
     7
 10
-189.4514643737692
 20
970.2322739314892
 30
0.0
  0
VERTEX
  5
1A6A
  8
LAYER01
  6
CONTINUOUS
 62
     7
 10
-192.4514643737692
 20
970.23227393148898
 30
0.0
  0
VERTEX
  5
1A6B
  8
LAYER01
  6
CONTINUOUS
 62
     7
 10
-192.4514643737692
 20
951.98676896986899
 30
0.0
  0
VERTEX
  5
1A6C
  8
LAYER01
  6
CONTINUOUS
 62
     7
 10
-198.4514643737692
 20
951.98676896986899
 30
0.0
  0
VERTEX
  5
1A6D
  8
LAYER01
  6
CONTINUOUS
 62
     7
 10
-198.4514643737692
 20
945.9867689698691
 30
0.0
  0
VERTEX
  5
1A6E
  8
LAYER01
  6
CONTINUOUS
 62
     7
 10
-257.2738777536087
 20
945.98676896986899
 30
0.0
  0
VERTEX
  5
1A6F
  8
LAYER01
  6
CONTINUOUS
 62
     7
 10
-257.2738777536087
 20
951.98676896986899
 30
0.0
  0
VERTEX
  5
1A70
  8
LAYER01
  6
CONTINUOUS
 62
     7
 10
-263.2738777536087
 20
951.98676896986899
 30
0.0
  0
SEQEND
  5
1A71
  8
LAYER01
  6
CONTINUOUS
 62
     7
  0
POLYLINE
  5
1732
  8
LAYER01
  6
CONTINUOUS
 62
     7
 66
     1
 10
0.0
 20
0.0
 30
0.0
  0
VERTEX
  5
1A72
  8
LAYER01
  6
CONTINUOUS
 62
     7
 10
-257.2738777536087
 20
951.98676896986899
 30
0.0
  0
VERTEX
  5
1A73
  8
LAYER01
  6
CONTINUOUS
 62
     7
 10
-263.2738777536087
 20
951.98676896986899
 30
0.0
  0
VERTEX
  5
1A74
  8
LAYER01
  6
CONTINUOUS
 62
     7
 10
-263.2738777536087
 20
970.2322739314892
 30
0.0
  0
VERTEX
  5
1A75
  8
LAYER01
  6
CONTINUOUS
 62
     7
 10
-266.2738777536087
 20
970.2322739314892
 30
0.0
  0
VERTEX
  5
1A76
  8
LAYER01
  6
CONTINUOUS
 62
     7
 10
-266.2738777536087
 20
995.03227387958009
 30
0.0
  0
VERTEX
  5
1A77
  8
LAYER01
  6
CONTINUOUS
 62
     7
 10
-263.27387775360859
 20
995.03227387958009
 30
0.0
  0
VERTEX
  5
1A78
  8
LAYER01
  6
CONTINUOUS
 62
     7
 10
-263.27387775360859
 20
1006.110788287136
 30
0.0
  0
VERTEX
  5
1A79
  8
LAYER01
  6
CONTINUOUS
 62
     7
 10
-257.27387775360859
 20
1006.110788287136
 30
0.0
  0
SEQEND
  5
1A7A
  8
LAYER01
  6
CONTINUOUS
 62
     7
  0
POLYLINE
  5
1733
  8
LAYER01
  6
CONTINUOUS
 62
     7
 66
     1
 10
0.0
 20
0.0
 30
0.0
 70
     1
  0
VERTEX
  5
1A7B
  8
LAYER01
  6
CONTINUOUS
 62
     7
 10
-201.03567061388031
 20
995.18585402107692
 30
0.0
  0
VERTEX
  5
1A7C
  8
LAYER01
  6
CONTINUOUS
 62
     7
 10
-204.0356706138804
 20
1006.991751278299
 30
0.0
  0
VERTEX
  5
1A7D
  8
LAYER01
  6
CONTINUOUS
 62
     7
 10
-251.7056706138803
 20
1006.991751278299
 30
0.0
  0
VERTEX
  5
1A7E
  8
LAYER01
  6
CONTINUOUS
 62
     7
 10
-254.7056706138803
 20
995.18585402107692
 30
0.0
  0
VERTEX
  5
1A7F
  8
LAYER01
  6
CONTINUOUS
 62
     7
 10
-254.7056706138803
 20
970.18585407298622
 30
0.0
  0
VERTEX
  5
1A80
  8
LAYER01
  6
CONTINUOUS
 62
     7
 10
-251.7056706138803
 20
951.11050047414142
 30
0.0
  0
VERTEX
  5
1A81
  8
LAYER01
  6
CONTINUOUS
 62
     7
 10
-204.03567061388031
 20
951.11050047414142
 30
0.0
  0
VERTEX
  5
1A82
  8
LAYER01
  6
CONTINUOUS
 62
     7
 10
-201.03567061388031
 20
970.18585407298622
 30
0.0
  0
SEQEND
  5
1A83
  8
LAYER01
  6
CONTINUOUS
 62
     7
  0
POLYLINE
  5
177E
  8
LAYER01
  6
CONTINUOUS
 62
     7
 10
-257.141403086065
 20
731.99793316523665
 30
0.0
 66
     1
 70
     8
  0
VERTEX
  8
LAYER01
  5
1D08
 10
-257.141
 20
731.998
 30
0.000000
  70
    32
  0
VERTEX
  8
LAYER01
  5
1D09
 10
-257.109
 20
731.739
 30
0.000000
  70
    32
  0
VERTEX
  8
LAYER01
  5
1D0A
 10
-257.013
 20
731.482
 30
0.000000
  70
    32
  0
VERTEX
  8
LAYER01
  5
1D0B
 10
-256.853
 20
731.225
 30
0.000000
  70
    32
  0
VERTEX
  8
LAYER01
  5
1D0C
 10
-256.630
 20
730.970
 30
0.000000
  70
    32
  0
VERTEX
  8
LAYER01
  5
1D0D
 10
-256.344
 20
730.718
 30
0.000000
  70
    32
  0
VERTEX
  8
LAYER01
  5
1D0E
 10
-255.995
 20
730.469
 30
0.000000
  70
    32
  0
VERTEX
  8
LAYER01
  5
1D0F
 10
-255.585
 20
730.224
 30
0.000000
  70
    32
  0
VERTEX
  8
LAYER01
  5
1D10
 10
-255.115
 20
729.982
 30
0.000000
  70
    32
  0
VERTEX
  8
LAYER01
  5
1D11
 10
-254.586
 20
729.746
 30
0.000000
  70
    32
  0
VERTEX
  8
LAYER01
  5
1D12
 10
-253.998
 20
729.515
 30
0.000000
  70
    32
  0
VERTEX
  8
LAYER01
  5
1D13
 10
-253.354
 20
729.290
 30
0.000000
  70
    32
  0
VERTEX
  8
LAYER01
  5
1D14
 10
-252.655
 20
729.072
 30
0.000000
  70
    32
  0
VERTEX
  8
LAYER01
  5
1D15
 10
-251.903
 20
728.860
 30
0.000000
  70
    32
  0
VERTEX
  8
LAYER01
  5
1D16
 10
-251.099
 20
728.657
 30
0.000000
  70
    32
  0
VERTEX
  8
LAYER01
  5
1D17
 10
-250.246
 20
728.461
 30
0.000000
  70
    32
  0
VERTEX
  8
LAYER01
  5
1D18
 10
-249.345
 20
728.274
 30
0.000000
  70
    32
  0
VERTEX
  8
LAYER01
  5
1D19
 10
-248.399
 20
728.095
 30
0.000000
  70
    32
  0
VERTEX
  8
LAYER01
  5
1D1A
 10
-247.409
 20
727.927
 30
0.000000
  70
    32
  0
VERTEX
  8
LAYER01
  5
1D1B
 10
-246.379
 20
727.768
 30
0.000000
  70
    32
  0
VERTEX
  8
LAYER01
  5
1D1C
 10
-245.311
 20
727.619
 30
0.000000
  70
    32
  0
VERTEX
  8
LAYER01
  5
1D1D
 10
-244.207
 20
727.480
 30
0.000000
  70
    32
  0
VERTEX
  8
LAYER01
  5
1D1E
 10
-243.070
 20
727.353
 30
0.000000
  70
    32
  0
VERTEX
  8
LAYER01
  5
1D1F
 10
-241.903
 20
727.237
 30
0.000000
  70
    32
  0
VERTEX
  8
LAYER01
  5
1D20
 10
-240.709
 20
727.132
 30
0.000000
  70
    32
  0
VERTEX
  8
LAYER01
  5
1D21
 10
-239.490
 20
727.039
 30
0.000000
  70
    32
  0
VERTEX
  8
LAYER01
  5
1D22
 10
-238.249
 20
726.958
 30
0.000000
  70
    32
  0
VERTEX
  8
LAYER01
  5
1D23
 10
-236.990
 20
726.889
 30
0.000000
  70
    32
  0
VERTEX
  8
LAYER01
  5
1D24
 10
-235.715
 20
726.832
 30
0.000000
  70
    32
  0
VERTEX
  8
LAYER01
  5
1D25
 10
-234.428
 20
726.788
 30
0.000000
  70
    32
  0
VERTEX
  8
LAYER01
  5
1D26
 10
-233.131
 20
726.756
 30
0.000000
  70
    32
  0
VERTEX
  8
LAYER01
  5
1D27
 10
-231.828
 20
726.737
 30
0.000000
  70
    32
  0
VERTEX
  8
LAYER01
  5
1D28
 10
-230.522
 20
726.731
 30
0.000000
  70
    32
  0
VERTEX
  8
LAYER01
  5
1D29
 10
-229.216
 20
726.737
 30
0.000000
  70
    32
  0
VERTEX
  8
LAYER01
  5
1D2A
 10
-227.913
 20
726.756
 30
0.000000
  70
    32
  0
VERTEX
  8
LAYER01
  5
1D2B
 10
-226.616
 20
726.788
 30
0.000000
  70
    32
  0
VERTEX
  8
LAYER01
  5
1D2C
 10
-225.329
 20
726.832
 30
0.000000
  70
    32
  0
VERTEX
  8
LAYER01
  5
1D2D
 10
-224.054
 20
726.889
 30
0.000000
  70
    32
  0
VERTEX
  8
LAYER01
  5
1D2E
 10
-222.795
 20
726.958
 30
0.000000
  70
    32
  0
VERTEX
  8
LAYER01
  5
1D2F
 10
-221.555
 20
727.039
 30
0.000000
  70
    32
  0
VERTEX
  8
LAYER01
  5
1D30
 10
-220.336
 20
727.132
 30
0.000000
  70
    32
  0
VERTEX
  8
LAYER01
  5
1D31
 10
-219.141
 20
727.237
 30
0.000000
  70
    32
  0
VERTEX
  8
LAYER01
  5
1D32
 10
-217.974
 20
727.353
 30
0.000000
  70
    32
  0
VERTEX
  8
LAYER01
  5
1D33
 10
-216.837
 20
727.480
 30
0.000000
  70
    32
  0
VERTEX
  8
LAYER01
  5
1D34
 10
-215.733
 20
727.619
 30
0.000000
  70
    32
  0
VERTEX
  8
LAYER01
  5
1D35
 10
-214.665
 20
727.768
 30
0.000000
  70
    32
  0
VERTEX
  8
LAYER01
  5
1D36
 10
-213.635
 20
727.927
 30
0.000000
  70
    32
  0
VERTEX
  8
LAYER01
  5
1D37
 10
-212.646
 20
728.095
 30
0.000000
  70
    32
  0
VERTEX
  8
LAYER01
  5
1D38
 10
-211.700
 20
728.274
 30
0.000000
  70
    32
  0
VERTEX
  8
LAYER01
  5
1D39
 10
-210.799
 20
728.461
 30
0.000000
  70
    32
  0
VERTEX
  8
LAYER01
  5
1D3A
 10
-209.945
 20
728.657
 30
0.000000
  70
    32
  0
VERTEX
  8
LAYER01
  5
1D3B
 10
-209.142
 20
728.860
 30
0.000000
  70
    32
  0
VERTEX
  8
LAYER01
  5
1D3C
 10
-208.389
 20
729.072
 30
0.000000
  70
    32
  0
VERTEX
  8
LAYER01
  5
1D3D
 10
-207.690
 20
729.290
 30
0.000000
  70
    32
  0
VERTEX
  8
LAYER01
  5
1D3E
 10
-207.046
 20
729.515
 30
0.000000
  70
    32
  0
VERTEX
  8
LAYER01
  5
1D3F
 10
-206.459
 20
729.746
 30
0.000000
  70
    32
  0
VERTEX
  8
LAYER01
  5
1D40
 10
-205.929
 20
729.982
 30
0.000000
  70
    32
  0
VERTEX
  8
LAYER01
  5
1D41
 10
-205.459
 20
730.224
 30
0.000000
  70
    32
  0
VERTEX
  8
LAYER01
  5
1D42
 10
-205.049
 20
730.469
 30
0.000000
  70
    32
  0
VERTEX
  8
LAYER01
  5
1D43
 10
-204.701
 20
730.718
 30
0.000000
  70
    32
  0
VERTEX
  8
LAYER01
  5
1D44
 10
-204.415
 20
730.970
 30
0.000000
  70
    32
  0
VERTEX
  8
LAYER01
  5
1D45
 10
-204.191
 20
731.225
 30
0.000000
  70
    32
  0
VERTEX
  8
LAYER01
  5
1D46
 10
-204.031
 20
731.482
 30
0.000000
  70
    32
  0
VERTEX
  8
LAYER01
  5
1D47
 10
-203.935
 20
731.739
 30
0.000000
  70
    32
  0
VERTEX
  8
LAYER01
  5
1D48
 10
-203.903
 20
731.998
 30
0.000000
  70
    32
  0
VERTEX
  8
LAYER01
  5
1D49
 10
-203.935
 20
732.256
 30
0.000000
  70
    32
  0
VERTEX
  8
LAYER01
  5
1D4A
 10
-204.031
 20
732.514
 30
0.000000
  70
    32
  0
VERTEX
  8
LAYER01
  5
1D4B
 10
-204.191
 20
732.771
 30
0.000000
  70
    32
  0
VERTEX
  8
LAYER01
  5
1D4C
 10
-204.415
 20
733.025
 30
0.000000
  70
    32
  0
VERTEX
  8
LAYER01
  5
1D4D
 10
-204.701
 20
733.278
 30
0.000000
  70
    32
  0
VERTEX
  8
LAYER01
  5
1D4E
 10
-205.049
 20
733.527
 30
0.000000
  70
    32
  0
VERTEX
  8
LAYER01
  5
1D4F
 10
-205.459
 20
733.772
 30
0.000000
  70
    32
  0
VERTEX
  8
LAYER01
  5
1D50
 10
-205.929
 20
734.013
 30
0.000000
  70
    32
  0
VERTEX
  8
LAYER01
  5
1D51
 10
-206.459
 20
734.250
 30
0.000000
  70
    32
  0
VERTEX
  8
LAYER01
  5
1D52
 10
-207.046
 20
734.481
 30
0.000000
  70
    32
  0
VERTEX
  8
LAYER01
  5
1D53
 10
-207.690
 20
734.706
 30
0.000000
  70
    32
  0
VERTEX
  8
LAYER01
  5
1D54
 10
-208.389
 20
734.924
 30
0.000000
  70
    32
  0
VERTEX
  8
LAYER01
  5
1D55
 10
-209.142
 20
735.135
 30
0.000000
  70
    32
  0
VERTEX
  8
LAYER01
  5
1D56
 10
-209.945
 20
735.339
 30
0.000000
  70
    32
  0
VERTEX
  8
LAYER01
  5
1D57
 10
-210.799
 20
735.535
 30
0.000000
  70
    32
  0
VERTEX
  8
LAYER01
  5
1D58
 10
-211.700
 20
735.722
 30
0.000000
  70
    32
  0
VERTEX
  8
LAYER01
  5
1D59
 10
-212.646
 20
735.900
 30
0.000000
  70
    32
  0
VERTEX
  8
LAYER01
  5
1D5A
 10
-213.635
 20
736.069
 30
0.000000
  70
    32
  0
VERTEX
  8
LAYER01
  5
1D5B
 10
-214.665
 20
736.228
 30
0.000000
  70
    32
  0
VERTEX
  8
LAYER01
  5
1D5C
 10
-215.733
 20
736.377
 30
0.000000
  70
    32
  0
VERTEX
  8
LAYER01
  5
1D5D
 10
-216.837
 20
736.515
 30
0.000000
  70
    32
  0
VERTEX
  8
LAYER01
  5
1D5E
 10
-217.974
 20
736.643
 30
0.000000
  70
    32
  0
VERTEX
  8
LAYER01
  5
1D5F
 10
-219.141
 20
736.759
 30
0.000000
  70
    32
  0
VERTEX
  8
LAYER01
  5
1D60
 10
-220.336
 20
736.864
 30
0.000000
  70
    32
  0
VERTEX
  8
LAYER01
  5
1D61
 10
-221.555
 20
736.957
 30
0.000000
  70
    32
  0
VERTEX
  8
LAYER01
  5
1D62
 10
-222.795
 20
737.038
 30
0.000000
  70
    32
  0
VERTEX
  8
LAYER01
  5
1D63
 10
-224.054
 20
737.107
 30
0.000000
  70
    32
  0
VERTEX
  8
LAYER01
  5
1D64
 10
-225.329
 20
737.164
 30
0.000000
  70
    32
  0
VERTEX
  8
LAYER01
  5
1D65
 10
-226.616
 20
737.208
 30
0.000000
  70
    32
  0
VERTEX
  8
LAYER01
  5
1D66
 10
-227.913
 20
737.239
 30
0.000000
  70
    32
  0
VERTEX
  8
LAYER01
  5
1D67
 10
-229.216
 20
737.258
 30
0.000000
  70
    32
  0
VERTEX
  8
LAYER01
  5
1D68
 10
-230.522
 20
737.265
 30
0.000000
  70
    32
  0
VERTEX
  8
LAYER01
  5
1D69
 10
-231.828
 20
737.258
 30
0.000000
  70
    32
  0
VERTEX
  8
LAYER01
  5
1D6A
 10
-233.131
 20
737.239
 30
0.000000
  70
    32
  0
VERTEX
  8
LAYER01
  5
1D6B
 10
-234.428
 20
737.208
 30
0.000000
  70
    32
  0
VERTEX
  8
LAYER01
  5
1D6C
 10
-235.715
 20
737.164
 30
0.000000
  70
    32
  0
VERTEX
  8
LAYER01
  5
1D6D
 10
-236.990
 20
737.107
 30
0.000000
  70
    32
  0
VERTEX
  8
LAYER01
  5
1D6E
 10
-238.249
 20
737.038
 30
0.000000
  70
    32
  0
VERTEX
  8
LAYER01
  5
1D6F
 10
-239.490
 20
736.957
 30
0.000000
  70
    32
  0
VERTEX
  8
LAYER01
  5
1D70
 10
-240.709
 20
736.864
 30
0.000000
  70
    32
  0
VERTEX
  8
LAYER01
  5
1D71
 10
-241.903
 20
736.759
 30
0.000000
  70
    32
  0
VERTEX
  8
LAYER01
  5
1D72
 10
-243.070
 20
736.643
 30
0.000000
  70
    32
  0
VERTEX
  8
LAYER01
  5
1D73
 10
-244.207
 20
736.515
 30
0.000000
  70
    32
  0
VERTEX
  8
LAYER01
  5
1D74
 10
-245.311
 20
736.377
 30
0.000000
  70
    32
  0
VERTEX
  8
LAYER01
  5
1D75
 10
-246.379
 20
736.228
 30
0.000000
  70
    32
  0
VERTEX
  8
LAYER01
  5
1D76
 10
-247.409
 20
736.069
 30
0.000000
  70
    32
  0
VERTEX
  8
LAYER01
  5
1D77
 10
-248.399
 20
735.900
 30
0.000000
  70
    32
  0
VERTEX
  8
LAYER01
  5
1D78
 10
-249.345
 20
735.722
 30
0.000000
  70
    32
  0
VERTEX
  8
LAYER01
  5
1D79
 10
-250.246
 20
735.535
 30
0.000000
  70
    32
  0
VERTEX
  8
LAYER01
  5
1D7A
 10
-251.099
 20
735.339
 30
0.000000
  70
    32
  0
VERTEX
  8
LAYER01
  5
1D7B
 10
-251.903
 20
735.135
 30
0.000000
  70
    32
  0
VERTEX
  8
LAYER01
  5
1D7C
 10
-252.655
 20
734.924
 30
0.000000
  70
    32
  0
VERTEX
  8
LAYER01
  5
1D7D
 10
-253.354
 20
734.706
 30
0.000000
  70
    32
  0
VERTEX
  8
LAYER01
  5
1D7E
 10
-253.998
 20
734.481
 30
0.000000
  70
    32
  0
VERTEX
  8
LAYER01
  5
1D7F
 10
-254.586
 20
734.250
 30
0.000000
  70
    32
  0
VERTEX
  8
LAYER01
  5
1D80
 10
-255.115
 20
734.013
 30
0.000000
  70
    32
  0
VERTEX
  8
LAYER01
  5
1D81
 10
-255.585
 20
733.772
 30
0.000000
  70
    32
  0
VERTEX
  8
LAYER01
  5
1D82
 10
-255.995
 20
733.527
 30
0.000000
  70
    32
  0
VERTEX
  8
LAYER01
  5
1D83
 10
-256.344
 20
733.278
 30
0.000000
  70
    32
  0
VERTEX
  8
LAYER01
  5
1D84
 10
-256.630
 20
733.025
 30
0.000000
  70
    32
  0
VERTEX
  8
LAYER01
  5
1D85
 10
-256.853
 20
732.771
 30
0.000000
  70
    32
  0
VERTEX
  8
LAYER01
  5
1D86
 10
-257.013
 20
732.514
 30
0.000000
  70
    32
  0
VERTEX
  8
LAYER01
  5
1D87
 10
-257.109
 20
732.256
 30
0.000000
  70
    32
  0
VERTEX
  8
LAYER01
  5
1D88
 10
-257.141
 20
731.998
 30
0.000000
  70
    32
  0
SEQEND
  8
LAYER01
  5
1D89
  0
POLYLINE
  5
1780
  8
LAYER01
  6
CONTINUOUS
 62
     7
 10
-257.141403086065
 20
708.67152916669829
 30
0.0
 66
     1
 70
     8
  0
VERTEX
  8
LAYER01
  5
1D8A
 10
-257.141
 20
708.672
 30
0.000000
  70
    32
  0
VERTEX
  8
LAYER01
  5
1D8B
 10
-257.109
 20
708.413
 30
0.000000
  70
    32
  0
VERTEX
  8
LAYER01
  5
1D8C
 10
-257.013
 20
708.155
 30
0.000000
  70
    32
  0
VERTEX
  8
LAYER01
  5
1D8D
 10
-256.853
 20
707.899
 30
0.000000
  70
    32
  0
VERTEX
  8
LAYER01
  5
1D8E
 10
-256.630
 20
707.644
 30
0.000000
  70
    32
  0
VERTEX
  8
LAYER01
  5
1D8F
 10
-256.344
 20
707.392
 30
0.000000
  70
    32
  0
VERTEX
  8
LAYER01
  5
1D90
 10
-255.995
 20
707.143
 30
0.000000
  70
    32
  0
VERTEX
  8
LAYER01
  5
1D91
 10
-255.585
 20
706.897
 30
0.000000
  70
    32
  0
VERTEX
  8
LAYER01
  5
1D92
 10
-255.115
 20
706.656
 30
0.000000
  70
    32
  0
VERTEX
  8
LAYER01
  5
1D93
 10
-254.586
 20
706.420
 30
0.000000
  70
    32
  0
VERTEX
  8
LAYER01
  5
1D94
 10
-253.998
 20
706.189
 30
0.000000
  70
    32
  0
VERTEX
  8
LAYER01
  5
1D95
 10
-253.354
 20
705.964
 30
0.000000
  70
    32
  0
VERTEX
  8
LAYER01
  5
1D96
 10
-252.655
 20
705.745
 30
0.000000
  70
    32
  0
VERTEX
  8
LAYER01
  5
1D97
 10
-251.903
 20
705.534
 30
0.000000
  70
    32
  0
VERTEX
  8
LAYER01
  5
1D98
 10
-251.099
 20
705.330
 30
0.000000
  70
    32
  0
VERTEX
  8
LAYER01
  5
1D99
 10
-250.246
 20
705.135
 30
0.000000
  70
    32
  0
VERTEX
  8
LAYER01
  5
1D9A
 10
-249.345
 20
704.947
 30
0.000000
  70
    32
  0
VERTEX
  8
LAYER01
  5
1D9B
 10
-248.399
 20
704.769
 30
0.000000
  70
    32
  0
VERTEX
  8
LAYER01
  5
1D9C
 10
-247.409
 20
704.600
 30
0.000000
  70
    32
  0
VERTEX
  8
LAYER01
  5
1D9D
 10
-246.379
 20
704.441
 30
0.000000
  70
    32
  0
VERTEX
  8
LAYER01
  5
1D9E
 10
-245.311
 20
704.292
 30
0.000000
  70
    32
  0
VERTEX
  8
LAYER01
  5
1D9F
 10
-244.207
 20
704.154
 30
0.000000
  70
    32
  0
VERTEX
  8
LAYER01
  5
1DA0
 10
-243.070
 20
704.027
 30
0.000000
  70
    32
  0
VERTEX
  8
LAYER01
  5
1DA1
 10
-241.903
 20
703.910
 30
0.000000
  70
    32
  0
VERTEX
  8
LAYER01
  5
1DA2
 10
-240.709
 20
703.806
 30
0.000000
  70
    32
  0
VERTEX
  8
LAYER01
  5
1DA3
 10
-239.490
 20
703.713
 30
0.000000
  70
    32
  0
VERTEX
  8
LAYER01
  5
1DA4
 10
-238.249
 20
703.631
 30
0.000000
  70
    32
  0
VERTEX
  8
LAYER01
  5
1DA5
 10
-236.990
 20
703.562
 30
0.000000
  70
    32
  0
VERTEX
  8
LAYER01
  5
1DA6
 10
-235.715
 20
703.506
 30
0.000000
  70
    32
  0
VERTEX
  8
LAYER01
  5
1DA7
 10
-234.428
 20
703.462
 30
0.000000
  70
    32
  0
VERTEX
  8
LAYER01
  5
1DA8
 10
-233.131
 20
703.430
 30
0.000000
  70
    32
  0
VERTEX
  8
LAYER01
  5
1DA9
 10
-231.828
 20
703.411
 30
0.000000
  70
    32
  0
VERTEX
  8
LAYER01
  5
1DAA
 10
-230.522
 20
703.405
 30
0.000000
  70
    32
  0
VERTEX
  8
LAYER01
  5
1DAB
 10
-229.216
 20
703.411
 30
0.000000
  70
    32
  0
VERTEX
  8
LAYER01
  5
1DAC
 10
-227.913
 20
703.430
 30
0.000000
  70
    32
  0
VERTEX
  8
LAYER01
  5
1DAD
 10
-226.616
 20
703.462
 30
0.000000
  70
    32
  0
VERTEX
  8
LAYER01
  5
1DAE
 10
-225.329
 20
703.506
 30
0.000000
  70
    32
  0
VERTEX
  8
LAYER01
  5
1DAF
 10
-224.054
 20
703.562
 30
0.000000
  70
    32
  0
VERTEX
  8
LAYER01
  5
1DB0
 10
-222.795
 20
703.631
 30
0.000000
  70
    32
  0
VERTEX
  8
LAYER01
  5
1DB1
 10
-221.555
 20
703.713
 30
0.000000
  70
    32
  0
VERTEX
  8
LAYER01
  5
1DB2
 10
-220.336
 20
703.806
 30
0.000000
  70
    32
  0
VERTEX
  8
LAYER01
  5
1DB3
 10
-219.141
 20
703.910
 30
0.000000
  70
    32
  0
VERTEX
  8
LAYER01
  5
1DB4
 10
-217.974
 20
704.027
 30
0.000000
  70
    32
  0
VERTEX
  8
LAYER01
  5
1DB5
 10
-216.837
 20
704.154
 30
0.000000
  70
    32
  0
VERTEX
  8
LAYER01
  5
1DB6
 10
-215.733
 20
704.292
 30
0.000000
  70
    32
  0
VERTEX
  8
LAYER01
  5
1DB7
 10
-214.665
 20
704.441
 30
0.000000
  70
    32
  0
VERTEX
  8
LAYER01
  5
1DB8
 10
-213.635
 20
704.600
 30
0.000000
  70
    32
  0
VERTEX
  8
LAYER01
  5
1DB9
 10
-212.646
 20
704.769
 30
0.000000
  70
    32
  0
VERTEX
  8
LAYER01
  5
1DBA
 10
-211.700
 20
704.947
 30
0.000000
  70
    32
  0
VERTEX
  8
LAYER01
  5
1DBB
 10
-210.799
 20
705.135
 30
0.000000
  70
    32
  0
VERTEX
  8
LAYER01
  5
1DBC
 10
-209.945
 20
705.330
 30
0.000000
  70
    32
  0
VERTEX
  8
LAYER01
  5
1DBD
 10
-209.142
 20
705.534
 30
0.000000
  70
    32
  0
VERTEX
  8
LAYER01
  5
1DBE
 10
-208.389
 20
705.745
 30
0.000000
  70
    32
  0
VERTEX
  8
LAYER01
  5
1DBF
 10
-207.690
 20
705.964
 30
0.000000
  70
    32
  0
VERTEX
  8
LAYER01
  5
1DC0
 10
-207.046
 20
706.189
 30
0.000000
  70
    32
  0
VERTEX
  8
LAYER01
  5
1DC1
 10
-206.459
 20
706.420
 30
0.000000
  70
    32
  0
VERTEX
  8
LAYER01
  5
1DC2
 10
-205.929
 20
706.656
 30
0.000000
  70
    32
  0
VERTEX
  8
LAYER01
  5
1DC3
 10
-205.459
 20
706.897
 30
0.000000
  70
    32
  0
VERTEX
  8
LAYER01
  5
1DC4
 10
-205.049
 20
707.143
 30
0.000000
  70
    32
  0
VERTEX
  8
LAYER01
  5
1DC5
 10
-204.701
 20
707.392
 30
0.000000
  70
    32
  0
VERTEX
  8
LAYER01
  5
1DC6
 10
-204.415
 20
707.644
 30
0.000000
  70
    32
  0
VERTEX
  8
LAYER01
  5
1DC7
 10
-204.191
 20
707.899
 30
0.000000
  70
    32
  0
VERTEX
  8
LAYER01
  5
1DC8
 10
-204.031
 20
708.155
 30
0.000000
  70
    32
  0
VERTEX
  8
LAYER01
  5
1DC9
 10
-203.935
 20
708.413
 30
0.000000
  70
    32
  0
VERTEX
  8
LAYER01
  5
1DCA
 10
-203.903
 20
708.672
 30
0.000000
  70
    32
  0
VERTEX
  8
LAYER01
  5
1DCB
 10
-203.935
 20
708.930
 30
0.000000
  70
    32
  0
VERTEX
  8
LAYER01
  5
1DCC
 10
-204.031
 20
709.188
 30
0.000000
  70
    32
  0
VERTEX
  8
LAYER01
  5
1DCD
 10
-204.191
 20
709.444
 30
0.000000
  70
    32
  0
VERTEX
  8
LAYER01
  5
1DCE
 10
-204.415
 20
709.699
 30
0.000000
  70
    32
  0
VERTEX
  8
LAYER01
  5
1DCF
 10
-204.701
 20
709.951
 30
0.000000
  70
    32
  0
VERTEX
  8
LAYER01
  5
1DD0
 10
-205.049
 20
710.200
 30
0.000000
  70
    32
  0
VERTEX
  8
LAYER01
  5
1DD1
 10
-205.459
 20
710.446
 30
0.000000
  70
    32
  0
VERTEX
  8
LAYER01
  5
1DD2
 10
-205.929
 20
710.687
 30
0.000000
  70
    32
  0
VERTEX
  8
LAYER01
  5
1DD3
 10
-206.459
 20
710.923
 30
0.000000
  70
    32
  0
VERTEX
  8
LAYER01
  5
1DD4
 10
-207.046
 20
711.154
 30
0.000000
  70
    32
  0
VERTEX
  8
LAYER01
  5
1DD5
 10
-207.690
 20
711.379
 30
0.000000
  70
    32
  0
VERTEX
  8
LAYER01
  5
1DD6
 10
-208.389
 20
711.598
 30
0.000000
  70
    32
  0
VERTEX
  8
LAYER01
  5
1DD7
 10
-209.142
 20
711.809
 30
0.000000
  70
    32
  0
VERTEX
  8
LAYER01
  5
1DD8
 10
-209.945
 20
712.013
 30
0.000000
  70
    32
  0
VERTEX
  8
LAYER01
  5
1DD9
 10
-210.799
 20
712.209
 30
0.000000
  70
    32
  0
VERTEX
  8
LAYER01
  5
1DDA
 10
-211.700
 20
712.396
 30
0.000000
  70
    32
  0
VERTEX
  8
LAYER01
  5
1DDB
 10
-212.646
 20
712.574
 30
0.000000
  70
    32
  0
VERTEX
  8
LAYER01
  5
1DDC
 10
-213.635
 20
712.743
 30
0.000000
  70
    32
  0
VERTEX
  8
LAYER01
  5
1DDD
 10
-214.665
 20
712.902
 30
0.000000
  70
    32
  0
VERTEX
  8
LAYER01
  5
1DDE
 10
-215.733
 20
713.051
 30
0.000000
  70
    32
  0
VERTEX
  8
LAYER01
  5
1DDF
 10
-216.837
 20
713.189
 30
0.000000
  70
    32
  0
VERTEX
  8
LAYER01
  5
1DE0
 10
-217.974
 20
713.317
 30
0.000000
  70
    32
  0
VERTEX
  8
LAYER01
  5
1DE1
 10
-219.141
 20
713.433
 30
0.000000
  70
    32
  0
VERTEX
  8
LAYER01
  5
1DE2
 10
-220.336
 20
713.538
 30
0.000000
  70
    32
  0
VERTEX
  8
LAYER01
  5
1DE3
 10
-221.555
 20
713.631
 30
0.000000
  70
    32
  0
VERTEX
  8
LAYER01
  5
1DE4
 10
-222.795
 20
713.712
 30
0.000000
  70
    32
  0
VERTEX
  8
LAYER01
  5
1DE5
 10
-224.054
 20
713.781
 30
0.000000
  70
    32
  0
VERTEX
  8
LAYER01
  5
1DE6
 10
-225.329
 20
713.837
 30
0.000000
  70
    32
  0
VERTEX
  8
LAYER01
  5
1DE7
 10
-226.616
 20
713.881
 30
0.000000
  70
    32
  0
VERTEX
  8
LAYER01
  5
1DE8
 10
-227.913
 20
713.913
 30
0.000000
  70
    32
  0
VERTEX
  8
LAYER01
  5
1DE9
 10
-229.216
 20
713.932
 30
0.000000
  70
    32
  0
VERTEX
  8
LAYER01
  5
1DEA
 10
-230.522
 20
713.938
 30
0.000000
  70
    32
  0
VERTEX
  8
LAYER01
  5
1DEB
 10
-231.828
 20
713.932
 30
0.000000
  70
    32
  0
VERTEX
  8
LAYER01
  5
1DEC
 10
-233.131
 20
713.913
 30
0.000000
  70
    32
  0
VERTEX
  8
LAYER01
  5
1DED
 10
-234.428
 20
713.881
 30
0.000000
  70
    32
  0
VERTEX
  8
LAYER01
  5
1DEE
 10
-235.715
 20
713.837
 30
0.000000
  70
    32
  0
VERTEX
  8
LAYER01
  5
1DEF
 10
-236.990
 20
713.781
 30
0.000000
  70
    32
  0
VERTEX
  8
LAYER01
  5
1DF0
 10
-238.249
 20
713.712
 30
0.000000
  70
    32
  0
VERTEX
  8
LAYER01
  5
1DF1
 10
-239.490
 20
713.631
 30
0.000000
  70
    32
  0
VERTEX
  8
LAYER01
  5
1DF2
 10
-240.709
 20
713.538
 30
0.000000
  70
    32
  0
VERTEX
  8
LAYER01
  5
1DF3
 10
-241.903
 20
713.433
 30
0.000000
  70
    32
  0
VERTEX
  8
LAYER01
  5
1DF4
 10
-243.070
 20
713.317
 30
0.000000
  70
    32
  0
VERTEX
  8
LAYER01
  5
1DF5
 10
-244.207
 20
713.189
 30
0.000000
  70
    32
  0
VERTEX
  8
LAYER01
  5
1DF6
 10
-245.311
 20
713.051
 30
0.000000
  70
    32
  0
VERTEX
  8
LAYER01
  5
1DF7
 10
-246.379
 20
712.902
 30
0.000000
  70
    32
  0
VERTEX
  8
LAYER01
  5
1DF8
 10
-247.409
 20
712.743
 30
0.000000
  70
    32
  0
VERTEX
  8
LAYER01
  5
1DF9
 10
-248.399
 20
712.574
 30
0.000000
  70
    32
  0
VERTEX
  8
LAYER01
  5
1DFA
 10
-249.345
 20
712.396
 30
0.000000
  70
    32
  0
VERTEX
  8
LAYER01
  5
1DFB
 10
-250.246
 20
712.209
 30
0.000000
  70
    32
  0
VERTEX
  8
LAYER01
  5
1DFC
 10
-251.099
 20
712.013
 30
0.000000
  70
    32
  0
VERTEX
  8
LAYER01
  5
1DFD
 10
-251.903
 20
711.809
 30
0.000000
  70
    32
  0
VERTEX
  8
LAYER01
  5
1DFE
 10
-252.655
 20
711.598
 30
0.000000
  70
    32
  0
VERTEX
  8
LAYER01
  5
1DFF
 10
-253.354
 20
711.379
 30
0.000000
  70
    32
  0
VERTEX
  8
LAYER01
  5
1E00
 10
-253.998
 20
711.154
 30
0.000000
  70
    32
  0
VERTEX
  8
LAYER01
  5
1E01
 10
-254.586
 20
710.923
 30
0.000000
  70
    32
  0
VERTEX
  8
LAYER01
  5
1E02
 10
-255.115
 20
710.687
 30
0.000000
  70
    32
  0
VERTEX
  8
LAYER01
  5
1E03
 10
-255.585
 20
710.446
 30
0.000000
  70
    32
  0
VERTEX
  8
LAYER01
  5
1E04
 10
-255.995
 20
710.200
 30
0.000000
  70
    32
  0
VERTEX
  8
LAYER01
  5
1E05
 10
-256.344
 20
709.951
 30
0.000000
  70
    32
  0
VERTEX
  8
LAYER01
  5
1E06
 10
-256.630
 20
709.699
 30
0.000000
  70
    32
  0
VERTEX
  8
LAYER01
  5
1E07
 10
-256.853
 20
709.444
 30
0.000000
  70
    32
  0
VERTEX
  8
LAYER01
  5
1E08
 10
-257.013
 20
709.188
 30
0.000000
  70
    32
  0
VERTEX
  8
LAYER01
  5
1E09
 10
-257.109
 20
708.930
 30
0.000000
  70
    32
  0
VERTEX
  8
LAYER01
  5
1E0A
 10
-257.141
 20
708.672
 30
0.000000
  70
    32
  0
SEQEND
  8
LAYER01
  5
1E0B
  0
POLYLINE
  5
1781
  8
LAYER01
  6
CONTINUOUS
 62
     7
 66
     1
 10
0.0
 20
0.0
 30
0.0
  0
VERTEX
  5
1A84
  8
LAYER01
  6
CONTINUOUS
 62
     7
 10
-262.18525801140589
 20
735.26523853780463
 30
0.0
  0
VERTEX
  5
1A85
  8
LAYER01
  6
CONTINUOUS
 62
     7
 10
-265.18525801140601
 20
735.26523853780475
 30
0.0
  0
VERTEX
  5
1A86
  8
LAYER01
  6
CONTINUOUS
 62
     7
 10
-265.18525801140589
 20
710.26523858971393
 30
0.0
  0
VERTEX
  5
1A87
  8
LAYER01
  6
CONTINUOUS
 62
     7
 10
-262.18525801140601
 20
710.26523858971393
 30
0.0
  0
VERTEX
  5
1A88
  8
LAYER01
  6
CONTINUOUS
 62
     7
 10
-262.18525801140601
 20
693.30197990526415
 30
0.0
  0
VERTEX
  5
1A89
  8
LAYER01
  6
CONTINUOUS
 62
     7
 10
-256.18525801140601
 20
693.30197990526415
 30
0.0
  0
SEQEND
  5
1A8A
  8
LAYER01
  6
CONTINUOUS
 62
     7
  0
POLYLINE
  5
1782
  8
LAYER01
  6
CONTINUOUS
 62
     7
 66
     1
 10
0.0
 20
0.0
 30
0.0
  0
VERTEX
  5
1A8B
  8
LAYER01
  6
CONTINUOUS
 62
     7
 10
-262.18525801140589
 20
735.26523853780475
 30
0.0
  0
VERTEX
  5
1A8C
  8
LAYER01
  6
CONTINUOUS
 62
     7
 10
-262.18525801140589
 20
746.18994463934234
 30
0.0
  0
VERTEX
  5
1A8D
  8
LAYER01
  6
CONTINUOUS
 62
     7
 10
-256.18525801140589
 20
746.18994463934234
 30
0.0
  0
VERTEX
  5
1A8E
  8
LAYER01
  6
CONTINUOUS
 62
     7
 10
-256.18525801140589
 20
752.18994463934223
 30
0.0
  0
VERTEX
  5
1A8F
  8
LAYER01
  6
CONTINUOUS
 62
     7
 10
-240.08525801140581
 20
752.18994463934223
 30
0.0
  0
VERTEX
  5
1A90
  8
LAYER01
  6
CONTINUOUS
 62
     7
 10
-240.08525801140581
 20
755.18994463934223
 30
0.0
  0
VERTEX
  5
1A91
  8
LAYER01
  6
CONTINUOUS
 62
     7
 10
-220.28525801140589
 20
755.18994463934223
 30
0.0
  0
VERTEX
  5
1A92
  8
LAYER01
  6
CONTINUOUS
 62
     7
 10
-220.28525801140589
 20
752.18994463934223
 30
0.0
  0
VERTEX
  5
1A93
  8
LAYER01
  6
CONTINUOUS
 62
     7
 10
-204.18525801140549
 20
752.18994463934223
 30
0.0
  0
VERTEX
  5
1A94
  8
LAYER01
  6
CONTINUOUS
 62
     7
 10
-204.18525801140549
 20
746.18994463934223
 30
0.0
  0
VERTEX
  5
1A95
  8
LAYER01
  6
CONTINUOUS
 62
     7
 10
-198.18525801140549
 20
746.18994463934223
 30
0.0
  0
VERTEX
  5
1A96
  8
LAYER01
  6
CONTINUOUS
 62
     7
 10
-198.18525801140549
 20
735.26523853780475
 30
0.0
  0
VERTEX
  5
1A97
  8
LAYER01
  6
CONTINUOUS
 62
     7
 10
-195.18525801140549
 20
735.26523853780475
 30
0.0
  0
VERTEX
  5
1A98
  8
LAYER01
  6
CONTINUOUS
 62
     7
 10
-195.18525801140549
 20
710.26523858971382
 30
0.0
  0
VERTEX
  5
1A99
  8
LAYER01
  6
CONTINUOUS
 62
     7
 10
-198.18525801140549
 20
710.26523858971382
 30
0.0
  0
VERTEX
  5
1A9A
  8
LAYER01
  6
CONTINUOUS
 62
     7
 10
-198.18525801140549
 20
693.30197990526415
 30
0.0
  0
VERTEX
  5
1A9B
  8
LAYER01
  6
CONTINUOUS
 62
     7
 10
-204.18525801140549
 20
693.30197990526415
 30
0.0
  0
VERTEX
  5
1A9C
  8
LAYER01
  6
CONTINUOUS
 62
     7
 10
-204.18525801140549
 20
687.30197990526437
 30
0.0
  0
VERTEX
  5
1A9D
  8
LAYER01
  6
CONTINUOUS
 62
     7
 10
-256.18525801140601
 20
687.30197990526415
 30
0.0
  0
VERTEX
  5
1A9E
  8
LAYER01
  6
CONTINUOUS
 62
     7
 10
-256.18525801140601
 20
693.30197990526415
 30
0.0
  0
VERTEX
  5
1A9F
  8
LAYER01
  6
CONTINUOUS
 62
     7
 10
-262.18525801140601
 20
693.30197990526415
 30
0.0
  0
SEQEND
  5
1AA0
  8
LAYER01
  6
CONTINUOUS
 62
     7
  0
POLYLINE
  5
1783
  8
LAYER01
  6
CONTINUOUS
 62
     7
 66
     1
 10
0.0
 20
0.0
 30
0.0
 70
     1
  0
VERTEX
  5
1AA1
  8
LAYER01
  6
CONTINUOUS
 62
     7
 10
-204.2852580114058
 20
717.82548275765237
 30
0.0
  0
VERTEX
  5
1AA2
  8
LAYER01
  6
CONTINUOUS
 62
     7
 10
-204.2852580114058
 20
720.9254827576525
 30
0.0
  0
VERTEX
  5
1AA3
  8
LAYER01
  6
CONTINUOUS
 62
     7
 10
-230.28525801140589
 20
720.9254827576525
 30
0.0
  0
VERTEX
  5
1AA4
  8
LAYER01
  6
CONTINUOUS
 62
     7
 10
-256.2852580114058
 20
720.9254827576525
 30
0.0
  0
VERTEX
  5
1AA5
  8
LAYER01
  6
CONTINUOUS
 62
     7
 10
-256.2852580114058
 20
717.82548275765237
 30
0.0
  0
VERTEX
  5
1AA6
  8
LAYER01
  6
CONTINUOUS
 62
     7
 10
-230.28525801140589
 20
717.82548275765237
 30
0.0
  0
SEQEND
  5
1AA7
  8
LAYER01
  6
CONTINUOUS
 62
     7
  0
POLYLINE
  5
1789
  8
LAYER01
  6
CONTINUOUS
 62
     7
 66
     1
 10
0.0
 20
0.0
 30
0.0
  0
VERTEX
  5
1AA8
  8
LAYER01
  6
CONTINUOUS
 62
     7
 10
-256.18525801140601
 20
693.30197990526415
 30
0.0
  0
VERTEX
  5
1AA9
  8
LAYER01
  6
CONTINUOUS
 62
     7
 10
-262.18525801140601
 20
693.30197990526415
 30
0.0
  0
SEQEND
  5
1AAA
  8
LAYER01
  6
CONTINUOUS
 62
     7
  0
POLYLINE
  5
1792
  8
LAYER01
  6
CONTINUOUS
 62
     7
 66
     1
 10
0.0
 20
0.0
 30
0.0
 70
     1
  0
VERTEX
  5
1AAB
  8
LAYER01
  6
CONTINUOUS
 62
     7
 10
-204.18525801140549
 20
693.30197990526415
 30
0.0
  0
VERTEX
  5
1AAC
  8
LAYER01
  6
CONTINUOUS
 62
     7
 10
-198.18525801140549
 20
693.30197990526415
 30
0.0
  0
SEQEND
  5
1AAD
  8
LAYER01
  6
CONTINUOUS
 62
     7
  0
POLYLINE
  5
17CF
  8
LAYER01
  6
CONTINUOUS
 62
     7
 66
     1
 10
0.0
 20
0.0
 30
0.0
 70
     1
  0
VERTEX
  5
1AAE
  8
LAYER01
  6
CONTINUOUS
 62
     7
 10
-142.30390565481071
 20
950.54308676009691
 30
0.0
  0
VERTEX
  5
1AAF
  8
LAYER01
  6
CONTINUOUS
 62
     7
 10
-142.30390565481071
 20
956.54308676009691
 30
0.0
  0
VERTEX
  5
1AB0
  8
LAYER01
  6
CONTINUOUS
 62
     7
 10
-148.30390565481079
 20
956.54308676009691
 30
0.0
  0
VERTEX
  5
1AB1
  8
LAYER01
  6
CONTINUOUS
 62
     7
 10
-148.30390565481071
 20
962.66261772827716
 30
0.0
  0
VERTEX
  5
1AB2
  8
LAYER01
  6
CONTINUOUS
 62
     7
 10
-151.30390565481071
 20
962.66261772827716
 30
0.0
  0
VERTEX
  5
1AB3
  8
LAYER01
  6
CONTINUOUS
 62
     7
 10
-151.30390565481071
 20
987.66261767636774
 30
0.0
  0
VERTEX
  5
1AB4
  8
LAYER01
  6
CONTINUOUS
 62
     7
 10
-148.30390565481071
 20
987.66261767636774
 30
0.0
  0
VERTEX
  5
1AB5
  8
LAYER01
  6
CONTINUOUS
 62
     7
 10
-148.30390565481071
 20
989.58284796739918
 30
0.0
  0
VERTEX
  5
1AB6
  8
LAYER01
  6
CONTINUOUS
 62
     7
 10
-142.30390565481059
 20
989.58284796739906
 30
0.0
  0
VERTEX
  5
1AB7
  8
LAYER01
  6
CONTINUOUS
 62
     7
 10
-142.30390565481071
 20
995.58284796739906
 30
0.0
  0
VERTEX
  5
1AB8
  8
LAYER01
  6
CONTINUOUS
 62
     7
 10
-136.22994529625009
 20
995.58284796739906
 30
0.0
  0
VERTEX
  5
1AB9
  8
LAYER01
  6
CONTINUOUS
 62
     7
 10
-136.22994529625021
 20
998.68284796739897
 30
0.0
  0
VERTEX
  5
1ABA
  8
LAYER01
  6
CONTINUOUS
 62
     7
 10
-116.22994529625019
 20
998.68284796739897
 30
0.0
  0
VERTEX
  5
1ABB
  8
LAYER01
  6
CONTINUOUS
 62
     7
 10
-116.22994529625031
 20
995.58284796739906
 30
0.0
  0
VERTEX
  5
1ABC
  8
LAYER01
  6
CONTINUOUS
 62
     7
 10
-110.15598493768989
 20
995.58284796739895
 30
0.0
  0
VERTEX
  5
1ABD
  8
LAYER01
  6
CONTINUOUS
 62
     7
 10
-110.15598493768989
 20
989.58284796739895
 30
0.0
  0
VERTEX
  5
1ABE
  8
LAYER01
  6
CONTINUOUS
 62
     7
 10
-104.15598493768989
 20
989.58284796739918
 30
0.0
  0
VERTEX
  5
1ABF
  8
LAYER01
  6
CONTINUOUS
 62
     7
 10
-104.15598493768989
 20
987.66261767636774
 30
0.0
  0
VERTEX
  5
1AC0
  8
LAYER01
  6
CONTINUOUS
 62
     7
 10
-101.15598493768989
 20
987.66261767636774
 30
0.0
  0
VERTEX
  5
1AC1
  8
LAYER01
  6
CONTINUOUS
 62
     7
 10
-101.15598493768989
 20
962.66261772827716
 30
0.0
  0
VERTEX
  5
1AC2
  8
LAYER01
  6
CONTINUOUS
 62
     7
 10
-104.15598493768989
 20
962.66261772827716
 30
0.0
  0
VERTEX
  5
1AC3
  8
LAYER01
  6
CONTINUOUS
 62
     7
 10
-104.15598493768989
 20
956.54308676009691
 30
0.0
  0
VERTEX
  5
1AC4
  8
LAYER01
  6
CONTINUOUS
 62
     7
 10
-110.15598493768989
 20
956.54308676009691
 30
0.0
  0
VERTEX
  5
1AC5
  8
LAYER01
  6
CONTINUOUS
 62
     7
 10
-110.15598493768989
 20
950.54308676009714
 30
0.0
  0
SEQEND
  5
1AC6
  8
LAYER01
  6
CONTINUOUS
 62
     7
  0
POLYLINE
  5
17D1
  8
LAYER01
  6
CONTINUOUS
 62
     7
 66
     1
 10
0.0
 20
0.0
 30
0.0
 70
     1
  0
VERTEX
  5
1AC7
  8
LAYER01
  6
CONTINUOUS
 62
     7
 10
-111.7258498985325
 20
969.80697323386335
 30
0.0
  0
VERTEX
  5
1AC8
  8
LAYER01
  6
CONTINUOUS
 62
     7
 10
-111.7258498985325
 20
980.2200749381775
 30
0.0
 42
1.0
  0
VERTEX
  5
1AC9
  8
LAYER01
  6
CONTINUOUS
 62
     7
 10
-140.7340406939679
 20
980.2200749381775
 30
0.0
  0
VERTEX
  5
1ACA
  8
LAYER01
  6
CONTINUOUS
 62
     7
 10
-140.7340406939679
 20
969.80697323386335
 30
0.0
 42
1.0
  0
SEQEND
  5
1ACB
  8
LAYER01
  6
CONTINUOUS
 62
     7
  0
POLYLINE
  5
17F9
  8
LAYER01
  6
CONTINUOUS
 62
     7
 66
     1
 10
0.0
 20
0.0
 30
0.0
 70
     1
  0
VERTEX
  5
1ACC
  8
LAYER01
  6
CONTINUOUS
 62
     7
 10
-121.7689139599579
 20
1120.505436955078
 30
0.0
  0
VERTEX
  5
1ACD
  8
LAYER01
  6
CONTINUOUS
 62
     7
 10
-121.7689139599579
 20
1126.505436955078
 30
0.0
  0
VERTEX
  5
1ACE
  8
LAYER01
  6
CONTINUOUS
 62
     7
 10
-162.96891395995769
 20
1126.505436955078
 30
0.0
  0
VERTEX
  5
1ACF
  8
LAYER01
  6
CONTINUOUS
 62
     7
 10
-162.96891395995769
 20
1120.505436955078
 30
0.0
  0
VERTEX
  5
1AD0
  8
LAYER01
  6
CONTINUOUS
 62
     7
 10
-168.96891395995769
 20
1120.505436955078
 30
0.0
  0
VERTEX
  5
1AD1
  8
LAYER01
  6
CONTINUOUS
 62
     7
 10
-168.96891395995769
 20
1080.9371853048131
 30
0.0
  0
VERTEX
  5
1AD2
  8
LAYER01
  6
CONTINUOUS
 62
     7
 10
-162.96891395995769
 20
1080.9371853048131
 30
0.0
  0
VERTEX
  5
1AD3
  8
LAYER01
  6
CONTINUOUS
 62
     7
 10
-162.96891395995769
 20
1074.9371853048131
 30
0.0
  0
VERTEX
  5
1AD4
  8
LAYER01
  6
CONTINUOUS
 62
     7
 10
-121.7689139599579
 20
1074.937185304814
 30
0.0
  0
VERTEX
  5
1AD5
  8
LAYER01
  6
CONTINUOUS
 62
     7
 10
-121.7689139599579
 20
1080.9371853048131
 30
0.0
  0
VERTEX
  5
1AD6
  8
LAYER01
  6
CONTINUOUS
 62
     7
 10
-115.7689139599579
 20
1080.9371853048131
 30
0.0
  0
VERTEX
  5
1AD7
  8
LAYER01
  6
CONTINUOUS
 62
     7
 10
-115.7689139599579
 20
1120.505436955078
 30
0.0
  0
SEQEND
  5
1AD8
  8
LAYER01
  6
CONTINUOUS
 62
     7
  0
POLYLINE
  5
180C
  8
LAYER01
  6
CONTINUOUS
 62
     7
 66
     1
 10
0.0
 20
0.0
 30
0.0
 70
     1
  0
VERTEX
  5
1AD9
  8
LAYER01
  6
CONTINUOUS
 62
     7
 10
-256.22763254763868
 20
1071.8236289465999
 30
0.0
  0
VERTEX
  5
1ADA
  8
LAYER01
  6
CONTINUOUS
 62
     7
 10
-197.0594056831915
 20
1071.8236289465999
 30
0.0
  0
VERTEX
  5
1ADB
  8
LAYER01
  6
CONTINUOUS
 62
     7
 10
-197.05940568319139
 20
1128.826158802327
 30
0.0
  0
VERTEX
  5
1ADC
  8
LAYER01
  6
CONTINUOUS
 62
     7
 10
-256.22763254763879
 20
1128.826158802327
 30
0.0
  0
SEQEND
  5
1ADD
  8
LAYER01
  6
CONTINUOUS
 62
     7
  0
LINE
  5
1812
  8
LAYER01
  6
CONTINUOUS
 62
     7
 10
-263.73696838415708
 20
903.54744391046574
 30
0.0
 11
-263.73696838415708
 21
897.46774225812055
 31
0.0
  0
POLYLINE
  5
1813
  8
LAYER01
  6
CONTINUOUS
 62
     7
 66
     1
 10
0.0
 20
0.0
 30
0.0
  0
VERTEX
  5
1ADE
  8
LAYER01
  6
CONTINUOUS
 62
     7
 10
-134.2703685422008
 20
896.26729063817629
 30
0.0
  0
VERTEX
  5
1ADF
  8
LAYER01
  6
CONTINUOUS
 62
     7
 10
-263.73696838415708
 20
903.54744391046574
 30
0.0
  0
SEQEND
  5
1AE0
  8
LAYER01
  6
CONTINUOUS
 62
     7
  0
POLYLINE
  5
1814
  8
LAYER01
  6
CONTINUOUS
 62
     7
 66
     1
 10
0.0
 20
0.0
 30
0.0
  0
VERTEX
  5
1AE1
  8
LAYER01
  6
CONTINUOUS
 62
     7
 10
-134.2703685422008
 20
846.82759718275429
 30
0.0
  0
VERTEX
  5
1AE2
  8
LAYER01
  6
CONTINUOUS
 62
     7
 10
-263.73696838415708
 20
839.54744391046472
 30
0.0
  0
SEQEND
  5
1AE3
  8
LAYER01
  6
CONTINUOUS
 62
     7
  0
LINE
  5
1819
  8
LAYER01
  6
CONTINUOUS
 62
     7
 10
-266.73696838415708
 20
897.46774225812055
 30
0.0
 11
-266.73696838415702
 21
845.8677422581203
 31
0.0
  0
LINE
  5
181A
  8
LAYER01
  6
CONTINUOUS
 62
     7
 10
-134.2703685422008
 20
896.26729063817629
 30
0.0
 11
-134.2703685422008
 21
846.82759718275429
 31
0.0
  0
LINE
  5
181F
  8
LAYER01
  6
CONTINUOUS
 62
     7
 10
-266.73696838415691
 20
845.8677422581203
 30
0.0
 11
-263.73696838415708
 21
845.8677422581203
 31
0.0
  0
LINE
  5
1820
  8
LAYER01
  6
CONTINUOUS
 62
     7
 10
-266.73696838415708
 20
897.46774225812055
 30
0.0
 11
-263.73696838415708
 21
897.46774225812055
 31
0.0
  0
LINE
  5
1821
  8
LAYER01
  6
CONTINUOUS
 62
     7
 10
-263.73696838415708
 20
845.8677422581203
 30
0.0
 11
-263.73696838415708
 21
839.54744391046472
 31
0.0
  0
POLYLINE
  5
1828
  8
LAYER01
  6
CONTINUOUS
 62
     7
 66
     1
 10
0.0
 20
0.0
 30
0.0
 70
     1
  0
VERTEX
  5
1AE4
  8
LAYER01
  6
CONTINUOUS
 62
     7
 10
334.20441140009012
 20
767.6562832182351
 30
0.0
  0
VERTEX
  5
1AE5
  8
LAYER01
  6
CONTINUOUS
 62
     7
 10
334.20441140009012
 20
822.79188433885815
 30
0.0
  0
VERTEX
  5
1AE6
  8
LAYER01
  6
CONTINUOUS
 62
     7
 10
500.05048600810068
 20
813.46604397363819
 30
0.0
  0
VERTEX
  5
1AE7
  8
LAYER01
  6
CONTINUOUS
 62
     7
 10
500.05048600810068
 20
776.98212358345495
 30
0.0
  0
SEQEND
  5
1AE8
  8
LAYER01
  6
CONTINUOUS
 62
     7
  0
POLYLINE
  5
182F
  8
LAYER01
  6
CONTINUOUS
 62
     7
 66
     1
 10
0.0
 20
0.0
 30
0.0
 70
     1
  0
VERTEX
  5
1AE9
  8
LAYER01
  6
CONTINUOUS
 62
     7
 10
334.20441140009012
 20
695.28746555852217
 30
0.0
  0
VERTEX
  5
1AEA
  8
LAYER01
  6
CONTINUOUS
 62
     7
 10
334.20441140009012
 20
750.42306667914522
 30
0.0
  0
VERTEX
  5
1AEB
  8
LAYER01
  6
CONTINUOUS
 62
     7
 10
500.05048600810068
 20
741.09722631392526
 30
0.0
  0
VERTEX
  5
1AEC
  8
LAYER01
  6
CONTINUOUS
 62
     7
 10
500.05048600810068
 20
704.61330592374202
 30
0.0
  0
SEQEND
  5
1AED
  8
LAYER01
  6
CONTINUOUS
 62
     7
  0
POLYLINE
  5
1831
  8
LAYER01
  6
CONTINUOUS
 62
     7
 66
     1
 10
0.0
 20
0.0
 30
0.0
 70
     1
  0
VERTEX
  5
1AEE
  8
LAYER01
  6
CONTINUOUS
 62
     7
 10
277.52887711757347
 20
751.75482319427579
 30
0.0
 42
0.0716083059428674
  0
VERTEX
  5
1AEF
  8
LAYER01
  6
CONTINUOUS
 62
     7
 10
237.5518615603639
 20
754.07944072301677
 30
0.0
  0
VERTEX
  5
1AF0
  8
LAYER01
  6
CONTINUOUS
 62
     7
 10
237.5518615603639
 20
775.23548479952569
 30
0.0
  0
VERTEX
  5
1AF1
  8
LAYER01
  6
CONTINUOUS
 62
     7
 10
57.551861560363932
 20
775.23548479952569
 30
0.0
  0
VERTEX
  5
1AF2
  8
LAYER01
  6
CONTINUOUS
 62
     7
 10
57.551861560363932
 20
855.23548479952569
 30
0.0
  0
VERTEX
  5
1AF3
  8
LAYER01
  6
CONTINUOUS
 62
     7
 10
67.627143466814232
 20
855.23548479952569
 30
0.0
  0
VERTEX
  5
1AF4
  8
LAYER01
  6
CONTINUOUS
 62
     7
 10
191.4812876613401
 20
832.35860843581384
 30
0.0
 42
-0.2622673813388658
  0
SEQEND
  5
1AF5
  8
LAYER01
  6
CONTINUOUS
 62
     7
  0
POLYLINE
  5
183A
  8
LAYER01
  6
CONTINUOUS
 62
     7
 66
     1
 10
0.0
 20
0.0
 30
0.0
 70
     1
  0
VERTEX
  5
1AF6
  8
LAYER01
  6
CONTINUOUS
 62
     7
 10
232.8665536036678
 20
691.02151624604858
 30
0.0
 42
-0.0136046301199408
  0
VERTEX
  5
1AF7
  8
LAYER01
  6
CONTINUOUS
 62
     7
 10
240.4640982609769
 20
691.87676122718017
 30
0.0
  0
VERTEX
  5
1AF8
  8
LAYER01
  6
CONTINUOUS
 62
     7
 10
240.4640982609769
 20
713.03280530368886
 30
0.0
  0
VERTEX
  5
1AF9
  8
LAYER01
  6
CONTINUOUS
 62
     7
 10
60.464098260976932
 20
713.03280530368886
 30
0.0
  0
VERTEX
  5
1AFA
  8
LAYER01
  6
CONTINUOUS
 62
     7
 10
60.464098260976932
 20
698.03280530368886
 30
0.0
  0
VERTEX
  5
1AFB
  8
LAYER01
  6
CONTINUOUS
 62
     7
 10
78.296659296681469
 20
684.5941969606281
 30
0.0
 42
0.0101598479228077
  0
SEQEND
  5
1AFC
  8
LAYER01
  6
CONTINUOUS
 62
     7
  0
POLYLINE
  5
1841
  8
LAYER01
  6
CONTINUOUS
 62
     7
 66
     1
 10
0.0
 20
0.0
 30
0.0
 70
     1
  0
VERTEX
  5
1AFD
  8
LAYER01
  6
CONTINUOUS
 62
     7
 10
-172.42515399684561
 20
751.75482319427579
 30
0.0
 42
-0.0716083059428674
  0
VERTEX
  5
1AFE
  8
LAYER01
  6
CONTINUOUS
 62
     7
 10
-132.44813843963601
 20
754.07944072301677
 30
0.0
  0
VERTEX
  5
1AFF
  8
LAYER01
  6
CONTINUOUS
 62
     7
 10
-132.44813843963601
 20
775.23548479952569
 30
0.0
  0
VERTEX
  5
1B00
  8
LAYER01
  6
CONTINUOUS
 62
     7
 10
47.551861560363932
 20
775.23548479952569
 30
0.0
  0
VERTEX
  5
1B01
  8
LAYER01
  6
CONTINUOUS
 62
     7
 10
47.551861560363932
 20
855.23548479952569
 30
0.0
  0
VERTEX
  5
1B02
  8
LAYER01
  6
CONTINUOUS
 62
     7
 10
37.476579653913632
 20
855.23548479952569
 30
0.0
  0
VERTEX
  5
1B03
  8
LAYER01
  6
CONTINUOUS
 62
     7
 10
-86.377564540612184
 20
832.35860843581384
 30
0.0
 42
0.2622673813388658
  0
SEQEND
  5
1B04
  8
LAYER01
  6
CONTINUOUS
 62
     7
  0
POLYLINE
  5
1842
  8
LAYER01
  6
CONTINUOUS
 62
     7
 66
     1
 10
0.0
 20
0.0
 30
0.0
 70
     1
  0
VERTEX
  5
1B05
  8
LAYER01
  6
CONTINUOUS
 62
     7
 10
-127.7628304829399
 20
691.02151624604858
 30
0.0
 42
0.0136046301199408
  0
VERTEX
  5
1B06
  8
LAYER01
  6
CONTINUOUS
 62
     7
 10
-135.360375140249
 20
691.87676122718017
 30
0.0
  0
VERTEX
  5
1B07
  8
LAYER01
  6
CONTINUOUS
 62
     7
 10
-135.360375140249
 20
713.03280530368886
 30
0.0
  0
VERTEX
  5
1B08
  8
LAYER01
  6
CONTINUOUS
 62
     7
 10
44.639624859750938
 20
713.03280530368886
 30
0.0
  0
VERTEX
  5
1B09
  8
LAYER01
  6
CONTINUOUS
 62
     7
 10
44.639624859750938
 20
698.03280530368886
 30
0.0
  0
VERTEX
  5
1B0A
  8
LAYER01
  6
CONTINUOUS
 62
     7
 10
26.807063824046399
 20
684.5941969606281
 30
0.0
 42
-0.0101598479228077
  0
SEQEND
  5
1B0B
  8
LAYER01
  6
CONTINUOUS
 62
     7
  0
POLYLINE
  5
184C
  8
LAYER01
  6
CONTINUOUS
 62
     7
 66
     1
 10
0.0
 20
0.0
 30
0.0
 70
     1
  0
VERTEX
  5
1B0C
  8
LAYER01
  6
CONTINUOUS
 62
     7
 10
769.13614148841771
 20
731.98272616685415
 30
0.0
  0
VERTEX
  5
1B0D
  8
LAYER01
  6
CONTINUOUS
 62
     7
 10
769.13614148841771
 20
692.15000039992185
 30
0.0
  0
VERTEX
  5
1B0E
  8
LAYER01
  6
CONTINUOUS
 62
     7
 10
679.5161414884177
 20
692.15000039992185
 30
0.0
  0
VERTEX
  5
1B0F
  8
LAYER01
  6
CONTINUOUS
 62
     7
 10
679.5161414884177
 20
732.13683552394571
 30
0.0
  0
VERTEX
  5
1B10
  8
LAYER01
  6
CONTINUOUS
 62
     7
 10
724.32614148841765
 20
700.32362611882854
 30
0.0
  0
SEQEND
  5
1B11
  8
LAYER01
  6
CONTINUOUS
 62
     7
  0
POLYLINE
  5
184E
  8
LAYER01
  6
CONTINUOUS
 62
     7
 66
     1
 10
0.0
 20
0.0
 30
0.0
 70
     1
  0
VERTEX
  5
1B12
  8
LAYER01
  6
CONTINUOUS
 62
     7
 10
540.16101608648739
 20
729.81611367669655
 30
0.0
  0
VERTEX
  5
1B13
  8
LAYER01
  6
CONTINUOUS
 62
     7
 10
540.16101608648739
 20
689.82927855267303
 30
0.0
  0
VERTEX
  5
1B14
  8
LAYER01
  6
CONTINUOUS
 62
     7
 10
629.7810160864874
 20
689.82927855267303
 30
0.0
  0
VERTEX
  5
1B15
  8
LAYER01
  6
CONTINUOUS
 62
     7
 10
629.7810160864874
 20
729.66200431960533
 30
0.0
  0
VERTEX
  5
1B16
  8
LAYER01
  6
CONTINUOUS
 62
     7
 10
584.97101608648734
 20
698.00290427157961
 30
0.0
  0
SEQEND
  5
1B17
  8
LAYER01
  6
CONTINUOUS
 62
     7
  0
POLYLINE
  5
185B
  8
LAYER01
  6
CONTINUOUS
 62
     7
 66
     1
 10
0.0
 20
0.0
 30
0.0
 70
     1
  0
VERTEX
  5
1B18
  8
LAYER01
  6
CONTINUOUS
 62
     7
 10
70.324201157742124
 20
977.46759704794829
 30
0.0
  0
VERTEX
  5
1B19
  8
LAYER01
  6
CONTINUOUS
 62
     7
 10
70.324201157742124
 20
1002.467596996039
 30
0.0
  0
VERTEX
  5
1B1A
  8
LAYER01
  6
CONTINUOUS
 62
     7
 10
73.424201157742118
 20
1002.467596996039
 30
0.0
  0
VERTEX
  5
1B1B
  8
LAYER01
  6
CONTINUOUS
 62
     7
 10
73.424201157742118
 20
977.46759704794829
 30
0.0
  0
SEQEND
  5
1B1C
  8
LAYER01
  6
CONTINUOUS
 62
     7
  0
POLYLINE
  5
185C
  8
LAYER01
  6
CONTINUOUS
 62
     7
 66
     1
 10
0.0
 20
0.0
 30
0.0
 70
     1
  0
VERTEX
  5
1B1D
  8
LAYER01
  6
CONTINUOUS
 62
     7
 10
326.42291838312582
 20
1002.467596996039
 30
0.0
  0
VERTEX
  5
1B1E
  8
LAYER01
  6
CONTINUOUS
 62
     7
 10
326.42291838312582
 20
977.46759704794829
 30
0.0
  0
VERTEX
  5
1B1F
  8
LAYER01
  6
CONTINUOUS
 62
     7
 10
323.32291838312568
 20
977.46759704794829
 30
0.0
  0
VERTEX
  5
1B20
  8
LAYER01
  6
CONTINUOUS
 62
     7
 10
323.32291838312568
 20
1002.467596996039
 30
0.0
  0
SEQEND
  5
1B21
  8
LAYER01
  6
CONTINUOUS
 62
     7
  0
POLYLINE
  5
185D
  8
LAYER01
  6
CONTINUOUS
 62
     7
 66
     1
 10
0.0
 20
0.0
 30
0.0
 70
     1
  0
VERTEX
  5
1B22
  8
LAYER01
  6
CONTINUOUS
 62
     7
 10
502.94263633538071
 20
1002.467596996039
 30
0.0
  0
VERTEX
  5
1B23
  8
LAYER01
  6
CONTINUOUS
 62
     7
 10
502.94263633538071
 20
977.46759704794829
 30
0.0
  0
VERTEX
  5
1B24
  8
LAYER01
  6
CONTINUOUS
 62
     7
 10
499.84263633538058
 20
977.46759704794829
 30
0.0
  0
VERTEX
  5
1B25
  8
LAYER01
  6
CONTINUOUS
 62
     7
 10
499.84263633538058
 20
1002.467596996039
 30
0.0
  0
SEQEND
  5
1B26
  8
LAYER01
  6
CONTINUOUS
 62
     7
  0
POLYLINE
  5
18E7
  8
7
  6
CONTINUOUS
 66
     1
 10
0.0
 20
0.0
 30
0.0
 70
     1
  0
VERTEX
  5
1B27
  8
7
  6
CONTINUOUS
 10
859.92789417017116
 20
971.36191399236839
 30
0.0
 42
0.0181497238310264
  0
VERTEX
  5
1B28
  8
7
  6
CONTINUOUS
 10
323.32291838316502
 20
951.50433836969921
 30
0.0
  0
VERTEX
  5
1B29
  8
7
  6
CONTINUOUS
 10
323.32291838316371
 20
956.50433836970024
 30
0.0
  0
VERTEX
  5
1B2A
  8
7
  6
CONTINUOUS
 10
323.34108303062811
 20
959.47106562602676
 30
0.0
  0
VERTEX
  5
1B2B
  8
7
  6
CONTINUOUS
 10
323.06808303062809
 20
959.49606562602673
 30
0.0
  0
VERTEX
  5
1B2C
  8
7
  6
CONTINUOUS
 10
322.79508303062801
 20
959.5220656260268
 30
0.0
  0
VERTEX
  5
1B2D
  8
7
  6
CONTINUOUS
 10
322.52308303062807
 20
959.55006562602682
 30
0.0
  0
VERTEX
  5
1B2E
  8
7
  6
CONTINUOUS
 10
322.25108303062819
 20
959.58306562602661
 30
0.0
  0
VERTEX
  5
1B2F
  8
7
  6
CONTINUOUS
 10
321.50008303062839
 20
959.70206562602675
 30
0.0
  0
VERTEX
  5
1B30
  8
7
  6
CONTINUOUS
 10
320.75508303062799
 20
959.85606562602675
 30
0.0
  0
VERTEX
  5
1B31
  8
7
  6
CONTINUOUS
 10
320.01408303062811
 20
960.03306562602666
 30
0.0
  0
VERTEX
  5
1B32
  8
7
  6
CONTINUOUS
 10
319.276083030628
 20
960.22406562602669
 30
0.0
  0
VERTEX
  5
1B33
  8
7
  6
CONTINUOUS
 10
318.17108303062798
 20
960.52306562602678
 30
0.0
  0
VERTEX
  5
1B34
  8
7
  6
CONTINUOUS
 10
317.07108303062807
 20
960.83006562602668
 30
0.0
  0
VERTEX
  5
1B35
  8
7
  6
CONTINUOUS
 10
315.97308303062829
 20
961.14406562602687
 30
0.0
  0
VERTEX
  5
1B36
  8
7
  6
CONTINUOUS
 10
314.87608303062808
 20
961.46306562602695
 30
0.0
  0
VERTEX
  5
1B37
  8
7
  6
CONTINUOUS
 10
313.48208303062808
 20
961.87506562602687
 30
0.0
  0
VERTEX
  5
1B38
  8
7
  6
CONTINUOUS
 10
312.09008303062808
 20
962.29106562602681
 30
0.0
  0
VERTEX
  5
1B39
  8
7
  6
CONTINUOUS
 10
310.69808303062803
 20
962.70906562602704
 30
0.0
  0
VERTEX
  5
1B3A
  8
7
  6
CONTINUOUS
 10
309.30608303062797
 20
963.12706562602682
 30
0.0
  0
VERTEX
  5
1B3B
  8
7
  6
CONTINUOUS
 10
307.66408303062821
 20
963.61906562602678
 30
0.0
  0
VERTEX
  5
1B3C
  8
7
  6
CONTINUOUS
 10
306.02208303062821
 20
964.10806562602681
 30
0.0
  0
VERTEX
  5
1B3D
  8
7
  6
CONTINUOUS
 10
304.37908303062812
 20
964.59206562602674
 30
0.0
  0
VERTEX
  5
1B3E
  8
7
  6
CONTINUOUS
 10
302.7340830306282
 20
965.07106562602667
 30
0.0
  0
VERTEX
  5
1B3F
  8
7
  6
CONTINUOUS
 10
300.87508303062828
 20
965.60306562602682
 30
0.0
  0
VERTEX
  5
1B40
  8
7
  6
CONTINUOUS
 10
299.01408303062811
 20
966.12606562602673
 30
0.0
  0
VERTEX
  5
1B41
  8
7
  6
CONTINUOUS
 10
297.15108303062812
 20
966.64006562602663
 30
0.0
  0
VERTEX
  5
1B42
  8
7
  6
CONTINUOUS
 10
295.28408303062838
 20
967.14306562602678
 30
0.0
  0
VERTEX
  5
1B43
  8
7
  6
CONTINUOUS
 10
293.23508303062829
 20
967.68206562602677
 30
0.0
  0
VERTEX
  5
1B44
  8
7
  6
CONTINUOUS
 10
291.18308303062838
 20
968.20506562602668
 30
0.0
  0
VERTEX
  5
1B45
  8
7
  6
CONTINUOUS
 10
289.12608303062819
 20
968.71006562602679
 30
0.0
  0
VERTEX
  5
1B46
  8
7
  6
CONTINUOUS
 10
287.06308303062821
 20
969.19306562602696
 30
0.0
  0
VERTEX
  5
1B47
  8
7
  6
CONTINUOUS
 10
284.82508303062821
 20
969.68906562602672
 30
0.0
  0
VERTEX
  5
1B48
  8
7
  6
CONTINUOUS
 10
282.58208303062838
 20
970.15706562602668
 30
0.0
  0
VERTEX
  5
1B49
  8
7
  6
CONTINUOUS
 10
280.33308303062819
 20
970.60006562602678
 30
0.0
  0
VERTEX
  5
1B4A
  8
7
  6
CONTINUOUS
 10
278.07808303062819
 20
971.01806562602678
 30
0.0
  0
VERTEX
  5
1B4B
  8
7
  6
CONTINUOUS
 10
275.62908303062812
 20
971.44706562602664
 30
0.0
  0
VERTEX
  5
1B4C
  8
7
  6
CONTINUOUS
 10
273.17708303062813
 20
971.85006562602678
 30
0.0
  0
VERTEX
  5
1B4D
  8
7
  6
CONTINUOUS
 10
270.72108303062839
 20
972.23206562602695
 30
0.0
  0
VERTEX
  5
1B4E
  8
7
  6
CONTINUOUS
 10
268.26108303062807
 20
972.59606562602676
 30
0.0
  0
VERTEX
  5
1B4F
  8
7
  6
CONTINUOUS
 10
265.61508303062828
 20
972.9690656260268
 30
0.0
  0
VERTEX
  5
1B50
  8
7
  6
CONTINUOUS
 10
262.96808303062812
 20
973.32406562602671
 30
0.0
  0
VERTEX
  5
1B51
  8
7
  6
CONTINUOUS
 10
260.3180830306282
 20
973.66306562602688
 30
0.0
  0
VERTEX
  5
1B52
  8
7
  6
CONTINUOUS
 10
257.6660830306281
 20
973.98806562602681
 30
0.0
  0
VERTEX
  5
1B53
  8
7
  6
CONTINUOUS
 10
254.85808303062811
 20
974.31606562602678
 30
0.0
  0
VERTEX
  5
1B54
  8
7
  6
CONTINUOUS
 10
252.0490830306282
 20
974.62806562602668
 30
0.0
  0
VERTEX
  5
1B55
  8
7
  6
CONTINUOUS
 10
249.23908303062819
 20
974.92506562602694
 30
0.0
  0
VERTEX
  5
1B56
  8
7
  6
CONTINUOUS
 10
246.42608303062809
 20
975.20806562602661
 30
0.0
  0
VERTEX
  5
1B57
  8
7
  6
CONTINUOUS
 10
243.4850830306284
 20
975.48806562602692
 30
0.0
  0
VERTEX
  5
1B58
  8
7
  6
CONTINUOUS
 10
240.54408303062809
 20
975.75206562602682
 30
0.0
  0
VERTEX
  5
1B59
  8
7
  6
CONTINUOUS
 10
237.6010830306283
 20
976.00206562602682
 30
0.0
  0
VERTEX
  5
1B5A
  8
7
  6
CONTINUOUS
 10
234.65608303062811
 20
976.2390656260269
 30
0.0
  0
VERTEX
  5
1B5B
  8
7
  6
CONTINUOUS
 10
231.61608303062809
 20
976.47106562602676
 30
0.0
  0
VERTEX
  5
1B5C
  8
7
  6
CONTINUOUS
 10
228.57508303062829
 20
976.69006562602681
 30
0.0
  0
VERTEX
  5
1B5D
  8
7
  6
CONTINUOUS
 10
225.53408303062841
 20
976.89506562602685
 30
0.0
  0
VERTEX
  5
1B5E
  8
7
  6
CONTINUOUS
 10
222.49108303062829
 20
977.08706562602686
 30
0.0
  0
VERTEX
  5
1B5F
  8
7
  6
CONTINUOUS
 10
219.3840830306282
 20
977.26906562602676
 30
0.0
  0
VERTEX
  5
1B60
  8
7
  6
CONTINUOUS
 10
216.27708303062821
 20
977.43706562602677
 30
0.0
  0
VERTEX
  5
1B61
  8
7
  6
CONTINUOUS
 10
213.17008303062809
 20
977.59106562602665
 30
0.0
  0
VERTEX
  5
1B62
  8
7
  6
CONTINUOUS
 10
210.0610830306282
 20
977.73206562602684
 30
0.0
  0
VERTEX
  5
1B63
  8
7
  6
CONTINUOUS
 10
206.92208303062819
 20
977.86206562602672
 30
0.0
  0
VERTEX
  5
1B64
  8
7
  6
CONTINUOUS
 10
203.78408303062821
 20
977.97806562602693
 30
0.0
  0
VERTEX
  5
1B65
  8
7
  6
CONTINUOUS
 10
200.6460830306282
 20
978.08106562602677
 30
0.0
  0
VERTEX
  5
1B66
  8
7
  6
CONTINUOUS
 10
197.5060830306281
 20
978.17006562602694
 30
0.0
  0
VERTEX
  5
1B67
  8
7
  6
CONTINUOUS
 10
194.3690830306281
 20
978.24606562602673
 30
0.0
  0
VERTEX
  5
1B68
  8
7
  6
CONTINUOUS
 10
191.23308303062811
 20
978.30806562602686
 30
0.0
  0
VERTEX
  5
1B69
  8
7
  6
CONTINUOUS
 10
188.09608303062831
 20
978.35606562602675
 30
0.0
  0
VERTEX
  5
1B6A
  8
7
  6
CONTINUOUS
 10
184.95808303062819
 20
978.39106562602683
 30
0.0
  0
VERTEX
  5
1B6B
  8
7
  6
CONTINUOUS
 10
181.85508303062821
 20
978.41106562602693
 30
0.0
  0
VERTEX
  5
1B6C
  8
7
  6
CONTINUOUS
 10
178.75308303062809
 20
978.41806562602676
 30
0.0
  0
VERTEX
  5
1B6D
  8
7
  6
CONTINUOUS
 10
175.65208303062821
 20
978.41106562602693
 30
0.0
  0
VERTEX
  5
1B6E
  8
7
  6
CONTINUOUS
 10
172.54808303062831
 20
978.38906562602665
 30
0.0
  0
VERTEX
  5
1B6F
  8
7
  6
CONTINUOUS
 10
169.51408303062831
 20
978.35306562602693
 30
0.0
  0
VERTEX
  5
1B70
  8
7
  6
CONTINUOUS
 10
166.48208303062819
 20
978.30206562602666
 30
0.0
  0
VERTEX
  5
1B71
  8
7
  6
CONTINUOUS
 10
163.44908303062809
 20
978.23706562602672
 30
0.0
  0
VERTEX
  5
1B72
  8
7
  6
CONTINUOUS
 10
160.4160830306281
 20
978.15606562602682
 30
0.0
  0
VERTEX
  5
1B73
  8
7
  6
CONTINUOUS
 10
157.48008303062821
 20
978.06306562602674
 30
0.0
  0
VERTEX
  5
1B74
  8
7
  6
CONTINUOUS
 10
154.5460830306281
 20
977.95506562602668
 30
0.0
  0
VERTEX
  5
1B75
  8
7
  6
CONTINUOUS
 10
151.6120830306281
 20
977.83206562602675
 30
0.0
  0
VERTEX
  5
1B76
  8
7
  6
CONTINUOUS
 10
148.67908303062811
 20
977.69206562602687
 30
0.0
  0
VERTEX
  5
1B77
  8
7
  6
CONTINUOUS
 10
145.8730830306281
 20
977.54306562602665
 30
0.0
  0
VERTEX
  5
1B78
  8
7
  6
CONTINUOUS
 10
143.06908303062809
 20
977.37806562602668
 30
0.0
  0
VERTEX
  5
1B79
  8
7
  6
CONTINUOUS
 10
140.2660830306281
 20
977.19606562602667
 30
0.0
  0
VERTEX
  5
1B7A
  8
7
  6
CONTINUOUS
 10
137.4640830306281
 20
976.99806562602691
 30
0.0
  0
VERTEX
  5
1B7B
  8
7
  6
CONTINUOUS
 10
134.8150830306281
 20
976.79406562602662
 30
0.0
  0
VERTEX
  5
1B7C
  8
7
  6
CONTINUOUS
 10
132.1690830306282
 20
976.57506562602691
 30
0.0
  0
VERTEX
  5
1B7D
  8
7
  6
CONTINUOUS
 10
129.5250830306282
 20
976.33806562602683
 30
0.0
  0
VERTEX
  5
1B7E
  8
7
  6
CONTINUOUS
 10
126.8810830306282
 20
976.08206562602675
 30
0.0
  0
VERTEX
  5
1B7F
  8
7
  6
CONTINUOUS
 10
124.41708303062811
 20
975.82606562602689
 30
0.0
  0
VERTEX
  5
1B80
  8
7
  6
CONTINUOUS
 10
121.9550830306281
 20
975.55206562602677
 30
0.0
  0
VERTEX
  5
1B81
  8
7
  6
CONTINUOUS
 10
119.4960830306281
 20
975.25806562602691
 30
0.0
  0
VERTEX
  5
1B82
  8
7
  6
CONTINUOUS
 10
117.03908303062821
 20
974.94406562602694
 30
0.0
  0
VERTEX
  5
1B83
  8
7
  6
CONTINUOUS
 10
114.7790830306281
 20
974.63706562602681
 30
0.0
  0
VERTEX
  5
1B84
  8
7
  6
CONTINUOUS
 10
112.5240830306283
 20
974.3100656260267
 30
0.0
  0
VERTEX
  5
1B85
  8
7
  6
CONTINUOUS
 10
110.27108303062811
 20
973.96306562602695
 30
0.0
  0
VERTEX
  5
1B86
  8
7
  6
CONTINUOUS
 10
108.02108303062811
 20
973.59506562602701
 30
0.0
  0
VERTEX
  5
1B87
  8
7
  6
CONTINUOUS
 10
105.98908303062809
 20
973.24306562602681
 30
0.0
  0
VERTEX
  5
1B88
  8
7
  6
CONTINUOUS
 10
103.9610830306281
 20
972.8720656260266
 30
0.0
  0
VERTEX
  5
1B89
  8
7
  6
CONTINUOUS
 10
101.93808303062821
 20
972.47906562602691
 30
0.0
  0
VERTEX
  5
1B8A
  8
7
  6
CONTINUOUS
 10
99.918083030628182
 20
972.06206562602665
 30
0.0
  0
VERTEX
  5
1B8B
  8
7
  6
CONTINUOUS
 10
98.130083030628157
 20
971.67106562602703
 30
0.0
  0
VERTEX
  5
1B8C
  8
7
  6
CONTINUOUS
 10
96.346083030628165
 20
971.25806562602702
 30
0.0
  0
VERTEX
  5
1B8D
  8
7
  6
CONTINUOUS
 10
94.568083030628259
 20
970.82306562602673
 30
0.0
  0
VERTEX
  5
1B8E
  8
7
  6
CONTINUOUS
 10
92.796083030628097
 20
970.36106562602663
 30
0.0
  0
VERTEX
  5
1B8F
  8
7
  6
CONTINUOUS
 10
91.265083030628247
 20
969.94006562602692
 30
0.0
  0
VERTEX
  5
1B90
  8
7
  6
CONTINUOUS
 10
89.74008303062817
 20
969.49506562602664
 30
0.0
  0
VERTEX
  5
1B91
  8
7
  6
CONTINUOUS
 10
88.224083030628094
 20
969.02506562602684
 30
0.0
  0
VERTEX
  5
1B92
  8
7
  6
CONTINUOUS
 10
86.716083030628155
 20
968.52606562602682
 30
0.0
  0
VERTEX
  5
1B93
  8
7
  6
CONTINUOUS
 10
85.453083030628136
 20
968.08206562602675
 30
0.0
  0
VERTEX
  5
1B94
  8
7
  6
CONTINUOUS
 10
84.199083030628117
 20
967.6140656260269
 30
0.0
  0
VERTEX
  5
1B95
  8
7
  6
CONTINUOUS
 10
82.955083030628217
 20
967.11906562602678
 30
0.0
  0
VERTEX
  5
1B96
  8
7
  6
CONTINUOUS
 10
81.721083030628165
 20
966.59606562602687
 30
0.0
  0
VERTEX
  5
1B97
  8
7
  6
CONTINUOUS
 10
80.729083030628118
 20
966.14906562602664
 30
0.0
  0
VERTEX
  5
1B98
  8
7
  6
CONTINUOUS
 10
79.749083030628157
 20
965.67606562602668
 30
0.0
  0
VERTEX
  5
1B99
  8
7
  6
CONTINUOUS
 10
78.786083030628163
 20
965.17006562602694
 30
0.0
  0
VERTEX
  5
1B9A
  8
7
  6
CONTINUOUS
 10
77.846083030628165
 20
964.62706562602682
 30
0.0
  0
VERTEX
  5
1B9B
  8
7
  6
CONTINUOUS
 10
77.138083030628252
 20
964.17906562602673
 30
0.0
  0
VERTEX
  5
1B9C
  8
7
  6
CONTINUOUS
 10
76.446083030628245
 20
963.70506562602668
 30
0.0
  0
VERTEX
  5
1B9D
  8
7
  6
CONTINUOUS
 10
75.769083030628138
 20
963.20806562602672
 30
0.0
  0
VERTEX
  5
1B9E
  8
7
  6
CONTINUOUS
 10
75.109083030628142
 20
962.68706562602665
 30
0.0
  0
VERTEX
  5
1B9F
  8
7
  6
CONTINUOUS
 10
74.650083030628252
 20
962.30006562602682
 30
0.0
  0
VERTEX
  5
1BA0
  8
7
  6
CONTINUOUS
 10
74.222083030628141
 20
961.88306562602702
 30
0.0
  0
VERTEX
  5
1BA1
  8
7
  6
CONTINUOUS
 10
73.843083030628236
 20
961.41706562602678
 30
0.0
  0
VERTEX
  5
1BA2
  8
7
  6
CONTINUOUS
 10
73.536083030628163
 20
960.88606562602695
 30
0.0
  0
VERTEX
  5
1BA3
  8
7
  6
CONTINUOUS
 10
73.398083030628158
 20
960.53306562602666
 30
0.0
  0
VERTEX
  5
1BA4
  8
7
  6
CONTINUOUS
 10
73.308083030628126
 20
960.16706562602667
 30
0.0
  0
VERTEX
  5
1BA5
  8
7
  6
CONTINUOUS
 10
73.284083030628125
 20
959.80806562602675
 30
0.0
  0
VERTEX
  5
1BA6
  8
7
  6
CONTINUOUS
 10
73.341083030628141
 20
959.47106562602676
 30
0.0
  0
VERTEX
  5
1BA7
  8
7
  6
CONTINUOUS
 10
73.323021319246664
 20
955.32209208632821
 30
0.0
  0
VERTEX
  5
1BA8
  8
7
  6
CONTINUOUS
 10
73.323021319246664
 20
950.32209208632833
 30
0.0
  0
VERTEX
  5
1BA9
  8
7
  6
CONTINUOUS
 10
20.323021319246688
 20
950.32209208632833
 30
0.0
  0
VERTEX
  5
1BAA
  8
7
  6
CONTINUOUS
 10
-46.676931289594108
 20
958.17080851397145
 30
0.0
  0
VERTEX
  5
1BAB
  8
7
  6
CONTINUOUS
 10
-46.469081616874057
 20
1015.1733383696979
 30
0.0
 42
-0.030908111958719
  0
VERTEX
  5
1BAC
  8
7
  6
CONTINUOUS
 10
323.32291838315712
 20
1022.554338369698
 30
0.0
  0
VERTEX
  5
1BAD
  8
7
  6
CONTINUOUS
 10
708.32267562305685
 20
1002.915053640865
 30
0.0
  0
VERTEX
  5
1BAE
  8
7
  6
CONTINUOUS
 10
708.32267562305685
 20
991.18299500458397
 30
0.0
  0
VERTEX
  5
1BAF
  8
7
  6
CONTINUOUS
 10
808.32267562305674
 20
987.27348309565195
 30
0.0
  0
VERTEX
  5
1BB0
  8
7
  6
CONTINUOUS
 10
808.32267562305674
 20
997.17723780096969
 30
0.0
  0
VERTEX
  5
1BB1
  8
7
  6
CONTINUOUS
 10
866.15352923001399
 20
993.13414935780577
 30
0.0
  0
SEQEND
  5
1BB2
  8
7
  6
CONTINUOUS
  0
POLYLINE
  5
196D
  8
7
  6
CONTINUOUS
 66
     1
 10
0.0
 20
0.0
 30
0.0
  0
VERTEX
  5
1BB3
  8
7
  6
CONTINUOUS
 10
103.9919781091702
 20
569.54124181352995
 30
0.0
  0
VERTEX
  5
1BB4
  8
7
  6
CONTINUOUS
 10
103.7371427566346
 20
569.5645783842748
 30
0.0
  0
VERTEX
  5
1BB5
  8
7
  6
CONTINUOUS
 10
103.4641427566345
 20
569.59057838427486
 30
0.0
  0
VERTEX
  5
1BB6
  8
7
  6
CONTINUOUS
 10
103.1921427566346
 20
569.61857838427488
 30
0.0
  0
VERTEX
  5
1BB7
  8
7
  6
CONTINUOUS
 10
102.9201427566347
 20
569.65157838427479
 30
0.0
  0
VERTEX
  5
1BB8
  8
7
  6
CONTINUOUS
 10
102.1691427566348
 20
569.77057838427504
 30
0.0
  0
VERTEX
  5
1BB9
  8
7
  6
CONTINUOUS
 10
101.4241427566345
 20
569.92457838427504
 30
0.0
  0
VERTEX
  5
1BBA
  8
7
  6
CONTINUOUS
 10
100.6831427566346
 20
570.10157838427494
 30
0.0
  0
VERTEX
  5
1BBB
  8
7
  6
CONTINUOUS
 10
99.945142756634553
 20
570.29257838427498
 30
0.0
  0
VERTEX
  5
1BBC
  8
7
  6
CONTINUOUS
 10
98.840142756634535
 20
570.59157838427495
 30
0.0
  0
VERTEX
  5
1BBD
  8
7
  6
CONTINUOUS
 10
97.740142756634611
 20
570.89857838427497
 30
0.0
  0
VERTEX
  5
1BBE
  8
7
  6
CONTINUOUS
 10
96.642142756634826
 20
571.21257838427505
 30
0.0
  0
VERTEX
  5
1BBF
  8
7
  6
CONTINUOUS
 10
95.545142756634618
 20
571.53157838427501
 30
0.0
  0
VERTEX
  5
1BC0
  8
7
  6
CONTINUOUS
 10
94.151142756634599
 20
571.94357838427504
 30
0.0
  0
VERTEX
  5
1BC1
  8
7
  6
CONTINUOUS
 10
92.759142756634617
 20
572.35957838427498
 30
0.0
  0
VERTEX
  5
1BC2
  8
7
  6
CONTINUOUS
 10
91.367142756634493
 20
572.77757838427499
 30
0.0
  0
VERTEX
  5
1BC3
  8
7
  6
CONTINUOUS
 10
89.975142756634511
 20
573.19557838427488
 30
0.0
  0
VERTEX
  5
1BC4
  8
7
  6
CONTINUOUS
 10
88.333142756634629
 20
573.68757838427484
 30
0.0
  0
VERTEX
  5
1BC5
  8
7
  6
CONTINUOUS
 10
86.691142756634633
 20
574.17657838427488
 30
0.0
  0
VERTEX
  5
1BC6
  8
7
  6
CONTINUOUS
 10
85.048142756634533
 20
574.66057838427491
 30
0.0
  0
VERTEX
  5
1BC7
  8
7
  6
CONTINUOUS
 10
83.403142756634622
 20
575.13957838427496
 30
0.0
  0
VERTEX
  5
1BC8
  8
7
  6
CONTINUOUS
 10
81.544142756634827
 20
575.67157838427511
 30
0.0
  0
VERTEX
  5
1BC9
  8
7
  6
CONTINUOUS
 10
79.683142756634538
 20
576.19457838427502
 30
0.0
  0
VERTEX
  5
1BCA
  8
7
  6
CONTINUOUS
 10
77.820142756634596
 20
576.70857838427492
 30
0.0
  0
VERTEX
  5
1BCB
  8
7
  6
CONTINUOUS
 10
75.953142756634861
 20
577.21157838427507
 30
0.0
  0
VERTEX
  5
1BCC
  8
7
  6
CONTINUOUS
 10
73.904142756634826
 20
577.75057838427495
 30
0.0
  0
VERTEX
  5
1BCD
  8
7
  6
CONTINUOUS
 10
71.852142756634862
 20
578.27357838427486
 30
0.0
  0
VERTEX
  5
1BCE
  8
7
  6
CONTINUOUS
 10
69.795142756634675
 20
578.77857838427508
 30
0.0
  0
VERTEX
  5
1BCF
  8
7
  6
CONTINUOUS
 10
67.732142756634744
 20
579.26157838427514
 30
0.0
  0
VERTEX
  5
1BD0
  8
7
  6
CONTINUOUS
 10
65.494142756634744
 20
579.75757838427489
 30
0.0
  0
VERTEX
  5
1BD1
  8
7
  6
CONTINUOUS
 10
63.251142756634863
 20
580.22557838427485
 30
0.0
  0
VERTEX
  5
1BD2
  8
7
  6
CONTINUOUS
 10
61.002142756634669
 20
580.66857838427495
 30
0.0
  0
VERTEX
  5
1BD3
  8
7
  6
CONTINUOUS
 10
58.74714275663468
 20
581.08657838427496
 30
0.0
  0
VERTEX
  5
1BD4
  8
7
  6
CONTINUOUS
 10
56.298142756634597
 20
581.5155783842747
 30
0.0
  0
VERTEX
  5
1BD5
  8
7
  6
CONTINUOUS
 10
53.846142756634599
 20
581.91857838427495
 30
0.0
  0
VERTEX
  5
1BD6
  8
7
  6
CONTINUOUS
 10
51.390142756634809
 20
582.30057838427501
 30
0.0
  0
VERTEX
  5
1BD7
  8
7
  6
CONTINUOUS
 10
48.930142756634602
 20
582.66457838427505
 30
0.0
  0
VERTEX
  5
1BD8
  8
7
  6
CONTINUOUS
 10
46.284142756634822
 20
583.03757838427498
 30
0.0
  0
VERTEX
  5
1BD9
  8
7
  6
CONTINUOUS
 10
43.637142756634603
 20
583.39257838427477
 30
0.0
  0
VERTEX
  5
1BDA
  8
7
  6
CONTINUOUS
 10
40.987142756634739
 20
583.73157838427505
 30
0.0
  0
VERTEX
  5
1BDB
  8
7
  6
CONTINUOUS
 10
38.335142756634639
 20
584.0565783842751
 30
0.0
  0
VERTEX
  5
1BDC
  8
7
  6
CONTINUOUS
 10
35.527142756634589
 20
584.38457838427496
 30
0.0
  0
VERTEX
  5
1BDD
  8
7
  6
CONTINUOUS
 10
32.71814275663462
 20
584.69657838427486
 30
0.0
  0
VERTEX
  5
1BDE
  8
7
  6
CONTINUOUS
 10
29.908142756634671
 20
584.993578384275
 30
0.0
  0
VERTEX
  5
1BDF
  8
7
  6
CONTINUOUS
 10
27.09514275663463
 20
585.27657838427479
 30
0.0
  0
VERTEX
  5
1BE0
  8
7
  6
CONTINUOUS
 10
24.15414275663483
 20
585.5565783842751
 30
0.0
  0
VERTEX
  5
1BE1
  8
7
  6
CONTINUOUS
 10
21.213142756634628
 20
585.82057838427488
 30
0.0
  0
VERTEX
  5
1BE2
  8
7
  6
CONTINUOUS
 10
18.270142756634812
 20
586.070578384275
 30
0.0
  0
VERTEX
  5
1BE3
  8
7
  6
CONTINUOUS
 10
15.325142756634589
 20
586.30757838427496
 30
0.0
  0
VERTEX
  5
1BE4
  8
7
  6
CONTINUOUS
 10
12.285142756634629
 20
586.53957838427505
 30
0.0
  0
VERTEX
  5
1BE5
  8
7
  6
CONTINUOUS
 10
9.2441427566347443
 20
586.75857838427498
 30
0.0
  0
VERTEX
  5
1BE6
  8
7
  6
CONTINUOUS
 10
6.2031427566348611
 20
586.96357838427502
 30
0.0
  0
VERTEX
  5
1BE7
  8
7
  6
CONTINUOUS
 10
3.1601427566347411
 20
587.15557838427503
 30
0.0
  0
VERTEX
  5
1BE8
  8
7
  6
CONTINUOUS
 10
0.0531427566347134
 20
587.33757838427505
 30
0.0
  0
VERTEX
  5
1BE9
  8
7
  6
CONTINUOUS
 10
-3.0538572433653708
 20
587.50557838427494
 30
0.0
  0
VERTEX
  5
1BEA
  8
7
  6
CONTINUOUS
 10
-6.1608572433653981
 20
587.65957838427494
 30
0.0
  0
VERTEX
  5
1BEB
  8
7
  6
CONTINUOUS
 10
-9.2698572433653794
 20
587.80057838427501
 30
0.0
  0
VERTEX
  5
1BEC
  8
7
  6
CONTINUOUS
 10
-12.408857243365331
 20
587.9305783842749
 30
0.0
  0
VERTEX
  5
1BED
  8
7
  6
CONTINUOUS
 10
-15.546857243365359
 20
588.04657838427499
 30
0.0
  0
VERTEX
  5
1BEE
  8
7
  6
CONTINUOUS
 10
-18.684857243365279
 20
588.14957838427495
 30
0.0
  0
VERTEX
  5
1BEF
  8
7
  6
CONTINUOUS
 10
-21.824857243365379
 20
588.238578384275
 30
0.0
  0
VERTEX
  5
1BF0
  8
7
  6
CONTINUOUS
 10
-24.96185724336539
 20
588.3145783842748
 30
0.0
  0
VERTEX
  5
1BF1
  8
7
  6
CONTINUOUS
 10
-28.097857243365411
 20
588.37657838427504
 30
0.0
  0
VERTEX
  5
1BF2
  8
7
  6
CONTINUOUS
 10
-31.23485724336518
 20
588.42457838427504
 30
0.0
  0
VERTEX
  5
1BF3
  8
7
  6
CONTINUOUS
 10
-34.372857243365331
 20
588.45957838427478
 30
0.0
  0
VERTEX
  5
1BF4
  8
7
  6
CONTINUOUS
 10
-37.47585724336534
 20
588.4795783842751
 30
0.0
  0
VERTEX
  5
1BF5
  8
7
  6
CONTINUOUS
 10
-40.577857243365372
 20
588.48657838427494
 30
0.0
  0
VERTEX
  5
1BF6
  8
7
  6
CONTINUOUS
 10
-43.678857243365258
 20
588.4795783842751
 30
0.0
  0
VERTEX
  5
1BF7
  8
7
  6
CONTINUOUS
 10
-46.782857243365179
 20
588.45757838427494
 30
0.0
  0
VERTEX
  5
1BF8
  8
7
  6
CONTINUOUS
 10
-49.816857243365178
 20
588.42157838427499
 30
0.0
  0
VERTEX
  5
1BF9
  8
7
  6
CONTINUOUS
 10
-52.84885724336533
 20
588.37057838427495
 30
0.0
  0
VERTEX
  5
1BFA
  8
7
  6
CONTINUOUS
 10
-55.881857243365403
 20
588.30557838427478
 30
0.0
  0
VERTEX
  5
1BFB
  8
7
  6
CONTINUOUS
 10
-58.914857243365361
 20
588.22457838427488
 30
0.0
  0
VERTEX
  5
1BFC
  8
7
  6
CONTINUOUS
 10
-61.85085724336534
 20
588.13157838427492
 30
0.0
  0
VERTEX
  5
1BFD
  8
7
  6
CONTINUOUS
 10
-64.784857243365366
 20
588.02357838427486
 30
0.0
  0
VERTEX
  5
1BFE
  8
7
  6
CONTINUOUS
 10
-67.718857243365392
 20
587.90057838427492
 30
0.0
  0
VERTEX
  5
1BFF
  8
7
  6
CONTINUOUS
 10
-70.651857243365384
 20
587.76057838427505
 30
0.0
  0
VERTEX
  5
1C00
  8
7
  6
CONTINUOUS
 10
-73.457857243365353
 20
587.61157838427494
 30
0.0
  0
VERTEX
  5
1C01
  8
7
  6
CONTINUOUS
 10
-76.261857243365398
 20
587.44657838427486
 30
0.0
  0
VERTEX
  5
1C02
  8
7
  6
CONTINUOUS
 10
-79.064857243365395
 20
587.26457838427496
 30
0.0
  0
VERTEX
  5
1C03
  8
7
  6
CONTINUOUS
 10
-81.866857243365416
 20
587.06657838427509
 30
0.0
  0
VERTEX
  5
1C04
  8
7
  6
CONTINUOUS
 10
-84.515857243365417
 20
586.86257838427491
 30
0.0
  0
VERTEX
  5
1C05
  8
7
  6
CONTINUOUS
 10
-87.161857243365262
 20
586.64357838427497
 30
0.0
  0
VERTEX
  5
1C06
  8
7
  6
CONTINUOUS
 10
-89.805857243365324
 20
586.40657838427489
 30
0.0
  0
VERTEX
  5
1C07
  8
7
  6
CONTINUOUS
 10
-92.449857243365329
 20
586.15057838427492
 30
0.0
  0
VERTEX
  5
1C08
  8
7
  6
CONTINUOUS
 10
-94.913857243365385
 20
585.89457838427495
 30
0.0
  0
VERTEX
  5
1C09
  8
7
  6
CONTINUOUS
 10
-97.375857243365374
 20
585.62057838427495
 30
0.0
  0
VERTEX
  5
1C0A
  8
7
  6
CONTINUOUS
 10
-99.834857243365391
 20
585.32657838427508
 30
0.0
  0
VERTEX
  5
1C0B
  8
7
  6
CONTINUOUS
 10
-102.2918572433652
 20
585.012578384275
 30
0.0
  0
VERTEX
  5
1C0C
  8
7
  6
CONTINUOUS
 10
-104.5518572433653
 20
584.70557838427487
 30
0.0
  0
VERTEX
  5
1C0D
  8
7
  6
CONTINUOUS
 10
-106.8068572433652
 20
584.37857838427499
 30
0.0
  0
VERTEX
  5
1C0E
  8
7
  6
CONTINUOUS
 10
-109.0598572433654
 20
584.03157838427501
 30
0.0
  0
VERTEX
  5
1C0F
  8
7
  6
CONTINUOUS
 10
-111.3098572433654
 20
583.66357838427496
 30
0.0
  0
VERTEX
  5
1C10
  8
7
  6
CONTINUOUS
 10
-113.3418572433654
 20
583.31157838427498
 30
0.0
  0
VERTEX
  5
1C11
  8
7
  6
CONTINUOUS
 10
-115.3698572433654
 20
582.94057838427489
 30
0.0
  0
VERTEX
  5
1C12
  8
7
  6
CONTINUOUS
 10
-117.3928572433652
 20
582.54757838427497
 30
0.0
  0
VERTEX
  5
1C13
  8
7
  6
CONTINUOUS
 10
-119.41285724336529
 20
582.13057838427494
 30
0.0
  0
VERTEX
  5
1C14
  8
7
  6
CONTINUOUS
 10
-121.20085724336531
 20
581.73957838427509
 30
0.0
  0
VERTEX
  5
1C15
  8
7
  6
CONTINUOUS
 10
-122.9848572433653
 20
581.32657838427508
 30
0.0
  0
VERTEX
  5
1C16
  8
7
  6
CONTINUOUS
 10
-124.7628572433652
 20
580.89157838427479
 30
0.0
  0
VERTEX
  5
1C17
  8
7
  6
CONTINUOUS
 10
-126.53485724336539
 20
580.42957838427492
 30
0.0
  0
VERTEX
  5
1C18
  8
7
  6
CONTINUOUS
 10
-128.0658572433652
 20
580.00857838427498
 30
0.0
  0
VERTEX
  5
1C19
  8
7
  6
CONTINUOUS
 10
-129.59085724336529
 20
579.56357838427471
 30
0.0
  0
VERTEX
  5
1C1A
  8
7
  6
CONTINUOUS
 10
-131.1068572433654
 20
579.09357838427491
 30
0.0
  0
VERTEX
  5
1C1B
  8
7
  6
CONTINUOUS
 10
-132.61485724336529
 20
578.59457838427511
 30
0.0
  0
VERTEX
  5
1C1C
  8
7
  6
CONTINUOUS
 10
-133.87785724336541
 20
578.15057838427492
 30
0.0
  0
VERTEX
  5
1C1D
  8
7
  6
CONTINUOUS
 10
-135.1318572433654
 20
577.68257838427508
 30
0.0
  0
VERTEX
  5
1C1E
  8
7
  6
CONTINUOUS
 10
-136.37585724336529
 20
577.18757838427484
 30
0.0
  0
VERTEX
  5
1C1F
  8
7
  6
CONTINUOUS
 10
-137.6098572433653
 20
576.66457838427505
 30
0.0
  0
VERTEX
  5
1C20
  8
7
  6
CONTINUOUS
 10
-138.6018572433654
 20
576.21757838427482
 30
0.0
  0
VERTEX
  5
1C21
  8
7
  6
CONTINUOUS
 10
-139.58185724336531
 20
575.74457838427486
 30
0.0
  0
VERTEX
  5
1C22
  8
7
  6
CONTINUOUS
 10
-140.5448572433653
 20
575.23857838427512
 30
0.0
  0
VERTEX
  5
1C23
  8
7
  6
CONTINUOUS
 10
-141.4848572433653
 20
574.69557838427488
 30
0.0
  0
VERTEX
  5
1C24
  8
7
  6
CONTINUOUS
 10
-142.19285724336521
 20
574.24757838427479
 30
0.0
  0
VERTEX
  5
1C25
  8
7
  6
CONTINUOUS
 10
-142.88485724336519
 20
573.77357838427486
 30
0.0
  0
VERTEX
  5
1C26
  8
7
  6
CONTINUOUS
 10
-143.56185724336541
 20
573.2765783842749
 30
0.0
  0
VERTEX
  5
1C27
  8
7
  6
CONTINUOUS
 10
-144.22185724336529
 20
572.75557838427494
 30
0.0
  0
VERTEX
  5
1C28
  8
7
  6
CONTINUOUS
 10
-144.6808572433653
 20
572.368578384275
 30
0.0
  0
VERTEX
  5
1C29
  8
7
  6
CONTINUOUS
 10
-145.10885724336529
 20
571.95157838427508
 30
0.0
  0
VERTEX
  5
1C2A
  8
7
  6
CONTINUOUS
 10
-145.48785724336531
 20
571.48557838427485
 30
0.0
  0
VERTEX
  5
1C2B
  8
7
  6
CONTINUOUS
 10
-145.7948572433653
 20
570.95457838427501
 30
0.0
  0
VERTEX
  5
1C2C
  8
7
  6
CONTINUOUS
 10
-145.93285724336531
 20
570.60157838427494
 30
0.0
  0
VERTEX
  5
1C2D
  8
7
  6
CONTINUOUS
 10
-146.0079189547468
 20
570.29632742465685
 30
0.0
  0
SEQEND
  5
1C2E
  8
7
  6
CONTINUOUS
  0
LINE
  5
197D
  8
LAYER01
  6
CONTINUOUS
 62
     7
 10
103.9919781091702
 20
569.54124181352995
 30
0.0
 11
103.9919781091702
 21
606.57285112794841
 31
0.0
  0
LINE
  5
197E
  8
LAYER01
  6
CONTINUOUS
 62
     7
 10
103.9919781091702
 20
606.57285112794841
 30
0.0
 11
-146.0079189547468
 21
606.57285112794852
 31
0.0
  0
LINE
  5
197F
  8
LAYER01
  6
CONTINUOUS
 62
     7
 10
-146.0079189547468
 20
570.29632742465685
 30
0.0
 11
-146.0079189547468
 21
606.57285112794852
 31
0.0
  0
POLYLINE
  5
198A
  8
LAYER01
  6
CONTINUOUS
 62
     7
 66
     1
 10
0.0
 20
0.0
 30
0.0
 70
     1
  0
VERTEX
  5
1C2F
  8
LAYER01
  6
CONTINUOUS
 62
     7
 10
99.662608091005126
 20
595.10185193895938
 30
0.0
  0
VERTEX
  5
1C30
  8
LAYER01
  6
CONTINUOUS
 62
     7
 10
69.562608091005131
 20
595.10185193895938
 30
0.0
  0
VERTEX
  5
1C31
  8
LAYER01
  6
CONTINUOUS
 62
     7
 10
69.562608091005131
 20
589.00185193895936
 30
0.0
  0
VERTEX
  5
1C32
  8
LAYER01
  6
CONTINUOUS
 62
     7
 10
99.662608091005126
 20
589.00185193895936
 30
0.0
  0
SEQEND
  5
1C33
  8
LAYER01
  6
CONTINUOUS
 62
     7
  0
POLYLINE
  5
198B
  8
LAYER01
  6
CONTINUOUS
 62
     7
 66
     1
 10
0.0
 20
0.0
 30
0.0
 70
     1
  0
VERTEX
  5
1C34
  8
LAYER01
  6
CONTINUOUS
 62
     7
 10
-112.0847826009571
 20
595.81303761998095
 30
0.0
  0
VERTEX
  5
1C35
  8
LAYER01
  6
CONTINUOUS
 62
     7
 10
-142.18478260095711
 20
595.81303761998095
 30
0.0
  0
VERTEX
  5
1C36
  8
LAYER01
  6
CONTINUOUS
 62
     7
 10
-142.18478260095711
 20
589.71303761998104
 30
0.0
  0
VERTEX
  5
1C37
  8
LAYER01
  6
CONTINUOUS
 62
     7
 10
-112.0847826009571
 20
589.71303761998104
 30
0.0
  0
SEQEND
  5
1C38
  8
LAYER01
  6
CONTINUOUS
 62
     7
  0
POLYLINE
  5
198C
  8
7
  6
CONTINUOUS
 66
     1
 10
0.0
 20
0.0
 30
0.0
  0
VERTEX
  5
1C39
  8
7
  6
CONTINUOUS
 10
105.0040328170471
 20
519.35686710791015
 30
0.0
  0
VERTEX
  5
1C3A
  8
7
  6
CONTINUOUS
 10
104.7491974645115
 20
519.38020367865488
 30
0.0
  0
VERTEX
  5
1C3B
  8
7
  6
CONTINUOUS
 10
104.4761974645114
 20
519.40620367865495
 30
0.0
  0
VERTEX
  5
1C3C
  8
7
  6
CONTINUOUS
 10
104.20419746451149
 20
519.43420367865497
 30
0.0
  0
VERTEX
  5
1C3D
  8
7
  6
CONTINUOUS
 10
103.9321974645116
 20
519.46720367865487
 30
0.0
  0
VERTEX
  5
1C3E
  8
7
  6
CONTINUOUS
 10
103.1811974645117
 20
519.58620367865512
 30
0.0
  0
VERTEX
  5
1C3F
  8
7
  6
CONTINUOUS
 10
102.43619746451139
 20
519.74020367865501
 30
0.0
  0
VERTEX
  5
1C40
  8
7
  6
CONTINUOUS
 10
101.69519746451149
 20
519.91720367865503
 30
0.0
  0
VERTEX
  5
1C41
  8
7
  6
CONTINUOUS
 10
100.9571974645114
 20
520.10820367865506
 30
0.0
  0
VERTEX
  5
1C42
  8
7
  6
CONTINUOUS
 10
99.852197464511448
 20
520.40720367865504
 30
0.0
  0
VERTEX
  5
1C43
  8
7
  6
CONTINUOUS
 10
98.752197464511539
 20
520.71420367865505
 30
0.0
  0
VERTEX
  5
1C44
  8
7
  6
CONTINUOUS
 10
97.654197464511753
 20
521.02820367865502
 30
0.0
  0
VERTEX
  5
1C45
  8
7
  6
CONTINUOUS
 10
96.557197464511546
 20
521.34720367865509
 30
0.0
  0
VERTEX
  5
1C46
  8
7
  6
CONTINUOUS
 10
95.163197464511541
 20
521.75920367865513
 30
0.0
  0
VERTEX
  5
1C47
  8
7
  6
CONTINUOUS
 10
93.771197464511545
 20
522.17520367865507
 30
0.0
  0
VERTEX
  5
1C48
  8
7
  6
CONTINUOUS
 10
92.379197464511435
 20
522.59320367865507
 30
0.0
  0
VERTEX
  5
1C49
  8
7
  6
CONTINUOUS
 10
90.987197464511425
 20
523.01120367865497
 30
0.0
  0
VERTEX
  5
1C4A
  8
7
  6
CONTINUOUS
 10
89.345197464511557
 20
523.50320367865504
 30
0.0
  0
VERTEX
  5
1C4B
  8
7
  6
CONTINUOUS
 10
87.703197464511547
 20
523.99220367865496
 30
0.0
  0
VERTEX
  5
1C4C
  8
7
  6
CONTINUOUS
 10
86.060197464511475
 20
524.476203678655
 30
0.0
  0
VERTEX
  5
1C4D
  8
7
  6
CONTINUOUS
 10
84.415197464511536
 20
524.95520367865504
 30
0.0
  0
VERTEX
  5
1C4E
  8
7
  6
CONTINUOUS
 10
82.55619746451174
 20
525.48720367865519
 30
0.0
  0
VERTEX
  5
1C4F
  8
7
  6
CONTINUOUS
 10
80.695197464511466
 20
526.0102036786551
 30
0.0
  0
VERTEX
  5
1C50
  8
7
  6
CONTINUOUS
 10
78.832197464511523
 20
526.524203678655
 30
0.0
  0
VERTEX
  5
1C51
  8
7
  6
CONTINUOUS
 10
76.965197464511789
 20
527.02720367865516
 30
0.0
  0
VERTEX
  5
1C52
  8
7
  6
CONTINUOUS
 10
74.916197464511754
 20
527.56620367865514
 30
0.0
  0
VERTEX
  5
1C53
  8
7
  6
CONTINUOUS
 10
72.86419746451179
 20
528.08920367865505
 30
0.0
  0
VERTEX
  5
1C54
  8
7
  6
CONTINUOUS
 10
70.807197464511603
 20
528.59420367865505
 30
0.0
  0
VERTEX
  5
1C55
  8
7
  6
CONTINUOUS
 10
68.744197464511672
 20
529.07720367865522
 30
0.0
  0
VERTEX
  5
1C56
  8
7
  6
CONTINUOUS
 10
66.506197464511672
 20
529.57320367865486
 30
0.0
  0
VERTEX
  5
1C57
  8
7
  6
CONTINUOUS
 10
64.263197464511791
 20
530.04120367865505
 30
0.0
  0
VERTEX
  5
1C58
  8
7
  6
CONTINUOUS
 10
62.014197464511597
 20
530.48420367865504
 30
0.0
  0
VERTEX
  5
1C59
  8
7
  6
CONTINUOUS
 10
59.759197464511601
 20
530.90220367865516
 30
0.0
  0
VERTEX
  5
1C5A
  8
7
  6
CONTINUOUS
 10
57.310197464511532
 20
531.33120367865479
 30
0.0
  0
VERTEX
  5
1C5B
  8
7
  6
CONTINUOUS
 10
54.858197464511527
 20
531.73420367865504
 30
0.0
  0
VERTEX
  5
1C5C
  8
7
  6
CONTINUOUS
 10
52.402197464511737
 20
532.11620367865498
 30
0.0
  0
VERTEX
  5
1C5D
  8
7
  6
CONTINUOUS
 10
49.942197464511537
 20
532.48020367865513
 30
0.0
  0
VERTEX
  5
1C5E
  8
7
  6
CONTINUOUS
 10
47.296197464511749
 20
532.85320367865506
 30
0.0
  0
VERTEX
  5
1C5F
  8
7
  6
CONTINUOUS
 10
44.649197464511531
 20
533.20820367865485
 30
0.0
  0
VERTEX
  5
1C60
  8
7
  6
CONTINUOUS
 10
41.999197464511667
 20
533.54720367865514
 30
0.0
  0
VERTEX
  5
1C61
  8
7
  6
CONTINUOUS
 10
39.347197464511567
 20
533.87220367865518
 30
0.0
  0
VERTEX
  5
1C62
  8
7
  6
CONTINUOUS
 10
36.539197464511517
 20
534.20020367865504
 30
0.0
  0
VERTEX
  5
1C63
  8
7
  6
CONTINUOUS
 10
33.730197464511548
 20
534.51220367865506
 30
0.0
  0
VERTEX
  5
1C64
  8
7
  6
CONTINUOUS
 10
30.920197464511599
 20
534.80920367865497
 30
0.0
  0
VERTEX
  5
1C65
  8
7
  6
CONTINUOUS
 10
28.107197464511561
 20
535.09220367865487
 30
0.0
  0
VERTEX
  5
1C66
  8
7
  6
CONTINUOUS
 10
25.16619746451175
 20
535.37220367865507
 30
0.0
  0
VERTEX
  5
1C67
  8
7
  6
CONTINUOUS
 10
22.225197464511549
 20
535.63620367865497
 30
0.0
  0
VERTEX
  5
1C68
  8
7
  6
CONTINUOUS
 10
19.282197464511739
 20
535.88620367865497
 30
0.0
  0
VERTEX
  5
1C69
  8
7
  6
CONTINUOUS
 10
16.337197464511519
 20
536.12320367865505
 30
0.0
  0
VERTEX
  5
1C6A
  8
7
  6
CONTINUOUS
 10
13.29719746451155
 20
536.35520367865513
 30
0.0
  0
VERTEX
  5
1C6B
  8
7
  6
CONTINUOUS
 10
10.25619746451167
 20
536.57420367865507
 30
0.0
  0
VERTEX
  5
1C6C
  8
7
  6
CONTINUOUS
 10
7.215197464511788
 20
536.77920367865511
 30
0.0
  0
VERTEX
  5
1C6D
  8
7
  6
CONTINUOUS
 10
4.172197464511668
 20
536.97120367865512
 30
0.0
  0
VERTEX
  5
1C6E
  8
7
  6
CONTINUOUS
 10
1.0651974645116411
 20
537.15320367865513
 30
0.0
  0
VERTEX
  5
1C6F
  8
7
  6
CONTINUOUS
 10
-2.041802535488443
 20
537.32120367865502
 30
0.0
  0
VERTEX
  5
1C70
  8
7
  6
CONTINUOUS
 10
-5.1488025354884712
 20
537.47520367865502
 30
0.0
  0
VERTEX
  5
1C71
  8
7
  6
CONTINUOUS
 10
-8.2578025354884517
 20
537.6162036786551
 30
0.0
  0
VERTEX
  5
1C72
  8
7
  6
CONTINUOUS
 10
-11.396802535488399
 20
537.74620367865498
 30
0.0
  0
VERTEX
  5
1C73
  8
7
  6
CONTINUOUS
 10
-14.53480253548844
 20
537.86220367865508
 30
0.0
  0
VERTEX
  5
1C74
  8
7
  6
CONTINUOUS
 10
-17.672802535488358
 20
537.96520367865503
 30
0.0
  0
VERTEX
  5
1C75
  8
7
  6
CONTINUOUS
 10
-20.812802535488458
 20
538.05420367865509
 30
0.0
  0
VERTEX
  5
1C76
  8
7
  6
CONTINUOUS
 10
-23.949802535488459
 20
538.13020367865488
 30
0.0
  0
VERTEX
  5
1C77
  8
7
  6
CONTINUOUS
 10
-27.08580253548849
 20
538.19220367865512
 30
0.0
  0
VERTEX
  5
1C78
  8
7
  6
CONTINUOUS
 10
-30.22280253548826
 20
538.24020367865512
 30
0.0
  0
VERTEX
  5
1C79
  8
7
  6
CONTINUOUS
 10
-33.360802535488403
 20
538.27520367865486
 30
0.0
  0
VERTEX
  5
1C7A
  8
7
  6
CONTINUOUS
 10
-36.463802535488412
 20
538.29520367865507
 30
0.0
  0
VERTEX
  5
1C7B
  8
7
  6
CONTINUOUS
 10
-39.565802535488451
 20
538.30220367865502
 30
0.0
  0
VERTEX
  5
1C7C
  8
7
  6
CONTINUOUS
 10
-42.66680253548833
 20
538.29520367865507
 30
0.0
  0
VERTEX
  5
1C7D
  8
7
  6
CONTINUOUS
 10
-45.770802535488251
 20
538.27320367865502
 30
0.0
  0
VERTEX
  5
1C7E
  8
7
  6
CONTINUOUS
 10
-48.804802535488243
 20
538.23720367865508
 30
0.0
  0
VERTEX
  5
1C7F
  8
7
  6
CONTINUOUS
 10
-51.836802535488403
 20
538.18620367865503
 30
0.0
  0
VERTEX
  5
1C80
  8
7
  6
CONTINUOUS
 10
-54.869802535488468
 20
538.12120367865487
 30
0.0
  0
VERTEX
  5
1C81
  8
7
  6
CONTINUOUS
 10
-57.902802535488433
 20
538.04020367865496
 30
0.0
  0
VERTEX
  5
1C82
  8
7
  6
CONTINUOUS
 10
-60.838802535488412
 20
537.947203678655
 30
0.0
  0
VERTEX
  5
1C83
  8
7
  6
CONTINUOUS
 10
-63.772802535488431
 20
537.83920367865505
 30
0.0
  0
VERTEX
  5
1C84
  8
7
  6
CONTINUOUS
 10
-66.706802535488464
 20
537.71620367865501
 30
0.0
  0
VERTEX
  5
1C85
  8
7
  6
CONTINUOUS
 10
-69.639802535488457
 20
537.57620367865513
 30
0.0
  0
VERTEX
  5
1C86
  8
7
  6
CONTINUOUS
 10
-72.44580253548844
 20
537.42720367865502
 30
0.0
  0
VERTEX
  5
1C87
  8
7
  6
CONTINUOUS
 10
-75.24980253548847
 20
537.26220367865506
 30
0.0
  0
VERTEX
  5
1C88
  8
7
  6
CONTINUOUS
 10
-78.052802535488468
 20
537.08020367865504
 30
0.0
  0
VERTEX
  5
1C89
  8
7
  6
CONTINUOUS
 10
-80.854802535488489
 20
536.88220367865517
 30
0.0
  0
VERTEX
  5
1C8A
  8
7
  6
CONTINUOUS
 10
-83.503802535488475
 20
536.678203678655
 30
0.0
  0
VERTEX
  5
1C8B
  8
7
  6
CONTINUOUS
 10
-86.149802535488334
 20
536.45920367865506
 30
0.0
  0
VERTEX
  5
1C8C
  8
7
  6
CONTINUOUS
 10
-88.793802535488396
 20
536.22220367865498
 30
0.0
  0
VERTEX
  5
1C8D
  8
7
  6
CONTINUOUS
 10
-91.437802535488402
 20
535.96620367865489
 30
0.0
  0
VERTEX
  5
1C8E
  8
7
  6
CONTINUOUS
 10
-93.901802535488457
 20
535.71020367865515
 30
0.0
  0
VERTEX
  5
1C8F
  8
7
  6
CONTINUOUS
 10
-96.363802535488446
 20
535.43620367865503
 30
0.0
  0
VERTEX
  5
1C90
  8
7
  6
CONTINUOUS
 10
-98.822802535488449
 20
535.14220367865505
 30
0.0
  0
VERTEX
  5
1C91
  8
7
  6
CONTINUOUS
 10
-101.2798025354883
 20
534.82820367865497
 30
0.0
  0
VERTEX
  5
1C92
  8
7
  6
CONTINUOUS
 10
-103.53980253548841
 20
534.52120367865496
 30
0.0
  0
VERTEX
  5
1C93
  8
7
  6
CONTINUOUS
 10
-105.7948025354883
 20
534.19420367865507
 30
0.0
  0
VERTEX
  5
1C94
  8
7
  6
CONTINUOUS
 10
-108.0478025354884
 20
533.84720367865509
 30
0.0
  0
VERTEX
  5
1C95
  8
7
  6
CONTINUOUS
 10
-110.2978025354884
 20
533.47920367865515
 30
0.0
  0
VERTEX
  5
1C96
  8
7
  6
CONTINUOUS
 10
-112.3298025354884
 20
533.12720367865495
 30
0.0
  0
VERTEX
  5
1C97
  8
7
  6
CONTINUOUS
 10
-114.3578025354885
 20
532.75620367865497
 30
0.0
  0
VERTEX
  5
1C98
  8
7
  6
CONTINUOUS
 10
-116.3808025354883
 20
532.36320367865505
 30
0.0
  0
VERTEX
  5
1C99
  8
7
  6
CONTINUOUS
 10
-118.4008025354884
 20
531.94620367865502
 30
0.0
  0
VERTEX
  5
1C9A
  8
7
  6
CONTINUOUS
 10
-120.18880253548841
 20
531.55520367865506
 30
0.0
  0
VERTEX
  5
1C9B
  8
7
  6
CONTINUOUS
 10
-121.9728025354884
 20
531.14220367865505
 30
0.0
  0
VERTEX
  5
1C9C
  8
7
  6
CONTINUOUS
 10
-123.7508025354883
 20
530.70720367865488
 30
0.0
  0
VERTEX
  5
1C9D
  8
7
  6
CONTINUOUS
 10
-125.52280253548849
 20
530.245203678655
 30
0.0
  0
VERTEX
  5
1C9E
  8
7
  6
CONTINUOUS
 10
-127.0538025354883
 20
529.82420367865507
 30
0.0
  0
VERTEX
  5
1C9F
  8
7
  6
CONTINUOUS
 10
-128.57880253548839
 20
529.37920367865479
 30
0.0
  0
VERTEX
  5
1CA0
  8
7
  6
CONTINUOUS
 10
-130.0948025354885
 20
528.90920367865488
 30
0.0
  0
VERTEX
  5
1CA1
  8
7
  6
CONTINUOUS
 10
-131.60280253548839
 20
528.41020367865519
 30
0.0
  0
VERTEX
  5
1CA2
  8
7
  6
CONTINUOUS
 10
-132.8658025354884
 20
527.96620367865489
 30
0.0
  0
VERTEX
  5
1CA3
  8
7
  6
CONTINUOUS
 10
-134.11980253548839
 20
527.49820367865516
 30
0.0
  0
VERTEX
  5
1CA4
  8
7
  6
CONTINUOUS
 10
-135.3638025354883
 20
527.00320367865504
 30
0.0
  0
VERTEX
  5
1CA5
  8
7
  6
CONTINUOUS
 10
-136.5978025354884
 20
526.48020367865513
 30
0.0
  0
VERTEX
  5
1CA6
  8
7
  6
CONTINUOUS
 10
-137.58980253548839
 20
526.03320367865479
 30
0.0
  0
VERTEX
  5
1CA7
  8
7
  6
CONTINUOUS
 10
-138.56980253548841
 20
525.56020367865494
 30
0.0
  0
VERTEX
  5
1CA8
  8
7
  6
CONTINUOUS
 10
-139.5328025354884
 20
525.05420367865509
 30
0.0
  0
VERTEX
  5
1CA9
  8
7
  6
CONTINUOUS
 10
-140.4728025354884
 20
524.51120367865497
 30
0.0
  0
VERTEX
  5
1CAA
  8
7
  6
CONTINUOUS
 10
-141.18080253548831
 20
524.06320367865487
 30
0.0
  0
VERTEX
  5
1CAB
  8
7
  6
CONTINUOUS
 10
-141.87280253548829
 20
523.58920367865505
 30
0.0
  0
VERTEX
  5
1CAC
  8
7
  6
CONTINUOUS
 10
-142.5498025354884
 20
523.09220367865498
 30
0.0
  0
VERTEX
  5
1CAD
  8
7
  6
CONTINUOUS
 10
-143.20980253548839
 20
522.57120367865502
 30
0.0
  0
VERTEX
  5
1CAE
  8
7
  6
CONTINUOUS
 10
-143.66880253548831
 20
522.18420367865508
 30
0.0
  0
VERTEX
  5
1CAF
  8
7
  6
CONTINUOUS
 10
-144.09680253548839
 20
521.76720367865505
 30
0.0
  0
VERTEX
  5
1CB0
  8
7
  6
CONTINUOUS
 10
-144.4758025354883
 20
521.30120367865504
 30
0.0
  0
VERTEX
  5
1CB1
  8
7
  6
CONTINUOUS
 10
-144.7828025354884
 20
520.77020367865498
 30
0.0
  0
VERTEX
  5
1CB2
  8
7
  6
CONTINUOUS
 10
-144.92080253548841
 20
520.41720367865503
 30
0.0
  0
VERTEX
  5
1CB3
  8
7
  6
CONTINUOUS
 10
-144.9958642468699
 20
520.11195271903705
 30
0.0
  0
SEQEND
  5
1CB4
  8
7
  6
CONTINUOUS
  0
LINE
  5
198D
  8
LAYER01
  6
CONTINUOUS
 62
     7
 10
105.0040328170471
 20
556.38847642232849
 30
0.0
 11
-144.9958642468699
 21
556.38847642232861
 31
0.0
  0
POLYLINE
  5
198E
  8
LAYER01
  6
CONTINUOUS
 62
     7
 66
     1
 10
0.0
 20
0.0
 30
0.0
 70
     1
  0
VERTEX
  5
1CB5
  8
LAYER01
  6
CONTINUOUS
 62
     7
 10
-111.0727278930801
 20
545.62866291436114
 30
0.0
  0
VERTEX
  5
1CB6
  8
LAYER01
  6
CONTINUOUS
 62
     7
 10
-141.17272789308009
 20
545.62866291436114
 30
0.0
  0
VERTEX
  5
1CB7
  8
LAYER01
  6
CONTINUOUS
 62
     7
 10
-141.17272789308009
 20
539.52866291436112
 30
0.0
  0
VERTEX
  5
1CB8
  8
LAYER01
  6
CONTINUOUS
 62
     7
 10
-111.0727278930801
 20
539.52866291436112
 30
0.0
  0
SEQEND
  5
1CB9
  8
LAYER01
  6
CONTINUOUS
 62
     7
  0
LINE
  5
198F
  8
LAYER01
  6
CONTINUOUS
 62
     7
 10
-144.9958642468699
 20
520.11195271903705
 30
0.0
 11
-144.9958642468699
 21
556.38847642232861
 31
0.0
  0
POLYLINE
  5
1990
  8
LAYER01
  6
CONTINUOUS
 62
     7
 66
     1
 10
0.0
 20
0.0
 30
0.0
 70
     1
  0
VERTEX
  5
1CBA
  8
LAYER01
  6
CONTINUOUS
 62
     7
 10
100.674662798882
 20
544.91747723333947
 30
0.0
  0
VERTEX
  5
1CBB
  8
LAYER01
  6
CONTINUOUS
 62
     7
 10
70.574662798882059
 20
544.91747723333947
 30
0.0
  0
VERTEX
  5
1CBC
  8
LAYER01
  6
CONTINUOUS
 62
     7
 10
70.574662798882059
 20
538.81747723333945
 30
0.0
  0
VERTEX
  5
1CBD
  8
LAYER01
  6
CONTINUOUS
 62
     7
 10
100.674662798882
 20
538.81747723333945
 30
0.0
  0
SEQEND
  5
1CBE
  8
LAYER01
  6
CONTINUOUS
 62
     7
  0
LINE
  5
1991
  8
LAYER01
  6
CONTINUOUS
 62
     7
 10
105.0040328170471
 20
519.35686710791015
 30
0.0
 11
105.0040328170471
 21
556.38847642232849
 31
0.0
  0
POLYLINE
  5
199C
  8
LAYER01
  6
CONTINUOUS
 62
     7
 66
     1
 10
0.0
 20
0.0
 30
0.0
 70
     1
  0
VERTEX
  5
1CBF
  8
LAYER01
  6
CONTINUOUS
 62
     7
 10
220.33767021415071
 20
1215.2050632784401
 30
0.0
  0
VERTEX
  5
1CC0
  8
LAYER01
  6
CONTINUOUS
 62
     7
 10
220.33767021415071
 20
1284.1221613589209
 30
0.0
 42
-0.0035714782981542
  0
VERTEX
  5
1CC1
  8
LAYER01
  6
CONTINUOUS
 62
     7
 10
250.43767021415059
 20
1282.2159810206631
 30
0.0
  0
VERTEX
  5
1CC2
  8
LAYER01
  6
CONTINUOUS
 62
     7
 10
250.43767021415059
 20
1217.111243616697
 30
0.0
 42
-0.0035714782981543
  0
SEQEND
  5
1CC3
  8
LAYER01
  6
CONTINUOUS
 62
     7
  0
POLYLINE
  5
19A4
  8
LAYER01
  6
CONTINUOUS
 62
     7
 66
     1
 10
0.0
 20
0.0
 30
0.0
 70
     1
  0
VERTEX
  5
1CC4
  8
LAYER01
  6
CONTINUOUS
 62
     7
 10
77.146157673036413
 20
1213.9492188333959
 30
0.0
  0
VERTEX
  5
1CC5
  8
LAYER01
  6
CONTINUOUS
 62
     7
 10
77.146157673036413
 20
1285.378005803964
 30
0.0
 42
-0.0035667931612119
  0
VERTEX
  5
1CC6
  8
LAYER01
  6
CONTINUOUS
 62
     7
 10
107.24615767303639
 20
1286.4954011092691
 30
0.0
  0
VERTEX
  5
1CC7
  8
LAYER01
  6
CONTINUOUS
 62
     7
 10
107.24615767303639
 20
1212.8318235280931
 30
0.0
 42
-0.003566793161212
  0
SEQEND
  5
1CC8
  8
LAYER01
  6
CONTINUOUS
 62
     7
  0
POLYLINE
  5
19A9
  8
LAYER01
  6
CONTINUOUS
 62
     7
 66
     1
 10
0.0
 20
0.0
 30
0.0
 70
     1
  0
VERTEX
  5
1CC9
  8
LAYER01
  6
CONTINUOUS
 62
     7
 10
122.99615944464129
 20
1213.9492188333959
 30
0.0
  0
VERTEX
  5
1CCA
  8
LAYER01
  6
CONTINUOUS
 62
     7
 10
122.99615944464129
 20
1285.378005803964
 30
0.0
 42
-0.0035667931612119
  0
VERTEX
  5
1CCB
  8
LAYER01
  6
CONTINUOUS
 62
     7
 10
153.0961594446413
 20
1286.4954011092691
 30
0.0
  0
VERTEX
  5
1CCC
  8
LAYER01
  6
CONTINUOUS
 62
     7
 10
153.0961594446413
 20
1212.8318235280931
 30
0.0
 42
-0.003566793161212
  0
SEQEND
  5
1CCD
  8
LAYER01
  6
CONTINUOUS
 62
     7
  0
POLYLINE
  5
19AA
  8
LAYER01
  6
CONTINUOUS
 62
     7
 66
     1
 10
0.0
 20
0.0
 30
0.0
 70
     1
  0
VERTEX
  5
1CCE
  8
LAYER01
  6
CONTINUOUS
 62
     7
 10
174.26403789227879
 20
1215.2050632784401
 30
0.0
  0
VERTEX
  5
1CCF
  8
LAYER01
  6
CONTINUOUS
 62
     7
 10
174.26403789227879
 20
1284.1221613589209
 30
0.0
 42
-0.0035714782981542
  0
VERTEX
  5
1CD0
  8
LAYER01
  6
CONTINUOUS
 62
     7
 10
204.36403789227879
 20
1282.2159810206631
 30
0.0
  0
VERTEX
  5
1CD1
  8
LAYER01
  6
CONTINUOUS
 62
     7
 10
204.36403789227879
 20
1217.111243616697
 30
0.0
 42
-0.0035714782981543
  0
SEQEND
  5
1CD2
  8
LAYER01
  6
CONTINUOUS
 62
     7
  0
ENDSEC
  0
EOF
