  0
SECTION
  2
HEADER
  9
$ACADVER
  1
AC1004
  9
$LIMMIN
 10
0.000000
 20
.00000000000000
  9
$LIMMAX
 10
0163.830000
 20
0163.830000
  9
$EXTMIN
 10
0.000000
 20
0136.830000
  9
$EXTMAX
 10
017.715000
 20
0163.830000
  0
ENDSEC
  0
SECTION
  2
TABLES
  0
TABLE
  2
LTYPE
 70
     10
  0
LTYPE
  2
CONTINUOUS
 70
    0
  3
Solid line
 72
    65
 73
     0
 40
0.0
  0
LTYPE
  2
DASHED
 70
    0
  3
__ __ __ __ __ __ __ __ __ __ __ __ __ __ __
 72
    65
 73
     2
 40
0.75
 49
0.5
 49
-0.25
  0
LTYPE
  2
HIDDEN
 70
    0
  3
_ _ _ _ _ _ _ _ _ _ _ _ _ _ _ _ _ _ _ _ _ _ _
 72
    65
 73
     2
 40
0.375
 49
0.25
 49
-0.125
  0
LTYPE
  2
CENTER
 70
    0
  3
____ _ ____ _ ____ _ ____ _ ____ _ ____ _ ____
 72
    65
 73
     4
 40
2.0
 49
1.25
 49
-0.25
 49
0.25
 49
-0.25
  0
LTYPE
  2
PHANTOM
 70
    0
  3
_____ _ _ _____ _ _ _____ _ _ _____ _ _ ____
 72
    65
 73
     6
 40
2.5
 49
1.25
 49
-0.25
 49
0.25
 49
-0.25
 49
0.25
 49
-0.25
  0
LTYPE
  2
DOT
 70
    0
  3
...............................................
 72
    65
 73
     2
 40
0.25
 49
0.0
 49
-0.25
  0
LTYPE
  2
DASHDOT
 70
    0
  3
__ . __ . __ . __ . __ . __ . __ . __ . __ . __
 72
    65
 73
     4
 40
1.0
 49
0.5
 49
-0.25
 49
0.0
 49
-0.25
  0
LTYPE
  2
BORDER
 70
    0
  3
__ __ . __ __ . __ __ . __ __ . __ __ . __ __
 72
    65
 73
     6
 40
1.75
 49
0.5
 49
-0.25
 49
0.5
 49
-0.25
 49
0.0
 49
-0.25
  0
LTYPE
  2
DIVIDE
 70
    0
  3
__ . . __ . . __ . . __ . . __ . . __ . . __
 72
    65
 73
     6
 40
1.25
 49
0.5
 49
-0.25
 49
0.0
 49
-0.25
 49
0.0
 49
-0.25
  0
LTYPE
  2
INVISIBLE
 70
     0
  3
invisible line
 72
    65
 73
     1
 40
1.0
 49
-1.0
  0
ENDTAB
  0
TABLE
  2
LAYER
 70
     1
  0
LAYER
  2
3
 70
     0
 62
     7
  6
CONTINUOUS
  0
ENDTAB
  0
TABLE
  2
STYLE
 70
     1
  0
STYLE
  2
TXT
 70
     0
 40
0.000000
 41
01.000000
 50
0.000000
 71
     0
 42
0.200000
  3
TXT
  0
ENDTAB
  0
ENDSEC
  0
SECTION
  2
BLOCKS
  0
BLOCK
  8
0
  2
NO_204612098
 70
     0
 10
06.465000
 20
0149.055000
  0
POLYLINE
  8
3
 66
     1
 70
     1
  0
VERTEX
  8
3
 10
06.665000
 20
0148.955000
  0
VERTEX
  8
3
 10
06.682365
 20
0148.953481
  0
VERTEX
  8
3
 10
06.699202
 20
0148.948969
  0
VERTEX
  8
3
 10
06.715000
 20
0148.941603
  0
VERTEX
  8
3
 10
06.729279
 20
0148.931604
  0
VERTEX
  8
3
 10
06.741604
 20
0148.919279
  0
VERTEX
  8
3
 10
06.751603
 20
0148.905000
  0
VERTEX
  8
3
 10
06.758969
 20
0148.889202
  0
VERTEX
  8
3
 10
06.763481
 20
0148.872365
  0
VERTEX
  8
3
 10
06.765000
 20
0148.855000
  0
VERTEX
  8
3
 10
06.763481
 20
0148.837635
  0
VERTEX
  8
3
 10
06.758969
 20
0148.820798
  0
VERTEX
  8
3
 10
06.751603
 20
0148.805000
  0
VERTEX
  8
3
 10
06.741604
 20
0148.790721
  0
VERTEX
  8
3
 10
06.729279
 20
0148.778396
  0
VERTEX
  8
3
 10
06.715000
 20
0148.768397
  0
VERTEX
  8
3
 10
06.699202
 20
0148.761031
  0
VERTEX
  8
3
 10
06.682365
 20
0148.756519
  0
VERTEX
  8
3
 10
06.665000
 20
0148.755000
  0
VERTEX
  8
3
 10
06.647635
 20
0148.756519
  0
VERTEX
  8
3
 10
06.630798
 20
0148.761031
  0
VERTEX
  8
3
 10
06.615000
 20
0148.768397
  0
VERTEX
  8
3
 10
06.600721
 20
0148.778396
  0
VERTEX
  8
3
 10
06.588396
 20
0148.790721
  0
VERTEX
  8
3
 10
06.578397
 20
0148.805000
  0
VERTEX
  8
3
 10
06.571031
 20
0148.820798
  0
VERTEX
  8
3
 10
06.566519
 20
0148.837635
  0
VERTEX
  8
3
 10
06.565000
 20
0148.855000
  0
VERTEX
  8
3
 10
06.566519
 20
0148.872365
  0
VERTEX
  8
3
 10
06.571031
 20
0148.889202
  0
VERTEX
  8
3
 10
06.578397
 20
0148.905000
  0
VERTEX
  8
3
 10
06.588396
 20
0148.919279
  0
VERTEX
  8
3
 10
06.600721
 20
0148.931604
  0
VERTEX
  8
3
 10
06.615000
 20
0148.941603
  0
VERTEX
  8
3
 10
06.630798
 20
0148.948969
  0
VERTEX
  8
3
 10
06.647635
 20
0148.953481
  0
VERTEX
  8
3
 10
06.665000
 20
0148.955000
  0
SEQEND
  8
3
  0
LINE
  8
3
 10
06.865000
 20
0148.855000
 11
06.465000
 21
0148.855000
  0
LINE
  8
3
 10
06.665000
 20
0149.055000
 11
06.665000
 21
0148.655000
  0
ENDBLK
  8
0
  0
BLOCK
  8
0
  2
NO_204612104
 70
     0
 10
06.465000
 20
0144.655000
  0
POLYLINE
  8
3
 66
     1
 70
     1
  0
VERTEX
  8
3
 10
06.665000
 20
0144.555000
  0
VERTEX
  8
3
 10
06.682365
 20
0144.553481
  0
VERTEX
  8
3
 10
06.699202
 20
0144.548969
  0
VERTEX
  8
3
 10
06.715000
 20
0144.541603
  0
VERTEX
  8
3
 10
06.729279
 20
0144.531604
  0
VERTEX
  8
3
 10
06.741604
 20
0144.519279
  0
VERTEX
  8
3
 10
06.751603
 20
0144.505000
  0
VERTEX
  8
3
 10
06.758969
 20
0144.489202
  0
VERTEX
  8
3
 10
06.763481
 20
0144.472365
  0
VERTEX
  8
3
 10
06.765000
 20
0144.455000
  0
VERTEX
  8
3
 10
06.763481
 20
0144.437635
  0
VERTEX
  8
3
 10
06.758969
 20
0144.420798
  0
VERTEX
  8
3
 10
06.751603
 20
0144.405000
  0
VERTEX
  8
3
 10
06.741604
 20
0144.390721
  0
VERTEX
  8
3
 10
06.729279
 20
0144.378396
  0
VERTEX
  8
3
 10
06.715000
 20
0144.368397
  0
VERTEX
  8
3
 10
06.699202
 20
0144.361031
  0
VERTEX
  8
3
 10
06.682365
 20
0144.356519
  0
VERTEX
  8
3
 10
06.665000
 20
0144.355000
  0
VERTEX
  8
3
 10
06.647635
 20
0144.356519
  0
VERTEX
  8
3
 10
06.630798
 20
0144.361031
  0
VERTEX
  8
3
 10
06.615000
 20
0144.368397
  0
VERTEX
  8
3
 10
06.600721
 20
0144.378396
  0
VERTEX
  8
3
 10
06.588396
 20
0144.390721
  0
VERTEX
  8
3
 10
06.578397
 20
0144.405000
  0
VERTEX
  8
3
 10
06.571031
 20
0144.420798
  0
VERTEX
  8
3
 10
06.566519
 20
0144.437635
  0
VERTEX
  8
3
 10
06.565000
 20
0144.455000
  0
VERTEX
  8
3
 10
06.566519
 20
0144.472365
  0
VERTEX
  8
3
 10
06.571031
 20
0144.489202
  0
VERTEX
  8
3
 10
06.578397
 20
0144.505000
  0
VERTEX
  8
3
 10
06.588396
 20
0144.519279
  0
VERTEX
  8
3
 10
06.600721
 20
0144.531604
  0
VERTEX
  8
3
 10
06.615000
 20
0144.541603
  0
VERTEX
  8
3
 10
06.630798
 20
0144.548969
  0
VERTEX
  8
3
 10
06.647635
 20
0144.553481
  0
VERTEX
  8
3
 10
06.665000
 20
0144.555000
  0
SEQEND
  8
3
  0
LINE
  8
3
 10
06.865000
 20
0144.455000
 11
06.465000
 21
0144.455000
  0
LINE
  8
3
 10
06.665000
 20
0144.655000
 11
06.665000
 21
0144.255000
  0
ENDBLK
  8
0
  0
BLOCK
  8
0
  2
NO_204612109
 70
     0
 10
02.065000
 20
0149.055000
  0
POLYLINE
  8
3
 66
     1
 70
     1
  0
VERTEX
  8
3
 10
02.265000
 20
0148.955000
  0
VERTEX
  8
3
 10
02.282365
 20
0148.953481
  0
VERTEX
  8
3
 10
02.299202
 20
0148.948969
  0
VERTEX
  8
3
 10
02.315000
 20
0148.941603
  0
VERTEX
  8
3
 10
02.329279
 20
0148.931604
  0
VERTEX
  8
3
 10
02.341604
 20
0148.919279
  0
VERTEX
  8
3
 10
02.351603
 20
0148.905000
  0
VERTEX
  8
3
 10
02.358969
 20
0148.889202
  0
VERTEX
  8
3
 10
02.363481
 20
0148.872365
  0
VERTEX
  8
3
 10
02.365000
 20
0148.855000
  0
VERTEX
  8
3
 10
02.363481
 20
0148.837635
  0
VERTEX
  8
3
 10
02.358969
 20
0148.820798
  0
VERTEX
  8
3
 10
02.351603
 20
0148.805000
  0
VERTEX
  8
3
 10
02.341604
 20
0148.790721
  0
VERTEX
  8
3
 10
02.329279
 20
0148.778396
  0
VERTEX
  8
3
 10
02.315000
 20
0148.768397
  0
VERTEX
  8
3
 10
02.299202
 20
0148.761031
  0
VERTEX
  8
3
 10
02.282365
 20
0148.756519
  0
VERTEX
  8
3
 10
02.265000
 20
0148.755000
  0
VERTEX
  8
3
 10
02.247635
 20
0148.756519
  0
VERTEX
  8
3
 10
02.230798
 20
0148.761031
  0
VERTEX
  8
3
 10
02.215000
 20
0148.768397
  0
VERTEX
  8
3
 10
02.200721
 20
0148.778396
  0
VERTEX
  8
3
 10
02.188396
 20
0148.790721
  0
VERTEX
  8
3
 10
02.178397
 20
0148.805000
  0
VERTEX
  8
3
 10
02.171031
 20
0148.820798
  0
VERTEX
  8
3
 10
02.166519
 20
0148.837635
  0
VERTEX
  8
3
 10
02.165000
 20
0148.855000
  0
VERTEX
  8
3
 10
02.166519
 20
0148.872365
  0
VERTEX
  8
3
 10
02.171031
 20
0148.889202
  0
VERTEX
  8
3
 10
02.178397
 20
0148.905000
  0
VERTEX
  8
3
 10
02.188396
 20
0148.919279
  0
VERTEX
  8
3
 10
02.200721
 20
0148.931604
  0
VERTEX
  8
3
 10
02.215000
 20
0148.941603
  0
VERTEX
  8
3
 10
02.230798
 20
0148.948969
  0
VERTEX
  8
3
 10
02.247635
 20
0148.953481
  0
VERTEX
  8
3
 10
02.265000
 20
0148.955000
  0
SEQEND
  8
3
  0
LINE
  8
3
 10
02.465000
 20
0148.855000
 11
02.065000
 21
0148.855000
  0
LINE
  8
3
 10
02.265000
 20
0149.055000
 11
02.265000
 21
0148.655000
  0
ENDBLK
  8
0
  0
BLOCK
  8
0
  2
NO_204612115
 70
     0
 10
02.065000
 20
0144.655000
  0
POLYLINE
  8
3
 66
     1
 70
     1
  0
VERTEX
  8
3
 10
02.265000
 20
0144.555000
  0
VERTEX
  8
3
 10
02.282365
 20
0144.553481
  0
VERTEX
  8
3
 10
02.299202
 20
0144.548969
  0
VERTEX
  8
3
 10
02.315000
 20
0144.541603
  0
VERTEX
  8
3
 10
02.329279
 20
0144.531604
  0
VERTEX
  8
3
 10
02.341604
 20
0144.519279
  0
VERTEX
  8
3
 10
02.351603
 20
0144.505000
  0
VERTEX
  8
3
 10
02.358969
 20
0144.489202
  0
VERTEX
  8
3
 10
02.363481
 20
0144.472365
  0
VERTEX
  8
3
 10
02.365000
 20
0144.455000
  0
VERTEX
  8
3
 10
02.363481
 20
0144.437635
  0
VERTEX
  8
3
 10
02.358969
 20
0144.420798
  0
VERTEX
  8
3
 10
02.351603
 20
0144.405000
  0
VERTEX
  8
3
 10
02.341604
 20
0144.390721
  0
VERTEX
  8
3
 10
02.329279
 20
0144.378396
  0
VERTEX
  8
3
 10
02.315000
 20
0144.368397
  0
VERTEX
  8
3
 10
02.299202
 20
0144.361031
  0
VERTEX
  8
3
 10
02.282365
 20
0144.356519
  0
VERTEX
  8
3
 10
02.265000
 20
0144.355000
  0
VERTEX
  8
3
 10
02.247635
 20
0144.356519
  0
VERTEX
  8
3
 10
02.230798
 20
0144.361031
  0
VERTEX
  8
3
 10
02.215000
 20
0144.368397
  0
VERTEX
  8
3
 10
02.200721
 20
0144.378396
  0
VERTEX
  8
3
 10
02.188396
 20
0144.390721
  0
VERTEX
  8
3
 10
02.178397
 20
0144.405000
  0
VERTEX
  8
3
 10
02.171031
 20
0144.420798
  0
VERTEX
  8
3
 10
02.166519
 20
0144.437635
  0
VERTEX
  8
3
 10
02.165000
 20
0144.455000
  0
VERTEX
  8
3
 10
02.166519
 20
0144.472365
  0
VERTEX
  8
3
 10
02.171031
 20
0144.489202
  0
VERTEX
  8
3
 10
02.178397
 20
0144.505000
  0
VERTEX
  8
3
 10
02.188396
 20
0144.519279
  0
VERTEX
  8
3
 10
02.200721
 20
0144.531604
  0
VERTEX
  8
3
 10
02.215000
 20
0144.541603
  0
VERTEX
  8
3
 10
02.230798
 20
0144.548969
  0
VERTEX
  8
3
 10
02.247635
 20
0144.553481
  0
VERTEX
  8
3
 10
02.265000
 20
0144.555000
  0
SEQEND
  8
3
  0
LINE
  8
3
 10
02.465000
 20
0144.455000
 11
02.065000
 21
0144.455000
  0
LINE
  8
3
 10
02.265000
 20
0144.655000
 11
02.265000
 21
0144.255000
  0
ENDBLK
  8
0
  0
BLOCK
  8
0
  2
NO_204612120
 70
     0
 10
05.750000
 20
0148.750000
  0
LINE
  8
3
 10
05.866429
 20
0148.150000
 11
05.866429
 21
0147.910000
  0
LINE
  8
3
 10
05.982857
 20
0148.030000
 11
05.750000
 21
0148.030000
  0
ARC
  8
3
 10
05.860607
 20
0148.024000
 40
0.698571
 50
0.000000
 51
090.000000
  0
ENDBLK
  8
0
  0
BLOCK
  8
0
  2
NO_204612126
 70
     0
 10
05.750000
 20
0145.390000
  0
LINE
  8
3
 10
05.866429
 20
0145.150000
 11
05.866429
 21
0145.390000
  0
LINE
  8
3
 10
05.982857
 20
0145.270000
 11
05.750000
 21
0145.270000
  0
ARC
  8
3
 10
05.860607
 20
0145.276000
 40
0.698571
 50
0270.000000
 51
0.000000
  0
ENDBLK
  8
0
  0
BLOCK
  8
0
  2
NO_204612131
 70
     0
 10
02.365000
 20
0148.750000
  0
LINE
  8
3
 10
03.063571
 20
0148.150000
 11
03.063571
 21
0147.910000
  0
LINE
  8
3
 10
02.947143
 20
0148.030000
 11
03.180000
 21
0148.030000
  0
ARC
  8
3
 10
03.069393
 20
0148.024000
 40
0.698571
 50
090.000000
 51
0180.000000
  0
ENDBLK
  8
0
  0
BLOCK
  8
0
  2
NO_204612137
 70
     0
 10
02.365000
 20
0145.390000
  0
LINE
  8
3
 10
03.063571
 20
0145.150000
 11
03.063571
 21
0145.390000
  0
LINE
  8
3
 10
02.947143
 20
0145.270000
 11
03.180000
 21
0145.270000
  0
ARC
  8
3
 10
03.069393
 20
0145.276000
 40
0.698571
 50
0180.000000
 51
0270.000000
  0
ENDBLK
  8
0
  0
BLOCK
  8
0
  2
NO_204611937
 70
     0
 10
02.065000
 20
0149.055000
  0
INSERT
  8
3
  2
NO_204612098
 10
06.465000
 20
0149.055000
  0
INSERT
  8
3
  2
NO_204612104
 10
06.465000
 20
0144.655000
  0
INSERT
  8
3
  2
NO_204612109
 10
02.065000
 20
0149.055000
  0
INSERT
  8
3
  2
NO_204612115
 10
02.065000
 20
0144.655000
  0
INSERT
  8
3
  2
NO_204612120
 10
05.750000
 20
0148.750000
  0
INSERT
  8
3
  2
NO_204612126
 10
05.750000
 20
0145.390000
  0
INSERT
  8
3
  2
NO_204612131
 10
02.365000
 20
0148.750000
  0
INSERT
  8
3
  2
NO_204612137
 10
02.365000
 20
0145.390000
  0
LINE
  8
3
 10
05.865000
 20
0148.750000
 11
03.065000
 21
0148.750000
  0
LINE
  8
3
 10
05.865000
 20
0144.550000
 11
03.065000
 21
0144.550000
  0
LINE
  8
3
 10
06.565000
 20
0148.030000
 11
06.565000
 21
0145.270000
  0
LINE
  8
3
 10
02.365000
 20
0148.030000
 11
02.365000
 21
0145.270000
  0
ENDBLK
  8
0
  0
BLOCK
  8
0
  2
NO_204611931
 70
     0
 10
01.055000
 20
0149.855000
  0
INSERT
  8
3
  2
NO_204611937
 10
02.065000
 20
0149.055000
  0
POLYLINE
  8
3
 66
     1
 70
     1
  0
VERTEX
  8
3
 10
07.855000
 20
0149.855000
  0
VERTEX
  8
3
 10
07.855000
 20
0142.655000
  0
VERTEX
  8
3
 10
01.055000
 20
0142.655000
  0
VERTEX
  8
3
 10
01.055000
 20
0149.567000
  0
VERTEX
  8
3
 10
07.855000
 20
0149.855000
  0
VERTEX
  8
3
 10
07.855000
 20
0149.855000
  0
SEQEND
  8
3
  0
ENDBLK
  8
0
  0
BLOCK
  8
0
  2
NO_204612153
 70
     0
 10
011.895000
 20
0149.035000
  0
POLYLINE
  8
3
 66
     1
 70
     1
  0
VERTEX
  8
3
 10
012.095000
 20
0148.935000
  0
VERTEX
  8
3
 10
012.112365
 20
0148.933481
  0
VERTEX
  8
3
 10
012.129202
 20
0148.928969
  0
VERTEX
  8
3
 10
012.145000
 20
0148.921603
  0
VERTEX
  8
3
 10
012.159279
 20
0148.911604
  0
VERTEX
  8
3
 10
012.171604
 20
0148.899279
  0
VERTEX
  8
3
 10
012.181603
 20
0148.885000
  0
VERTEX
  8
3
 10
012.188969
 20
0148.869202
  0
VERTEX
  8
3
 10
012.193481
 20
0148.852365
  0
VERTEX
  8
3
 10
012.195000
 20
0148.835000
  0
VERTEX
  8
3
 10
012.193481
 20
0148.817635
  0
VERTEX
  8
3
 10
012.188969
 20
0148.800798
  0
VERTEX
  8
3
 10
012.181603
 20
0148.785000
  0
VERTEX
  8
3
 10
012.171604
 20
0148.770721
  0
VERTEX
  8
3
 10
012.159279
 20
0148.758396
  0
VERTEX
  8
3
 10
012.145000
 20
0148.748397
  0
VERTEX
  8
3
 10
012.129202
 20
0148.741031
  0
VERTEX
  8
3
 10
012.112365
 20
0148.736519
  0
VERTEX
  8
3
 10
012.095000
 20
0148.735000
  0
VERTEX
  8
3
 10
012.077635
 20
0148.736519
  0
VERTEX
  8
3
 10
012.060798
 20
0148.741031
  0
VERTEX
  8
3
 10
012.045000
 20
0148.748397
  0
VERTEX
  8
3
 10
012.030721
 20
0148.758396
  0
VERTEX
  8
3
 10
012.018396
 20
0148.770721
  0
VERTEX
  8
3
 10
012.008397
 20
0148.785000
  0
VERTEX
  8
3
 10
012.001031
 20
0148.800798
  0
VERTEX
  8
3
 10
011.996519
 20
0148.817635
  0
VERTEX
  8
3
 10
011.995000
 20
0148.835000
  0
VERTEX
  8
3
 10
011.996519
 20
0148.852365
  0
VERTEX
  8
3
 10
012.001031
 20
0148.869202
  0
VERTEX
  8
3
 10
012.008397
 20
0148.885000
  0
VERTEX
  8
3
 10
012.018396
 20
0148.899279
  0
VERTEX
  8
3
 10
012.030721
 20
0148.911604
  0
VERTEX
  8
3
 10
012.045000
 20
0148.921603
  0
VERTEX
  8
3
 10
012.060798
 20
0148.928969
  0
VERTEX
  8
3
 10
012.077635
 20
0148.933481
  0
VERTEX
  8
3
 10
012.095000
 20
0148.935000
  0
SEQEND
  8
3
  0
LINE
  8
3
 10
011.895000
 20
0148.835000
 11
012.295000
 21
0148.835000
  0
LINE
  8
3
 10
012.095000
 20
0149.035000
 11
012.095000
 21
0148.635000
  0
ENDBLK
  8
0
  0
BLOCK
  8
0
  2
NO_204612159
 70
     0
 10
011.895000
 20
0144.635000
  0
POLYLINE
  8
3
 66
     1
 70
     1
  0
VERTEX
  8
3
 10
012.095000
 20
0144.535000
  0
VERTEX
  8
3
 10
012.112365
 20
0144.533481
  0
VERTEX
  8
3
 10
012.129202
 20
0144.528969
  0
VERTEX
  8
3
 10
012.145000
 20
0144.521603
  0
VERTEX
  8
3
 10
012.159279
 20
0144.511604
  0
VERTEX
  8
3
 10
012.171604
 20
0144.499279
  0
VERTEX
  8
3
 10
012.181603
 20
0144.485000
  0
VERTEX
  8
3
 10
012.188969
 20
0144.469202
  0
VERTEX
  8
3
 10
012.193481
 20
0144.452365
  0
VERTEX
  8
3
 10
012.195000
 20
0144.435000
  0
VERTEX
  8
3
 10
012.193481
 20
0144.417635
  0
VERTEX
  8
3
 10
012.188969
 20
0144.400798
  0
VERTEX
  8
3
 10
012.181603
 20
0144.385000
  0
VERTEX
  8
3
 10
012.171604
 20
0144.370721
  0
VERTEX
  8
3
 10
012.159279
 20
0144.358396
  0
VERTEX
  8
3
 10
012.145000
 20
0144.348397
  0
VERTEX
  8
3
 10
012.129202
 20
0144.341031
  0
VERTEX
  8
3
 10
012.112365
 20
0144.336519
  0
VERTEX
  8
3
 10
012.095000
 20
0144.335000
  0
VERTEX
  8
3
 10
012.077635
 20
0144.336519
  0
VERTEX
  8
3
 10
012.060798
 20
0144.341031
  0
VERTEX
  8
3
 10
012.045000
 20
0144.348397
  0
VERTEX
  8
3
 10
012.030721
 20
0144.358396
  0
VERTEX
  8
3
 10
012.018396
 20
0144.370721
  0
VERTEX
  8
3
 10
012.008397
 20
0144.385000
  0
VERTEX
  8
3
 10
012.001031
 20
0144.400798
  0
VERTEX
  8
3
 10
011.996519
 20
0144.417635
  0
VERTEX
  8
3
 10
011.995000
 20
0144.435000
  0
VERTEX
  8
3
 10
011.996519
 20
0144.452365
  0
VERTEX
  8
3
 10
012.001031
 20
0144.469202
  0
VERTEX
  8
3
 10
012.008397
 20
0144.485000
  0
VERTEX
  8
3
 10
012.018396
 20
0144.499279
  0
VERTEX
  8
3
 10
012.030721
 20
0144.511604
  0
VERTEX
  8
3
 10
012.045000
 20
0144.521603
  0
VERTEX
  8
3
 10
012.060798
 20
0144.528969
  0
VERTEX
  8
3
 10
012.077635
 20
0144.533481
  0
VERTEX
  8
3
 10
012.095000
 20
0144.535000
  0
SEQEND
  8
3
  0
LINE
  8
3
 10
011.895000
 20
0144.435000
 11
012.295000
 21
0144.435000
  0
LINE
  8
3
 10
012.095000
 20
0144.635000
 11
012.095000
 21
0144.235000
  0
ENDBLK
  8
0
  0
BLOCK
  8
0
  2
NO_204612164
 70
     0
 10
016.295000
 20
0149.035000
  0
POLYLINE
  8
3
 66
     1
 70
     1
  0
VERTEX
  8
3
 10
016.495000
 20
0148.935000
  0
VERTEX
  8
3
 10
016.512365
 20
0148.933481
  0
VERTEX
  8
3
 10
016.529202
 20
0148.928969
  0
VERTEX
  8
3
 10
016.545000
 20
0148.921603
  0
VERTEX
  8
3
 10
016.559279
 20
0148.911604
  0
VERTEX
  8
3
 10
016.571604
 20
0148.899279
  0
VERTEX
  8
3
 10
016.581603
 20
0148.885000
  0
VERTEX
  8
3
 10
016.588969
 20
0148.869202
  0
VERTEX
  8
3
 10
016.593481
 20
0148.852365
  0
VERTEX
  8
3
 10
016.595000
 20
0148.835000
  0
VERTEX
  8
3
 10
016.593481
 20
0148.817635
  0
VERTEX
  8
3
 10
016.588969
 20
0148.800798
  0
VERTEX
  8
3
 10
016.581603
 20
0148.785000
  0
VERTEX
  8
3
 10
016.571604
 20
0148.770721
  0
VERTEX
  8
3
 10
016.559279
 20
0148.758396
  0
VERTEX
  8
3
 10
016.545000
 20
0148.748397
  0
VERTEX
  8
3
 10
016.529202
 20
0148.741031
  0
VERTEX
  8
3
 10
016.512365
 20
0148.736519
  0
VERTEX
  8
3
 10
016.495000
 20
0148.735000
  0
VERTEX
  8
3
 10
016.477635
 20
0148.736519
  0
VERTEX
  8
3
 10
016.460798
 20
0148.741031
  0
VERTEX
  8
3
 10
016.445000
 20
0148.748397
  0
VERTEX
  8
3
 10
016.430721
 20
0148.758396
  0
VERTEX
  8
3
 10
016.418396
 20
0148.770721
  0
VERTEX
  8
3
 10
016.408397
 20
0148.785000
  0
VERTEX
  8
3
 10
016.401031
 20
0148.800798
  0
VERTEX
  8
3
 10
016.396519
 20
0148.817635
  0
VERTEX
  8
3
 10
016.395000
 20
0148.835000
  0
VERTEX
  8
3
 10
016.396519
 20
0148.852365
  0
VERTEX
  8
3
 10
016.401031
 20
0148.869202
  0
VERTEX
  8
3
 10
016.408397
 20
0148.885000
  0
VERTEX
  8
3
 10
016.418396
 20
0148.899279
  0
VERTEX
  8
3
 10
016.430721
 20
0148.911604
  0
VERTEX
  8
3
 10
016.445000
 20
0148.921603
  0
VERTEX
  8
3
 10
016.460798
 20
0148.928969
  0
VERTEX
  8
3
 10
016.477635
 20
0148.933481
  0
VERTEX
  8
3
 10
016.495000
 20
0148.935000
  0
SEQEND
  8
3
  0
LINE
  8
3
 10
016.295000
 20
0148.835000
 11
016.695000
 21
0148.835000
  0
LINE
  8
3
 10
016.495000
 20
0149.035000
 11
016.495000
 21
0148.635000
  0
ENDBLK
  8
0
  0
BLOCK
  8
0
  2
NO_204612170
 70
     0
 10
016.295000
 20
0144.635000
  0
POLYLINE
  8
3
 66
     1
 70
     1
  0
VERTEX
  8
3
 10
016.495000
 20
0144.535000
  0
VERTEX
  8
3
 10
016.512365
 20
0144.533481
  0
VERTEX
  8
3
 10
016.529202
 20
0144.528969
  0
VERTEX
  8
3
 10
016.545000
 20
0144.521603
  0
VERTEX
  8
3
 10
016.559279
 20
0144.511604
  0
VERTEX
  8
3
 10
016.571604
 20
0144.499279
  0
VERTEX
  8
3
 10
016.581603
 20
0144.485000
  0
VERTEX
  8
3
 10
016.588969
 20
0144.469202
  0
VERTEX
  8
3
 10
016.593481
 20
0144.452365
  0
VERTEX
  8
3
 10
016.595000
 20
0144.435000
  0
VERTEX
  8
3
 10
016.593481
 20
0144.417635
  0
VERTEX
  8
3
 10
016.588969
 20
0144.400798
  0
VERTEX
  8
3
 10
016.581603
 20
0144.385000
  0
VERTEX
  8
3
 10
016.571604
 20
0144.370721
  0
VERTEX
  8
3
 10
016.559279
 20
0144.358396
  0
VERTEX
  8
3
 10
016.545000
 20
0144.348397
  0
VERTEX
  8
3
 10
016.529202
 20
0144.341031
  0
VERTEX
  8
3
 10
016.512365
 20
0144.336519
  0
VERTEX
  8
3
 10
016.495000
 20
0144.335000
  0
VERTEX
  8
3
 10
016.477635
 20
0144.336519
  0
VERTEX
  8
3
 10
016.460798
 20
0144.341031
  0
VERTEX
  8
3
 10
016.445000
 20
0144.348397
  0
VERTEX
  8
3
 10
016.430721
 20
0144.358396
  0
VERTEX
  8
3
 10
016.418396
 20
0144.370721
  0
VERTEX
  8
3
 10
016.408397
 20
0144.385000
  0
VERTEX
  8
3
 10
016.401031
 20
0144.400798
  0
VERTEX
  8
3
 10
016.396519
 20
0144.417635
  0
VERTEX
  8
3
 10
016.395000
 20
0144.435000
  0
VERTEX
  8
3
 10
016.396519
 20
0144.452365
  0
VERTEX
  8
3
 10
016.401031
 20
0144.469202
  0
VERTEX
  8
3
 10
016.408397
 20
0144.485000
  0
VERTEX
  8
3
 10
016.418396
 20
0144.499279
  0
VERTEX
  8
3
 10
016.430721
 20
0144.511604
  0
VERTEX
  8
3
 10
016.445000
 20
0144.521603
  0
VERTEX
  8
3
 10
016.460798
 20
0144.528969
  0
VERTEX
  8
3
 10
016.477635
 20
0144.533481
  0
VERTEX
  8
3
 10
016.495000
 20
0144.535000
  0
SEQEND
  8
3
  0
LINE
  8
3
 10
016.295000
 20
0144.435000
 11
016.695000
 21
0144.435000
  0
LINE
  8
3
 10
016.495000
 20
0144.635000
 11
016.495000
 21
0144.235000
  0
ENDBLK
  8
0
  0
BLOCK
  8
0
  2
NO_204612175
 70
     0
 10
012.195000
 20
0148.730000
  0
LINE
  8
3
 10
012.893571
 20
0148.130000
 11
012.893571
 21
0147.890000
  0
LINE
  8
3
 10
012.777143
 20
0148.010000
 11
013.010000
 21
0148.010000
  0
ARC
  8
3
 10
012.899393
 20
0148.004000
 40
0.698571
 50
090.000000
 51
0180.000000
  0
ENDBLK
  8
0
  0
BLOCK
  8
0
  2
NO_204612181
 70
     0
 10
012.195000
 20
0145.370000
  0
LINE
  8
3
 10
012.893571
 20
0145.130000
 11
012.893571
 21
0145.370000
  0
LINE
  8
3
 10
012.777143
 20
0145.250000
 11
013.010000
 21
0145.250000
  0
ARC
  8
3
 10
012.899393
 20
0145.256000
 40
0.698571
 50
0180.000000
 51
0270.000000
  0
ENDBLK
  8
0
  0
BLOCK
  8
0
  2
NO_204612186
 70
     0
 10
015.580000
 20
0148.730000
  0
LINE
  8
3
 10
015.696429
 20
0148.130000
 11
015.696429
 21
0147.890000
  0
LINE
  8
3
 10
015.812857
 20
0148.010000
 11
015.580000
 21
0148.010000
  0
ARC
  8
3
 10
015.690607
 20
0148.004000
 40
0.698571
 50
0.000000
 51
090.000000
  0
ENDBLK
  8
0
  0
BLOCK
  8
0
  2
NO_204612192
 70
     0
 10
015.580000
 20
0145.370000
  0
LINE
  8
3
 10
015.696429
 20
0145.130000
 11
015.696429
 21
0145.370000
  0
LINE
  8
3
 10
015.812857
 20
0145.250000
 11
015.580000
 21
0145.250000
  0
ARC
  8
3
 10
015.690607
 20
0145.256000
 40
0.698571
 50
0270.000000
 51
0.000000
  0
ENDBLK
  8
0
  0
BLOCK
  8
0
  2
NO_204612148
 70
     0
 10
011.895000
 20
0149.035000
  0
INSERT
  8
3
  2
NO_204612153
 10
011.895000
 20
0149.035000
  0
INSERT
  8
3
  2
NO_204612159
 10
011.895000
 20
0144.635000
  0
INSERT
  8
3
  2
NO_204612164
 10
016.295000
 20
0149.035000
  0
INSERT
  8
3
  2
NO_204612170
 10
016.295000
 20
0144.635000
  0
INSERT
  8
3
  2
NO_204612175
 10
012.195000
 20
0148.730000
  0
INSERT
  8
3
  2
NO_204612181
 10
012.195000
 20
0145.370000
  0
INSERT
  8
3
  2
NO_204612186
 10
015.580000
 20
0148.730000
  0
INSERT
  8
3
  2
NO_204612192
 10
015.580000
 20
0145.370000
  0
LINE
  8
3
 10
012.895000
 20
0148.730000
 11
015.695000
 21
0148.730000
  0
LINE
  8
3
 10
012.895000
 20
0144.530000
 11
015.695000
 21
0144.530000
  0
LINE
  8
3
 10
012.195000
 20
0148.010000
 11
012.195000
 21
0145.250000
  0
LINE
  8
3
 10
016.395000
 20
0148.010000
 11
016.395000
 21
0145.250000
  0
ENDBLK
  8
0
  0
BLOCK
  8
0
  2
NO_204612142
 70
     0
 10
010.915000
 20
0151.835000
  0
INSERT
  8
3
  2
NO_204612148
 10
011.895000
 20
0149.035000
  0
POLYLINE
  8
3
 66
     1
 70
     1
  0
VERTEX
  8
3
 10
010.915000
 20
0151.835000
  0
VERTEX
  8
3
 10
010.915000
 20
0142.635000
  0
VERTEX
  8
3
 10
017.715000
 20
0142.635000
  0
VERTEX
  8
3
 10
017.715000
 20
0151.467000
  0
VERTEX
  8
3
 10
010.915000
 20
0151.835000
  0
VERTEX
  8
3
 10
010.915000
 20
0151.835000
  0
SEQEND
  8
3
  0
ENDBLK
  8
0
  0
BLOCK
  8
0
  2
NO_204612364
 70
     0
 10
011.885000
 20
0158.540000
  0
POLYLINE
  8
3
 66
     1
 70
     1
  0
VERTEX
  8
3
 10
012.085000
 20
0158.440000
  0
VERTEX
  8
3
 10
012.102365
 20
0158.438481
  0
VERTEX
  8
3
 10
012.119202
 20
0158.433969
  0
VERTEX
  8
3
 10
012.135000
 20
0158.426603
  0
VERTEX
  8
3
 10
012.149279
 20
0158.416604
  0
VERTEX
  8
3
 10
012.161604
 20
0158.404279
  0
VERTEX
  8
3
 10
012.171603
 20
0158.390000
  0
VERTEX
  8
3
 10
012.178969
 20
0158.374202
  0
VERTEX
  8
3
 10
012.183481
 20
0158.357365
  0
VERTEX
  8
3
 10
012.185000
 20
0158.340000
  0
VERTEX
  8
3
 10
012.183481
 20
0158.322635
  0
VERTEX
  8
3
 10
012.178969
 20
0158.305798
  0
VERTEX
  8
3
 10
012.171603
 20
0158.290000
  0
VERTEX
  8
3
 10
012.161604
 20
0158.275721
  0
VERTEX
  8
3
 10
012.149279
 20
0158.263396
  0
VERTEX
  8
3
 10
012.135000
 20
0158.253397
  0
VERTEX
  8
3
 10
012.119202
 20
0158.246031
  0
VERTEX
  8
3
 10
012.102365
 20
0158.241519
  0
VERTEX
  8
3
 10
012.085000
 20
0158.240000
  0
VERTEX
  8
3
 10
012.067635
 20
0158.241519
  0
VERTEX
  8
3
 10
012.050798
 20
0158.246031
  0
VERTEX
  8
3
 10
012.035000
 20
0158.253397
  0
VERTEX
  8
3
 10
012.020721
 20
0158.263396
  0
VERTEX
  8
3
 10
012.008396
 20
0158.275721
  0
VERTEX
  8
3
 10
011.998397
 20
0158.290000
  0
VERTEX
  8
3
 10
011.991031
 20
0158.305798
  0
VERTEX
  8
3
 10
011.986519
 20
0158.322635
  0
VERTEX
  8
3
 10
011.985000
 20
0158.340000
  0
VERTEX
  8
3
 10
011.986519
 20
0158.357365
  0
VERTEX
  8
3
 10
011.991031
 20
0158.374202
  0
VERTEX
  8
3
 10
011.998397
 20
0158.390000
  0
VERTEX
  8
3
 10
012.008396
 20
0158.404279
  0
VERTEX
  8
3
 10
012.020721
 20
0158.416604
  0
VERTEX
  8
3
 10
012.035000
 20
0158.426603
  0
VERTEX
  8
3
 10
012.050798
 20
0158.433969
  0
VERTEX
  8
3
 10
012.067635
 20
0158.438481
  0
VERTEX
  8
3
 10
012.085000
 20
0158.440000
  0
SEQEND
  8
3
  0
LINE
  8
3
 10
011.885000
 20
0158.340000
 11
012.285000
 21
0158.340000
  0
LINE
  8
3
 10
012.085000
 20
0158.540000
 11
012.085000
 21
0158.140000
  0
ENDBLK
  8
0
  0
BLOCK
  8
0
  2
NO_204612370
 70
     0
 10
011.885000
 20
0154.140000
  0
POLYLINE
  8
3
 66
     1
 70
     1
  0
VERTEX
  8
3
 10
012.085000
 20
0154.040000
  0
VERTEX
  8
3
 10
012.102365
 20
0154.038481
  0
VERTEX
  8
3
 10
012.119202
 20
0154.033969
  0
VERTEX
  8
3
 10
012.135000
 20
0154.026603
  0
VERTEX
  8
3
 10
012.149279
 20
0154.016604
  0
VERTEX
  8
3
 10
012.161604
 20
0154.004279
  0
VERTEX
  8
3
 10
012.171603
 20
0153.990000
  0
VERTEX
  8
3
 10
012.178969
 20
0153.974202
  0
VERTEX
  8
3
 10
012.183481
 20
0153.957365
  0
VERTEX
  8
3
 10
012.185000
 20
0153.940000
  0
VERTEX
  8
3
 10
012.183481
 20
0153.922635
  0
VERTEX
  8
3
 10
012.178969
 20
0153.905798
  0
VERTEX
  8
3
 10
012.171603
 20
0153.890000
  0
VERTEX
  8
3
 10
012.161604
 20
0153.875721
  0
VERTEX
  8
3
 10
012.149279
 20
0153.863396
  0
VERTEX
  8
3
 10
012.135000
 20
0153.853397
  0
VERTEX
  8
3
 10
012.119202
 20
0153.846031
  0
VERTEX
  8
3
 10
012.102365
 20
0153.841519
  0
VERTEX
  8
3
 10
012.085000
 20
0153.840000
  0
VERTEX
  8
3
 10
012.067635
 20
0153.841519
  0
VERTEX
  8
3
 10
012.050798
 20
0153.846031
  0
VERTEX
  8
3
 10
012.035000
 20
0153.853397
  0
VERTEX
  8
3
 10
012.020721
 20
0153.863396
  0
VERTEX
  8
3
 10
012.008396
 20
0153.875721
  0
VERTEX
  8
3
 10
011.998397
 20
0153.890000
  0
VERTEX
  8
3
 10
011.991031
 20
0153.905798
  0
VERTEX
  8
3
 10
011.986519
 20
0153.922635
  0
VERTEX
  8
3
 10
011.985000
 20
0153.940000
  0
VERTEX
  8
3
 10
011.986519
 20
0153.957365
  0
VERTEX
  8
3
 10
011.991031
 20
0153.974202
  0
VERTEX
  8
3
 10
011.998397
 20
0153.990000
  0
VERTEX
  8
3
 10
012.008396
 20
0154.004279
  0
VERTEX
  8
3
 10
012.020721
 20
0154.016604
  0
VERTEX
  8
3
 10
012.035000
 20
0154.026603
  0
VERTEX
  8
3
 10
012.050798
 20
0154.033969
  0
VERTEX
  8
3
 10
012.067635
 20
0154.038481
  0
VERTEX
  8
3
 10
012.085000
 20
0154.040000
  0
SEQEND
  8
3
  0
LINE
  8
3
 10
011.885000
 20
0153.940000
 11
012.285000
 21
0153.940000
  0
LINE
  8
3
 10
012.085000
 20
0154.140000
 11
012.085000
 21
0153.740000
  0
ENDBLK
  8
0
  0
BLOCK
  8
0
  2
NO_204612375
 70
     0
 10
016.285000
 20
0158.540000
  0
POLYLINE
  8
3
 66
     1
 70
     1
  0
VERTEX
  8
3
 10
016.485000
 20
0158.440000
  0
VERTEX
  8
3
 10
016.502365
 20
0158.438481
  0
VERTEX
  8
3
 10
016.519202
 20
0158.433969
  0
VERTEX
  8
3
 10
016.535000
 20
0158.426603
  0
VERTEX
  8
3
 10
016.549279
 20
0158.416604
  0
VERTEX
  8
3
 10
016.561604
 20
0158.404279
  0
VERTEX
  8
3
 10
016.571603
 20
0158.390000
  0
VERTEX
  8
3
 10
016.578969
 20
0158.374202
  0
VERTEX
  8
3
 10
016.583481
 20
0158.357365
  0
VERTEX
  8
3
 10
016.585000
 20
0158.340000
  0
VERTEX
  8
3
 10
016.583481
 20
0158.322635
  0
VERTEX
  8
3
 10
016.578969
 20
0158.305798
  0
VERTEX
  8
3
 10
016.571603
 20
0158.290000
  0
VERTEX
  8
3
 10
016.561604
 20
0158.275721
  0
VERTEX
  8
3
 10
016.549279
 20
0158.263396
  0
VERTEX
  8
3
 10
016.535000
 20
0158.253397
  0
VERTEX
  8
3
 10
016.519202
 20
0158.246031
  0
VERTEX
  8
3
 10
016.502365
 20
0158.241519
  0
VERTEX
  8
3
 10
016.485000
 20
0158.240000
  0
VERTEX
  8
3
 10
016.467635
 20
0158.241519
  0
VERTEX
  8
3
 10
016.450798
 20
0158.246031
  0
VERTEX
  8
3
 10
016.435000
 20
0158.253397
  0
VERTEX
  8
3
 10
016.420721
 20
0158.263396
  0
VERTEX
  8
3
 10
016.408396
 20
0158.275721
  0
VERTEX
  8
3
 10
016.398397
 20
0158.290000
  0
VERTEX
  8
3
 10
016.391031
 20
0158.305798
  0
VERTEX
  8
3
 10
016.386519
 20
0158.322635
  0
VERTEX
  8
3
 10
016.385000
 20
0158.340000
  0
VERTEX
  8
3
 10
016.386519
 20
0158.357365
  0
VERTEX
  8
3
 10
016.391031
 20
0158.374202
  0
VERTEX
  8
3
 10
016.398397
 20
0158.390000
  0
VERTEX
  8
3
 10
016.408396
 20
0158.404279
  0
VERTEX
  8
3
 10
016.420721
 20
0158.416604
  0
VERTEX
  8
3
 10
016.435000
 20
0158.426603
  0
VERTEX
  8
3
 10
016.450798
 20
0158.433969
  0
VERTEX
  8
3
 10
016.467635
 20
0158.438481
  0
VERTEX
  8
3
 10
016.485000
 20
0158.440000
  0
SEQEND
  8
3
  0
LINE
  8
3
 10
016.285000
 20
0158.340000
 11
016.685000
 21
0158.340000
  0
LINE
  8
3
 10
016.485000
 20
0158.540000
 11
016.485000
 21
0158.140000
  0
ENDBLK
  8
0
  0
BLOCK
  8
0
  2
NO_204612381
 70
     0
 10
016.285000
 20
0154.140000
  0
POLYLINE
  8
3
 66
     1
 70
     1
  0
VERTEX
  8
3
 10
016.485000
 20
0154.040000
  0
VERTEX
  8
3
 10
016.502365
 20
0154.038481
  0
VERTEX
  8
3
 10
016.519202
 20
0154.033969
  0
VERTEX
  8
3
 10
016.535000
 20
0154.026603
  0
VERTEX
  8
3
 10
016.549279
 20
0154.016604
  0
VERTEX
  8
3
 10
016.561604
 20
0154.004279
  0
VERTEX
  8
3
 10
016.571603
 20
0153.990000
  0
VERTEX
  8
3
 10
016.578969
 20
0153.974202
  0
VERTEX
  8
3
 10
016.583481
 20
0153.957365
  0
VERTEX
  8
3
 10
016.585000
 20
0153.940000
  0
VERTEX
  8
3
 10
016.583481
 20
0153.922635
  0
VERTEX
  8
3
 10
016.578969
 20
0153.905798
  0
VERTEX
  8
3
 10
016.571603
 20
0153.890000
  0
VERTEX
  8
3
 10
016.561604
 20
0153.875721
  0
VERTEX
  8
3
 10
016.549279
 20
0153.863396
  0
VERTEX
  8
3
 10
016.535000
 20
0153.853397
  0
VERTEX
  8
3
 10
016.519202
 20
0153.846031
  0
VERTEX
  8
3
 10
016.502365
 20
0153.841519
  0
VERTEX
  8
3
 10
016.485000
 20
0153.840000
  0
VERTEX
  8
3
 10
016.467635
 20
0153.841519
  0
VERTEX
  8
3
 10
016.450798
 20
0153.846031
  0
VERTEX
  8
3
 10
016.435000
 20
0153.853397
  0
VERTEX
  8
3
 10
016.420721
 20
0153.863396
  0
VERTEX
  8
3
 10
016.408396
 20
0153.875721
  0
VERTEX
  8
3
 10
016.398397
 20
0153.890000
  0
VERTEX
  8
3
 10
016.391031
 20
0153.905798
  0
VERTEX
  8
3
 10
016.386519
 20
0153.922635
  0
VERTEX
  8
3
 10
016.385000
 20
0153.940000
  0
VERTEX
  8
3
 10
016.386519
 20
0153.957365
  0
VERTEX
  8
3
 10
016.391031
 20
0153.974202
  0
VERTEX
  8
3
 10
016.398397
 20
0153.990000
  0
VERTEX
  8
3
 10
016.408396
 20
0154.004279
  0
VERTEX
  8
3
 10
016.420721
 20
0154.016604
  0
VERTEX
  8
3
 10
016.435000
 20
0154.026603
  0
VERTEX
  8
3
 10
016.450798
 20
0154.033969
  0
VERTEX
  8
3
 10
016.467635
 20
0154.038481
  0
VERTEX
  8
3
 10
016.485000
 20
0154.040000
  0
SEQEND
  8
3
  0
LINE
  8
3
 10
016.285000
 20
0153.940000
 11
016.685000
 21
0153.940000
  0
LINE
  8
3
 10
016.485000
 20
0154.140000
 11
016.485000
 21
0153.740000
  0
ENDBLK
  8
0
  0
BLOCK
  8
0
  2
NO_204612386
 70
     0
 10
012.185000
 20
0158.235000
  0
LINE
  8
3
 10
012.883571
 20
0157.635000
 11
012.883571
 21
0157.395000
  0
LINE
  8
3
 10
012.767143
 20
0157.515000
 11
013.000000
 21
0157.515000
  0
ARC
  8
3
 10
012.889393
 20
0157.509000
 40
0.698571
 50
090.000000
 51
0180.000000
  0
ENDBLK
  8
0
  0
BLOCK
  8
0
  2
NO_204612392
 70
     0
 10
012.185000
 20
0154.875000
  0
LINE
  8
3
 10
012.883571
 20
0154.635000
 11
012.883571
 21
0154.875000
  0
LINE
  8
3
 10
012.767143
 20
0154.755000
 11
013.000000
 21
0154.755000
  0
ARC
  8
3
 10
012.889393
 20
0154.761000
 40
0.698571
 50
0180.000000
 51
0270.000000
  0
ENDBLK
  8
0
  0
BLOCK
  8
0
  2
NO_204612397
 70
     0
 10
015.570000
 20
0158.235000
  0
LINE
  8
3
 10
015.686429
 20
0157.635000
 11
015.686429
 21
0157.395000
  0
LINE
  8
3
 10
015.802857
 20
0157.515000
 11
015.570000
 21
0157.515000
  0
ARC
  8
3
 10
015.680607
 20
0157.509000
 40
0.698571
 50
0.000000
 51
090.000000
  0
ENDBLK
  8
0
  0
BLOCK
  8
0
  2
NO_204612403
 70
     0
 10
015.570000
 20
0154.875000
  0
LINE
  8
3
 10
015.686429
 20
0154.635000
 11
015.686429
 21
0154.875000
  0
LINE
  8
3
 10
015.802857
 20
0154.755000
 11
015.570000
 21
0154.755000
  0
ARC
  8
3
 10
015.680607
 20
0154.761000
 40
0.698571
 50
0270.000000
 51
0.000000
  0
ENDBLK
  8
0
  0
BLOCK
  8
0
  2
NO_204612359
 70
     0
 10
011.885000
 20
0158.540000
  0
INSERT
  8
3
  2
NO_204612364
 10
011.885000
 20
0158.540000
  0
INSERT
  8
3
  2
NO_204612370
 10
011.885000
 20
0154.140000
  0
INSERT
  8
3
  2
NO_204612375
 10
016.285000
 20
0158.540000
  0
INSERT
  8
3
  2
NO_204612381
 10
016.285000
 20
0154.140000
  0
INSERT
  8
3
  2
NO_204612386
 10
012.185000
 20
0158.235000
  0
INSERT
  8
3
  2
NO_204612392
 10
012.185000
 20
0154.875000
  0
INSERT
  8
3
  2
NO_204612397
 10
015.570000
 20
0158.235000
  0
INSERT
  8
3
  2
NO_204612403
 10
015.570000
 20
0154.875000
  0
LINE
  8
3
 10
012.885000
 20
0158.235000
 11
015.685000
 21
0158.235000
  0
LINE
  8
3
 10
012.885000
 20
0154.035000
 11
015.685000
 21
0154.035000
  0
LINE
  8
3
 10
012.185000
 20
0157.515000
 11
012.185000
 21
0154.755000
  0
LINE
  8
3
 10
016.385000
 20
0157.515000
 11
016.385000
 21
0154.755000
  0
ENDBLK
  8
0
  0
BLOCK
  8
0
  2
NO_204612353
 70
     0
 10
010.895000
 20
0159.340000
  0
INSERT
  8
3
  2
NO_204612359
 10
011.885000
 20
0158.540000
  0
POLYLINE
  8
3
 66
     1
 70
     1
  0
VERTEX
  8
3
 10
010.895000
 20
0159.340000
  0
VERTEX
  8
3
 10
010.895000
 20
0152.140000
  0
VERTEX
  8
3
 10
017.695000
 20
0152.140000
  0
VERTEX
  8
3
 10
017.695000
 20
0159.052000
  0
VERTEX
  8
3
 10
010.895000
 20
0159.340000
  0
VERTEX
  8
3
 10
010.895000
 20
0159.340000
  0
SEQEND
  8
3
  0
ENDBLK
  8
0
  0
BLOCK
  8
0
  2
NO_204612414
 70
     0
 10
016.255000
 20
0141.805000
  0
POLYLINE
  8
3
 66
     1
 70
     1
  0
VERTEX
  8
3
 10
016.455000
 20
0141.705000
  0
VERTEX
  8
3
 10
016.472365
 20
0141.703481
  0
VERTEX
  8
3
 10
016.489202
 20
0141.698969
  0
VERTEX
  8
3
 10
016.505000
 20
0141.691603
  0
VERTEX
  8
3
 10
016.519279
 20
0141.681604
  0
VERTEX
  8
3
 10
016.531604
 20
0141.669279
  0
VERTEX
  8
3
 10
016.541603
 20
0141.655000
  0
VERTEX
  8
3
 10
016.548969
 20
0141.639202
  0
VERTEX
  8
3
 10
016.553481
 20
0141.622365
  0
VERTEX
  8
3
 10
016.555000
 20
0141.605000
  0
VERTEX
  8
3
 10
016.553481
 20
0141.587635
  0
VERTEX
  8
3
 10
016.548969
 20
0141.570798
  0
VERTEX
  8
3
 10
016.541603
 20
0141.555000
  0
VERTEX
  8
3
 10
016.531604
 20
0141.540721
  0
VERTEX
  8
3
 10
016.519279
 20
0141.528396
  0
VERTEX
  8
3
 10
016.505000
 20
0141.518397
  0
VERTEX
  8
3
 10
016.489202
 20
0141.511031
  0
VERTEX
  8
3
 10
016.472365
 20
0141.506519
  0
VERTEX
  8
3
 10
016.455000
 20
0141.505000
  0
VERTEX
  8
3
 10
016.437635
 20
0141.506519
  0
VERTEX
  8
3
 10
016.420798
 20
0141.511031
  0
VERTEX
  8
3
 10
016.405000
 20
0141.518397
  0
VERTEX
  8
3
 10
016.390721
 20
0141.528396
  0
VERTEX
  8
3
 10
016.378396
 20
0141.540721
  0
VERTEX
  8
3
 10
016.368397
 20
0141.555000
  0
VERTEX
  8
3
 10
016.361031
 20
0141.570798
  0
VERTEX
  8
3
 10
016.356519
 20
0141.587635
  0
VERTEX
  8
3
 10
016.355000
 20
0141.605000
  0
VERTEX
  8
3
 10
016.356519
 20
0141.622365
  0
VERTEX
  8
3
 10
016.361031
 20
0141.639202
  0
VERTEX
  8
3
 10
016.368397
 20
0141.655000
  0
VERTEX
  8
3
 10
016.378396
 20
0141.669279
  0
VERTEX
  8
3
 10
016.390721
 20
0141.681604
  0
VERTEX
  8
3
 10
016.405000
 20
0141.691603
  0
VERTEX
  8
3
 10
016.420798
 20
0141.698969
  0
VERTEX
  8
3
 10
016.437635
 20
0141.703481
  0
VERTEX
  8
3
 10
016.455000
 20
0141.705000
  0
SEQEND
  8
3
  0
LINE
  8
3
 10
016.655000
 20
0141.605000
 11
016.255000
 21
0141.605000
  0
LINE
  8
3
 10
016.455000
 20
0141.805000
 11
016.455000
 21
0141.405000
  0
ENDBLK
  8
0
  0
BLOCK
  8
0
  2
NO_204612419
 70
     0
 10
016.255000
 20
0137.405000
  0
POLYLINE
  8
3
 66
     1
 70
     1
  0
VERTEX
  8
3
 10
016.455000
 20
0137.305000
  0
VERTEX
  8
3
 10
016.472365
 20
0137.303481
  0
VERTEX
  8
3
 10
016.489202
 20
0137.298969
  0
VERTEX
  8
3
 10
016.505000
 20
0137.291603
  0
VERTEX
  8
3
 10
016.519279
 20
0137.281604
  0
VERTEX
  8
3
 10
016.531604
 20
0137.269279
  0
VERTEX
  8
3
 10
016.541603
 20
0137.255000
  0
VERTEX
  8
3
 10
016.548969
 20
0137.239202
  0
VERTEX
  8
3
 10
016.553481
 20
0137.222365
  0
VERTEX
  8
3
 10
016.555000
 20
0137.205000
  0
VERTEX
  8
3
 10
016.553481
 20
0137.187635
  0
VERTEX
  8
3
 10
016.548969
 20
0137.170798
  0
VERTEX
  8
3
 10
016.541603
 20
0137.155000
  0
VERTEX
  8
3
 10
016.531604
 20
0137.140721
  0
VERTEX
  8
3
 10
016.519279
 20
0137.128396
  0
VERTEX
  8
3
 10
016.505000
 20
0137.118397
  0
VERTEX
  8
3
 10
016.489202
 20
0137.111031
  0
VERTEX
  8
3
 10
016.472365
 20
0137.106519
  0
VERTEX
  8
3
 10
016.455000
 20
0137.105000
  0
VERTEX
  8
3
 10
016.437635
 20
0137.106519
  0
VERTEX
  8
3
 10
016.420798
 20
0137.111031
  0
VERTEX
  8
3
 10
016.405000
 20
0137.118397
  0
VERTEX
  8
3
 10
016.390721
 20
0137.128396
  0
VERTEX
  8
3
 10
016.378396
 20
0137.140721
  0
VERTEX
  8
3
 10
016.368397
 20
0137.155000
  0
VERTEX
  8
3
 10
016.361031
 20
0137.170798
  0
VERTEX
  8
3
 10
016.356519
 20
0137.187635
  0
VERTEX
  8
3
 10
016.355000
 20
0137.205000
  0
VERTEX
  8
3
 10
016.356519
 20
0137.222365
  0
VERTEX
  8
3
 10
016.361031
 20
0137.239202
  0
VERTEX
  8
3
 10
016.368397
 20
0137.255000
  0
VERTEX
  8
3
 10
016.378396
 20
0137.269279
  0
VERTEX
  8
3
 10
016.390721
 20
0137.281604
  0
VERTEX
  8
3
 10
016.405000
 20
0137.291603
  0
VERTEX
  8
3
 10
016.420798
 20
0137.298969
  0
VERTEX
  8
3
 10
016.437635
 20
0137.303481
  0
VERTEX
  8
3
 10
016.455000
 20
0137.305000
  0
SEQEND
  8
3
  0
LINE
  8
3
 10
016.655000
 20
0137.205000
 11
016.255000
 21
0137.205000
  0
LINE
  8
3
 10
016.455000
 20
0137.405000
 11
016.455000
 21
0137.005000
  0
ENDBLK
  8
0
  0
BLOCK
  8
0
  2
NO_204612425
 70
     0
 10
011.855000
 20
0141.805000
  0
POLYLINE
  8
3
 66
     1
 70
     1
  0
VERTEX
  8
3
 10
012.055000
 20
0141.705000
  0
VERTEX
  8
3
 10
012.072365
 20
0141.703481
  0
VERTEX
  8
3
 10
012.089202
 20
0141.698969
  0
VERTEX
  8
3
 10
012.105000
 20
0141.691603
  0
VERTEX
  8
3
 10
012.119279
 20
0141.681604
  0
VERTEX
  8
3
 10
012.131604
 20
0141.669279
  0
VERTEX
  8
3
 10
012.141603
 20
0141.655000
  0
VERTEX
  8
3
 10
012.148969
 20
0141.639202
  0
VERTEX
  8
3
 10
012.153481
 20
0141.622365
  0
VERTEX
  8
3
 10
012.155000
 20
0141.605000
  0
VERTEX
  8
3
 10
012.153481
 20
0141.587635
  0
VERTEX
  8
3
 10
012.148969
 20
0141.570798
  0
VERTEX
  8
3
 10
012.141603
 20
0141.555000
  0
VERTEX
  8
3
 10
012.131604
 20
0141.540721
  0
VERTEX
  8
3
 10
012.119279
 20
0141.528396
  0
VERTEX
  8
3
 10
012.105000
 20
0141.518397
  0
VERTEX
  8
3
 10
012.089202
 20
0141.511031
  0
VERTEX
  8
3
 10
012.072365
 20
0141.506519
  0
VERTEX
  8
3
 10
012.055000
 20
0141.505000
  0
VERTEX
  8
3
 10
012.037635
 20
0141.506519
  0
VERTEX
  8
3
 10
012.020798
 20
0141.511031
  0
VERTEX
  8
3
 10
012.005000
 20
0141.518397
  0
VERTEX
  8
3
 10
011.990721
 20
0141.528396
  0
VERTEX
  8
3
 10
011.978396
 20
0141.540721
  0
VERTEX
  8
3
 10
011.968397
 20
0141.555000
  0
VERTEX
  8
3
 10
011.961031
 20
0141.570798
  0
VERTEX
  8
3
 10
011.956519
 20
0141.587635
  0
VERTEX
  8
3
 10
011.955000
 20
0141.605000
  0
VERTEX
  8
3
 10
011.956519
 20
0141.622365
  0
VERTEX
  8
3
 10
011.961031
 20
0141.639202
  0
VERTEX
  8
3
 10
011.968397
 20
0141.655000
  0
VERTEX
  8
3
 10
011.978396
 20
0141.669279
  0
VERTEX
  8
3
 10
011.990721
 20
0141.681604
  0
VERTEX
  8
3
 10
012.005000
 20
0141.691603
  0
VERTEX
  8
3
 10
012.020798
 20
0141.698969
  0
VERTEX
  8
3
 10
012.037635
 20
0141.703481
  0
VERTEX
  8
3
 10
012.055000
 20
0141.705000
  0
SEQEND
  8
3
  0
LINE
  8
3
 10
012.255000
 20
0141.605000
 11
011.855000
 21
0141.605000
  0
LINE
  8
3
 10
012.055000
 20
0141.805000
 11
012.055000
 21
0141.405000
  0
ENDBLK
  8
0
  0
BLOCK
  8
0
  2
NO_204612430
 70
     0
 10
011.855000
 20
0137.405000
  0
POLYLINE
  8
3
 66
     1
 70
     1
  0
VERTEX
  8
3
 10
012.055000
 20
0137.305000
  0
VERTEX
  8
3
 10
012.072365
 20
0137.303481
  0
VERTEX
  8
3
 10
012.089202
 20
0137.298969
  0
VERTEX
  8
3
 10
012.105000
 20
0137.291603
  0
VERTEX
  8
3
 10
012.119279
 20
0137.281604
  0
VERTEX
  8
3
 10
012.131604
 20
0137.269279
  0
VERTEX
  8
3
 10
012.141603
 20
0137.255000
  0
VERTEX
  8
3
 10
012.148969
 20
0137.239202
  0
VERTEX
  8
3
 10
012.153481
 20
0137.222365
  0
VERTEX
  8
3
 10
012.155000
 20
0137.205000
  0
VERTEX
  8
3
 10
012.153481
 20
0137.187635
  0
VERTEX
  8
3
 10
012.148969
 20
0137.170798
  0
VERTEX
  8
3
 10
012.141603
 20
0137.155000
  0
VERTEX
  8
3
 10
012.131604
 20
0137.140721
  0
VERTEX
  8
3
 10
012.119279
 20
0137.128396
  0
VERTEX
  8
3
 10
012.105000
 20
0137.118397
  0
VERTEX
  8
3
 10
012.089202
 20
0137.111031
  0
VERTEX
  8
3
 10
012.072365
 20
0137.106519
  0
VERTEX
  8
3
 10
012.055000
 20
0137.105000
  0
VERTEX
  8
3
 10
012.037635
 20
0137.106519
  0
VERTEX
  8
3
 10
012.020798
 20
0137.111031
  0
VERTEX
  8
3
 10
012.005000
 20
0137.118397
  0
VERTEX
  8
3
 10
011.990721
 20
0137.128396
  0
VERTEX
  8
3
 10
011.978396
 20
0137.140721
  0
VERTEX
  8
3
 10
011.968397
 20
0137.155000
  0
VERTEX
  8
3
 10
011.961031
 20
0137.170798
  0
VERTEX
  8
3
 10
011.956519
 20
0137.187635
  0
VERTEX
  8
3
 10
011.955000
 20
0137.205000
  0
VERTEX
  8
3
 10
011.956519
 20
0137.222365
  0
VERTEX
  8
3
 10
011.961031
 20
0137.239202
  0
VERTEX
  8
3
 10
011.968397
 20
0137.255000
  0
VERTEX
  8
3
 10
011.978396
 20
0137.269279
  0
VERTEX
  8
3
 10
011.990721
 20
0137.281604
  0
VERTEX
  8
3
 10
012.005000
 20
0137.291603
  0
VERTEX
  8
3
 10
012.020798
 20
0137.298969
  0
VERTEX
  8
3
 10
012.037635
 20
0137.303481
  0
VERTEX
  8
3
 10
012.055000
 20
0137.305000
  0
SEQEND
  8
3
  0
LINE
  8
3
 10
012.255000
 20
0137.205000
 11
011.855000
 21
0137.205000
  0
LINE
  8
3
 10
012.055000
 20
0137.405000
 11
012.055000
 21
0137.005000
  0
ENDBLK
  8
0
  0
BLOCK
  8
0
  2
NO_204612408
 70
     0
 10
011.600000
 20
0142.030000
  0
POLYLINE
  8
3
 66
     1
 70
     1
  0
VERTEX
  8
3
 10
011.600000
 20
0141.863333
  0
VERTEX
  8
3
 10
011.602469
 20
0141.892275
  0
VERTEX
  8
3
 10
011.609800
 20
0141.920337
  0
VERTEX
  8
3
 10
011.621771
 20
0141.946667
  0
VERTEX
  8
3
 10
011.638018
 20
0141.970465
  0
VERTEX
  8
3
 10
011.658047
 20
0141.991007
  0
VERTEX
  8
3
 10
011.681250
 20
0142.007671
  0
VERTEX
  8
3
 10
011.706922
 20
0142.019949
  0
VERTEX
  8
3
 10
011.734282
 20
0142.027468
  0
VERTEX
  8
3
 10
011.762500
 20
0142.030000
  0
VERTEX
  8
3
 10
011.762500
 20
0142.030000
  0
VERTEX
  8
3
 10
016.637500
 20
0142.030000
  0
VERTEX
  8
3
 10
016.665718
 20
0142.027468
  0
VERTEX
  8
3
 10
016.693078
 20
0142.019949
  0
VERTEX
  8
3
 10
016.718750
 20
0142.007671
  0
VERTEX
  8
3
 10
016.741953
 20
0141.991007
  0
VERTEX
  8
3
 10
016.761982
 20
0141.970465
  0
VERTEX
  8
3
 10
016.778229
 20
0141.946667
  0
VERTEX
  8
3
 10
016.790200
 20
0141.920337
  0
VERTEX
  8
3
 10
016.797531
 20
0141.892275
  0
VERTEX
  8
3
 10
016.800000
 20
0141.863333
  0
VERTEX
  8
3
 10
016.800000
 20
0136.996667
  0
VERTEX
  8
3
 10
016.797531
 20
0136.967725
  0
VERTEX
  8
3
 10
016.790200
 20
0136.939663
  0
VERTEX
  8
3
 10
016.778229
 20
0136.913333
  0
VERTEX
  8
3
 10
016.761982
 20
0136.889535
  0
VERTEX
  8
3
 10
016.741953
 20
0136.868992
  0
VERTEX
  8
3
 10
016.718750
 20
0136.852329
  0
VERTEX
  8
3
 10
016.693078
 20
0136.840051
  0
VERTEX
  8
3
 10
016.665718
 20
0136.832532
  0
VERTEX
  8
3
 10
016.637500
 20
0136.830000
  0
VERTEX
  8
3
 10
011.762500
 20
0136.830000
  0
VERTEX
  8
3
 10
011.734282
 20
0136.832532
  0
VERTEX
  8
3
 10
011.706922
 20
0136.840051
  0
VERTEX
  8
3
 10
011.681250
 20
0136.852329
  0
VERTEX
  8
3
 10
011.658047
 20
0136.868992
  0
VERTEX
  8
3
 10
011.638018
 20
0136.889535
  0
VERTEX
  8
3
 10
011.621771
 20
0136.913333
  0
VERTEX
  8
3
 10
011.609800
 20
0136.939663
  0
VERTEX
  8
3
 10
011.602469
 20
0136.967725
  0
VERTEX
  8
3
 10
011.600000
 20
0136.996667
  0
VERTEX
  8
3
 10
011.600000
 20
0141.863333
  0
SEQEND
  8
3
  0
INSERT
  8
3
  2
NO_204612414
 10
016.255000
 20
0141.805000
  0
INSERT
  8
3
  2
NO_204612419
 10
016.255000
 20
0137.405000
  0
INSERT
  8
3
  2
NO_204612425
 10
011.855000
 20
0141.805000
  0
INSERT
  8
3
  2
NO_204612430
 10
011.855000
 20
0137.405000
  0
POLYLINE
  8
3
 66
     1
 70
     1
  0
VERTEX
  8
3
 10
014.030000
 20
0141.213333
  0
VERTEX
  8
3
 10
014.032191
 20
0141.242275
  0
VERTEX
  8
3
 10
014.038698
 20
0141.270337
  0
VERTEX
  8
3
 10
014.049323
 20
0141.296667
  0
VERTEX
  8
3
 10
014.063744
 20
0141.320465
  0
VERTEX
  8
3
 10
014.081521
 20
0141.341007
  0
VERTEX
  8
3
 10
014.102115
 20
0141.357671
  0
VERTEX
  8
3
 10
014.124901
 20
0141.369949
  0
VERTEX
  8
3
 10
014.149185
 20
0141.377468
  0
VERTEX
  8
3
 10
014.174231
 20
0141.380000
  0
VERTEX
  8
3
 10
014.174231
 20
0141.380000
  0
VERTEX
  8
3
 10
015.385769
 20
0141.380000
  0
VERTEX
  8
3
 10
015.410815
 20
0141.377468
  0
VERTEX
  8
3
 10
015.435099
 20
0141.369949
  0
VERTEX
  8
3
 10
015.457885
 20
0141.357671
  0
VERTEX
  8
3
 10
015.478479
 20
0141.341007
  0
VERTEX
  8
3
 10
015.496256
 20
0141.320465
  0
VERTEX
  8
3
 10
015.510677
 20
0141.296667
  0
VERTEX
  8
3
 10
015.521302
 20
0141.270337
  0
VERTEX
  8
3
 10
015.527809
 20
0141.242275
  0
VERTEX
  8
3
 10
015.530000
 20
0141.213333
  0
VERTEX
  8
3
 10
015.530000
 20
0140.746667
  0
VERTEX
  8
3
 10
015.527809
 20
0140.717725
  0
VERTEX
  8
3
 10
015.521302
 20
0140.689663
  0
VERTEX
  8
3
 10
015.510677
 20
0140.663333
  0
VERTEX
  8
3
 10
015.496256
 20
0140.639535
  0
VERTEX
  8
3
 10
015.478479
 20
0140.618993
  0
VERTEX
  8
3
 10
015.457885
 20
0140.602329
  0
VERTEX
  8
3
 10
015.435099
 20
0140.590051
  0
VERTEX
  8
3
 10
015.410815
 20
0140.582532
  0
VERTEX
  8
3
 10
015.385769
 20
0140.580000
  0
VERTEX
  8
3
 10
014.174231
 20
0140.580000
  0
VERTEX
  8
3
 10
014.149185
 20
0140.582532
  0
VERTEX
  8
3
 10
014.124901
 20
0140.590051
  0
VERTEX
  8
3
 10
014.102115
 20
0140.602329
  0
VERTEX
  8
3
 10
014.081521
 20
0140.618993
  0
VERTEX
  8
3
 10
014.063744
 20
0140.639535
  0
VERTEX
  8
3
 10
014.049323
 20
0140.663333
  0
VERTEX
  8
3
 10
014.038698
 20
0140.689663
  0
VERTEX
  8
3
 10
014.032191
 20
0140.717725
  0
VERTEX
  8
3
 10
014.030000
 20
0140.746667
  0
VERTEX
  8
3
 10
014.030000
 20
0141.213333
  0
SEQEND
  8
3
  0
POLYLINE
  8
3
 66
     1
 70
     1
  0
VERTEX
  8
3
 10
014.030000
 20
0138.033333
  0
VERTEX
  8
3
 10
014.032191
 20
0138.062275
  0
VERTEX
  8
3
 10
014.038698
 20
0138.090337
  0
VERTEX
  8
3
 10
014.049323
 20
0138.116667
  0
VERTEX
  8
3
 10
014.063744
 20
0138.140465
  0
VERTEX
  8
3
 10
014.081521
 20
0138.161007
  0
VERTEX
  8
3
 10
014.102115
 20
0138.177671
  0
VERTEX
  8
3
 10
014.124901
 20
0138.189949
  0
VERTEX
  8
3
 10
014.149185
 20
0138.197468
  0
VERTEX
  8
3
 10
014.174231
 20
0138.200000
  0
VERTEX
  8
3
 10
014.174231
 20
0138.200000
  0
VERTEX
  8
3
 10
015.385769
 20
0138.200000
  0
VERTEX
  8
3
 10
015.410815
 20
0138.197468
  0
VERTEX
  8
3
 10
015.435099
 20
0138.189949
  0
VERTEX
  8
3
 10
015.457885
 20
0138.177671
  0
VERTEX
  8
3
 10
015.478479
 20
0138.161007
  0
VERTEX
  8
3
 10
015.496256
 20
0138.140465
  0
VERTEX
  8
3
 10
015.510677
 20
0138.116667
  0
VERTEX
  8
3
 10
015.521302
 20
0138.090337
  0
VERTEX
  8
3
 10
015.527809
 20
0138.062275
  0
VERTEX
  8
3
 10
015.530000
 20
0138.033333
  0
VERTEX
  8
3
 10
015.530000
 20
0137.566667
  0
VERTEX
  8
3
 10
015.527809
 20
0137.537725
  0
VERTEX
  8
3
 10
015.521302
 20
0137.509663
  0
VERTEX
  8
3
 10
015.510677
 20
0137.483333
  0
VERTEX
  8
3
 10
015.496256
 20
0137.459535
  0
VERTEX
  8
3
 10
015.478479
 20
0137.438993
  0
VERTEX
  8
3
 10
015.457885
 20
0137.422329
  0
VERTEX
  8
3
 10
015.435099
 20
0137.410051
  0
VERTEX
  8
3
 10
015.410815
 20
0137.402532
  0
VERTEX
  8
3
 10
015.385769
 20
0137.400000
  0
VERTEX
  8
3
 10
014.174231
 20
0137.400000
  0
VERTEX
  8
3
 10
014.149185
 20
0137.402532
  0
VERTEX
  8
3
 10
014.124901
 20
0137.410051
  0
VERTEX
  8
3
 10
014.102115
 20
0137.422329
  0
VERTEX
  8
3
 10
014.081521
 20
0137.438993
  0
VERTEX
  8
3
 10
014.063744
 20
0137.459535
  0
VERTEX
  8
3
 10
014.049323
 20
0137.483333
  0
VERTEX
  8
3
 10
014.038698
 20
0137.509663
  0
VERTEX
  8
3
 10
014.032191
 20
0137.537725
  0
VERTEX
  8
3
 10
014.030000
 20
0137.566667
  0
VERTEX
  8
3
 10
014.030000
 20
0138.033333
  0
SEQEND
  8
3
  0
LINE
  8
3
  6
DASHED
 10
014.675000
 20
0139.960000
 11
011.915000
 21
0139.960000
  0
POLYLINE
  8
3
 66
     1
 70
     1
  0
VERTEX
  8
3
 10
012.280000
 20
0141.039615
  0
VERTEX
  8
3
 10
012.281994
 20
0141.059652
  0
VERTEX
  8
3
 10
012.287915
 20
0141.079079
  0
VERTEX
  8
3
 10
012.297584
 20
0141.097308
  0
VERTEX
  8
3
 10
012.310707
 20
0141.113783
  0
VERTEX
  8
3
 10
012.326884
 20
0141.128005
  0
VERTEX
  8
3
 10
012.345625
 20
0141.139541
  0
VERTEX
  8
3
 10
012.366360
 20
0141.148041
  0
VERTEX
  8
3
 10
012.388459
 20
0141.153247
  0
VERTEX
  8
3
 10
012.411250
 20
0141.155000
  0
VERTEX
  8
3
 10
012.411250
 20
0141.155000
  0
VERTEX
  8
3
 10
012.568750
 20
0141.155000
  0
VERTEX
  8
3
 10
012.591541
 20
0141.153247
  0
VERTEX
  8
3
 10
012.613640
 20
0141.148041
  0
VERTEX
  8
3
 10
012.634375
 20
0141.139541
  0
VERTEX
  8
3
 10
012.653116
 20
0141.128005
  0
VERTEX
  8
3
 10
012.669293
 20
0141.113783
  0
VERTEX
  8
3
 10
012.682416
 20
0141.097308
  0
VERTEX
  8
3
 10
012.692085
 20
0141.079079
  0
VERTEX
  8
3
 10
012.698006
 20
0141.059652
  0
VERTEX
  8
3
 10
012.700000
 20
0141.039615
  0
VERTEX
  8
3
 10
012.700000
 20
0138.870385
  0
VERTEX
  8
3
 10
012.698006
 20
0138.850348
  0
VERTEX
  8
3
 10
012.692085
 20
0138.830921
  0
VERTEX
  8
3
 10
012.682416
 20
0138.812692
  0
VERTEX
  8
3
 10
012.669293
 20
0138.796217
  0
VERTEX
  8
3
 10
012.653116
 20
0138.781995
  0
VERTEX
  8
3
 10
012.634375
 20
0138.770459
  0
VERTEX
  8
3
 10
012.613640
 20
0138.761959
  0
VERTEX
  8
3
 10
012.591541
 20
0138.756753
  0
VERTEX
  8
3
 10
012.568750
 20
0138.755000
  0
VERTEX
  8
3
 10
012.411250
 20
0138.755000
  0
VERTEX
  8
3
 10
012.388459
 20
0138.756753
  0
VERTEX
  8
3
 10
012.366360
 20
0138.761959
  0
VERTEX
  8
3
 10
012.345625
 20
0138.770459
  0
VERTEX
  8
3
 10
012.326884
 20
0138.781995
  0
VERTEX
  8
3
 10
012.310707
 20
0138.796217
  0
VERTEX
  8
3
 10
012.297584
 20
0138.812692
  0
VERTEX
  8
3
 10
012.287915
 20
0138.830921
  0
VERTEX
  8
3
 10
012.281994
 20
0138.850348
  0
VERTEX
  8
3
 10
012.280000
 20
0138.870385
  0
VERTEX
  8
3
 10
012.280000
 20
0141.039615
  0
SEQEND
  8
3
  0
LINE
  8
3
 10
015.600000
 20
0140.985000
 11
013.960000
 21
0140.985000
  0
LINE
  8
3
 10
015.280000
 20
0141.030000
 11
015.280000
 21
0140.945000
  0
LINE
  8
3
 10
014.240000
 20
0141.035000
 11
014.240000
 21
0140.945000
  0
LINE
  8
3
 10
015.615000
 20
0137.800000
 11
013.890000
 21
0137.800000
  0
LINE
  8
3
 10
015.290000
 20
0137.900000
 11
015.290000
 21
0137.695000
  0
LINE
  8
3
 10
014.310000
 20
0137.905000
 11
014.310000
 21
0137.685000
  0
ENDBLK
  8
0
  0
BLOCK
  8
0
  2
NO_204612441
 70
     0
 10
06.450000
 20
0156.605000
  0
POLYLINE
  8
3
 66
     1
 70
     1
  0
VERTEX
  8
3
 10
06.650000
 20
0156.505000
  0
VERTEX
  8
3
 10
06.667365
 20
0156.503481
  0
VERTEX
  8
3
 10
06.684202
 20
0156.498969
  0
VERTEX
  8
3
 10
06.700000
 20
0156.491603
  0
VERTEX
  8
3
 10
06.714279
 20
0156.481604
  0
VERTEX
  8
3
 10
06.726604
 20
0156.469279
  0
VERTEX
  8
3
 10
06.736603
 20
0156.455000
  0
VERTEX
  8
3
 10
06.743969
 20
0156.439202
  0
VERTEX
  8
3
 10
06.748481
 20
0156.422365
  0
VERTEX
  8
3
 10
06.750000
 20
0156.405000
  0
VERTEX
  8
3
 10
06.748481
 20
0156.387635
  0
VERTEX
  8
3
 10
06.743969
 20
0156.370798
  0
VERTEX
  8
3
 10
06.736603
 20
0156.355000
  0
VERTEX
  8
3
 10
06.726604
 20
0156.340721
  0
VERTEX
  8
3
 10
06.714279
 20
0156.328396
  0
VERTEX
  8
3
 10
06.700000
 20
0156.318397
  0
VERTEX
  8
3
 10
06.684202
 20
0156.311031
  0
VERTEX
  8
3
 10
06.667365
 20
0156.306519
  0
VERTEX
  8
3
 10
06.650000
 20
0156.305000
  0
VERTEX
  8
3
 10
06.632635
 20
0156.306519
  0
VERTEX
  8
3
 10
06.615798
 20
0156.311031
  0
VERTEX
  8
3
 10
06.600000
 20
0156.318397
  0
VERTEX
  8
3
 10
06.585721
 20
0156.328396
  0
VERTEX
  8
3
 10
06.573396
 20
0156.340721
  0
VERTEX
  8
3
 10
06.563397
 20
0156.355000
  0
VERTEX
  8
3
 10
06.556031
 20
0156.370798
  0
VERTEX
  8
3
 10
06.551519
 20
0156.387635
  0
VERTEX
  8
3
 10
06.550000
 20
0156.405000
  0
VERTEX
  8
3
 10
06.551519
 20
0156.422365
  0
VERTEX
  8
3
 10
06.556031
 20
0156.439202
  0
VERTEX
  8
3
 10
06.563397
 20
0156.455000
  0
VERTEX
  8
3
 10
06.573396
 20
0156.469279
  0
VERTEX
  8
3
 10
06.585721
 20
0156.481604
  0
VERTEX
  8
3
 10
06.600000
 20
0156.491603
  0
VERTEX
  8
3
 10
06.615798
 20
0156.498969
  0
VERTEX
  8
3
 10
06.632635
 20
0156.503481
  0
VERTEX
  8
3
 10
06.650000
 20
0156.505000
  0
SEQEND
  8
3
  0
LINE
  8
3
 10
06.850000
 20
0156.405000
 11
06.450000
 21
0156.405000
  0
LINE
  8
3
 10
06.650000
 20
0156.605000
 11
06.650000
 21
0156.205000
  0
ENDBLK
  8
0
  0
BLOCK
  8
0
  2
NO_204612447
 70
     0
 10
06.450000
 20
0152.205000
  0
POLYLINE
  8
3
 66
     1
 70
     1
  0
VERTEX
  8
3
 10
06.650000
 20
0152.105000
  0
VERTEX
  8
3
 10
06.667365
 20
0152.103481
  0
VERTEX
  8
3
 10
06.684202
 20
0152.098969
  0
VERTEX
  8
3
 10
06.700000
 20
0152.091603
  0
VERTEX
  8
3
 10
06.714279
 20
0152.081604
  0
VERTEX
  8
3
 10
06.726604
 20
0152.069279
  0
VERTEX
  8
3
 10
06.736603
 20
0152.055000
  0
VERTEX
  8
3
 10
06.743969
 20
0152.039202
  0
VERTEX
  8
3
 10
06.748481
 20
0152.022365
  0
VERTEX
  8
3
 10
06.750000
 20
0152.005000
  0
VERTEX
  8
3
 10
06.748481
 20
0151.987635
  0
VERTEX
  8
3
 10
06.743969
 20
0151.970798
  0
VERTEX
  8
3
 10
06.736603
 20
0151.955000
  0
VERTEX
  8
3
 10
06.726604
 20
0151.940721
  0
VERTEX
  8
3
 10
06.714279
 20
0151.928396
  0
VERTEX
  8
3
 10
06.700000
 20
0151.918397
  0
VERTEX
  8
3
 10
06.684202
 20
0151.911031
  0
VERTEX
  8
3
 10
06.667365
 20
0151.906519
  0
VERTEX
  8
3
 10
06.650000
 20
0151.905000
  0
VERTEX
  8
3
 10
06.632635
 20
0151.906519
  0
VERTEX
  8
3
 10
06.615798
 20
0151.911031
  0
VERTEX
  8
3
 10
06.600000
 20
0151.918397
  0
VERTEX
  8
3
 10
06.585721
 20
0151.928396
  0
VERTEX
  8
3
 10
06.573396
 20
0151.940721
  0
VERTEX
  8
3
 10
06.563397
 20
0151.955000
  0
VERTEX
  8
3
 10
06.556031
 20
0151.970798
  0
VERTEX
  8
3
 10
06.551519
 20
0151.987635
  0
VERTEX
  8
3
 10
06.550000
 20
0152.005000
  0
VERTEX
  8
3
 10
06.551519
 20
0152.022365
  0
VERTEX
  8
3
 10
06.556031
 20
0152.039202
  0
VERTEX
  8
3
 10
06.563397
 20
0152.055000
  0
VERTEX
  8
3
 10
06.573396
 20
0152.069279
  0
VERTEX
  8
3
 10
06.585721
 20
0152.081604
  0
VERTEX
  8
3
 10
06.600000
 20
0152.091603
  0
VERTEX
  8
3
 10
06.615798
 20
0152.098969
  0
VERTEX
  8
3
 10
06.632635
 20
0152.103481
  0
VERTEX
  8
3
 10
06.650000
 20
0152.105000
  0
SEQEND
  8
3
  0
LINE
  8
3
 10
06.850000
 20
0152.005000
 11
06.450000
 21
0152.005000
  0
LINE
  8
3
 10
06.650000
 20
0152.205000
 11
06.650000
 21
0151.805000
  0
ENDBLK
  8
0
  0
BLOCK
  8
0
  2
NO_204612608
 70
     0
 10
02.050000
 20
0156.605000
  0
POLYLINE
  8
3
 66
     1
 70
     1
  0
VERTEX
  8
3
 10
02.250000
 20
0156.505000
  0
VERTEX
  8
3
 10
02.267365
 20
0156.503481
  0
VERTEX
  8
3
 10
02.284202
 20
0156.498969
  0
VERTEX
  8
3
 10
02.300000
 20
0156.491603
  0
VERTEX
  8
3
 10
02.314279
 20
0156.481604
  0
VERTEX
  8
3
 10
02.326604
 20
0156.469279
  0
VERTEX
  8
3
 10
02.336603
 20
0156.455000
  0
VERTEX
  8
3
 10
02.343969
 20
0156.439202
  0
VERTEX
  8
3
 10
02.348481
 20
0156.422365
  0
VERTEX
  8
3
 10
02.350000
 20
0156.405000
  0
VERTEX
  8
3
 10
02.348481
 20
0156.387635
  0
VERTEX
  8
3
 10
02.343969
 20
0156.370798
  0
VERTEX
  8
3
 10
02.336603
 20
0156.355000
  0
VERTEX
  8
3
 10
02.326604
 20
0156.340721
  0
VERTEX
  8
3
 10
02.314279
 20
0156.328396
  0
VERTEX
  8
3
 10
02.300000
 20
0156.318397
  0
VERTEX
  8
3
 10
02.284202
 20
0156.311031
  0
VERTEX
  8
3
 10
02.267365
 20
0156.306519
  0
VERTEX
  8
3
 10
02.250000
 20
0156.305000
  0
VERTEX
  8
3
 10
02.232635
 20
0156.306519
  0
VERTEX
  8
3
 10
02.215798
 20
0156.311031
  0
VERTEX
  8
3
 10
02.200000
 20
0156.318397
  0
VERTEX
  8
3
 10
02.185721
 20
0156.328396
  0
VERTEX
  8
3
 10
02.173396
 20
0156.340721
  0
VERTEX
  8
3
 10
02.163397
 20
0156.355000
  0
VERTEX
  8
3
 10
02.156031
 20
0156.370798
  0
VERTEX
  8
3
 10
02.151519
 20
0156.387635
  0
VERTEX
  8
3
 10
02.150000
 20
0156.405000
  0
VERTEX
  8
3
 10
02.151519
 20
0156.422365
  0
VERTEX
  8
3
 10
02.156031
 20
0156.439202
  0
VERTEX
  8
3
 10
02.163397
 20
0156.455000
  0
VERTEX
  8
3
 10
02.173396
 20
0156.469279
  0
VERTEX
  8
3
 10
02.185721
 20
0156.481604
  0
VERTEX
  8
3
 10
02.200000
 20
0156.491603
  0
VERTEX
  8
3
 10
02.215798
 20
0156.498969
  0
VERTEX
  8
3
 10
02.232635
 20
0156.503481
  0
VERTEX
  8
3
 10
02.250000
 20
0156.505000
  0
SEQEND
  8
3
  0
LINE
  8
3
 10
02.450000
 20
0156.405000
 11
02.050000
 21
0156.405000
  0
LINE
  8
3
 10
02.250000
 20
0156.605000
 11
02.250000
 21
0156.205000
  0
ENDBLK
  8
0
  0
BLOCK
  8
0
  2
NO_204612614
 70
     0
 10
02.050000
 20
0152.205000
  0
POLYLINE
  8
3
 66
     1
 70
     1
  0
VERTEX
  8
3
 10
02.250000
 20
0152.105000
  0
VERTEX
  8
3
 10
02.267365
 20
0152.103481
  0
VERTEX
  8
3
 10
02.284202
 20
0152.098969
  0
VERTEX
  8
3
 10
02.300000
 20
0152.091603
  0
VERTEX
  8
3
 10
02.314279
 20
0152.081604
  0
VERTEX
  8
3
 10
02.326604
 20
0152.069279
  0
VERTEX
  8
3
 10
02.336603
 20
0152.055000
  0
VERTEX
  8
3
 10
02.343969
 20
0152.039202
  0
VERTEX
  8
3
 10
02.348481
 20
0152.022365
  0
VERTEX
  8
3
 10
02.350000
 20
0152.005000
  0
VERTEX
  8
3
 10
02.348481
 20
0151.987635
  0
VERTEX
  8
3
 10
02.343969
 20
0151.970798
  0
VERTEX
  8
3
 10
02.336603
 20
0151.955000
  0
VERTEX
  8
3
 10
02.326604
 20
0151.940721
  0
VERTEX
  8
3
 10
02.314279
 20
0151.928396
  0
VERTEX
  8
3
 10
02.300000
 20
0151.918397
  0
VERTEX
  8
3
 10
02.284202
 20
0151.911031
  0
VERTEX
  8
3
 10
02.267365
 20
0151.906519
  0
VERTEX
  8
3
 10
02.250000
 20
0151.905000
  0
VERTEX
  8
3
 10
02.232635
 20
0151.906519
  0
VERTEX
  8
3
 10
02.215798
 20
0151.911031
  0
VERTEX
  8
3
 10
02.200000
 20
0151.918397
  0
VERTEX
  8
3
 10
02.185721
 20
0151.928396
  0
VERTEX
  8
3
 10
02.173396
 20
0151.940721
  0
VERTEX
  8
3
 10
02.163397
 20
0151.955000
  0
VERTEX
  8
3
 10
02.156031
 20
0151.970798
  0
VERTEX
  8
3
 10
02.151519
 20
0151.987635
  0
VERTEX
  8
3
 10
02.150000
 20
0152.005000
  0
VERTEX
  8
3
 10
02.151519
 20
0152.022365
  0
VERTEX
  8
3
 10
02.156031
 20
0152.039202
  0
VERTEX
  8
3
 10
02.163397
 20
0152.055000
  0
VERTEX
  8
3
 10
02.173396
 20
0152.069279
  0
VERTEX
  8
3
 10
02.185721
 20
0152.081604
  0
VERTEX
  8
3
 10
02.200000
 20
0152.091603
  0
VERTEX
  8
3
 10
02.215798
 20
0152.098969
  0
VERTEX
  8
3
 10
02.232635
 20
0152.103481
  0
VERTEX
  8
3
 10
02.250000
 20
0152.105000
  0
SEQEND
  8
3
  0
LINE
  8
3
 10
02.450000
 20
0152.005000
 11
02.050000
 21
0152.005000
  0
LINE
  8
3
 10
02.250000
 20
0152.205000
 11
02.250000
 21
0151.805000
  0
ENDBLK
  8
0
  0
BLOCK
  8
0
  2
NO_204612619
 70
     0
 10
05.735000
 20
0156.300000
  0
LINE
  8
3
 10
05.851429
 20
0155.700000
 11
05.851429
 21
0155.460000
  0
LINE
  8
3
 10
05.967857
 20
0155.580000
 11
05.735000
 21
0155.580000
  0
ARC
  8
3
 10
05.845607
 20
0155.574000
 40
0.698571
 50
0.000000
 51
090.000000
  0
ENDBLK
  8
0
  0
BLOCK
  8
0
  2
NO_204612625
 70
     0
 10
05.735000
 20
0152.940000
  0
LINE
  8
3
 10
05.851429
 20
0152.700000
 11
05.851429
 21
0152.940000
  0
LINE
  8
3
 10
05.967857
 20
0152.820000
 11
05.735000
 21
0152.820000
  0
ARC
  8
3
 10
05.845607
 20
0152.826000
 40
0.698571
 50
0270.000000
 51
0.000000
  0
ENDBLK
  8
0
  0
BLOCK
  8
0
  2
NO_204612630
 70
     0
 10
02.350000
 20
0156.300000
  0
LINE
  8
3
 10
03.048571
 20
0155.700000
 11
03.048571
 21
0155.460000
  0
LINE
  8
3
 10
02.932143
 20
0155.580000
 11
03.165000
 21
0155.580000
  0
ARC
  8
3
 10
03.054393
 20
0155.574000
 40
0.698571
 50
090.000000
 51
0180.000000
  0
ENDBLK
  8
0
  0
BLOCK
  8
0
  2
NO_204612636
 70
     0
 10
02.350000
 20
0152.940000
  0
LINE
  8
3
 10
03.048571
 20
0152.700000
 11
03.048571
 21
0152.940000
  0
LINE
  8
3
 10
02.932143
 20
0152.820000
 11
03.165000
 21
0152.820000
  0
ARC
  8
3
 10
03.054393
 20
0152.826000
 40
0.698571
 50
0180.000000
 51
0270.000000
  0
ENDBLK
  8
0
  0
BLOCK
  8
0
  2
NO_204612436
 70
     0
 10
02.050000
 20
0156.605000
  0
INSERT
  8
3
  2
NO_204612441
 10
06.450000
 20
0156.605000
  0
INSERT
  8
3
  2
NO_204612447
 10
06.450000
 20
0152.205000
  0
INSERT
  8
3
  2
NO_204612608
 10
02.050000
 20
0156.605000
  0
INSERT
  8
3
  2
NO_204612614
 10
02.050000
 20
0152.205000
  0
INSERT
  8
3
  2
NO_204612619
 10
05.735000
 20
0156.300000
  0
INSERT
  8
3
  2
NO_204612625
 10
05.735000
 20
0152.940000
  0
INSERT
  8
3
  2
NO_204612630
 10
02.350000
 20
0156.300000
  0
INSERT
  8
3
  2
NO_204612636
 10
02.350000
 20
0152.940000
  0
LINE
  8
3
 10
05.850000
 20
0156.300000
 11
03.050000
 21
0156.300000
  0
LINE
  8
3
 10
05.850000
 20
0152.100000
 11
03.050000
 21
0152.100000
  0
LINE
  8
3
 10
06.550000
 20
0155.580000
 11
06.550000
 21
0152.820000
  0
LINE
  8
3
 10
02.350000
 20
0155.580000
 11
02.350000
 21
0152.820000
  0
ENDBLK
  8
0
  0
BLOCK
  8
0
  2
NO_204612641
 70
     0
 10
06.500000
 20
0141.880000
  0
POLYLINE
  8
3
 66
     1
 70
     1
  0
VERTEX
  8
3
 10
06.700000
 20
0141.780000
  0
VERTEX
  8
3
 10
06.717365
 20
0141.778481
  0
VERTEX
  8
3
 10
06.734202
 20
0141.773969
  0
VERTEX
  8
3
 10
06.750000
 20
0141.766603
  0
VERTEX
  8
3
 10
06.764279
 20
0141.756604
  0
VERTEX
  8
3
 10
06.776604
 20
0141.744279
  0
VERTEX
  8
3
 10
06.786603
 20
0141.730000
  0
VERTEX
  8
3
 10
06.793969
 20
0141.714202
  0
VERTEX
  8
3
 10
06.798481
 20
0141.697365
  0
VERTEX
  8
3
 10
06.800000
 20
0141.680000
  0
VERTEX
  8
3
 10
06.798481
 20
0141.662635
  0
VERTEX
  8
3
 10
06.793969
 20
0141.645798
  0
VERTEX
  8
3
 10
06.786603
 20
0141.630000
  0
VERTEX
  8
3
 10
06.776604
 20
0141.615721
  0
VERTEX
  8
3
 10
06.764279
 20
0141.603396
  0
VERTEX
  8
3
 10
06.750000
 20
0141.593397
  0
VERTEX
  8
3
 10
06.734202
 20
0141.586031
  0
VERTEX
  8
3
 10
06.717365
 20
0141.581519
  0
VERTEX
  8
3
 10
06.700000
 20
0141.580000
  0
VERTEX
  8
3
 10
06.682635
 20
0141.581519
  0
VERTEX
  8
3
 10
06.665798
 20
0141.586031
  0
VERTEX
  8
3
 10
06.650000
 20
0141.593397
  0
VERTEX
  8
3
 10
06.635721
 20
0141.603396
  0
VERTEX
  8
3
 10
06.623396
 20
0141.615721
  0
VERTEX
  8
3
 10
06.613397
 20
0141.630000
  0
VERTEX
  8
3
 10
06.606031
 20
0141.645798
  0
VERTEX
  8
3
 10
06.601519
 20
0141.662635
  0
VERTEX
  8
3
 10
06.600000
 20
0141.680000
  0
VERTEX
  8
3
 10
06.601519
 20
0141.697365
  0
VERTEX
  8
3
 10
06.606031
 20
0141.714202
  0
VERTEX
  8
3
 10
06.613397
 20
0141.730000
  0
VERTEX
  8
3
 10
06.623396
 20
0141.744279
  0
VERTEX
  8
3
 10
06.635721
 20
0141.756604
  0
VERTEX
  8
3
 10
06.650000
 20
0141.766603
  0
VERTEX
  8
3
 10
06.665798
 20
0141.773969
  0
VERTEX
  8
3
 10
06.682635
 20
0141.778481
  0
VERTEX
  8
3
 10
06.700000
 20
0141.780000
  0
SEQEND
  8
3
  0
LINE
  8
3
 10
06.900000
 20
0141.680000
 11
06.500000
 21
0141.680000
  0
LINE
  8
3
 10
06.700000
 20
0141.880000
 11
06.700000
 21
0141.480000
  0
ENDBLK
  8
0
  0
BLOCK
  8
0
  2
NO_204612647
 70
     0
 10
06.500000
 20
0137.480000
  0
POLYLINE
  8
3
 66
     1
 70
     1
  0
VERTEX
  8
3
 10
06.700000
 20
0137.380000
  0
VERTEX
  8
3
 10
06.717365
 20
0137.378481
  0
VERTEX
  8
3
 10
06.734202
 20
0137.373969
  0
VERTEX
  8
3
 10
06.750000
 20
0137.366603
  0
VERTEX
  8
3
 10
06.764279
 20
0137.356604
  0
VERTEX
  8
3
 10
06.776604
 20
0137.344279
  0
VERTEX
  8
3
 10
06.786603
 20
0137.330000
  0
VERTEX
  8
3
 10
06.793969
 20
0137.314202
  0
VERTEX
  8
3
 10
06.798481
 20
0137.297365
  0
VERTEX
  8
3
 10
06.800000
 20
0137.280000
  0
VERTEX
  8
3
 10
06.798481
 20
0137.262635
  0
VERTEX
  8
3
 10
06.793969
 20
0137.245798
  0
VERTEX
  8
3
 10
06.786603
 20
0137.230000
  0
VERTEX
  8
3
 10
06.776604
 20
0137.215721
  0
VERTEX
  8
3
 10
06.764279
 20
0137.203396
  0
VERTEX
  8
3
 10
06.750000
 20
0137.193397
  0
VERTEX
  8
3
 10
06.734202
 20
0137.186031
  0
VERTEX
  8
3
 10
06.717365
 20
0137.181519
  0
VERTEX
  8
3
 10
06.700000
 20
0137.180000
  0
VERTEX
  8
3
 10
06.682635
 20
0137.181519
  0
VERTEX
  8
3
 10
06.665798
 20
0137.186031
  0
VERTEX
  8
3
 10
06.650000
 20
0137.193397
  0
VERTEX
  8
3
 10
06.635721
 20
0137.203396
  0
VERTEX
  8
3
 10
06.623396
 20
0137.215721
  0
VERTEX
  8
3
 10
06.613397
 20
0137.230000
  0
VERTEX
  8
3
 10
06.606031
 20
0137.245798
  0
VERTEX
  8
3
 10
06.601519
 20
0137.262635
  0
VERTEX
  8
3
 10
06.600000
 20
0137.280000
  0
VERTEX
  8
3
 10
06.601519
 20
0137.297365
  0
VERTEX
  8
3
 10
06.606031
 20
0137.314202
  0
VERTEX
  8
3
 10
06.613397
 20
0137.330000
  0
VERTEX
  8
3
 10
06.623396
 20
0137.344279
  0
VERTEX
  8
3
 10
06.635721
 20
0137.356604
  0
VERTEX
  8
3
 10
06.650000
 20
0137.366603
  0
VERTEX
  8
3
 10
06.665798
 20
0137.373969
  0
VERTEX
  8
3
 10
06.682635
 20
0137.378481
  0
VERTEX
  8
3
 10
06.700000
 20
0137.380000
  0
SEQEND
  8
3
  0
LINE
  8
3
 10
06.900000
 20
0137.280000
 11
06.500000
 21
0137.280000
  0
LINE
  8
3
 10
06.700000
 20
0137.480000
 11
06.700000
 21
0137.080000
  0
ENDBLK
  8
0
  0
BLOCK
  8
0
  2
NO_204612652
 70
     0
 10
02.100000
 20
0141.880000
  0
POLYLINE
  8
3
 66
     1
 70
     1
  0
VERTEX
  8
3
 10
02.300000
 20
0141.780000
  0
VERTEX
  8
3
 10
02.317365
 20
0141.778481
  0
VERTEX
  8
3
 10
02.334202
 20
0141.773969
  0
VERTEX
  8
3
 10
02.350000
 20
0141.766603
  0
VERTEX
  8
3
 10
02.364279
 20
0141.756604
  0
VERTEX
  8
3
 10
02.376604
 20
0141.744279
  0
VERTEX
  8
3
 10
02.386603
 20
0141.730000
  0
VERTEX
  8
3
 10
02.393969
 20
0141.714202
  0
VERTEX
  8
3
 10
02.398481
 20
0141.697365
  0
VERTEX
  8
3
 10
02.400000
 20
0141.680000
  0
VERTEX
  8
3
 10
02.398481
 20
0141.662635
  0
VERTEX
  8
3
 10
02.393969
 20
0141.645798
  0
VERTEX
  8
3
 10
02.386603
 20
0141.630000
  0
VERTEX
  8
3
 10
02.376604
 20
0141.615721
  0
VERTEX
  8
3
 10
02.364279
 20
0141.603396
  0
VERTEX
  8
3
 10
02.350000
 20
0141.593397
  0
VERTEX
  8
3
 10
02.334202
 20
0141.586031
  0
VERTEX
  8
3
 10
02.317365
 20
0141.581519
  0
VERTEX
  8
3
 10
02.300000
 20
0141.580000
  0
VERTEX
  8
3
 10
02.282635
 20
0141.581519
  0
VERTEX
  8
3
 10
02.265798
 20
0141.586031
  0
VERTEX
  8
3
 10
02.250000
 20
0141.593397
  0
VERTEX
  8
3
 10
02.235721
 20
0141.603396
  0
VERTEX
  8
3
 10
02.223396
 20
0141.615721
  0
VERTEX
  8
3
 10
02.213397
 20
0141.630000
  0
VERTEX
  8
3
 10
02.206031
 20
0141.645798
  0
VERTEX
  8
3
 10
02.201519
 20
0141.662635
  0
VERTEX
  8
3
 10
02.200000
 20
0141.680000
  0
VERTEX
  8
3
 10
02.201519
 20
0141.697365
  0
VERTEX
  8
3
 10
02.206031
 20
0141.714202
  0
VERTEX
  8
3
 10
02.213397
 20
0141.730000
  0
VERTEX
  8
3
 10
02.223396
 20
0141.744279
  0
VERTEX
  8
3
 10
02.235721
 20
0141.756604
  0
VERTEX
  8
3
 10
02.250000
 20
0141.766603
  0
VERTEX
  8
3
 10
02.265798
 20
0141.773969
  0
VERTEX
  8
3
 10
02.282635
 20
0141.778481
  0
VERTEX
  8
3
 10
02.300000
 20
0141.780000
  0
SEQEND
  8
3
  0
LINE
  8
3
 10
02.500000
 20
0141.680000
 11
02.100000
 21
0141.680000
  0
LINE
  8
3
 10
02.300000
 20
0141.880000
 11
02.300000
 21
0141.480000
  0
ENDBLK
  8
0
  0
BLOCK
  8
0
  2
NO_204612657
 70
     0
 10
02.100000
 20
0137.480000
  0
POLYLINE
  8
3
 66
     1
 70
     1
  0
VERTEX
  8
3
 10
02.300000
 20
0137.380000
  0
VERTEX
  8
3
 10
02.317365
 20
0137.378481
  0
VERTEX
  8
3
 10
02.334202
 20
0137.373969
  0
VERTEX
  8
3
 10
02.350000
 20
0137.366603
  0
VERTEX
  8
3
 10
02.364279
 20
0137.356604
  0
VERTEX
  8
3
 10
02.376604
 20
0137.344279
  0
VERTEX
  8
3
 10
02.386603
 20
0137.330000
  0
VERTEX
  8
3
 10
02.393969
 20
0137.314202
  0
VERTEX
  8
3
 10
02.398481
 20
0137.297365
  0
VERTEX
  8
3
 10
02.400000
 20
0137.280000
  0
VERTEX
  8
3
 10
02.398481
 20
0137.262635
  0
VERTEX
  8
3
 10
02.393969
 20
0137.245798
  0
VERTEX
  8
3
 10
02.386603
 20
0137.230000
  0
VERTEX
  8
3
 10
02.376604
 20
0137.215721
  0
VERTEX
  8
3
 10
02.364279
 20
0137.203396
  0
VERTEX
  8
3
 10
02.350000
 20
0137.193397
  0
VERTEX
  8
3
 10
02.334202
 20
0137.186031
  0
VERTEX
  8
3
 10
02.317365
 20
0137.181519
  0
VERTEX
  8
3
 10
02.300000
 20
0137.180000
  0
VERTEX
  8
3
 10
02.282635
 20
0137.181519
  0
VERTEX
  8
3
 10
02.265798
 20
0137.186031
  0
VERTEX
  8
3
 10
02.250000
 20
0137.193397
  0
VERTEX
  8
3
 10
02.235721
 20
0137.203396
  0
VERTEX
  8
3
 10
02.223396
 20
0137.215721
  0
VERTEX
  8
3
 10
02.213397
 20
0137.230000
  0
VERTEX
  8
3
 10
02.206031
 20
0137.245798
  0
VERTEX
  8
3
 10
02.201519
 20
0137.262635
  0
VERTEX
  8
3
 10
02.200000
 20
0137.280000
  0
VERTEX
  8
3
 10
02.201519
 20
0137.297365
  0
VERTEX
  8
3
 10
02.206031
 20
0137.314202
  0
VERTEX
  8
3
 10
02.213397
 20
0137.330000
  0
VERTEX
  8
3
 10
02.223396
 20
0137.344279
  0
VERTEX
  8
3
 10
02.235721
 20
0137.356604
  0
VERTEX
  8
3
 10
02.250000
 20
0137.366603
  0
VERTEX
  8
3
 10
02.265798
 20
0137.373969
  0
VERTEX
  8
3
 10
02.282635
 20
0137.378481
  0
VERTEX
  8
3
 10
02.300000
 20
0137.380000
  0
SEQEND
  8
3
  0
LINE
  8
3
 10
02.500000
 20
0137.280000
 11
02.100000
 21
0137.280000
  0
LINE
  8
3
 10
02.300000
 20
0137.480000
 11
02.300000
 21
0137.080000
  0
ENDBLK
  8
0
  0
ENDSEC
  0
SECTION
  2
ENTITIES
  0
INSERT
  8
3
  2
NO_204611931
 10
01.055000
 20
0149.855000
  0
INSERT
  8
3
  2
NO_204612142
 10
010.915000
 20
0151.835000
  0
INSERT
  8
3
  2
NO_204612353
 10
010.895000
 20
0159.340000
  0
INSERT
  8
3
  2
NO_204612408
 10
011.600000
 20
0142.030000
  0
POLYLINE
  8
3
 66
     1
 70
     1
  0
VERTEX
  8
3
 10
07.830000
 20
0159.405000
  0
VERTEX
  8
3
 10
07.830000
 20
0150.205000
  0
VERTEX
  8
3
 10
01.030000
 20
0150.205000
  0
VERTEX
  8
3
 10
01.030000
 20
0159.037000
  0
VERTEX
  8
3
 10
07.830000
 20
0159.405000
  0
VERTEX
  8
3
 10
07.830000
 20
0159.405000
  0
SEQEND
  8
3
  0
INSERT
  8
3
  2
NO_204612436
 10
02.050000
 20
0156.605000
  0
POLYLINE
  8
3
 66
     1
 70
     1
  0
VERTEX
  8
3
 10
01.845000
 20
0141.938333
  0
VERTEX
  8
3
 10
01.847469
 20
0141.967275
  0
VERTEX
  8
3
 10
01.854800
 20
0141.995337
  0
VERTEX
  8
3
 10
01.866771
 20
0142.021667
  0
VERTEX
  8
3
 10
01.883018
 20
0142.045465
  0
VERTEX
  8
3
 10
01.903047
 20
0142.066007
  0
VERTEX
  8
3
 10
01.926250
 20
0142.082671
  0
VERTEX
  8
3
 10
01.951922
 20
0142.094949
  0
VERTEX
  8
3
 10
01.979282
 20
0142.102468
  0
VERTEX
  8
3
 10
02.007500
 20
0142.105000
  0
VERTEX
  8
3
 10
02.007500
 20
0142.105000
  0
VERTEX
  8
3
 10
06.882500
 20
0142.105000
  0
VERTEX
  8
3
 10
06.910718
 20
0142.102468
  0
VERTEX
  8
3
 10
06.938078
 20
0142.094949
  0
VERTEX
  8
3
 10
06.963750
 20
0142.082671
  0
VERTEX
  8
3
 10
06.986953
 20
0142.066007
  0
VERTEX
  8
3
 10
07.006982
 20
0142.045465
  0
VERTEX
  8
3
 10
07.023229
 20
0142.021667
  0
VERTEX
  8
3
 10
07.035200
 20
0141.995337
  0
VERTEX
  8
3
 10
07.042531
 20
0141.967275
  0
VERTEX
  8
3
 10
07.045000
 20
0141.938333
  0
VERTEX
  8
3
 10
07.045000
 20
0137.071667
  0
VERTEX
  8
3
 10
07.042531
 20
0137.042725
  0
VERTEX
  8
3
 10
07.035200
 20
0137.014663
  0
VERTEX
  8
3
 10
07.023229
 20
0136.988333
  0
VERTEX
  8
3
 10
07.006982
 20
0136.964535
  0
VERTEX
  8
3
 10
06.986953
 20
0136.943992
  0
VERTEX
  8
3
 10
06.963750
 20
0136.927329
  0
VERTEX
  8
3
 10
06.938078
 20
0136.915051
  0
VERTEX
  8
3
 10
06.910718
 20
0136.907532
  0
VERTEX
  8
3
 10
06.882500
 20
0136.905000
  0
VERTEX
  8
3
 10
02.007500
 20
0136.905000
  0
VERTEX
  8
3
 10
01.979282
 20
0136.907532
  0
VERTEX
  8
3
 10
01.951922
 20
0136.915051
  0
VERTEX
  8
3
 10
01.926250
 20
0136.927329
  0
VERTEX
  8
3
 10
01.903047
 20
0136.943992
  0
VERTEX
  8
3
 10
01.883018
 20
0136.964535
  0
VERTEX
  8
3
 10
01.866771
 20
0136.988333
  0
VERTEX
  8
3
 10
01.854800
 20
0137.014663
  0
VERTEX
  8
3
 10
01.847469
 20
0137.042725
  0
VERTEX
  8
3
 10
01.845000
 20
0137.071667
  0
VERTEX
  8
3
 10
01.845000
 20
0141.938333
  0
SEQEND
  8
3
  0
INSERT
  8
3
  2
NO_204612641
 10
06.500000
 20
0141.880000
  0
INSERT
  8
3
  2
NO_204612647
 10
06.500000
 20
0137.480000
  0
INSERT
  8
3
  2
NO_204612652
 10
02.100000
 20
0141.880000
  0
INSERT
  8
3
  2
NO_204612657
 10
02.100000
 20
0137.480000
  0
POLYLINE
  8
3
 66
     1
 70
     1
  0
VERTEX
  8
3
 10
04.275000
 20
0141.288333
  0
VERTEX
  8
3
 10
04.277191
 20
0141.317275
  0
VERTEX
  8
3
 10
04.283698
 20
0141.345337
  0
VERTEX
  8
3
 10
04.294323
 20
0141.371667
  0
VERTEX
  8
3
 10
04.308744
 20
0141.395465
  0
VERTEX
  8
3
 10
04.326521
 20
0141.416007
  0
VERTEX
  8
3
 10
04.347115
 20
0141.432671
  0
VERTEX
  8
3
 10
04.369901
 20
0141.444949
  0
VERTEX
  8
3
 10
04.394185
 20
0141.452468
  0
VERTEX
  8
3
 10
04.419231
 20
0141.455000
  0
VERTEX
  8
3
 10
04.419231
 20
0141.455000
  0
VERTEX
  8
3
 10
05.630769
 20
0141.455000
  0
VERTEX
  8
3
 10
05.655815
 20
0141.452468
  0
VERTEX
  8
3
 10
05.680099
 20
0141.444949
  0
VERTEX
  8
3
 10
05.702885
 20
0141.432671
  0
VERTEX
  8
3
 10
05.723479
 20
0141.416007
  0
VERTEX
  8
3
 10
05.741256
 20
0141.395465
  0
VERTEX
  8
3
 10
05.755677
 20
0141.371667
  0
VERTEX
  8
3
 10
05.766302
 20
0141.345337
  0
VERTEX
  8
3
 10
05.772809
 20
0141.317275
  0
VERTEX
  8
3
 10
05.775000
 20
0141.288333
  0
VERTEX
  8
3
 10
05.775000
 20
0140.821667
  0
VERTEX
  8
3
 10
05.772809
 20
0140.792725
  0
VERTEX
  8
3
 10
05.766302
 20
0140.764663
  0
VERTEX
  8
3
 10
05.755677
 20
0140.738333
  0
VERTEX
  8
3
 10
05.741256
 20
0140.714535
  0
VERTEX
  8
3
 10
05.723479
 20
0140.693993
  0
VERTEX
  8
3
 10
05.702885
 20
0140.677329
  0
VERTEX
  8
3
 10
05.680099
 20
0140.665051
  0
VERTEX
  8
3
 10
05.655815
 20
0140.657532
  0
VERTEX
  8
3
 10
05.630769
 20
0140.655000
  0
VERTEX
  8
3
 10
04.419231
 20
0140.655000
  0
VERTEX
  8
3
 10
04.394185
 20
0140.657532
  0
VERTEX
  8
3
 10
04.369901
 20
0140.665051
  0
VERTEX
  8
3
 10
04.347115
 20
0140.677329
  0
VERTEX
  8
3
 10
04.326521
 20
0140.693993
  0
VERTEX
  8
3
 10
04.308744
 20
0140.714535
  0
VERTEX
  8
3
 10
04.294323
 20
0140.738333
  0
VERTEX
  8
3
 10
04.283698
 20
0140.764663
  0
VERTEX
  8
3
 10
04.277191
 20
0140.792725
  0
VERTEX
  8
3
 10
04.275000
 20
0140.821667
  0
VERTEX
  8
3
 10
04.275000
 20
0141.288333
  0
SEQEND
  8
3
  0
POLYLINE
  8
3
 66
     1
 70
     1
  0
VERTEX
  8
3
 10
04.275000
 20
0138.108333
  0
VERTEX
  8
3
 10
04.277191
 20
0138.137275
  0
VERTEX
  8
3
 10
04.283698
 20
0138.165337
  0
VERTEX
  8
3
 10
04.294323
 20
0138.191667
  0
VERTEX
  8
3
 10
04.308744
 20
0138.215465
  0
VERTEX
  8
3
 10
04.326521
 20
0138.236007
  0
VERTEX
  8
3
 10
04.347115
 20
0138.252671
  0
VERTEX
  8
3
 10
04.369901
 20
0138.264949
  0
VERTEX
  8
3
 10
04.394185
 20
0138.272468
  0
VERTEX
  8
3
 10
04.419231
 20
0138.275000
  0
VERTEX
  8
3
 10
04.419231
 20
0138.275000
  0
VERTEX
  8
3
 10
05.630769
 20
0138.275000
  0
VERTEX
  8
3
 10
05.655815
 20
0138.272468
  0
VERTEX
  8
3
 10
05.680099
 20
0138.264949
  0
VERTEX
  8
3
 10
05.702885
 20
0138.252671
  0
VERTEX
  8
3
 10
05.723479
 20
0138.236007
  0
VERTEX
  8
3
 10
05.741256
 20
0138.215465
  0
VERTEX
  8
3
 10
05.755677
 20
0138.191667
  0
VERTEX
  8
3
 10
05.766302
 20
0138.165337
  0
VERTEX
  8
3
 10
05.772809
 20
0138.137275
  0
VERTEX
  8
3
 10
05.775000
 20
0138.108333
  0
VERTEX
  8
3
 10
05.775000
 20
0137.641667
  0
VERTEX
  8
3
 10
05.772809
 20
0137.612725
  0
VERTEX
  8
3
 10
05.766302
 20
0137.584663
  0
VERTEX
  8
3
 10
05.755677
 20
0137.558333
  0
VERTEX
  8
3
 10
05.741256
 20
0137.534535
  0
VERTEX
  8
3
 10
05.723479
 20
0137.513993
  0
VERTEX
  8
3
 10
05.702885
 20
0137.497329
  0
VERTEX
  8
3
 10
05.680099
 20
0137.485051
  0
VERTEX
  8
3
 10
05.655815
 20
0137.477532
  0
VERTEX
  8
3
 10
05.630769
 20
0137.475000
  0
VERTEX
  8
3
 10
04.419231
 20
0137.475000
  0
VERTEX
  8
3
 10
04.394185
 20
0137.477532
  0
VERTEX
  8
3
 10
04.369901
 20
0137.485051
  0
VERTEX
  8
3
 10
04.347115
 20
0137.497329
  0
VERTEX
  8
3
 10
04.326521
 20
0137.513993
  0
VERTEX
  8
3
 10
04.308744
 20
0137.534535
  0
VERTEX
  8
3
 10
04.294323
 20
0137.558333
  0
VERTEX
  8
3
 10
04.283698
 20
0137.584663
  0
VERTEX
  8
3
 10
04.277191
 20
0137.612725
  0
VERTEX
  8
3
 10
04.275000
 20
0137.641667
  0
VERTEX
  8
3
 10
04.275000
 20
0138.108333
  0
SEQEND
  8
3
  0
LINE
  8
3
  6
DASHED
 10
04.920000
 20
0140.035000
 11
02.160000
 21
0140.035000
  0
POLYLINE
  8
3
 66
     1
 70
     1
  0
VERTEX
  8
3
 10
02.525000
 20
0141.114615
  0
VERTEX
  8
3
 10
02.526994
 20
0141.134652
  0
VERTEX
  8
3
 10
02.532915
 20
0141.154079
  0
VERTEX
  8
3
 10
02.542584
 20
0141.172308
  0
VERTEX
  8
3
 10
02.555707
 20
0141.188783
  0
VERTEX
  8
3
 10
02.571884
 20
0141.203005
  0
VERTEX
  8
3
 10
02.590625
 20
0141.214541
  0
VERTEX
  8
3
 10
02.611360
 20
0141.223041
  0
VERTEX
  8
3
 10
02.633459
 20
0141.228247
  0
VERTEX
  8
3
 10
02.656250
 20
0141.230000
  0
VERTEX
  8
3
 10
02.656250
 20
0141.230000
  0
VERTEX
  8
3
 10
02.813750
 20
0141.230000
  0
VERTEX
  8
3
 10
02.836541
 20
0141.228247
  0
VERTEX
  8
3
 10
02.858640
 20
0141.223041
  0
VERTEX
  8
3
 10
02.879375
 20
0141.214541
  0
VERTEX
  8
3
 10
02.898116
 20
0141.203005
  0
VERTEX
  8
3
 10
02.914293
 20
0141.188783
  0
VERTEX
  8
3
 10
02.927416
 20
0141.172308
  0
VERTEX
  8
3
 10
02.937085
 20
0141.154079
  0
VERTEX
  8
3
 10
02.943006
 20
0141.134652
  0
VERTEX
  8
3
 10
02.945000
 20
0141.114615
  0
VERTEX
  8
3
 10
02.945000
 20
0138.945385
  0
VERTEX
  8
3
 10
02.943006
 20
0138.925348
  0
VERTEX
  8
3
 10
02.937085
 20
0138.905921
  0
VERTEX
  8
3
 10
02.927416
 20
0138.887692
  0
VERTEX
  8
3
 10
02.914293
 20
0138.871217
  0
VERTEX
  8
3
 10
02.898116
 20
0138.856995
  0
VERTEX
  8
3
 10
02.879375
 20
0138.845459
  0
VERTEX
  8
3
 10
02.858640
 20
0138.836959
  0
VERTEX
  8
3
 10
02.836541
 20
0138.831753
  0
VERTEX
  8
3
 10
02.813750
 20
0138.830000
  0
VERTEX
  8
3
 10
02.656250
 20
0138.830000
  0
VERTEX
  8
3
 10
02.633459
 20
0138.831753
  0
VERTEX
  8
3
 10
02.611360
 20
0138.836959
  0
VERTEX
  8
3
 10
02.590625
 20
0138.845459
  0
VERTEX
  8
3
 10
02.571884
 20
0138.856995
  0
VERTEX
  8
3
 10
02.555707
 20
0138.871217
  0
VERTEX
  8
3
 10
02.542584
 20
0138.887692
  0
VERTEX
  8
3
 10
02.532915
 20
0138.905921
  0
VERTEX
  8
3
 10
02.526994
 20
0138.925348
  0
VERTEX
  8
3
 10
02.525000
 20
0138.945385
  0
VERTEX
  8
3
 10
02.525000
 20
0141.114615
  0
SEQEND
  8
3
  0
LINE
  8
3
 10
05.845000
 20
0141.060000
 11
04.205000
 21
0141.060000
  0
LINE
  8
3
 10
05.525000
 20
0141.105000
 11
05.525000
 21
0141.020000
  0
LINE
  8
3
 10
04.485000
 20
0141.110000
 11
04.485000
 21
0141.020000
  0
LINE
  8
3
 10
05.860000
 20
0137.875000
 11
04.135000
 21
0137.875000
  0
LINE
  8
3
 10
05.535000
 20
0137.975000
 11
05.535000
 21
0137.770000
  0
LINE
  8
3
 10
04.555000
 20
0137.980000
 11
04.555000
 21
0137.760000
  0
ENDSEC
  0
EOF
